  0
SECTION
  2
HEADER
  9
$ACADVER
  1
AC1015
  9
$ACADMAINTVER
 70
    13
  9
$DWGCODEPAGE
  3
ANSI_932
  9
$INSBASE
 10
0.0
 20
0.0
 30
0.0
  9
$EXTMIN
 10
-0.0022869559834362
 20
-0.000645357989697
 30
-0.0000000000112498
  9
$EXTMAX
 10
210.0038750832438
 20
297.0052845500211
 30
0.0000000000002956
  9
$LIMMIN
 10
-191.2888458252
 20
-3.174999999999998
  9
$LIMMAX
 10
3.174999999999998
 20
291.2585876465
  9
$ORTHOMODE
 70
     0
  9
$REGENMODE
 70
     1
  9
$FILLMODE
 70
     1
  9
$QTEXTMODE
 70
     0
  9
$MIRRTEXT
 70
     0
  9
$LTSCALE
 40
1.0
  9
$ATTMODE
 70
     1
  9
$TEXTSIZE
 40
2.999994039499997
  9
$TRACEWID
 40
0.05
  9
$TEXTSTYLE
  7
STANDARD
  9
$CLAYER
  8
0
  9
$CELTYPE
  6
ByLayer
  9
$CECOLOR
 62
   256
  9
$CELTSCALE
 40
1.0
  9
$DISPSILH
 70
     0
  9
$DIMSCALE
 40
1.0
  9
$DIMASZ
 40
1.9727878465
  9
$DIMEXO
 40
2.539999961899999
  9
$DIMDLI
 40
0.38
  9
$DIMRND
 40
0.0
  9
$DIMDLE
 40
0.0
  9
$DIMEXE
 40
3.809999942799997
  9
$DIMTP
 40
0.0
  9
$DIMTM
 40
0.0
  9
$DIMTXT
 40
2.999994039499997
  9
$DIMCEN
 40
0.09
  9
$DIMTSZ
 40
0.0
  9
$DIMTOL
 70
     0
  9
$DIMLIM
 70
     0
  9
$DIMTIH
 70
     0
  9
$DIMTOH
 70
     1
  9
$DIMSE1
 70
     0
  9
$DIMSE2
 70
     0
  9
$DIMTAD
 70
     0
  9
$DIMZIN
 70
     0
  9
$DIMBLK
  1

  9
$DIMASO
 70
     1
  9
$DIMSHO
 70
     0
  9
$DIMPOST
  1

  9
$DIMAPOST
  1

  9
$DIMALT
 70
     0
  9
$DIMALTD
 70
     2
  9
$DIMALTF
 40
25.4
  9
$DIMLFAC
 40
1.0
  9
$DIMTOFL
 70
     0
  9
$DIMTVP
 40
0.0
  9
$DIMTIX
 70
     0
  9
$DIMSOXD
 70
     0
  9
$DIMSAH
 70
     0
  9
$DIMBLK1
  1

  9
$DIMBLK2
  1

  9
$DIMSTYLE
  2
Standard
  9
$DIMCLRD
 70
     0
  9
$DIMCLRE
 70
     0
  9
$DIMCLRT
 70
     0
  9
$DIMTFAC
 40
1.0
  9
$DIMGAP
 40
0.09
  9
$DIMJUST
 70
     0
  9
$DIMSD1
 70
     0
  9
$DIMSD2
 70
     0
  9
$DIMTOLJ
 70
     1
  9
$DIMTZIN
 70
     0
  9
$DIMALTZ
 70
     0
  9
$DIMALTTZ
 70
     0
  9
$DIMUPT
 70
     0
  9
$DIMDEC
 70
     4
  9
$DIMTDEC
 70
     4
  9
$DIMALTU
 70
     2
  9
$DIMALTTD
 70
     2
  9
$DIMTXSTY
  7
STANDARD
  9
$DIMAUNIT
 70
     0
  9
$DIMADEC
 70
     0
  9
$DIMALTRND
 40
0.0
  9
$DIMAZIN
 70
     0
  9
$DIMDSEP
 70
    46
  9
$DIMATFIT
 70
     3
  9
$DIMFRAC
 70
     0
  9
$DIMLDRBLK
  1

  9
$DIMLUNIT
 70
     2
  9
$DIMLWD
 70
    -2
  9
$DIMLWE
 70
    -2
  9
$DIMTMOVE
 70
     0
  9
$LUNITS
 70
     2
  9
$LUPREC
 70
     3
  9
$SKETCHINC
 40
0.1
  9
$FILLETRAD
 40
0.0625
  9
$AUNITS
 70
     0
  9
$AUPREC
 70
     0
  9
$MENU
  1
ACAD
  9
$ELEVATION
 40
0.0
  9
$PELEVATION
 40
0.0
  9
$THICKNESS
 40
0.0
  9
$LIMCHECK
 70
     0
  9
$CHAMFERA
 40
0.0
  9
$CHAMFERB
 40
0.0
  9
$CHAMFERC
 40
0.0
  9
$CHAMFERD
 40
0.0
  9
$SKPOLY
 70
     0
  9
$TDCREATE
 40
2452310.752847222
  9
$TDUCREATE
 40
2452310.377847222
  9
$TDUPDATE
 40
2453382.687304687
  9
$TDUUPDATE
 40
2453382.312304687
  9
$TDINDWG
 40
0.0027712731
  9
$TDUSRTIMER
 40
0.0027692824
  9
$USRTIMER
 70
     1
  9
$ANGBASE
 50
0.0
  9
$ANGDIR
 70
     0
  9
$PDMODE
 70
     0
  9
$PDSIZE
 40
0.0
  9
$PLINEWID
 40
0.0
  9
$SPLFRAME
 70
     0
  9
$SPLINETYPE
 70
     6
  9
$SPLINESEGS
 70
     8
  9
$HANDSEED
  5
218
  9
$SURFTAB1
 70
     6
  9
$SURFTAB2
 70
     6
  9
$SURFTYPE
 70
     6
  9
$SURFU
 70
     6
  9
$SURFV
 70
     6
  9
$UCSBASE
  2

  9
$UCSNAME
  2

  9
$UCSORG
 10
0.0
 20
0.0
 30
0.0
  9
$UCSXDIR
 10
1.0
 20
0.0
 30
0.0
  9
$UCSYDIR
 10
0.0
 20
1.0
 30
0.0
  9
$UCSORTHOREF
  2

  9
$UCSORTHOVIEW
 70
     0
  9
$UCSORGTOP
 10
0.0
 20
0.0
 30
0.0
  9
$UCSORGBOTTOM
 10
0.0
 20
0.0
 30
0.0
  9
$UCSORGLEFT
 10
0.0
 20
0.0
 30
0.0
  9
$UCSORGRIGHT
 10
0.0
 20
0.0
 30
0.0
  9
$UCSORGFRONT
 10
0.0
 20
0.0
 30
0.0
  9
$UCSORGBACK
 10
0.0
 20
0.0
 30
0.0
  9
$PUCSBASE
  2

  9
$PUCSNAME
  2

  9
$PUCSORG
 10
0.0
 20
0.0
 30
0.0
  9
$PUCSXDIR
 10
1.0
 20
0.0
 30
0.0
  9
$PUCSYDIR
 10
0.0
 20
1.0
 30
0.0
  9
$PUCSORTHOREF
  2

  9
$PUCSORTHOVIEW
 70
     0
  9
$PUCSORGTOP
 10
0.0
 20
0.0
 30
0.0
  9
$PUCSORGBOTTOM
 10
0.0
 20
0.0
 30
0.0
  9
$PUCSORGLEFT
 10
0.0
 20
0.0
 30
0.0
  9
$PUCSORGRIGHT
 10
0.0
 20
0.0
 30
0.0
  9
$PUCSORGFRONT
 10
0.0
 20
0.0
 30
0.0
  9
$PUCSORGBACK
 10
0.0
 20
0.0
 30
0.0
  9
$USERI1
 70
     9
  9
$USERI2
 70
     0
  9
$USERI3
 70
     0
  9
$USERI4
 70
     0
  9
$USERI5
 70
     0
  9
$USERR1
 40
0.0
  9
$USERR2
 40
0.0
  9
$USERR3
 40
0.0
  9
$USERR4
 40
0.0
  9
$USERR5
 40
0.0
  9
$WORLDVIEW
 70
     1
  9
$SHADEDGE
 70
     3
  9
$SHADEDIF
 70
    70
  9
$TILEMODE
 70
     1
  9
$MAXACTVP
 70
    64
  9
$PINSBASE
 10
0.0
 20
0.0
 30
0.0
  9
$PLIMCHECK
 70
     0
  9
$PEXTMIN
 10
1.000000000000000E+20
 20
1.000000000000000E+20
 30
1.000000000000000E+20
  9
$PEXTMAX
 10
-1.000000000000000E+20
 20
-1.000000000000000E+20
 30
-1.000000000000000E+20
  9
$PLIMMIN
 10
0.0
 20
0.0
  9
$PLIMMAX
 10
12.0
 20
9.0
  9
$UNITMODE
 70
     0
  9
$VISRETAIN
 70
     1
  9
$PLINEGEN
 70
     0
  9
$PSLTSCALE
 70
     1
  9
$TREEDEPTH
 70
  3020
  9
$CMLSTYLE
  2
Standard
  9
$CMLJUST
 70
     0
  9
$CMLSCALE
 40
1.0
  9
$PROXYGRAPHICS
 70
     1
  9
$MEASUREMENT
 70
     0
  9
$CELWEIGHT
370
    -1
  9
$ENDCAPS
280
     0
  9
$JOINSTYLE
280
     0
  9
$LWDISPLAY
290
     0
  9
$INSUNITS
 70
     0
  9
$HYPERLINKBASE
  1

  9
$STYLESHEET
  1

  9
$XEDIT
290
     1
  9
$CEPSNTYPE
380
     0
  9
$PSTYLEMODE
290
     1
  9
$FINGERPRINTGUID
  2
{7DE6C00D-2AB5-4D40-BF77-AC7B1789501B}
  9
$VERSIONGUID
  2
{D9D3BA37-05CF-475A-98EA-185F7E6D9FAF}
  9
$EXTNAMES
290
     1
  9
$PSVPSCALE
 40
0.0
  9
$OLESTARTUP
290
     0
  0
ENDSEC
  0
SECTION
  2
CLASSES
  0
CLASS
  1
ACDBDICTIONARYWDFLT
  2
AcDbDictionaryWithDefault
  3
AutoCAD 2000
 90
        0
280
     0
281
     0
  0
CLASS
  1
ACDBPLACEHOLDER
  2
AcDbPlaceHolder
  3
AutoCAD 2000
 90
        0
280
     0
281
     0
  0
CLASS
  1
LAYOUT
  2
AcDbLayout
  3
AutoCAD 2000
 90
        0
280
     0
281
     0
  0
CLASS
  1
DICTIONARYVAR
  2
AcDbDictionaryVar
  3
AutoCAD 2000
 90
        0
280
     0
281
     0
  0
ENDSEC
  0
SECTION
  2
TABLES
  0
TABLE
  2
VPORT
  5
19
330
0
100
AcDbSymbolTable
 70
     2
  0
VPORT
  5
217
330
19
100
AcDbSymbolTableRecord
100
AcDbViewportTableRecord
  2
*Active
 70
     0
 10
0.0
 20
0.0
 11
1.0
 21
1.0
 12
105.0007940636302
 22
148.5023195960156
 13
0.0
 23
0.0
 14
1.0
 24
1.0
 15
0.0
 25
0.0
 16
0.0
 26
0.0
 36
1.0
 17
0.0
 27
0.0
 37
0.0
 40
301.3417828993685
 41
2.407317073170731
 42
50.0
 43
0.0
 44
0.0
 50
0.0
 51
0.0
 71
     0
 72
   100
 73
     1
 74
     1
 75
     0
 76
     0
 77
     0
 78
     0
281
     0
 65
     1
110
0.0
120
0.0
130
0.0
111
1.0
121
0.0
131
0.0
112
0.0
122
1.0
132
0.0
 79
     0
146
0.0
  0
ENDTAB
  0
TABLE
  2
LTYPE
  5
14
330
0
100
AcDbSymbolTable
 70
     3
  0
LTYPE
  5
15
330
14
100
AcDbSymbolTableRecord
100
AcDbLinetypeTableRecord
  2
ByBlock
 70
     0
  3

 72
    65
 73
     0
 40
0.0
  0
LTYPE
  5
16
330
14
100
AcDbSymbolTableRecord
100
AcDbLinetypeTableRecord
  2
ByLayer
 70
     0
  3

 72
    65
 73
     0
 40
0.0
  0
LTYPE
  5
8
330
14
100
AcDbSymbolTableRecord
100
AcDbLinetypeTableRecord
  2
Continuous
 70
     0
  3
Solid line
 72
    65
 73
     0
 40
0.0
  0
LTYPE
  5
63
330
14
100
AcDbSymbolTableRecord
100
AcDbLinetypeTableRecord
  2
DASH
 70
     0
  3
Dash
 72
    65
 73
     2
 40
1.9999960661
 49
0.9999980329999999
 74
     0
 49
-0.9999980329999999
 74
     0
  0
LTYPE
  5
33
330
14
100
AcDbSymbolTableRecord
100
AcDbLinetypeTableRecord
  2
CENTER
 70
     0
  3
Center
 72
    65
 73
     4
 40
9.100006759199999
 49
6.5000119209
 74
     0
 49
-0.7999984026000001
 74
     0
 49
0.9999980329999999
 74
     0
 49
-0.7999984026000001
 74
     0
  0
ENDTAB
  0
TABLE
  2
LAYER
  5
10
330
0
100
AcDbSymbolTable
 70
     1
  0
LAYER
  5
4
330
10
100
AcDbSymbolTableRecord
100
AcDbLayerTableRecord
  2
0
 70
     0
 62
     7
  6
Continuous
370
    -3
390
5
  0
ENDTAB
  0
TABLE
  2
STYLE
  5
11
330
0
100
AcDbSymbolTable
 70
     1
  0
STYLE
  5
12
330
11
100
AcDbSymbolTableRecord
100
AcDbTextStyleTableRecord
  2
STANDARD
 70
     0
 40
0.0
 41
1.0
 50
0.0
 71
     0
 42
2.999994039499997
  3
romans.shx
  4
bigfont.shx
  0
ENDTAB
  0
TABLE
  2
VIEW
  5
17
330
0
100
AcDbSymbolTable
 70
     0
  0
ENDTAB
  0
TABLE
  2
UCS
  5
18
330
0
100
AcDbSymbolTable
 70
     0
  0
ENDTAB
  0
TABLE
  2
APPID
  5
1B
330
0
100
AcDbSymbolTable
 70
     2
  0
APPID
  5
1C
330
1B
100
AcDbSymbolTableRecord
100
AcDbRegAppTableRecord
  2
ACAD
 70
     0
  0
APPID
  5
215
330
1B
100
AcDbSymbolTableRecord
100
AcDbRegAppTableRecord
  2
DCO15
 70
     0
  0
ENDTAB
  0
TABLE
  2
DIMSTYLE
  5
1D
330
0
100
AcDbSymbolTable
 70
     1
100
AcDbDimStyleTable
 71
     0
  0
DIMSTYLE
105
23
330
1D
100
AcDbSymbolTableRecord
100
AcDbDimStyleTableRecord
  2
Standard
 70
     0
340
12
  0
ENDTAB
  0
TABLE
  2
BLOCK_RECORD
  5
1
330
0
100
AcDbSymbolTable
 70
     0
  0
BLOCK_RECORD
  5
2
330
1
100
AcDbSymbolTableRecord
100
AcDbBlockTableRecord
  2
*Model_Space
340
A
  0
BLOCK_RECORD
  5
C
330
1
100
AcDbSymbolTableRecord
100
AcDbBlockTableRecord
  2
*Paper_Space
340
F
  0
ENDTAB
  0
ENDSEC
  0
SECTION
  2
BLOCKS
  0
BLOCK
  5
3
330
2
100
AcDbEntity
  8
0
100
AcDbBlockBegin
  2
*Model_Space
 70
     2
 10
0.0
 20
0.0
 30
0.0
  3
*Model_Space
  1

  0
ENDBLK
  5
9
330
2
100
AcDbEntity
  8
0
100
AcDbBlockEnd
  0
BLOCK
  5
D
330
C
100
AcDbEntity
 67
     1
  8
0
100
AcDbBlockBegin
  2
*Paper_Space
 70
     0
 10
0.0
 20
0.0
 30
0.0
  3
*Paper_Space
  1

  0
ENDBLK
  5
E
330
C
100
AcDbEntity
 67
     1
  8
0
100
AcDbBlockEnd
  0
ENDSEC
  0
SECTION
  2
ENTITIES
  0
LINE
  5
24
330
2
100
AcDbEntity
  8
0
100
AcDbLine
 10
210.0
 20
0.0
 30
0.0
 11
210.0
 21
297.0
 31
0.0
  0
LINE
  5
25
330
2
100
AcDbEntity
  8
0
 62
     3
100
AcDbLine
 10
146.3141275091999
 20
237.9942016600999
 30
0.0
 11
146.3141275091999
 21
215.0055236815999
 31
0.0
  0
LINE
  5
26
330
2
100
AcDbEntity
  8
0
 62
     3
100
AcDbLine
 10
146.0141397161999
 20
238.3052368163999
 30
0.0
 11
146.0141397161999
 21
214.6944580077998
 31
0.0
  0
LINE
  5
27
330
2
100
AcDbEntity
  8
0
 62
     3
100
AcDbLine
 10
151.5140176458999
 20
237.9046020507999
 30
0.0
 11
151.5140176458999
 21
215.0946807860999
 31
0.0
  0
LINE
  5
28
330
2
100
AcDbEntity
  8
0
 62
     3
100
AcDbLine
 10
151.8140664739999
 20
237.5945434569998
 30
0.0
 11
151.8140664739999
 21
215.4051971434999
 31
0.0
  0
LINE
  5
29
330
2
100
AcDbEntity
  8
0
 62
     3
100
AcDbLine
 10
140.8141275091999
 20
238.3998413085997
 30
0.0
 11
140.8141275091999
 21
214.5999145508
 31
0.0
  0
LINE
  5
2A
330
2
100
AcDbEntity
  8
0
100
AcDbLine
 10
0.0
 20
297.0
 30
0.0
 11
0.0
 21
0.0
 31
0.0
  0
LINE
  5
2B
330
2
100
AcDbEntity
  8
0
 62
     3
100
AcDbLine
 10
151.5136450210999
 20
157.0948049934998
 30
0.0
 11
146.3140017077999
 21
157.0055670498998
 31
0.0
  0
LINE
  5
2C
330
2
100
AcDbEntity
  8
0
 62
     3
100
AcDbLine
 10
151.5079613035998
 20
157.0943630622998
 30
0.0
 11
146.3139953948999
 21
156.9999278652999
 31
0.0
  0
LINE
  5
2D
330
2
100
AcDbEntity
  8
0
 62
     3
100
AcDbLine
 10
146.3140395423
 20
179.993963423
 30
0.0
 11
151.5136523425
 21
179.9047260029999
 31
0.0
  0
LINE
  5
2E
330
2
100
AcDbEntity
  8
0
 62
     3
100
AcDbLine
 10
151.5079613035998
 20
215.0942715095998
 30
0.0
 11
146.3139953948999
 21
214.9998363125998
 31
0.0
  0
LINE
  5
2F
330
2
100
AcDbEntity
  8
0
 62
     3
100
AcDbLine
 10
151.5136450210999
 20
215.0947134407
 30
0.0
 11
146.3140017077999
 21
215.0054754970999
 31
0.0
  0
TEXT
  5
30
330
2
100
AcDbEntity
  8
0
 62
     5
100
AcDbText
 10
145.0
 20
10.0
 30
0.0
 40
5.0
  1
ＭＡ４－Ｈ００７７４Ｂ
 41
0.8443967743953098
 72
     5
 11
199.0413935612998
 21
10.0
 31
0.0
100
AcDbText
  0
LINE
  5
31
330
2
100
AcDbEntity
  8
0
100
AcDbLine
 10
0.0
 20
0.0
 30
0.0
 11
210.0
 21
0.0
 31
0.0
  0
LINE
  5
32
330
2
100
AcDbEntity
  8
0
  6
CENTER
 62
     3
100
AcDbLine
 10
92.64119965269998
 20
168.5
 30
0.0
 11
153.2772164983998
 21
168.5
 31
0.0
  0
LINE
  5
34
330
2
100
AcDbEntity
  8
0
  6
CENTER
 62
     3
100
AcDbLine
 10
97.52288300229999
 20
226.4999084473
 30
0.0
 11
153.5399575872999
 21
226.4999084473
 31
0.0
  0
LINE
  5
35
330
2
100
AcDbEntity
  8
0
 62
     3
100
AcDbLine
 10
59.05936298929995
 20
181.9271848391998
 30
0.0
 11
56.96292813339997
 21
178.3395665027998
 31
0.0
  0
LINE
  5
36
330
2
100
AcDbEntity
  8
0
 62
     3
100
AcDbLine
 10
58.39781412929998
 20
173.1999664306
 30
0.0
 11
56.69783243979997
 21
173.1999664306
 31
0.0
  0
LINE
  5
37
330
2
100
AcDbEntity
  8
0
 62
     3
100
AcDbLine
 10
58.29780802579998
 20
173.2999572753998
 30
0.0
 11
56.79782328459999
 21
173.2999572753998
 31
0.0
  0
LINE
  5
38
330
2
100
AcDbEntity
  8
0
 62
     3
100
AcDbLine
 10
56.69783243979997
 20
161.7999877929999
 30
0.0
 11
58.39781412929998
 21
161.7999877929999
 31
0.0
  0
LINE
  5
39
330
2
100
AcDbEntity
  8
0
 62
     3
100
AcDbLine
 10
56.79782328459999
 20
161.6999816893999
 30
0.0
 11
58.29780802579998
 21
161.6999816893999
 31
0.0
  0
ARC
  5
3A
330
2
100
AcDbEntity
  8
0
 62
     3
100
AcDbCircle
 10
53.29785380209997
 20
168.5001373290999
 30
0.0
 40
10.5
100
AcDbArc
 50
41.08236866889999
 51
138.9175782834999
  0
ARC
  5
3B
330
2
100
AcDbEntity
  8
0
 62
     3
100
AcDbCircle
 10
53.29785380209997
 20
168.5001373290999
 30
0.0
 40
10.5
100
AcDbArc
 50
237.9536446645999
 51
302.0463913076
  0
LINE
  5
3C
330
2
100
AcDbEntity
  8
0
 62
     3
100
AcDbLine
 10
55.79782328459998
 20
167.8999633789
 30
0.0
 11
59.79780802579998
 21
167.8999633789
 31
0.0
  0
LINE
  5
3D
330
2
100
AcDbEntity
  8
0
 62
     3
100
AcDbLine
 10
55.79782328459998
 20
162.0999908446998
 30
0.0
 11
59.79780802579998
 21
162.0999908446998
 31
0.0
  0
LINE
  5
3E
330
2
100
AcDbEntity
  8
0
 62
     3
100
AcDbLine
 10
54.59781107749998
 20
160.5999755858999
 30
0.0
 11
59.79780802579998
 21
160.5999755858999
 31
0.0
  0
LINE
  5
3F
330
2
100
AcDbEntity
  8
0
 62
     3
100
AcDbLine
 10
54.59781107749998
 20
174.3999633789
 30
0.0
 11
59.79780802579998
 21
174.3999633789
 31
0.0
  0
LINE
  5
40
330
2
100
AcDbEntity
  8
0
 62
     3
100
AcDbLine
 10
45.69783243979997
 20
174.3999938964998
 30
0.0
 11
61.09776530119995
 21
174.3999938964998
 31
0.0
  0
LINE
  5
41
330
2
100
AcDbEntity
  8
0
 62
     3
100
AcDbLine
 10
45.69783243979997
 20
160.6000213622999
 30
0.0
 11
61.09773478359997
 21
160.6000213622999
 31
0.0
  0
LINE
  5
42
330
2
100
AcDbEntity
  8
0
 62
     3
100
AcDbLine
 10
45.39782938809998
 20
175.3999938964998
 30
0.0
 11
61.19783243979997
 21
175.3999938964998
 31
0.0
  0
LINE
  5
43
330
2
100
AcDbEntity
  8
0
 62
     3
100
AcDbLine
 10
45.39782938809998
 20
159.6000366210999
 30
0.0
 11
61.19783243979997
 21
159.6000366210999
 31
0.0
  0
LINE
  5
44
330
2
100
AcDbEntity
  8
0
  6
CENTER
 62
     3
100
AcDbLine
 10
39.41391215179996
 20
168.5
 30
0.0
 11
67.41571268889996
 21
168.5
 31
0.0
  0
ARC
  5
45
330
2
100
AcDbEntity
  8
0
 62
     3
100
AcDbCircle
 10
53.29794535489998
 20
168.5
 30
0.0
 40
11.9
100
AcDbArc
 50
68.3999977183
 51
20.99979716769993
  0
LINE
  5
46
330
2
100
AcDbEntity
  8
0
 62
     3
100
AcDbLine
 10
45.69784769859999
 20
166.1000366210999
 30
0.0
 11
45.69784769859999
 21
168.8999938964999
 31
0.0
  0
LINE
  5
47
330
2
100
AcDbEntity
  8
0
 62
     3
100
AcDbLine
 10
45.19784769859998
 20
168.8999938964999
 30
0.0
 11
45.19784769859998
 21
166.1000366210999
 31
0.0
  0
LINE
  5
48
330
2
100
AcDbEntity
  8
0
 62
     3
100
AcDbLine
 10
44.39782938809996
 20
162.9500274657999
 30
0.0
 11
44.39782938809996
 21
172.0499877929999
 31
0.0
  0
ARC
  5
49
330
2
100
AcDbEntity
  8
0
 62
     3
100
AcDbCircle
 10
53.29785380209997
 20
168.5001373290999
 30
0.0
 40
10.5
100
AcDbArc
 50
147.9536999894
 51
212.0462280663
  0
LINE
  5
4A
330
2
100
AcDbEntity
  8
0
 62
     3
100
AcDbLine
 10
54.59781107749998
 20
174.3999633789
 30
0.0
 11
54.59781107749998
 21
160.5999755858999
 31
0.0
  0
LINE
  5
4B
330
2
100
AcDbEntity
  8
0
 62
     3
100
AcDbLine
 10
47.79780802579998
 20
174.3999633789
 30
0.0
 11
47.79780802579998
 21
160.5999755858999
 31
0.0
  0
LINE
  5
4C
330
2
100
AcDbEntity
  8
0
 62
     3
100
AcDbLine
 10
52.997804974
 20
174.3999633789
 30
0.0
 11
52.997804974
 21
160.5999755858999
 31
0.0
  0
LINE
  5
4D
330
2
100
AcDbEntity
  8
0
 62
     3
100
AcDbLine
 10
52.9978354916
 20
160.6000213622999
 30
0.0
 11
52.9978354916
 21
174.3999938964998
 31
0.0
  0
LINE
  5
4E
330
2
100
AcDbEntity
  8
0
 62
     3
100
AcDbLine
 10
54.59782633629997
 20
160.6000213622999
 30
0.0
 11
54.59782633629997
 21
174.3999938964998
 31
0.0
  0
LINE
  5
4F
330
2
100
AcDbEntity
  8
0
 62
     3
100
AcDbLine
 10
47.79783854339996
 20
174.3999938964998
 30
0.0
 11
47.79783854339996
 21
160.6000213622999
 31
0.0
  0
LINE
  5
50
330
2
100
AcDbEntity
  8
0
 62
     3
100
AcDbLine
 10
44.39782938809996
 20
160.6000366210999
 30
0.0
 11
44.39782938809996
 21
174.3999938964998
 31
0.0
  0
LINE
  5
51
330
2
100
AcDbEntity
  8
0
  6
CENTER
 62
     3
100
AcDbLine
 10
53.29794535489998
 20
181.6666564940999
 30
0.0
 11
53.29794535489998
 21
155.1516571044999
 31
0.0
  0
LINE
  5
52
330
2
100
AcDbEntity
  8
0
 62
     3
100
AcDbLine
 10
48.99782023279996
 20
167.8999633789
 30
0.0
 11
52.997804974
 21
167.8999633789
 31
0.0
  0
LINE
  5
53
330
2
100
AcDbEntity
  8
0
 62
     3
100
AcDbLine
 10
49.89782938809998
 20
161.7999877929999
 30
0.0
 11
51.59781107749998
 21
161.7999877929999
 31
0.0
  0
LINE
  5
54
330
2
100
AcDbEntity
  8
0
 62
     3
100
AcDbLine
 10
49.99782023279997
 20
161.6999816893999
 30
0.0
 11
51.497804974
 21
161.6999816893999
 31
0.0
  0
LINE
  5
55
330
2
100
AcDbEntity
  8
0
 62
     3
100
AcDbLine
 10
48.99782023279996
 20
162.0999908446998
 30
0.0
 11
52.997804974
 21
162.0999908446998
 31
0.0
  0
LINE
  5
56
330
2
100
AcDbEntity
  8
0
 62
     3
100
AcDbLine
 10
47.79780802579998
 20
160.5999755858999
 30
0.0
 11
52.997804974
 21
160.5999755858999
 31
0.0
  0
LINE
  5
57
330
2
100
AcDbEntity
  8
0
 62
     3
100
AcDbLine
 10
45.19784769859998
 20
162.9500274657999
 30
0.0
 11
45.19784769859998
 21
160.1000366210999
 31
0.0
  0
LINE
  5
58
330
2
100
AcDbEntity
  8
0
 62
     3
100
AcDbLine
 10
45.69784769859999
 20
160.1000366210999
 30
0.0
 11
45.69784769859999
 21
162.9000244139998
 31
0.0
  0
ARC
  5
59
330
2
100
AcDbEntity
  8
0
 62
     3
100
AcDbCircle
 10
45.39782938809998
 20
160.6001586914
 30
0.0
 40
1.0
100
AcDbArc
 50
180.0000906136999
 51
270.0000179861
  0
LINE
  5
5A
330
2
100
AcDbEntity
  8
0
 62
     3
100
AcDbLine
 10
45.19784769859998
 20
160.1000366210999
 30
0.0
 11
45.69784769859999
 21
160.1000366210999
 31
0.0
  0
LINE
  5
5B
330
2
100
AcDbEntity
  8
0
 62
     3
100
AcDbLine
 10
45.19781718109999
 20
162.9500274657999
 30
0.0
 11
44.39782938809996
 21
162.9500274657999
 31
0.0
  0
LINE
  5
5C
330
2
100
AcDbEntity
  8
0
 62
     3
100
AcDbLine
 10
45.19784769859998
 20
166.1000366210999
 30
0.0
 11
45.69784769859999
 21
166.1000366210999
 31
0.0
  0
LINE
  5
5D
330
2
100
AcDbEntity
  8
0
 62
     3
100
AcDbLine
 10
45.69784769859999
 20
162.9000244139998
 30
0.0
 11
45.19784769859998
 21
162.9000244139998
 31
0.0
  0
LINE
  5
5E
330
2
100
AcDbEntity
  8
0
 62
     3
100
AcDbLine
 10
48.99782023279996
 20
167.8999633789
 30
0.0
 11
48.99782023279996
 21
162.0999908446998
 31
0.0
  0
LINE
  5
5F
330
2
100
AcDbEntity
  8
0
 62
     3
100
AcDbLine
 10
49.89784145809998
 20
161.7999980815999
 30
0.0
 11
49.99784093199997
 21
161.7000016589998
 31
0.0
  0
LINE
  5
60
330
2
100
AcDbEntity
  8
0
 62
     3
100
AcDbLine
 10
49.99782023279997
 20
161.6999816893999
 30
0.0
 11
49.99782023279997
 21
160.5999755858999
 31
0.0
  0
LINE
  5
61
330
2
100
AcDbEntity
  8
0
 62
     3
100
AcDbLine
 10
49.89782938809998
 20
161.7999877929999
 30
0.0
 11
49.89782938809998
 21
160.5999755858999
 31
0.0
  0
LINE
  5
62
330
2
100
AcDbEntity
  8
0
  6
DASH
 62
     3
100
AcDbLine
 10
49.79783854339996
 20
159.6000366210999
 30
0.0
 11
49.79783854339996
 21
160.6000366210999
 31
0.0
  0
LINE
  5
64
330
2
100
AcDbEntity
  8
0
 62
     3
100
AcDbLine
 10
51.49783661009997
 20
161.6999871949998
 30
0.0
 11
51.59783455839996
 21
161.7999851431999
 31
0.0
  0
LINE
  5
65
330
2
100
AcDbEntity
  8
0
 62
     3
100
AcDbLine
 10
51.497804974
 20
161.6999816893999
 30
0.0
 11
51.497804974
 21
160.5999755858999
 31
0.0
  0
LINE
  5
66
330
2
100
AcDbEntity
  8
0
 62
     3
100
AcDbLine
 10
51.59781107749998
 20
161.7999877929999
 30
0.0
 11
51.59781107749998
 21
160.5999755858999
 31
0.0
  0
LINE
  5
67
330
2
100
AcDbEntity
  8
0
  6
DASH
 62
     3
100
AcDbLine
 10
52.19783243979997
 20
159.6000366210999
 30
0.0
 11
52.19783243979997
 21
160.6000366210999
 31
0.0
  0
LINE
  5
68
330
2
100
AcDbEntity
  8
0
 62
     3
100
AcDbLine
 10
55.79782328459998
 20
167.8999633789
 30
0.0
 11
55.79782328459998
 21
162.0999908446998
 31
0.0
  0
LINE
  5
69
330
2
100
AcDbEntity
  8
0
 62
     3
100
AcDbLine
 10
56.69783141519996
 20
161.7999939341999
 30
0.0
 11
56.79783088909999
 21
161.6999975115998
 31
0.0
  0
LINE
  5
6A
330
2
100
AcDbEntity
  8
0
 62
     3
100
AcDbLine
 10
56.79782328459999
 20
161.6999816893999
 30
0.0
 11
56.79782328459999
 21
160.5999755858999
 31
0.0
  0
LINE
  5
6B
330
2
100
AcDbEntity
  8
0
 62
     3
100
AcDbLine
 10
56.69783243979997
 20
161.7999877929999
 30
0.0
 11
56.69783243979997
 21
160.5999755858999
 31
0.0
  0
LINE
  5
6C
330
2
100
AcDbEntity
  8
0
  6
DASH
 62
     3
100
AcDbLine
 10
56.59784159509996
 20
159.6000366210999
 30
0.0
 11
56.59784159509996
 21
160.6000366210999
 31
0.0
  0
LINE
  5
6D
330
2
100
AcDbEntity
  8
0
 62
     3
100
AcDbLine
 10
51.59781107749998
 20
173.1999664306
 30
0.0
 11
49.89782938809998
 21
173.1999664306
 31
0.0
  0
LINE
  5
6E
330
2
100
AcDbEntity
  8
0
 62
     3
100
AcDbLine
 10
51.497804974
 20
173.2999572753998
 30
0.0
 11
49.99782023279997
 21
173.2999572753998
 31
0.0
  0
LINE
  5
6F
330
2
100
AcDbEntity
  8
0
 62
     3
100
AcDbLine
 10
47.79780802579998
 20
174.3999633789
 30
0.0
 11
52.997804974
 21
174.3999633789
 31
0.0
  0
LINE
  5
70
330
2
100
AcDbEntity
  8
0
 62
     3
100
AcDbLine
 10
45.19784769859998
 20
174.8999938965
 30
0.0
 11
45.19784769859998
 21
172.0500030516999
 31
0.0
  0
LINE
  5
71
330
2
100
AcDbEntity
  8
0
 62
     3
100
AcDbLine
 10
45.69784769859999
 20
172.1000061035
 30
0.0
 11
45.69784769859999
 21
174.8999938965
 31
0.0
  0
LINE
  5
72
330
2
100
AcDbEntity
  8
0
 62
     3
100
AcDbLine
 10
45.19781718109999
 20
172.0500030516999
 30
0.0
 11
44.39782938809996
 21
172.0500030516999
 31
0.0
  0
LINE
  5
73
330
2
100
AcDbEntity
  8
0
 62
     3
100
AcDbLine
 10
45.69784769859999
 20
168.8999938964999
 30
0.0
 11
45.19784769859998
 21
168.8999938964999
 31
0.0
  0
LINE
  5
74
330
2
100
AcDbEntity
  8
0
 62
     3
100
AcDbLine
 10
45.19784769859998
 20
172.1000061035
 30
0.0
 11
45.69784769859999
 21
172.1000061035
 31
0.0
  0
ARC
  5
75
330
2
100
AcDbEntity
  8
0
 62
     3
100
AcDbCircle
 10
45.39784464689995
 20
174.4001312255998
 30
0.0
 40
1.0
100
AcDbArc
 50
90.83872924399999
 51
179.9999640277999
  0
LINE
  5
76
330
2
100
AcDbEntity
  8
0
 62
     3
100
AcDbLine
 10
45.69784769859999
 20
174.8999938965
 30
0.0
 11
45.19784769859998
 21
174.8999938965
 31
0.0
  0
LINE
  5
77
330
2
100
AcDbEntity
  8
0
 62
     3
100
AcDbLine
 10
49.99782023279997
 20
174.3999633789
 30
0.0
 11
49.99782023279997
 21
173.2999572753998
 31
0.0
  0
LINE
  5
78
330
2
100
AcDbEntity
  8
0
 62
     3
100
AcDbLine
 10
49.89782938809998
 20
174.3999633789
 30
0.0
 11
49.89782938809998
 21
173.1999664306
 31
0.0
  0
LINE
  5
79
330
2
100
AcDbEntity
  8
0
 62
     3
100
AcDbLine
 10
49.99786574659998
 20
173.2999829172999
 30
0.0
 11
49.89785548289995
 21
173.1999757052999
 31
0.0
  0
LINE
  5
7A
330
2
100
AcDbEntity
  8
0
  6
DASH
 62
     3
100
AcDbLine
 10
49.79783854339996
 20
174.3999938964998
 30
0.0
 11
49.79783854339996
 21
175.3999938964998
 31
0.0
  0
LINE
  5
7B
330
2
100
AcDbEntity
  8
0
 62
     3
100
AcDbLine
 10
51.497804974
 20
174.3999633789
 30
0.0
 11
51.497804974
 21
173.2999572753998
 31
0.0
  0
LINE
  5
7C
330
2
100
AcDbEntity
  8
0
 62
     3
100
AcDbLine
 10
51.59781107749998
 20
174.3999633789
 30
0.0
 11
51.59781107749998
 21
173.1999664306
 31
0.0
  0
LINE
  5
7D
330
2
100
AcDbEntity
  8
0
 62
     3
100
AcDbLine
 10
51.59783455839996
 20
173.1999670345
 30
0.0
 11
51.49783661009997
 21
173.2999649826998
 31
0.0
  0
LINE
  5
7E
330
2
100
AcDbEntity
  8
0
  6
DASH
 62
     3
100
AcDbLine
 10
52.19783243979997
 20
174.3999938964998
 30
0.0
 11
52.19783243979997
 21
175.3999938964998
 31
0.0
  0
LINE
  5
7F
330
2
100
AcDbEntity
  8
0
 62
     3
100
AcDbLine
 10
56.79782328459999
 20
174.3999633789
 30
0.0
 11
56.79782328459999
 21
173.2999572753998
 31
0.0
  0
LINE
  5
80
330
2
100
AcDbEntity
  8
0
 62
     3
100
AcDbLine
 10
56.69783243979997
 20
174.3999633789
 30
0.0
 11
56.69783243979997
 21
173.1999664306
 31
0.0
  0
LINE
  5
81
330
2
100
AcDbEntity
  8
0
 62
     3
100
AcDbLine
 10
56.79784491389995
 20
173.2999762751999
 30
0.0
 11
56.69784543999998
 21
173.1999798526999
 31
0.0
  0
LINE
  5
82
330
2
100
AcDbEntity
  8
0
  6
DASH
 62
     3
100
AcDbLine
 10
56.59784159509996
 20
174.3999938964998
 30
0.0
 11
56.59784159509996
 21
175.3999938964998
 31
0.0
  0
ARC
  5
83
330
2
100
AcDbEntity
  8
0
 62
     3
100
AcDbCircle
 10
53.29785380209997
 20
168.5001373290999
 30
0.0
 40
10.5
100
AcDbArc
 50
327.9535925275999
 51
32.04644503849999
  0
LINE
  5
84
330
2
100
AcDbEntity
  8
0
 62
     3
100
AcDbLine
 10
59.79780802579998
 20
174.3999633789
 30
0.0
 11
59.79780802579998
 21
160.5999755858999
 31
0.0
  0
LINE
  5
85
330
2
100
AcDbEntity
  8
0
 62
     3
100
AcDbLine
 10
59.79783854339996
 20
160.6000213622999
 30
0.0
 11
59.79783854339996
 21
174.3999938964998
 31
0.0
  0
LINE
  5
86
330
2
100
AcDbEntity
  8
0
 62
     3
100
AcDbLine
 10
61.39782938809998
 20
160.9000244139998
 30
0.0
 11
61.39782938809998
 21
174.0999908446999
 31
0.0
  0
LINE
  5
87
330
2
100
AcDbEntity
  8
0
 62
     3
100
AcDbLine
 10
62.19783243979997
 20
160.6000366210999
 30
0.0
 11
62.19783243979997
 21
174.3999938964998
 31
0.0
  0
ARC
  5
88
330
2
100
AcDbEntity
  8
0
 62
     3
100
AcDbCircle
 10
61.19783243979997
 20
160.6001586914
 30
0.0
 40
1.0
100
AcDbArc
 50
270.0000179861
 51
0.0
  0
LINE
  5
89
330
2
100
AcDbEntity
  8
0
  6
DASH
 62
     3
100
AcDbLine
 10
58.9978354916
 20
159.6000366210999
 30
0.0
 11
58.9978354916
 21
160.6000366210999
 31
0.0
  0
LINE
  5
8A
330
2
100
AcDbEntity
  8
0
 62
     3
100
AcDbLine
 10
58.29783735519999
 20
161.6999979845999
 30
0.0
 11
58.39783530339997
 21
161.7999959327999
 31
0.0
  0
LINE
  5
8B
330
2
100
AcDbEntity
  8
0
 62
     3
100
AcDbLine
 10
58.29780802579998
 20
161.6999816893999
 30
0.0
 11
58.29780802579998
 21
160.5999755858999
 31
0.0
  0
LINE
  5
8C
330
2
100
AcDbEntity
  8
0
 62
     3
100
AcDbLine
 10
58.39781412929998
 20
161.7999877929999
 30
0.0
 11
58.39781412929998
 21
160.5999755858999
 31
0.0
  0
LINE
  5
8D
330
2
100
AcDbEntity
  8
0
 62
     3
100
AcDbLine
 10
61.39764527239997
 20
160.8999309776999
 30
0.0
 11
61.09765193339999
 21
160.5999366018999
 31
0.0
  0
ARC
  5
8E
330
2
100
AcDbEntity
  8
0
  6
DASH
 62
     3
100
AcDbCircle
 10
65.49653849449999
 20
176.3789367675999
 30
0.0
 40
1.0
100
AcDbArc
 50
29.6992573604
 51
119.6996116195998
  0
LINE
  5
8F
330
2
100
AcDbEntity
  8
0
  6
DASH
 62
     3
100
AcDbLine
 10
66.78475688769997
 20
174.1204641768999
 30
0.0
 11
63.17536881729996
 21
172.0617055172999
 31
0.0
  0
LINE
  5
90
330
2
100
AcDbEntity
  8
0
  6
DASH
 62
     3
100
AcDbLine
 10
65.96694302889996
 20
175.1505842797999
 30
0.0
 11
62.65594821659998
 21
173.2620261339999
 31
0.0
  0
LINE
  5
91
330
2
100
AcDbEntity
  8
0
  6
DASH
 62
     3
100
AcDbLine
 10
65.47148436639997
 20
176.0192157618999
 30
0.0
 11
62.16048955409997
 21
174.1306576161
 31
0.0
  0
LINE
  5
92
330
2
100
AcDbEntity
  8
0
 62
     3
100
AcDbLine
 10
60.08087588139996
 20
181.0986209031
 30
0.0
 11
58.1577492221
 21
177.8075840044999
 31
0.0
  0
LINE
  5
93
330
2
100
AcDbEntity
  8
0
 62
     3
100
AcDbLine
 10
62.16757914279998
 20
180.1108899959999
 30
0.0
 11
60.07113658839998
 21
176.5232584851998
 31
0.0
  0
LINE
  5
94
330
2
100
AcDbEntity
  8
0
 62
     3
100
AcDbLine
 10
60.9442714531
 20
180.5940932747
 30
0.0
 11
59.02113709529999
 21
177.3030432016998
 31
0.0
  0
ARC
  5
95
330
2
100
AcDbEntity
  8
0
 62
     3
100
AcDbCircle
 10
61.19783243979997
 20
174.4001312255998
 30
0.0
 40
1.0
100
AcDbArc
 50
0.0
 51
89.16123478379999
  0
ARC
  5
96
330
2
100
AcDbEntity
  8
0
 62
     3
100
AcDbCircle
 10
53.29794535489998
 20
168.5
 30
0.0
 40
11.9
100
AcDbArc
 50
38.3997153928
 51
51.00007858939999
  0
LINE
  5
97
330
2
100
AcDbEntity
  8
0
  6
DASH
 62
     3
100
AcDbLine
 10
65.00111023869999
 20
177.2475295599999
 30
0.0
 11
61.39173542259996
 21
175.1887784604999
 31
0.0
  0
LINE
  5
98
330
2
100
AcDbEntity
  8
0
 62
     3
100
AcDbLine
 10
61.09761300939999
 20
174.4001580306999
 30
0.0
 11
61.39760713229997
 21
174.1001644388999
 31
0.0
  0
LINE
  5
99
330
2
100
AcDbEntity
  8
0
 62
     3
100
AcDbLine
 10
58.29780802579998
 20
174.3999633789
 30
0.0
 11
58.29780802579998
 21
173.2999572753998
 31
0.0
  0
LINE
  5
9A
330
2
100
AcDbEntity
  8
0
 62
     3
100
AcDbLine
 10
58.39781412929998
 20
174.3999633789
 30
0.0
 11
58.39781412929998
 21
173.1999664306
 31
0.0
  0
LINE
  5
9B
330
2
100
AcDbEntity
  8
0
 62
     3
100
AcDbLine
 10
58.39783530339997
 20
173.1999778240999
 30
0.0
 11
58.29783735519999
 21
173.2999757722999
 31
0.0
  0
LINE
  5
9C
330
2
100
AcDbEntity
  8
0
  6
DASH
 62
     3
100
AcDbLine
 10
58.9978354916
 20
174.3999938964998
 30
0.0
 11
58.9978354916
 21
175.3999938964998
 31
0.0
  0
ARC
  5
9D
330
2
100
AcDbEntity
  8
0
 62
     3
100
AcDbCircle
 10
53.29794535489998
 20
168.5
 30
0.0
 40
11.9
100
AcDbArc
 50
57.2919063414
 51
62.1080956306
  0
ARC
  5
9E
330
2
100
AcDbEntity
  8
0
 62
     3
100
AcDbCircle
 10
53.29794535489998
 20
168.5
 30
0.0
 40
11.9
100
AcDbArc
 50
27.2916275915
 51
32.1078166323
  0
LINE
  5
9F
330
2
100
AcDbEntity
  8
0
 62
     3
100
AcDbLine
 10
60.41141107249998
 20
182.2953294516999
 30
0.0
 11
61.82409886469996
 21
181.4698213707
 31
0.0
  0
ARC
  5
A0
330
2
100
AcDbEntity
  8
0
 62
     3
100
AcDbCircle
 10
59.92282328459999
 20
181.4228515624999
 30
0.0
 40
0.9999999404
100
AcDbArc
 50
59.70022466699998
 51
149.6999881147999
  0
LINE
  5
A1
330
2
100
AcDbEntity
  8
0
 62
     3
100
AcDbLine
 10
60.08087588139996
 20
181.0986209031
 30
0.0
 11
60.9442714531
 21
180.5940932747
 31
0.0
  0
ARC
  5
A2
330
2
100
AcDbEntity
  8
0
 62
     3
100
AcDbCircle
 10
61.3042472348
 20
180.6155853270999
 30
0.0
 40
0.9999999404
100
AcDbArc
 50
329.7001333699999
 51
59.70011538400002
  0
ARC
  5
A3
330
2
100
AcDbEntity
  8
0
  6
DASH
 62
     3
100
AcDbCircle
 10
66.28941569179996
 20
174.9892272948999
 30
0.0
 40
0.9999999404
100
AcDbArc
 50
299.7001940068999
 51
29.70015894540005
  0
LINE
  5
A4
330
2
100
AcDbEntity
  8
0
  6
DASH
 62
     3
100
AcDbLine
 10
66.36520794339997
 20
176.8743434861999
 30
0.0
 11
67.15792970729999
 21
175.4845543215999
 31
0.0
  0
LINE
  5
A5
330
2
100
AcDbEntity
  8
0
  6
DASH
 62
     3
100
AcDbLine
 10
65.47148436639997
 20
176.0192157618999
 30
0.0
 11
65.96694302889996
 21
175.1505842797999
 31
0.0
  0
LINE
  5
A6
330
2
100
AcDbEntity
  8
0
 62
     3
100
AcDbLine
 10
118.0141702337999
 20
235.1001129149999
 30
0.0
 11
122.3141580267
 21
235.1001129149999
 31
0.0
  0
LINE
  5
A7
330
2
100
AcDbEntity
  8
0
 62
     3
100
AcDbLine
 10
117.8141580267
 20
237.0000152587997
 30
0.0
 11
127.3141427678999
 21
237.0000152587997
 31
0.0
  0
LINE
  5
A8
330
2
100
AcDbEntity
  8
0
 62
     3
100
AcDbLine
 10
118.0141702337999
 20
227.100112915
 30
0.0
 11
122.3141580267
 21
227.100112915
 31
0.0
  0
LINE
  5
A9
330
2
100
AcDbEntity
  8
0
 62
     3
100
AcDbLine
 10
118.0141702337999
 20
225.9000396727997
 30
0.0
 11
122.3141580267
 21
225.9000396727997
 31
0.0
  0
LINE
  5
AA
330
2
100
AcDbEntity
  8
0
 62
     3
100
AcDbLine
 10
118.0141702337999
 20
217.9000549316
 30
0.0
 11
122.3141580267
 21
217.9000549316
 31
0.0
  0
LINE
  5
AB
330
2
100
AcDbEntity
  8
0
 62
     3
100
AcDbLine
 10
117.8141580267
 20
216.0000305175998
 30
0.0
 11
123.514154975
 21
216.0000305175998
 31
0.0
  0
LINE
  5
AC
330
2
100
AcDbEntity
  8
0
 62
     3
100
AcDbLine
 10
123.514154975
 20
178.9999999999999
 30
0.0
 11
117.8141885442999
 21
178.9999999999999
 31
0.0
  0
LINE
  5
AD
330
2
100
AcDbEntity
  8
0
 62
     3
100
AcDbLine
 10
122.3141885442999
 20
177.1000061034999
 30
0.0
 11
118.0142007512999
 21
177.1000061034999
 31
0.0
  0
LINE
  5
AE
330
2
100
AcDbEntity
  8
0
 62
     3
100
AcDbLine
 10
122.3141580267
 20
167.9000091552999
 30
0.0
 11
118.0141702337999
 21
167.9000091552999
 31
0.0
  0
LINE
  5
AF
330
2
100
AcDbEntity
  8
0
 62
     3
100
AcDbLine
 10
122.3141580267
 20
169.1000061035
 30
0.0
 11
118.0141702337999
 21
169.1000061035
 31
0.0
  0
LINE
  5
B0
330
2
100
AcDbEntity
  8
0
 62
     3
100
AcDbLine
 10
122.3141885442999
 20
159.9000091552998
 30
0.0
 11
118.0142007512999
 21
159.9000091552998
 31
0.0
  0
LINE
  5
B1
330
2
100
AcDbEntity
  8
0
 62
     3
100
AcDbLine
 10
127.3141732854998
 20
158.0000152587999
 30
0.0
 11
117.8141885442999
 21
158.0000152587999
 31
0.0
  0
LINE
  5
B2
330
2
100
AcDbEntity
  8
0
 62
     3
100
AcDbLine
 10
104.8141580266999
 20
174.3999786376998
 30
0.0
 11
102.8141732854997
 21
174.3999786376998
 31
0.0
  0
LINE
  5
B3
330
2
100
AcDbEntity
  8
0
 62
     3
100
AcDbLine
 10
102.8141875248999
 20
173.2999512763999
 30
0.0
 11
104.8141459553999
 21
173.1999565625999
 31
0.0
  0
LINE
  5
B4
330
2
100
AcDbEntity
  8
0
 62
     3
100
AcDbLine
 10
104.8141422679998
 20
161.7999826235999
 30
0.0
 11
102.8141838375
 21
161.6999879096999
 31
0.0
  0
LINE
  5
B5
330
2
100
AcDbEntity
  8
0
 62
     3
100
AcDbLine
 10
104.8141580266999
 20
160.6000061035
 30
0.0
 11
102.8141732854997
 21
160.6000061035
 31
0.0
  0
LINE
  5
B6
330
2
100
AcDbEntity
  8
0
 62
     3
100
AcDbLine
 10
96.3141580267
 20
168.9000091552999
 30
0.0
 11
104.8141580266999
 21
168.9000091552999
 31
0.0
  0
LINE
  5
B7
330
2
100
AcDbEntity
  8
0
 62
     3
100
AcDbLine
 10
96.3141580267
 20
166.1000213622999
 30
0.0
 11
104.8141580266999
 21
166.1000213622999
 31
0.0
  0
LINE
  5
B8
330
2
100
AcDbEntity
  8
0
 62
     3
100
AcDbLine
 10
96.3141580267
 20
174.9000091552999
 30
0.0
 11
104.8141580266999
 21
174.9000091552999
 31
0.0
  0
LINE
  5
B9
330
2
100
AcDbEntity
  8
0
 62
     3
100
AcDbLine
 10
96.3141580267
 20
172.1000213622999
 30
0.0
 11
104.8141580266999
 21
172.1000213622999
 31
0.0
  0
LINE
  5
BA
330
2
100
AcDbEntity
  8
0
 62
     3
100
AcDbLine
 10
96.3141580267
 20
162.9000091552998
 30
0.0
 11
104.8141580266999
 21
162.9000091552998
 31
0.0
  0
LINE
  5
BB
330
2
100
AcDbEntity
  8
0
 62
     3
100
AcDbLine
 10
96.3141580267
 20
160.1000213622999
 30
0.0
 11
104.8141580266999
 21
160.1000213622999
 31
0.0
  0
LINE
  5
BC
330
2
100
AcDbEntity
  8
0
 62
     3
100
AcDbLine
 10
96.31418581490001
 20
168.8999595028999
 30
0.0
 11
95.81418199689995
 21
168.3999406380999
 31
0.0
  0
LINE
  5
BD
330
2
100
AcDbEntity
  8
0
 62
     3
100
AcDbLine
 10
95.81415034099995
 20
166.5999890730998
 30
0.0
 11
96.31415087179998
 21
166.0999885422999
 31
0.0
  0
LINE
  5
BE
330
2
100
AcDbEntity
  8
0
  6
CENTER
 62
     3
100
AcDbLine
 10
95.3141580267
 20
167.5
 30
0.0
 11
100.5864231711999
 21
167.5
 31
0.0
  0
LINE
  5
BF
330
2
100
AcDbEntity
  8
0
 62
     3
100
AcDbLine
 10
95.81416113059999
 20
160.5999934930999
 30
0.0
 11
96.31416166139999
 21
160.0999929622998
 31
0.0
  0
LINE
  5
C0
330
2
100
AcDbEntity
  8
0
  6
CENTER
 62
     3
100
AcDbLine
 10
95.3141580267
 20
161.5
 30
0.0
 11
100.5864231711999
 21
161.5
 31
0.0
  0
LINE
  5
C1
330
2
100
AcDbEntity
  8
0
 62
     3
100
AcDbLine
 10
96.31420056629998
 20
162.8999636689
 30
0.0
 11
95.81419674819999
 21
162.3999448040999
 31
0.0
  0
LINE
  5
C2
330
2
100
AcDbEntity
  8
0
 62
     3
100
AcDbLine
 10
95.81415802669999
 20
162.3999938964999
 30
0.0
 11
95.81415802669999
 21
160.6000213622999
 31
0.0
  0
LINE
  5
C3
330
2
100
AcDbEntity
  8
0
 62
     3
100
AcDbLine
 10
95.81415802669999
 20
168.3999938964998
 30
0.0
 11
95.81415802669999
 21
166.6000213622999
 31
0.0
  0
LINE
  5
C4
330
2
100
AcDbEntity
  8
0
 62
     3
100
AcDbLine
 10
97.41415802669999
 20
162.0999999999999
 30
0.0
 11
98.8141580267
 21
162.0999999999999
 31
0.0
  0
LINE
  5
C5
330
2
100
AcDbEntity
  8
0
 62
     3
100
AcDbLine
 10
97.41415802669999
 20
160.8999999999998
 30
0.0
 11
98.8141580267
 21
160.8999999999998
 31
0.0
  0
ARC
  5
C6
330
2
100
AcDbEntity
  8
0
 62
     3
100
AcDbCircle
 10
97.41415802669999
 20
161.5
 30
0.0
 40
0.6
100
AcDbArc
 50
90.0
 51
270.0
  0
ARC
  5
C7
330
2
100
AcDbEntity
  8
0
 62
     3
100
AcDbCircle
 10
98.8141580267
 20
161.5
 30
0.0
 40
0.6
100
AcDbArc
 50
270.0
 51
90.0
  0
LINE
  5
C8
330
2
100
AcDbEntity
  8
0
 62
     3
100
AcDbLine
 10
97.41415802669999
 20
166.8999999999998
 30
0.0
 11
98.8141580267
 21
166.8999999999998
 31
0.0
  0
LINE
  5
C9
330
2
100
AcDbEntity
  8
0
 62
     3
100
AcDbLine
 10
97.41415802669999
 20
168.0999999999999
 30
0.0
 11
98.8141580267
 21
168.0999999999999
 31
0.0
  0
ARC
  5
CA
330
2
100
AcDbEntity
  8
0
 62
     3
100
AcDbCircle
 10
97.41415802669999
 20
167.5
 30
0.0
 40
0.6
100
AcDbArc
 50
90.0
 51
270.0
  0
ARC
  5
CB
330
2
100
AcDbEntity
  8
0
 62
     3
100
AcDbCircle
 10
98.8141580267
 20
167.5
 30
0.0
 40
0.6
100
AcDbArc
 50
270.0
 51
90.0
  0
LINE
  5
CC
330
2
100
AcDbEntity
  8
0
 62
     3
100
AcDbLine
 10
102.8141732854997
 20
161.6999969481998
 30
0.0
 11
102.8141732854997
 21
160.6000061035
 31
0.0
  0
LINE
  5
CD
330
2
100
AcDbEntity
  8
0
 62
     3
100
AcDbLine
 10
96.31417106359998
 20
174.8999553368999
 30
0.0
 11
95.81416724549999
 21
174.3999364719998
 31
0.0
  0
LINE
  5
CE
330
2
100
AcDbEntity
  8
0
 62
     3
100
AcDbLine
 10
95.81413955139998
 20
172.5999846529999
 30
0.0
 11
96.3141400822
 21
172.0999841222
 31
0.0
  0
LINE
  5
CF
330
2
100
AcDbEntity
  8
0
  6
CENTER
 62
     3
100
AcDbLine
 10
95.3141580267
 20
173.5
 30
0.0
 11
100.5864231711999
 21
173.5
 31
0.0
  0
LINE
  5
D0
330
2
100
AcDbEntity
  8
0
 62
     3
100
AcDbLine
 10
95.81415802669999
 20
174.3999938964998
 30
0.0
 11
95.81415802669999
 21
172.6000213622999
 31
0.0
  0
LINE
  5
D1
330
2
100
AcDbEntity
  8
0
 62
     3
100
AcDbLine
 10
97.41415802669999
 20
174.0999999999999
 30
0.0
 11
98.8141580267
 21
174.0999999999999
 31
0.0
  0
LINE
  5
D2
330
2
100
AcDbEntity
  8
0
 62
     3
100
AcDbLine
 10
97.41415802669999
 20
172.8999999999999
 30
0.0
 11
98.8141580267
 21
172.8999999999999
 31
0.0
  0
ARC
  5
D3
330
2
100
AcDbEntity
  8
0
 62
     3
100
AcDbCircle
 10
97.41415802669999
 20
173.5
 30
0.0
 40
0.6
100
AcDbArc
 50
90.0
 51
270.0
  0
ARC
  5
D4
330
2
100
AcDbEntity
  8
0
 62
     3
100
AcDbCircle
 10
98.8141580267
 20
173.5
 30
0.0
 40
0.6
100
AcDbArc
 50
270.0
 51
90.0
  0
LINE
  5
D5
330
2
100
AcDbEntity
  8
0
 62
     3
100
AcDbLine
 10
102.8141732854997
 20
174.3999786376998
 30
0.0
 11
102.8141732854997
 21
173.2999420165999
 31
0.0
  0
LINE
  5
D6
330
2
100
AcDbEntity
  8
0
 62
     3
100
AcDbLine
 10
104.8141427678999
 20
175.4000091552998
 30
0.0
 11
104.8141427678999
 21
159.6000213622999
 31
0.0
  0
LINE
  5
D7
330
2
100
AcDbEntity
  8
0
 62
     3
100
AcDbLine
 10
116.8141427678999
 20
177.9999999999999
 30
0.0
 11
116.8141427678999
 21
159.0000610350999
 31
0.0
  0
LINE
  5
D8
330
2
100
AcDbEntity
  8
0
 62
     3
100
AcDbLine
 10
116.8141885442999
 20
159.6000213622999
 30
0.0
 11
104.8141885442999
 21
159.6000213622999
 31
0.0
  0
LINE
  5
D9
330
2
100
AcDbEntity
  8
0
 62
     3
100
AcDbLine
 10
118.014154975
 20
167.9000091552999
 30
0.0
 11
118.014154975
 21
158.0000152587999
 31
0.0
  0
ARC
  5
DA
330
2
100
AcDbEntity
  8
0
 62
     3
100
AcDbCircle
 10
117.8141732854999
 20
159.0000610350999
 30
0.0
 40
1.0
100
AcDbArc
 50
180.0000359722
 51
270.0000179861
  0
LINE
  5
DB
330
2
100
AcDbEntity
  8
0
 62
     3
100
AcDbLine
 10
116.8142038030999
 20
175.4000091552998
 30
0.0
 11
104.8142038030998
 21
175.4000091552998
 31
0.0
  0
LINE
  5
DC
330
2
100
AcDbEntity
  8
0
 62
     3
100
AcDbLine
 10
118.014154975
 20
178.9999999999999
 30
0.0
 11
118.014154975
 21
169.1000061035
 31
0.0
  0
ARC
  5
DD
330
2
100
AcDbEntity
  8
0
 62
     3
100
AcDbCircle
 10
117.8141732854999
 20
178.0000457763999
 30
0.0
 40
1.0
100
AcDbArc
 50
89.99998201389999
 51
179.9999640277999
  0
LINE
  5
DE
330
2
100
AcDbEntity
  8
0
 62
     3
100
AcDbLine
 10
95.81415802669999
 20
234.0998077391999
 30
0.0
 11
104.8141885442999
 21
234.0998077391999
 31
0.0
  0
LINE
  5
DF
330
2
100
AcDbEntity
  8
0
 62
     3
100
AcDbLine
 10
95.81415802669999
 20
234.5998077391998
 30
0.0
 11
104.8141885442999
 21
234.5998077391998
 31
0.0
  0
LINE
  5
E0
330
2
100
AcDbEntity
  8
0
 62
     3
100
AcDbLine
 10
104.8141626493999
 20
228.1999526783998
 30
0.0
 11
102.8141742167999
 21
228.2999582036999
 31
0.0
  0
LINE
  5
E1
330
2
100
AcDbEntity
  8
0
 62
     3
100
AcDbLine
 10
102.8141426136999
 20
229.7999021524999
 30
0.0
 11
104.8141467634999
 21
229.8998993089
 31
0.0
  0
LINE
  5
E2
330
2
100
AcDbEntity
  8
0
 62
     3
100
AcDbLine
 10
104.8141709044999
 20
221.4000549794998
 30
0.0
 11
102.8141672322
 21
221.5000612667997
 31
0.0
  0
LINE
  5
E3
330
2
100
AcDbEntity
  8
0
 62
     3
100
AcDbLine
 10
102.8141482677999
 20
223.0000219084999
 30
0.0
 11
104.8141371777999
 21
223.1000183029999
 31
0.0
  0
LINE
  5
E4
330
2
100
AcDbEntity
  8
0
 62
     3
100
AcDbLine
 10
95.81415802669999
 20
234.5998077391998
 30
0.0
 11
95.81415802669999
 21
234.0998077391999
 31
0.0
  0
LINE
  5
E5
330
2
100
AcDbEntity
  8
0
 62
     3
100
AcDbLine
 10
102.8141732854997
 20
221.5000152587998
 30
0.0
 11
102.8141732854997
 21
223.0000152587999
 31
0.0
  0
LINE
  5
E6
330
2
100
AcDbEntity
  8
0
 62
     3
100
AcDbLine
 10
102.8141732854997
 20
228.2999267577999
 30
0.0
 11
102.8141732854997
 21
229.7999267577997
 31
0.0
  0
LINE
  5
E7
330
2
100
AcDbEntity
  8
0
 62
     3
100
AcDbLine
 10
104.8141885442999
 20
235.4000396727998
 30
0.0
 11
116.8141580267
 21
235.4000396727998
 31
0.0
  0
LINE
  5
E8
330
2
100
AcDbEntity
  8
0
 62
     3
100
AcDbLine
 10
104.8141885442999
 20
217.6001281737999
 30
0.0
 11
116.8141580267
 21
217.6001281737999
 31
0.0
  0
LINE
  5
E9
330
2
100
AcDbEntity
  8
0
 62
     3
100
AcDbLine
 10
104.8141885442999
 20
235.4000396727998
 30
0.0
 11
104.8141885442999
 21
217.6001281737999
 31
0.0
  0
LINE
  5
EA
330
2
100
AcDbEntity
  8
0
 62
     3
100
AcDbLine
 10
108.0141702337999
 20
223.2002258300996
 30
0.0
 11
106.5141702337999
 21
223.2002258300996
 31
0.0
  0
LINE
  5
EB
330
2
100
AcDbEntity
  8
0
 62
     3
100
AcDbLine
 10
108.0141702337999
 20
220.8003234862998
 30
0.0
 11
106.5141702337999
 21
220.8003234862998
 31
0.0
  0
LINE
  5
EC
330
2
100
AcDbEntity
  8
0
 62
     3
100
AcDbLine
 10
106.5141702337999
 20
220.8003234862998
 30
0.0
 11
106.5141702337999
 21
223.2002258300996
 31
0.0
  0
LINE
  5
ED
330
2
100
AcDbEntity
  8
0
 62
     3
100
AcDbLine
 10
108.0141702337999
 20
220.8003234862998
 30
0.0
 11
108.0141702337999
 21
223.2002258300996
 31
0.0
  0
LINE
  5
EE
330
2
100
AcDbEntity
  8
0
 62
     3
100
AcDbLine
 10
108.0141702337999
 20
230.0000457763999
 30
0.0
 11
106.5141702337999
 21
230.0000457763999
 31
0.0
  0
LINE
  5
EF
330
2
100
AcDbEntity
  8
0
 62
     3
100
AcDbLine
 10
108.0141702337999
 20
227.6000976561999
 30
0.0
 11
106.5141702337999
 21
227.6000976561999
 31
0.0
  0
LINE
  5
F0
330
2
100
AcDbEntity
  8
0
 62
     3
100
AcDbLine
 10
106.5141702337999
 20
230.0000457763999
 30
0.0
 11
106.5141702337999
 21
227.6000976561999
 31
0.0
  0
LINE
  5
F1
330
2
100
AcDbEntity
  8
0
 62
     3
100
AcDbLine
 10
108.0141702337999
 20
230.0000457763999
 30
0.0
 11
108.0141702337999
 21
227.6000976561999
 31
0.0
  0
LINE
  5
F2
330
2
100
AcDbEntity
  8
0
 62
     3
100
AcDbLine
 10
115.8141580267
 20
230.0000152587998
 30
0.0
 11
115.8141580267
 21
223.0000305176
 31
0.0
  0
LINE
  5
F3
330
2
100
AcDbEntity
  8
0
 62
     3
100
AcDbLine
 10
112.8141580267
 20
223.0000305176
 30
0.0
 11
112.8141580267
 21
230.0000152587998
 31
0.0
  0
LINE
  5
F4
330
2
100
AcDbEntity
  8
0
 62
     3
100
AcDbLine
 10
116.8141580267
 20
236.0000152587999
 30
0.0
 11
116.8141580267
 21
217.0000305175999
 31
0.0
  0
LINE
  5
F5
330
2
100
AcDbEntity
  8
0
 62
     3
100
AcDbLine
 10
115.8141580267
 20
223.0000305176
 30
0.0
 11
112.8141580267
 21
223.0000305176
 31
0.0
  0
LINE
  5
F6
330
2
100
AcDbEntity
  8
0
 62
     3
100
AcDbLine
 10
118.0141702337999
 20
225.9000396727997
 30
0.0
 11
118.0141702337999
 21
216.0000305175998
 31
0.0
  0
ARC
  5
F7
330
2
100
AcDbEntity
  8
0
 62
     3
100
AcDbCircle
 10
117.8141427678999
 20
217.0000305175999
 30
0.0
 40
1.0
100
AcDbArc
 50
179.9999640277999
 51
269.9999460416999
  0
LINE
  5
F8
330
2
100
AcDbEntity
  8
0
 62
     3
100
AcDbLine
 10
112.8141580267
 20
230.0000152587998
 30
0.0
 11
115.8141580267
 21
230.0000152587998
 31
0.0
  0
LINE
  5
F9
330
2
100
AcDbEntity
  8
0
 62
     3
100
AcDbLine
 10
118.0141702337999
 20
237.0000152587997
 30
0.0
 11
118.0141702337999
 21
227.100112915
 31
0.0
  0
ARC
  5
FA
330
2
100
AcDbEntity
  8
0
 62
     3
100
AcDbCircle
 10
117.8141427678999
 20
236.0000152587999
 30
0.0
 40
1.0
100
AcDbArc
 50
89.99998201389999
 51
179.9999640277999
  0
LINE
  5
FB
330
2
100
AcDbEntity
  8
0
 62
     3
100
AcDbLine
 10
133.2140756293
 20
177.3999481200999
 30
0.0
 11
137.0140634221999
 21
177.3999481200999
 31
0.0
  0
LINE
  5
FC
330
2
100
AcDbEntity
  8
0
 62
     3
100
AcDbLine
 10
137.0140481633999
 20
159.5999450682999
 30
0.0
 11
133.2140603704999
 21
159.5999450682999
 31
0.0
  0
LINE
  5
FD
330
2
100
AcDbEntity
  8
0
 62
     3
100
AcDbLine
 10
133.2140756293
 20
171.4999542235998
 30
0.0
 11
133.2140756293
 21
165.4999542235999
 31
0.0
  0
LINE
  5
FE
330
2
100
AcDbEntity
  8
0
 62
     3
100
AcDbLine
 10
127.3141427678999
 20
178.9999999999999
 30
0.0
 11
127.3141427678999
 21
158.0000152587999
 31
0.0
  0
LINE
  5
FF
330
2
100
AcDbEntity
  8
0
 62
     3
100
AcDbLine
 10
128.1141305608999
 20
176.4999237059999
 30
0.0
 11
128.1141305608999
 21
160.5000152587999
 31
0.0
  0
LINE
  5
100
330
2
100
AcDbEntity
  8
0
 62
     3
100
AcDbLine
 10
127.8141427678999
 20
175.8999481200999
 30
0.0
 11
127.8141427678999
 21
161.1000061034999
 31
0.0
  0
LINE
  5
101
330
2
100
AcDbEntity
  8
0
 62
     3
100
AcDbLine
 10
122.3141427678999
 20
167.9000091552999
 30
0.0
 11
122.3141427678999
 21
158.0000152587999
 31
0.0
  0
LINE
  5
102
330
2
100
AcDbEntity
  8
0
 62
     3
100
AcDbLine
 10
127.8141427678999
 20
161.1000061034999
 30
0.0
 11
132.0141397161999
 21
161.1000061034999
 31
0.0
  0
LINE
  5
103
330
2
100
AcDbEntity
  8
0
 62
     3
100
AcDbLine
 10
128.1141305608999
 20
160.5000152587999
 30
0.0
 11
132.0141397161999
 21
160.5000152587999
 31
0.0
  0
LINE
  5
104
330
2
100
AcDbEntity
  8
0
 62
     3
100
AcDbLine
 10
128.1141401173996
 20
160.4998851323998
 30
0.0
 11
127.8141395381998
 21
161.0998868106999
 31
0.0
  0
LINE
  5
105
330
2
100
AcDbEntity
  8
0
 62
     3
100
AcDbLine
 10
127.8141427678999
 20
161.1500091552999
 30
0.0
 11
127.3141580266996
 21
161.1500091552999
 31
0.0
  0
LINE
  5
106
330
2
100
AcDbEntity
  8
0
 62
     3
100
AcDbLine
 10
132.014078681
 20
165.4999542235999
 30
0.0
 11
132.014078681
 21
160.1208343505998
 31
0.0
  0
LINE
  5
107
330
2
100
AcDbEntity
  8
0
 62
     3
100
AcDbLine
 10
133.2140581773997
 20
159.5999346791999
 30
0.0
 11
133.2140734361999
 21
160.1208239614998
 31
0.0
  0
LINE
  5
108
330
2
100
AcDbEntity
  8
0
 62
     3
100
AcDbLine
 10
132.014078681
 20
160.1208343505998
 30
0.0
 11
133.2140756293
 21
160.1208343505998
 31
0.0
  0
LINE
  5
109
330
2
100
AcDbEntity
  8
0
 62
     3
100
AcDbLine
 10
133.2140756293
 20
165.4999542235999
 30
0.0
 11
132.014078681
 21
165.4999542235999
 31
0.0
  0
LINE
  5
10A
330
2
100
AcDbEntity
  8
0
 62
     3
100
AcDbLine
 10
123.514154975
 20
171.7282714843999
 30
0.0
 11
127.3141427678999
 21
171.7282714843999
 31
0.0
  0
LINE
  5
10B
330
2
100
AcDbEntity
  8
0
 62
     3
100
AcDbLine
 10
127.3141732854998
 20
178.9999999999999
 30
0.0
 11
124.514154975
 21
178.9999999999999
 31
0.0
  0
LINE
  5
10C
330
2
100
AcDbEntity
  8
0
 62
     3
100
AcDbLine
 10
124.514154975
 20
182.4228210449
 30
0.0
 11
124.514154975
 21
171.7282409667999
 31
0.0
  0
LINE
  5
10D
330
2
100
AcDbEntity
  8
0
 62
     3
100
AcDbLine
 10
123.514154975
 20
182.4228210449
 30
0.0
 11
123.514154975
 21
171.7282409667999
 31
0.0
  0
LINE
  5
10E
330
2
100
AcDbEntity
  8
0
 62
     3
100
AcDbLine
 10
122.3141427678999
 20
178.9999999999999
 30
0.0
 11
122.3141427678999
 21
169.1000061035
 31
0.0
  0
LINE
  5
10F
330
2
100
AcDbEntity
  8
0
 62
     3
100
AcDbLine
 10
125.5641580267
 20
178.9999999999999
 30
0.0
 11
125.5641580267
 21
171.7282714843999
 31
0.0
  0
LINE
  5
110
330
2
100
AcDbEntity
  8
0
 62
     3
100
AcDbLine
 10
123.514154975
 20
172.5016937255998
 30
0.0
 11
124.514154975
 21
172.5016937255998
 31
0.0
  0
LINE
  5
111
330
2
100
AcDbEntity
  8
0
 62
     3
100
AcDbLine
 10
124.3141580267
 20
173.4968261718998
 30
0.0
 11
124.514154975
 21
173.4968261718998
 31
0.0
  0
LINE
  5
112
330
2
100
AcDbEntity
  8
0
 62
     3
100
AcDbLine
 10
124.3141580267
 20
173.4967956543
 30
0.0
 11
124.3141580267
 21
172.5016632079999
 31
0.0
  0
LINE
  5
113
330
2
100
AcDbEntity
  8
0
 62
     3
100
AcDbLine
 10
123.514154975
 20
182.4228363036999
 30
0.0
 11
124.514154975
 21
182.4228363036999
 31
0.0
  0
LINE
  5
114
330
2
100
AcDbEntity
  8
0
 62
     3
100
AcDbLine
 10
123.514154975
 20
180.9743041991999
 30
0.0
 11
124.514154975
 21
180.9743041991999
 31
0.0
  0
LINE
  5
115
330
2
100
AcDbEntity
  8
0
 62
     3
100
AcDbLine
 10
132.0141244573999
 20
176.4999237059999
 30
0.0
 11
128.1141305608999
 21
176.4999237059999
 31
0.0
  0
LINE
  5
116
330
2
100
AcDbEntity
  8
0
 62
     3
100
AcDbLine
 10
132.0141244573999
 20
175.8999481200999
 30
0.0
 11
127.8141427678999
 21
175.8999481200999
 31
0.0
  0
LINE
  5
117
330
2
100
AcDbEntity
  8
0
 62
     3
100
AcDbLine
 10
126.5641580266999
 20
178.9999999999999
 30
0.0
 11
126.5641580266999
 21
171.7282714843999
 31
0.0
  0
LINE
  5
118
330
2
100
AcDbEntity
  8
0
 62
     3
100
AcDbLine
 10
127.8140426931998
 20
175.8996742920999
 30
0.0
 11
128.1140773921999
 21
176.4997442097999
 31
0.0
  0
LINE
  5
119
330
2
100
AcDbEntity
  8
0
 62
     3
100
AcDbLine
 10
127.8141427678999
 20
175.8498992919999
 30
0.0
 11
127.3141580266996
 21
175.8498992919999
 31
0.0
  0
LINE
  5
11A
330
2
100
AcDbEntity
  8
0
 62
     3
100
AcDbLine
 10
132.014078681
 20
176.8791198729999
 30
0.0
 11
132.014078681
 21
171.4999542235998
 31
0.0
  0
LINE
  5
11B
330
2
100
AcDbEntity
  8
0
 62
     3
100
AcDbLine
 10
132.014078681
 20
171.4999542235998
 30
0.0
 11
133.2140756293
 21
171.4999542235998
 31
0.0
  0
LINE
  5
11C
330
2
100
AcDbEntity
  8
0
 62
     3
100
AcDbLine
 10
133.2140756293
 20
177.3999481200999
 30
0.0
 11
133.2140756293
 21
176.8791198729999
 31
0.0
  0
LINE
  5
11D
330
2
100
AcDbEntity
  8
0
 62
     3
100
AcDbLine
 10
133.2140756293
 20
176.8791198729999
 30
0.0
 11
132.014078681
 21
176.8791198729999
 31
0.0
  0
LINE
  5
11E
330
2
100
AcDbEntity
  8
0
 62
     3
100
AcDbLine
 10
138.0135141057999
 20
162.4999542235999
 30
0.0
 11
138.0135141057999
 21
174.4999237059999
 31
0.0
  0
LINE
  5
11F
330
2
100
AcDbEntity
  8
0
 62
     3
100
AcDbLine
 10
140.8141275091999
 20
180.3999328612999
 30
0.0
 11
140.8141275091999
 21
156.6000061035
 31
0.0
  0
LINE
  5
120
330
2
100
AcDbEntity
  8
0
 62
     3
100
AcDbLine
 10
146.0141397161999
 20
180.3053283690999
 30
0.0
 11
146.0141397161999
 21
156.6945495604999
 31
0.0
  0
LINE
  5
121
330
2
100
AcDbEntity
  8
0
 62
     3
100
AcDbLine
 10
146.3141275091999
 20
179.9942932128999
 30
0.0
 11
146.3141275091999
 21
157.0056152343999
 31
0.0
  0
LINE
  5
122
330
2
100
AcDbEntity
  8
0
 62
     3
100
AcDbLine
 10
140.2141366643999
 20
158.4999999999999
 30
0.0
 11
140.2141366643999
 21
178.5
 31
0.0
  0
LINE
  5
123
330
2
100
AcDbEntity
  8
0
 62
     3
100
AcDbLine
 10
137.0135141057999
 20
159.5999450682999
 30
0.0
 11
137.0135141057999
 21
177.3994750975999
 31
0.0
  0
LINE
  5
124
330
2
100
AcDbEntity
  8
0
 62
     3
100
AcDbLine
 10
137.0140329047
 20
177.3999023436999
 30
0.0
 11
137.0140329047
 21
159.5999145507998
 31
0.0
  0
LINE
  5
125
330
2
100
AcDbEntity
  8
0
 62
     3
100
AcDbLine
 10
139.8141275091999
 20
175.8999481200999
 30
0.0
 11
139.8141275091999
 21
161.1000061034999
 31
0.0
  0
LINE
  5
126
330
2
100
AcDbEntity
  8
0
 62
     3
100
AcDbLine
 10
146.0140535031999
 20
156.6944871915999
 30
0.0
 11
140.8140155998998
 21
156.5999407040999
 31
0.0
  0
LINE
  5
127
330
2
100
AcDbEntity
  8
0
 62
     3
100
AcDbLine
 10
137.0135903997999
 20
159.5500030516999
 30
0.0
 11
137.9576821966999
 21
159.5500030516999
 31
0.0
  0
LINE
  5
128
330
2
100
AcDbEntity
  8
0
 62
     3
100
AcDbLine
 10
137.0136013389
 20
162.3349659310999
 30
0.0
 11
137.9576868787999
 21
159.5498620903999
 31
0.0
  0
LINE
  5
129
330
2
100
AcDbEntity
  8
0
 62
     3
100
AcDbLine
 10
134.0140634221999
 20
162.6654357909998
 30
0.0
 11
134.0140634221999
 21
163.5404510497999
 31
0.0
  0
LINE
  5
12A
330
2
100
AcDbEntity
  8
0
 62
     3
100
AcDbLine
 10
137.0140634221999
 20
162.6654357909998
 30
0.0
 11
134.0140634221999
 21
162.6654357909998
 31
0.0
  0
LINE
  5
12B
330
2
100
AcDbEntity
  8
0
 62
     3
100
AcDbLine
 10
137.0140634221999
 20
161.7967376708999
 30
0.0
 11
134.0140634221999
 21
161.7967376708999
 31
0.0
  0
LINE
  5
12C
330
2
100
AcDbEntity
  8
0
 62
     3
100
AcDbLine
 10
137.0140634221999
 20
161.1098480223999
 30
0.0
 11
134.0140634221999
 21
161.1098480223999
 31
0.0
  0
LINE
  5
12D
330
2
100
AcDbEntity
  8
0
 62
     3
100
AcDbLine
 10
137.0140634221999
 20
160.5098571776998
 30
0.0
 11
134.0140634221999
 21
160.5098571776998
 31
0.0
  0
LINE
  5
12E
330
2
100
AcDbEntity
  8
0
 62
     3
100
AcDbLine
 10
137.0140634221999
 20
160.0867309569999
 30
0.0
 11
134.0140634221999
 21
160.0867309569999
 31
0.0
  0
LINE
  5
12F
330
2
100
AcDbEntity
  8
0
 62
     3
100
AcDbLine
 10
134.0140634221999
 20
161.1098480223999
 30
0.0
 11
134.0140634221999
 21
161.7967376708999
 31
0.0
  0
LINE
  5
130
330
2
100
AcDbEntity
  8
0
 62
     3
100
AcDbLine
 10
134.0140329046997
 20
160.5098114013999
 30
0.0
 11
134.0140329046997
 21
160.0867004393999
 31
0.0
  0
LINE
  5
131
330
2
100
AcDbEntity
  8
0
 62
     3
100
AcDbLine
 10
137.0140634221999
 20
167.8999328612999
 30
0.0
 11
134.0140634221999
 21
167.8999328612999
 31
0.0
  0
LINE
  5
132
330
2
100
AcDbEntity
  8
0
 62
     3
100
AcDbLine
 10
137.0140634221999
 20
166.8074798583999
 30
0.0
 11
134.0140634221999
 21
166.8074798583999
 31
0.0
  0
LINE
  5
133
330
2
100
AcDbEntity
  8
0
 62
     3
100
AcDbLine
 10
137.0140634221999
 20
165.6221160888998
 30
0.0
 11
134.0140634221999
 21
165.6221160888998
 31
0.0
  0
LINE
  5
134
330
2
100
AcDbEntity
  8
0
 62
     3
100
AcDbLine
 10
137.0140634221999
 20
164.5796661376999
 30
0.0
 11
134.0140634221999
 21
164.5796661376999
 31
0.0
  0
LINE
  5
135
330
2
100
AcDbEntity
  8
0
 62
     3
100
AcDbLine
 10
137.0140634221999
 20
163.5404510497999
 30
0.0
 11
134.0140634221999
 21
163.5404510497999
 31
0.0
  0
LINE
  5
136
330
2
100
AcDbEntity
  8
0
 62
     3
100
AcDbLine
 10
134.0140634221999
 20
167.8999328612999
 30
0.0
 11
134.0140634221999
 21
166.8074798583999
 31
0.0
  0
LINE
  5
137
330
2
100
AcDbEntity
  8
0
 62
     3
100
AcDbLine
 10
134.0140634221999
 20
165.6221160888998
 30
0.0
 11
134.0140634221999
 21
164.5796661376999
 31
0.0
  0
LINE
  5
138
330
2
100
AcDbEntity
  8
0
 62
     3
100
AcDbLine
 10
138.4881539983996
 20
161.1000061034999
 30
0.0
 11
139.8141427678999
 21
161.1000061034999
 31
0.0
  0
LINE
  5
139
330
2
100
AcDbEntity
  8
0
 62
     3
100
AcDbLine
 10
138.6915383977999
 20
160.5000152587999
 30
0.0
 11
140.2141366643999
 21
160.5000152587999
 31
0.0
  0
LINE
  5
13A
330
2
100
AcDbEntity
  8
0
 62
     3
100
AcDbLine
 10
137.957635622
 20
159.5498416598998
 30
0.0
 11
138.9047045516996
 21
159.8708718593998
 31
0.0
  0
LINE
  5
13B
330
2
100
AcDbEntity
  8
0
 62
     3
100
AcDbLine
 10
138.0135933766996
 20
162.4998701372998
 30
0.0
 11
138.9047545566999
 21
159.8708960449999
 31
0.0
  0
LINE
  5
13C
330
2
100
AcDbEntity
  8
0
 62
     3
100
AcDbLine
 10
140.1141306603999
 20
160.4998946219999
 30
0.0
 11
139.8141300811999
 21
161.0998963002999
 31
0.0
  0
LINE
  5
13D
330
2
100
AcDbEntity
  8
0
 62
     3
100
AcDbLine
 10
140.2141366643999
 20
158.4999999999999
 30
0.0
 11
140.8141275091999
 21
158.4999999999999
 31
0.0
  0
LINE
  5
13E
330
2
100
AcDbEntity
  8
0
 62
     3
100
AcDbLine
 10
146.3137459850998
 20
157.0053936290999
 30
0.0
 11
146.0137902853999
 21
156.6943277463998
 31
0.0
  0
LINE
  5
13F
330
2
100
AcDbEntity
  8
0
 62
     3
100
AcDbLine
 10
146.3139310840998
 20
156.9999460704998
 30
0.0
 11
146.0083693456998
 21
156.6943852335999
 31
0.0
  0
LINE
  5
140
330
2
100
AcDbEntity
  8
0
 62
     3
100
AcDbLine
 10
140.8140395561
 20
180.3997644073999
 30
0.0
 11
146.0140774594998
 21
180.3052179198998
 31
0.0
  0
LINE
  5
141
330
2
100
AcDbEntity
  8
0
 62
     3
100
AcDbLine
 10
137.0135903997999
 20
177.4500122069999
 30
0.0
 11
137.9576974553999
 21
177.4500122069999
 31
0.0
  0
LINE
  5
142
330
2
100
AcDbEntity
  8
0
 62
     3
100
AcDbLine
 10
137.0135748199999
 20
174.6647524651998
 30
0.0
 11
137.9576794377999
 21
177.4498982569998
 31
0.0
  0
LINE
  5
143
330
2
100
AcDbEntity
  8
0
 62
     3
100
AcDbLine
 10
134.0140634221999
 20
173.4594421386999
 30
0.0
 11
134.0140634221999
 21
174.3344573973999
 31
0.0
  0
LINE
  5
144
330
2
100
AcDbEntity
  8
0
 62
     3
100
AcDbLine
 10
134.0140634221999
 20
169.0999603270999
 30
0.0
 11
137.0140634221999
 21
169.0999603270999
 31
0.0
  0
LINE
  5
145
330
2
100
AcDbEntity
  8
0
 62
     3
100
AcDbLine
 10
134.0140634221999
 20
170.1924133300998
 30
0.0
 11
137.0140634221999
 21
170.1924133300998
 31
0.0
  0
LINE
  5
146
330
2
100
AcDbEntity
  8
0
 62
     3
100
AcDbLine
 10
134.0140634221999
 20
171.3777770995999
 30
0.0
 11
137.0140634221999
 21
171.3777770995999
 31
0.0
  0
LINE
  5
147
330
2
100
AcDbEntity
  8
0
 62
     3
100
AcDbLine
 10
134.0140634221999
 20
172.4202270507998
 30
0.0
 11
137.0140634221999
 21
172.4202270507998
 31
0.0
  0
LINE
  5
148
330
2
100
AcDbEntity
  8
0
 62
     3
100
AcDbLine
 10
134.0140634221999
 20
173.4594421386999
 30
0.0
 11
137.0140634221999
 21
173.4594421386999
 31
0.0
  0
LINE
  5
149
330
2
100
AcDbEntity
  8
0
 62
     3
100
AcDbLine
 10
134.0140634221999
 20
170.1924133300998
 30
0.0
 11
134.0140634221999
 21
169.0999603270999
 31
0.0
  0
LINE
  5
14A
330
2
100
AcDbEntity
  8
0
 62
     3
100
AcDbLine
 10
134.0140634221999
 20
172.4202270507998
 30
0.0
 11
134.0140634221999
 21
171.3777770995999
 31
0.0
  0
LINE
  5
14B
330
2
100
AcDbEntity
  8
0
 62
     3
100
AcDbLine
 10
134.0140634221999
 20
174.3344573973999
 30
0.0
 11
137.0140634221999
 21
174.3344573973999
 31
0.0
  0
LINE
  5
14C
330
2
100
AcDbEntity
  8
0
 62
     3
100
AcDbLine
 10
134.0140634221999
 20
175.2031555175999
 30
0.0
 11
137.0140634221999
 21
175.2031555175999
 31
0.0
  0
LINE
  5
14D
330
2
100
AcDbEntity
  8
0
 62
     3
100
AcDbLine
 10
134.0140634221999
 20
175.8900451659999
 30
0.0
 11
137.0140634221999
 21
175.8900451659999
 31
0.0
  0
LINE
  5
14E
330
2
100
AcDbEntity
  8
0
 62
     3
100
AcDbLine
 10
134.0140634221999
 20
176.4900360106999
 30
0.0
 11
137.0140634221999
 21
176.4900360106999
 31
0.0
  0
LINE
  5
14F
330
2
100
AcDbEntity
  8
0
 62
     3
100
AcDbLine
 10
134.0140634221999
 20
176.9131622313999
 30
0.0
 11
137.0140634221999
 21
176.9131622313999
 31
0.0
  0
LINE
  5
150
330
2
100
AcDbEntity
  8
0
 62
     3
100
AcDbLine
 10
134.0140634221999
 20
175.2031555175999
 30
0.0
 11
134.0140634221999
 21
175.8900451659999
 31
0.0
  0
LINE
  5
151
330
2
100
AcDbEntity
  8
0
 62
     3
100
AcDbLine
 10
134.0141091985999
 20
176.9131317139
 30
0.0
 11
134.0141091985999
 21
176.4900207518999
 31
0.0
  0
LINE
  5
152
330
2
100
AcDbEntity
  8
0
 62
     3
100
AcDbLine
 10
139.8141427678999
 20
175.8999481200999
 30
0.0
 11
138.4881692571999
 21
175.8999481200999
 31
0.0
  0
LINE
  5
153
330
2
100
AcDbEntity
  8
0
 62
     3
100
AcDbLine
 10
140.2141366643999
 20
176.4999237059999
 30
0.0
 11
138.6915536565997
 21
176.4999237059999
 31
0.0
  0
LINE
  5
154
330
2
100
AcDbEntity
  8
0
 62
     3
100
AcDbLine
 10
137.9577037759996
 20
177.4498857304999
 30
0.0
 11
138.9047680564999
 21
177.1288418218999
 31
0.0
  0
LINE
  5
155
330
2
100
AcDbEntity
  8
0
 62
     3
100
AcDbLine
 10
138.0135862210996
 20
174.4999044946998
 30
0.0
 11
138.9047417402996
 21
177.1288483610998
 31
0.0
  0
LINE
  5
156
330
2
100
AcDbEntity
  8
0
 62
     3
100
AcDbLine
 10
139.8139991164998
 20
175.8996989222
 30
0.0
 11
140.1140338153999
 21
176.4997688398999
 31
0.0
  0
LINE
  5
157
330
2
100
AcDbEntity
  8
0
 62
     3
100
AcDbLine
 10
140.2141366643999
 20
178.5
 30
0.0
 11
140.8141275091999
 21
178.5
 31
0.0
  0
LINE
  5
158
330
2
100
AcDbEntity
  8
0
 62
     3
100
AcDbLine
 10
146.0138883633
 20
180.3051427547
 30
0.0
 11
146.3138334713999
 21
179.9940878559999
 31
0.0
  0
LINE
  5
159
330
2
100
AcDbEntity
  8
0
 62
     3
100
AcDbLine
 10
133.2140603704999
 20
235.3998413085998
 30
0.0
 11
137.0140481633999
 21
235.3998413085998
 31
0.0
  0
LINE
  5
15A
330
2
100
AcDbEntity
  8
0
 62
     3
100
AcDbLine
 10
137.0140329047
 20
217.5998382567998
 30
0.0
 11
133.2140451116996
 21
217.5998382567998
 31
0.0
  0
LINE
  5
15B
330
2
100
AcDbEntity
  8
0
 62
     3
100
AcDbLine
 10
124.514154975
 20
222.8865814208997
 30
0.0
 11
124.514154975
 21
213.5380096434999
 31
0.0
  0
LINE
  5
15C
330
2
100
AcDbEntity
  8
0
 62
     3
100
AcDbLine
 10
123.514154975
 20
222.8865814208997
 30
0.0
 11
123.514154975
 21
213.5380096434999
 31
0.0
  0
LINE
  5
15D
330
2
100
AcDbEntity
  8
0
 62
     3
100
AcDbLine
 10
123.514154975
 20
213.5380554199
 30
0.0
 11
124.514154975
 21
213.5380554199
 31
0.0
  0
LINE
  5
15E
330
2
100
AcDbEntity
  8
0
 62
     3
100
AcDbLine
 10
126.2086282415999
 20
227.1103363036997
 30
0.0
 11
126.7086282415997
 21
227.1103363036997
 31
0.0
  0
LINE
  5
15F
330
2
100
AcDbEntity
  8
0
 62
     3
100
AcDbLine
 10
125.8086227375999
 20
224.6102309709999
 30
0.0
 11
126.7086190361999
 21
227.1102244904999
 31
0.0
  0
LINE
  5
160
330
2
100
AcDbEntity
  8
0
 62
     3
100
AcDbLine
 10
124.514154975
 20
216.0000305175998
 30
0.0
 11
127.3141427678999
 21
216.0000305175998
 31
0.0
  0
LINE
  5
161
330
2
100
AcDbEntity
  8
0
 62
     3
100
AcDbLine
 10
123.5141702337999
 20
222.8866271973
 30
0.0
 11
127.3141427678999
 21
222.8866271973
 31
0.0
  0
LINE
  5
162
330
2
100
AcDbEntity
  8
0
 62
     3
100
AcDbLine
 10
124.9086021340999
 20
227.1102931448
 30
0.0
 11
125.8086047097998
 21
224.6102855852999
 31
0.0
  0
LINE
  5
163
330
2
100
AcDbEntity
  8
0
 62
     3
100
AcDbLine
 10
122.3141580267
 20
225.9000396727997
 30
0.0
 11
122.3141580267
 21
216.0000305175998
 31
0.0
  0
LINE
  5
164
330
2
100
AcDbEntity
  8
0
 62
     3
100
AcDbLine
 10
125.5641580267
 20
222.8866271973
 30
0.0
 11
125.5641580267
 21
216.0000305175998
 31
0.0
  0
LINE
  5
165
330
2
100
AcDbEntity
  8
0
 62
     3
100
AcDbLine
 10
124.3141580267
 20
220.7851409911997
 30
0.0
 11
124.3141580267
 21
219.2928466796999
 31
0.0
  0
LINE
  5
166
330
2
100
AcDbEntity
  8
0
 62
     3
100
AcDbLine
 10
124.3141580267
 20
219.2928924559998
 30
0.0
 11
124.514154975
 21
219.2928924559998
 31
0.0
  0
LINE
  5
167
330
2
100
AcDbEntity
  8
0
 62
     3
100
AcDbLine
 10
123.514154975
 20
215.3369293212997
 30
0.0
 11
124.514154975
 21
215.3369293212997
 31
0.0
  0
LINE
  5
168
330
2
100
AcDbEntity
  8
0
 62
     3
100
AcDbLine
 10
123.514154975
 20
220.7851867675998
 30
0.0
 11
124.514154975
 21
220.7851867675998
 31
0.0
  0
LINE
  5
169
330
2
100
AcDbEntity
  8
0
 62
     3
100
AcDbLine
 10
122.3141580267
 20
237.0000152587997
 30
0.0
 11
122.3141580267
 21
227.100112915
 31
0.0
  0
LINE
  5
16A
330
2
100
AcDbEntity
  8
0
 62
     3
100
AcDbLine
 10
125.4086251898
 20
231.6103363036996
 30
0.0
 11
126.2086282415999
 21
231.6103363036996
 31
0.0
  0
LINE
  5
16B
330
2
100
AcDbEntity
  8
0
 62
     3
100
AcDbLine
 10
124.9086251897999
 20
227.1103363036997
 30
0.0
 11
125.4086251898
 21
227.1103363036997
 31
0.0
  0
LINE
  5
16C
330
2
100
AcDbEntity
  8
0
 62
     3
100
AcDbLine
 10
126.2086282415999
 20
231.6103363036996
 30
0.0
 11
126.2086282415999
 21
227.1103363036997
 31
0.0
  0
LINE
  5
16D
330
2
100
AcDbEntity
  8
0
 62
     3
100
AcDbLine
 10
125.4086251898
 20
231.6103363036996
 30
0.0
 11
125.4086251898
 21
227.1103363036997
 31
0.0
  0
LINE
  5
16E
330
2
100
AcDbEntity
  8
0
 62
     3
100
AcDbLine
 10
133.2140603704999
 20
229.4998474120998
 30
0.0
 11
133.2140603704999
 21
223.4998321532998
 31
0.0
  0
LINE
  5
16F
330
2
100
AcDbEntity
  8
0
 62
     3
100
AcDbLine
 10
127.3141427678999
 20
237.0000152587997
 30
0.0
 11
127.3141427678999
 21
216.0000305175998
 31
0.0
  0
LINE
  5
170
330
2
100
AcDbEntity
  8
0
 62
     3
100
AcDbLine
 10
127.8141427678999
 20
233.8498992919999
 30
0.0
 11
127.8141427678999
 21
219.0998992919999
 31
0.0
  0
LINE
  5
171
330
2
100
AcDbEntity
  8
0
 62
     3
100
AcDbLine
 10
128.0640969915999
 20
218.5998992919997
 30
0.0
 11
132.0141244573999
 21
218.5998992919997
 31
0.0
  0
LINE
  5
172
330
2
100
AcDbEntity
  8
0
 62
     3
100
AcDbLine
 10
129.8442938313999
 20
225.4990312416
 30
0.0
 11
130.3104711687999
 21
218.5996012074999
 31
0.0
  0
LINE
  5
173
330
2
100
AcDbEntity
  8
0
 62
     3
100
AcDbLine
 10
133.2141214056
 20
225.4998016356999
 30
0.0
 11
128.3141275091999
 21
225.4998016356999
 31
0.0
  0
LINE
  5
174
330
2
100
AcDbEntity
  8
0
 62
     3
100
AcDbLine
 10
126.5641580266999
 20
222.8866271973
 30
0.0
 11
126.5641580266999
 21
216.0000305175998
 31
0.0
  0
LINE
  5
175
330
2
100
AcDbEntity
  8
0
 62
     3
100
AcDbLine
 10
129.349022505
 20
225.4990905184
 30
0.0
 11
129.8152080715996
 21
218.5995386916
 31
0.0
  0
LINE
  5
176
330
2
100
AcDbEntity
  8
0
 62
     3
100
AcDbLine
 10
128.3129319273999
 20
218.5995830033998
 30
0.0
 11
127.8956855587999
 21
224.7748341290999
 31
0.0
  0
LINE
  5
177
330
2
100
AcDbEntity
  8
0
 62
     3
100
AcDbLine
 10
129.3152160468999
 20
218.5995236998
 30
0.0
 11
128.8490304802999
 21
225.4990755264998
 31
0.0
  0
LINE
  5
178
330
2
100
AcDbEntity
  8
0
 62
     3
100
AcDbLine
 10
128.8140739872
 20
218.5995533515999
 30
0.0
 11
128.4770543278999
 21
223.5874482414998
 31
0.0
  0
LINE
  5
179
330
2
100
AcDbEntity
  8
0
 62
     3
100
AcDbLine
 10
127.8141427678999
 20
219.1499481200998
 30
0.0
 11
127.3141427678999
 21
219.1499481200998
 31
0.0
  0
LINE
  5
17A
330
2
100
AcDbEntity
  8
0
 62
     3
100
AcDbLine
 10
128.0640701198999
 20
218.5997508219998
 30
0.0
 11
127.8141162673997
 21
219.0996589599997
 31
0.0
  0
LINE
  5
17B
330
2
100
AcDbEntity
  8
0
 62
     3
100
AcDbLine
 10
127.8954677435999
 20
224.7748753874999
 30
0.0
 11
128.4768364404999
 21
223.5874949992998
 31
0.0
  0
LINE
  5
17C
330
2
100
AcDbEntity
  8
0
 62
     3
100
AcDbLine
 10
128.3139928890999
 20
225.4993759060997
 30
0.0
 11
127.8955359076999
 21
224.7745870302999
 31
0.0
  0
LINE
  5
17D
330
2
100
AcDbEntity
  8
0
 62
     3
100
AcDbLine
 10
128.4770686064
 20
223.5874678230998
 30
0.0
 11
128.9198797801
 21
224.4500518274
 31
0.0
  0
LINE
  5
17E
330
2
100
AcDbEntity
  8
0
 62
     3
100
AcDbLine
 10
128.3138985837999
 20
225.4995843153998
 30
0.0
 11
128.9197716194999
 21
224.4501812560999
 31
0.0
  0
LINE
  5
17F
330
2
100
AcDbEntity
  8
0
 62
     3
100
AcDbLine
 10
132.0140634221999
 20
223.4998474120996
 30
0.0
 11
132.0140634221999
 21
218.1207275389998
 31
0.0
  0
LINE
  5
180
330
2
100
AcDbEntity
  8
0
 62
     3
100
AcDbLine
 10
133.2140415362996
 20
217.5998126531999
 30
0.0
 11
133.2140567952
 21
218.1207019353998
 31
0.0
  0
LINE
  5
181
330
2
100
AcDbEntity
  8
0
 62
     3
100
AcDbLine
 10
132.0140634221999
 20
218.1207275389998
 30
0.0
 11
133.2140603704999
 21
218.1207275389998
 31
0.0
  0
LINE
  5
182
330
2
100
AcDbEntity
  8
0
 62
     3
100
AcDbLine
 10
133.2140603704999
 20
223.4998474120996
 30
0.0
 11
132.0140634221999
 21
223.4998474120996
 31
0.0
  0
LINE
  5
183
330
2
100
AcDbEntity
  8
0
 62
     3
100
AcDbLine
 10
132.0141244573999
 20
234.3998260498
 30
0.0
 11
128.7515512151997
 21
234.3998260498
 31
0.0
  0
LINE
  5
184
330
2
100
AcDbEntity
  8
0
 62
     3
100
AcDbLine
 10
133.2141214056
 20
227.4998016356999
 30
0.0
 11
128.7803445501999
 21
227.4998016356999
 31
0.0
  0
LINE
  5
185
330
2
100
AcDbEntity
  8
0
 62
     3
100
AcDbLine
 10
129.8140691611999
 20
234.3994436042998
 30
0.0
 11
130.2802794154999
 21
227.4995263995998
 31
0.0
  0
LINE
  5
186
330
2
100
AcDbEntity
  8
0
 62
     3
100
AcDbLine
 10
128.3512175873999
 20
233.8495028999
 30
0.0
 11
128.7802728931
 21
227.4994793668999
 31
0.0
  0
LINE
  5
187
330
2
100
AcDbEntity
  8
0
 62
     3
100
AcDbLine
 10
129.3140619123997
 20
234.3994275837999
 30
0.0
 11
129.7802721667
 21
227.4995103791999
 31
0.0
  0
LINE
  5
188
330
2
100
AcDbEntity
  8
0
 62
     3
100
AcDbLine
 10
128.8140698876
 20
234.3994125919997
 30
0.0
 11
129.2802883711999
 21
227.4993735947
 31
0.0
  0
LINE
  5
189
330
2
100
AcDbEntity
  8
0
 62
     3
100
AcDbLine
 10
128.4765878362999
 20
233.8498992919999
 30
0.0
 11
127.3141427678999
 21
233.8498992919999
 31
0.0
  0
LINE
  5
18A
330
2
100
AcDbEntity
  8
0
 62
     3
100
AcDbLine
 10
128.4766225953999
 20
233.8496728670997
 30
0.0
 11
128.7515452197999
 21
234.3995185921996
 31
0.0
  0
LINE
  5
18B
330
2
100
AcDbEntity
  8
0
 62
     3
100
AcDbLine
 10
132.0140634221999
 20
234.8790130614998
 30
0.0
 11
132.0140634221999
 21
229.4998474120998
 31
0.0
  0
LINE
  5
18C
330
2
100
AcDbEntity
  8
0
 62
     3
100
AcDbLine
 10
132.0140634221999
 20
229.4998474120998
 30
0.0
 11
133.2140603704999
 21
229.4998474120998
 31
0.0
  0
LINE
  5
18D
330
2
100
AcDbEntity
  8
0
 62
     3
100
AcDbLine
 10
133.2140603704999
 20
235.3998413085998
 30
0.0
 11
133.2140603704999
 21
234.8790130614998
 31
0.0
  0
LINE
  5
18E
330
2
100
AcDbEntity
  8
0
 62
     3
100
AcDbLine
 10
133.2140603704999
 20
234.8790130614998
 30
0.0
 11
132.0140634221999
 21
234.8790130614998
 31
0.0
  0
LINE
  5
18F
330
2
100
AcDbEntity
  8
0
 62
     3
100
AcDbLine
 10
146.0140535031999
 20
214.6943956388999
 30
0.0
 11
140.8140155998998
 21
214.5998491512998
 31
0.0
  0
LINE
  5
190
330
2
100
AcDbEntity
  8
0
 62
     3
100
AcDbLine
 10
140.2141366643999
 20
216.4999084473
 30
0.0
 11
140.2141366643999
 21
236.4999084472999
 31
0.0
  0
LINE
  5
191
330
2
100
AcDbEntity
  8
0
 62
     3
100
AcDbLine
 10
138.013498847
 20
220.4998626708999
 30
0.0
 11
138.013498847
 21
232.4998321533
 31
0.0
  0
LINE
  5
192
330
2
100
AcDbEntity
  8
0
 62
     3
100
AcDbLine
 10
137.013498847
 20
217.5998535155998
 30
0.0
 11
137.013498847
 21
235.3993835448999
 31
0.0
  0
LINE
  5
193
330
2
100
AcDbEntity
  8
0
 62
     3
100
AcDbLine
 10
137.0139718694999
 20
235.3997955321998
 30
0.0
 11
137.0139718694999
 21
217.5997924804999
 31
0.0
  0
LINE
  5
194
330
2
100
AcDbEntity
  8
0
 62
     3
100
AcDbLine
 10
137.0135903997999
 20
217.549911499
 30
0.0
 11
137.9576821966999
 21
217.549911499
 31
0.0
  0
LINE
  5
195
330
2
100
AcDbEntity
  8
0
 62
     3
100
AcDbLine
 10
137.0135698910999
 20
220.3348515656999
 30
0.0
 11
137.9576554309999
 21
217.5497477248999
 31
0.0
  0
LINE
  5
196
330
2
100
AcDbEntity
  8
0
 62
     3
100
AcDbLine
 10
137.0140481633999
 20
219.7966308593998
 30
0.0
 11
134.0140481633999
 21
219.7966308593998
 31
0.0
  0
LINE
  5
197
330
2
100
AcDbEntity
  8
0
 62
     3
100
AcDbLine
 10
137.0140481633999
 20
219.1097412108998
 30
0.0
 11
134.0140481633999
 21
219.1097412108998
 31
0.0
  0
LINE
  5
198
330
2
100
AcDbEntity
  8
0
 62
     3
100
AcDbLine
 10
137.0140481633999
 20
218.5097503661999
 30
0.0
 11
134.0140481633999
 21
218.5097503661999
 31
0.0
  0
LINE
  5
199
330
2
100
AcDbEntity
  8
0
 62
     3
100
AcDbLine
 10
137.0140481633999
 20
218.0866241454999
 30
0.0
 11
134.0140481633999
 21
218.0866241454999
 31
0.0
  0
LINE
  5
19A
330
2
100
AcDbEntity
  8
0
 62
     3
100
AcDbLine
 10
134.0140481633999
 20
219.1097412108998
 30
0.0
 11
134.0140481633999
 21
219.7966308593998
 31
0.0
  0
LINE
  5
19B
330
2
100
AcDbEntity
  8
0
 62
     3
100
AcDbLine
 10
134.0139718694999
 20
218.5097045897999
 30
0.0
 11
134.0139718694999
 21
218.0865936278999
 31
0.0
  0
LINE
  5
19C
330
2
100
AcDbEntity
  8
0
 62
     3
100
AcDbLine
 10
137.0140481633999
 20
225.8998260498
 30
0.0
 11
134.0140481633999
 21
225.8998260498
 31
0.0
  0
LINE
  5
19D
330
2
100
AcDbEntity
  8
0
 62
     3
100
AcDbLine
 10
137.0140481633999
 20
224.8073730468996
 30
0.0
 11
134.0140481633999
 21
224.8073730468996
 31
0.0
  0
LINE
  5
19E
330
2
100
AcDbEntity
  8
0
 62
     3
100
AcDbLine
 10
137.0140481633999
 20
223.6220092772999
 30
0.0
 11
134.0140481633999
 21
223.6220092772999
 31
0.0
  0
LINE
  5
19F
330
2
100
AcDbEntity
  8
0
 62
     3
100
AcDbLine
 10
137.0140481633999
 20
222.5795593261999
 30
0.0
 11
134.0140481633999
 21
222.5795593261999
 31
0.0
  0
LINE
  5
1A0
330
2
100
AcDbEntity
  8
0
 62
     3
100
AcDbLine
 10
137.0140481633999
 20
221.5403442382998
 30
0.0
 11
134.0140481633999
 21
221.5403442382998
 31
0.0
  0
LINE
  5
1A1
330
2
100
AcDbEntity
  8
0
 62
     3
100
AcDbLine
 10
137.0140481633999
 20
220.6653289794998
 30
0.0
 11
134.0140481633999
 21
220.6653289794998
 31
0.0
  0
LINE
  5
1A2
330
2
100
AcDbEntity
  8
0
 62
     3
100
AcDbLine
 10
134.0140481633999
 20
223.6220092772999
 30
0.0
 11
134.0140481633999
 21
222.5795593261999
 31
0.0
  0
LINE
  5
1A3
330
2
100
AcDbEntity
  8
0
 62
     3
100
AcDbLine
 10
134.0140481633999
 20
220.6653289794998
 30
0.0
 11
134.0140481633999
 21
221.5403442382998
 31
0.0
  0
LINE
  5
1A4
330
2
100
AcDbEntity
  8
0
 62
     3
100
AcDbLine
 10
134.0140481633999
 20
225.8998260498
 30
0.0
 11
134.0140481633999
 21
224.8073730468996
 31
0.0
  0
LINE
  5
1A5
330
2
100
AcDbEntity
  8
0
 62
     3
100
AcDbLine
 10
138.0135619288997
 20
220.4997557718999
 30
0.0
 11
138.9047231088998
 21
217.8707816795999
 31
0.0
  0
LINE
  5
1A6
330
2
100
AcDbEntity
  8
0
 62
     3
100
AcDbLine
 10
138.6576333685
 20
218.5998992919997
 30
0.0
 11
140.2141366643999
 21
218.5998992919997
 31
0.0
  0
LINE
  5
1A7
330
2
100
AcDbEntity
  8
0
 62
     3
100
AcDbLine
 10
137.9576274835999
 20
217.5497301916998
 30
0.0
 11
138.9046964132999
 21
217.8707603911998
 31
0.0
  0
LINE
  5
1A8
330
2
100
AcDbEntity
  8
0
 62
     3
100
AcDbLine
 10
140.2141366643999
 20
216.4999084473
 30
0.0
 11
140.8141275091999
 21
216.4999084473
 31
0.0
  0
LINE
  5
1A9
330
2
100
AcDbEntity
  8
0
 62
     3
100
AcDbLine
 10
140.1141305608996
 20
225.4998016356999
 30
0.0
 11
138.0135598821998
 21
225.4998016356999
 31
0.0
  0
LINE
  5
1AA
330
2
100
AcDbEntity
  8
0
 62
     3
100
AcDbLine
 10
137.0135903997999
 20
235.4499206542997
 30
0.0
 11
137.9576974553999
 21
235.4499206542997
 31
0.0
  0
LINE
  5
1AB
330
2
100
AcDbEntity
  8
0
 62
     3
100
AcDbLine
 10
137.0135750931999
 20
232.6646448535999
 30
0.0
 11
137.9576797108996
 21
235.4497906453999
 31
0.0
  0
LINE
  5
1AC
330
2
100
AcDbEntity
  8
0
 62
     3
100
AcDbLine
 10
134.0140481633999
 20
231.4593353270999
 30
0.0
 11
134.0140481633999
 21
232.3343505858996
 31
0.0
  0
LINE
  5
1AD
330
2
100
AcDbEntity
  8
0
 62
     3
100
AcDbLine
 10
134.0140481633999
 20
227.0998535156
 30
0.0
 11
137.0140481633999
 21
227.0998535156
 31
0.0
  0
LINE
  5
1AE
330
2
100
AcDbEntity
  8
0
 62
     3
100
AcDbLine
 10
134.0140481633999
 20
228.1923065184999
 30
0.0
 11
137.0140481633999
 21
228.1923065184999
 31
0.0
  0
LINE
  5
1AF
330
2
100
AcDbEntity
  8
0
 62
     3
100
AcDbLine
 10
134.0140481633999
 20
229.3776702880998
 30
0.0
 11
137.0140481633999
 21
229.3776702880998
 31
0.0
  0
LINE
  5
1B0
330
2
100
AcDbEntity
  8
0
 62
     3
100
AcDbLine
 10
134.0140481633999
 20
230.4201202391999
 30
0.0
 11
137.0140481633999
 21
230.4201202391999
 31
0.0
  0
LINE
  5
1B1
330
2
100
AcDbEntity
  8
0
 62
     3
100
AcDbLine
 10
134.0140481633999
 20
231.4593353270999
 30
0.0
 11
137.0140481633999
 21
231.4593353270999
 31
0.0
  0
LINE
  5
1B2
330
2
100
AcDbEntity
  8
0
 62
     3
100
AcDbLine
 10
134.0140481633999
 20
228.1923065184999
 30
0.0
 11
134.0140481633999
 21
227.0998535156
 31
0.0
  0
LINE
  5
1B3
330
2
100
AcDbEntity
  8
0
 62
     3
100
AcDbLine
 10
134.0140481633999
 20
230.4201202391999
 30
0.0
 11
134.0140481633999
 21
229.3776702880998
 31
0.0
  0
LINE
  5
1B4
330
2
100
AcDbEntity
  8
0
 62
     3
100
AcDbLine
 10
134.0140481633999
 20
232.3343505858996
 30
0.0
 11
137.0140481633999
 21
232.3343505858996
 31
0.0
  0
LINE
  5
1B5
330
2
100
AcDbEntity
  8
0
 62
     3
100
AcDbLine
 10
134.0140481633999
 20
233.2030487059999
 30
0.0
 11
137.0140481633999
 21
233.2030487059999
 31
0.0
  0
LINE
  5
1B6
330
2
100
AcDbEntity
  8
0
 62
     3
100
AcDbLine
 10
134.0140481633999
 20
233.8899383544998
 30
0.0
 11
137.0140481633999
 21
233.8899383544998
 31
0.0
  0
LINE
  5
1B7
330
2
100
AcDbEntity
  8
0
 62
     3
100
AcDbLine
 10
134.0140481633999
 20
234.4899291991999
 30
0.0
 11
137.0140481633999
 21
234.4899291991999
 31
0.0
  0
LINE
  5
1B8
330
2
100
AcDbEntity
  8
0
 62
     3
100
AcDbLine
 10
134.0140481633999
 20
234.9130554198999
 30
0.0
 11
137.0140481633999
 21
234.9130554198999
 31
0.0
  0
LINE
  5
1B9
330
2
100
AcDbEntity
  8
0
 62
     3
100
AcDbLine
 10
134.0140481633999
 20
233.2030487059999
 30
0.0
 11
134.0140481633999
 21
233.8899383544998
 31
0.0
  0
LINE
  5
1BA
330
2
100
AcDbEntity
  8
0
 62
     3
100
AcDbLine
 10
134.0141244573999
 20
234.9130096434997
 30
0.0
 11
134.0141244573999
 21
234.4898986815997
 31
0.0
  0
LINE
  5
1BB
330
2
100
AcDbEntity
  8
0
 62
     3
100
AcDbLine
 10
140.1141305608996
 20
227.4998016356999
 30
0.0
 11
138.0135598821998
 21
227.4998016356999
 31
0.0
  0
LINE
  5
1BC
330
2
100
AcDbEntity
  8
0
 62
     3
100
AcDbLine
 10
140.2141366643999
 20
234.3998260498
 30
0.0
 11
138.6576486272999
 21
234.3998260498
 31
0.0
  0
LINE
  5
1BD
330
2
100
AcDbEntity
  8
0
 62
     3
100
AcDbLine
 10
137.9576975057996
 20
235.4497876324999
 30
0.0
 11
138.9047617862999
 21
235.1287437238999
 31
0.0
  0
LINE
  5
1BE
330
2
100
AcDbEntity
  8
0
 62
     3
100
AcDbLine
 10
138.0135864941999
 20
232.4997968830998
 30
0.0
 11
138.9047420133999
 21
235.1287407495996
 31
0.0
  0
LINE
  5
1BF
330
2
100
AcDbEntity
  8
0
 62
     3
100
AcDbLine
 10
140.2141366643999
 20
236.4999084472999
 30
0.0
 11
140.8141275091999
 21
236.4999084472999
 31
0.0
  0
LINE
  5
1C0
330
2
100
AcDbEntity
  8
0
 62
     3
100
AcDbLine
 10
146.3139310840998
 20
214.9998545177997
 30
0.0
 11
146.0083693456998
 21
214.6942936808999
 31
0.0
  0
LINE
  5
1C1
330
2
100
AcDbEntity
  8
0
 62
     3
100
AcDbLine
 10
146.3137459850998
 20
215.0053020763999
 30
0.0
 11
146.0137902853999
 21
214.6942361936999
 31
0.0
  0
ARC
  5
1C2
330
2
100
AcDbEntity
  8
0
 62
     3
100
AcDbCircle
 10
178.4723247493999
 20
168.5000152587999
 30
0.0
 40
10.5997667313
100
AcDbArc
 50
259.1240618838999
 51
280.8759740883
  0
CIRCLE
  5
1C3
330
2
100
AcDbEntity
  8
0
 62
     3
100
AcDbCircle
 10
178.4723247493999
 20
168.5000152587999
 30
0.0
 40
9.799971580499999
  0
CIRCLE
  5
1C4
330
2
100
AcDbEntity
  8
0
 62
     3
100
AcDbCircle
 10
178.4723247493999
 20
168.5000152587999
 30
0.0
 40
10.0999650955
  0
CIRCLE
  5
1C5
330
2
100
AcDbEntity
  8
0
 62
     3
100
AcDbCircle
 10
178.4723247493999
 20
168.5000152587999
 30
0.0
 40
11.4999990463
  0
CIRCLE
  5
1C6
330
2
100
AcDbEntity
  8
0
 62
     3
100
AcDbCircle
 10
178.4723247493999
 20
168.5000152587999
 30
0.0
 40
10.29999256129999
  0
CIRCLE
  5
1C7
330
2
100
AcDbEntity
  8
0
 62
     3
100
AcDbCircle
 10
178.4723247493999
 20
168.5000152587999
 30
0.0
 40
11.89999294279999
  0
LINE
  5
1C8
330
2
100
AcDbEntity
  8
0
  6
CENTER
 62
     3
100
AcDbLine
 10
163.5723155940999
 20
168.5
 30
0.0
 11
193.3719676936999
 21
168.5
 31
0.0
  0
LINE
  5
1C9
330
2
100
AcDbEntity
  8
0
 62
     3
100
AcDbLine
 10
151.8140664739999
 20
179.5946350098
 30
0.0
 11
151.8140664739999
 21
157.4052886962999
 31
0.0
  0
LINE
  5
1CA
330
2
100
AcDbEntity
  8
0
 62
     3
100
AcDbLine
 10
151.5140176458999
 20
179.9046936034999
 30
0.0
 11
151.5140176458999
 21
157.0947723388998
 31
0.0
  0
LINE
  5
1CB
330
2
100
AcDbEntity
  8
0
 62
     3
100
AcDbLine
 10
151.8138683716999
 20
157.3998898214999
 30
0.0
 11
151.5083068135999
 21
157.0943288043999
 31
0.0
  0
LINE
  5
1CC
330
2
100
AcDbEntity
  8
0
 62
     3
100
AcDbLine
 10
151.8139070408
 20
157.4052156880999
 30
0.0
 11
151.5138882275
 21
157.0947197191999
 31
0.0
  0
LINE
  5
1CD
330
2
100
AcDbEntity
  8
0
 62
     3
100
AcDbLine
 10
151.5138529320999
 20
179.9048531454999
 30
0.0
 11
151.8138081281998
 21
179.5944230154999
 31
0.0
  0
LINE
  5
1CE
330
2
100
AcDbEntity
  8
0
  6
CENTER
 62
     3
100
AcDbLine
 10
178.4722942317998
 20
153.5999450682999
 30
0.0
 11
178.4722942317998
 21
183.3997192383
 31
0.0
  0
LINE
  5
1CF
330
2
100
AcDbEntity
  8
0
 62
     3
100
AcDbLine
 10
176.4722942317998
 20
158.3960266112999
 30
0.0
 11
176.4722942317998
 21
157.1752319335999
 31
0.0
  0
LINE
  5
1D0
330
2
100
AcDbEntity
  8
0
 62
     3
100
AcDbLine
 10
176.2722972835998
 20
158.4376831054999
 30
0.0
 11
176.2722972835998
 21
157.2124328612999
 31
0.0
  0
ARC
  5
1D1
330
2
100
AcDbEntity
  8
0
 62
     3
100
AcDbCircle
 10
171.8473705257999
 20
181.4228515624999
 30
0.0
 40
0.9999999404
100
AcDbArc
 50
30.3000100639
 51
120.2997393607999
  0
LINE
  5
1D2
330
2
100
AcDbEntity
  8
0
 62
     3
100
AcDbLine
 10
172.0420072788999
 20
178.5130491180999
 30
0.0
 11
170.8259321786998
 21
180.5941122695999
 31
0.0
  0
LINE
  5
1D3
330
2
100
AcDbEntity
  8
0
 62
     3
100
AcDbLine
 10
172.9054028505998
 20
179.0175767464999
 30
0.0
 11
171.6893277503999
 21
181.0986398979999
 31
0.0
  0
LINE
  5
1D4
330
2
100
AcDbEntity
  8
0
 62
     3
100
AcDbLine
 10
170.9833777889999
 20
177.7480328712998
 30
0.0
 11
169.6026244889999
 21
180.1109089908999
 31
0.0
  0
ARC
  5
1D5
330
2
100
AcDbEntity
  8
0
 62
     3
100
AcDbCircle
 10
170.4659465755999
 20
180.6155853270999
 30
0.0
 40
0.9999999404
100
AcDbArc
 50
120.2998486438998
 51
210.2999945822999
  0
LINE
  5
1D6
330
2
100
AcDbEntity
  8
0
 62
     3
100
AcDbLine
 10
170.8259321786998
 20
180.5941122695999
 30
0.0
 11
171.6893277503999
 21
181.0986398979999
 31
0.0
  0
LINE
  5
1D7
330
2
100
AcDbEntity
  8
0
 62
     3
100
AcDbLine
 10
169.9461047670999
 20
181.4698403655999
 30
0.0
 11
171.3587925592999
 21
182.2953484465999
 31
0.0
  0
LINE
  5
1D8
330
2
100
AcDbEntity
  8
0
 62
     3
100
AcDbLine
 10
174.0915939424999
 20
179.5643277145999
 30
0.0
 11
172.7108406424999
 21
181.9272038340999
 31
0.0
  0
LINE
  5
1D9
330
2
100
AcDbEntity
  8
0
 62
     3
100
AcDbLine
 10
151.8139070408
 20
215.4051241353998
 30
0.0
 11
151.5138882275
 21
215.0946281665
 31
0.0
  0
LINE
  5
1DA
330
2
100
AcDbEntity
  8
0
 62
     3
100
AcDbLine
 10
151.8138683716999
 20
215.3997982688
 30
0.0
 11
151.5083068135999
 21
215.0942372515999
 31
0.0
  0
LINE
  5
1DB
330
2
100
AcDbEntity
  8
0
 62
     3
100
AcDbLine
 10
180.6722759212999
 20
158.4376831054999
 30
0.0
 11
180.6722759212999
 21
157.2124328612999
 31
0.0
  0
LINE
  5
1DC
330
2
100
AcDbEntity
  8
0
 62
     3
100
AcDbLine
 10
180.472278973
 20
158.3960266112999
 30
0.0
 11
180.472278973
 21
157.1752319335999
 31
0.0
  0
LINE
  5
1DE
330
2
100
AcDbEntity
  8
0
 62
     3
100
AcDbLine
 10
146.3140395423
 20
237.9938718701998
 30
0.0
 11
151.5136523425
 21
237.9046344502997
 31
0.0
  0
LINE
  5
1E0
330
2
100
AcDbEntity
  8
0
100
AcDbLine
 10
210.0
 20
297.0
 30
0.0
 11
0.0
 21
297.0
 31
0.0
  0
LINE
  5
1EB
330
2
100
AcDbEntity
  8
0
 62
     3
100
AcDbLine
 10
140.8140395561
 20
238.3996728546998
 30
0.0
 11
146.0140774594998
 21
238.3051263670997
 31
0.0
  0
LINE
  5
1EC
330
2
100
AcDbEntity
  8
0
 62
     3
100
AcDbLine
 10
146.0138883633
 20
238.305051202
 30
0.0
 11
146.3138334713999
 21
237.9939963032998
 31
0.0
  0
LINE
  5
1F0
330
2
100
AcDbEntity
  8
0
 62
     3
100
AcDbLine
 10
151.5138529320999
 20
237.9047615928
 30
0.0
 11
151.8138081281998
 21
237.5943314627999
 31
0.0
  0
TEXT
  5
207
330
2
100
AcDbEntity
  8
0
 62
     7
100
AcDbText
 10
108.0
 20
105.00000295525
 30
0.0
 40
2.999994089499998
  1
HA1P-1C04*
 11
108.0
 21
106.4999999999999
 31
0.0
100
AcDbText
 73
     2
  0
TEXT
  5
208
330
2
100
AcDbEntity
  8
0
 62
     7
100
AcDbText
 10
108.0
 20
110.0000029552498
 30
0.0
 40
2.999994089499998
  1
HA1P-1C03*
 11
108.0
 21
111.4999999999999
 31
0.0
100
AcDbText
 73
     2
  0
TEXT
  5
20A
330
2
100
AcDbEntity
  8
0
 62
     7
100
AcDbText
 10
108.0
 20
115.0000029552499
 30
0.0
 40
2.999994089499998
  1
HA1P-1C01*
 11
108.0
 21
116.5
 31
0.0
100
AcDbText
 73
     2
  0
ENDSEC
  0
SECTION
  2
OBJECTS
  0
DICTIONARY
  5
7
330
0
100
AcDbDictionary
281
     1
  3
ACAD_GROUP
350
1F
  3
ACAD_LAYOUT
350
B
  3
ACAD_MLINESTYLE
350
20
  3
ACAD_PLOTSETTINGS
350
21
  3
ACAD_PLOTSTYLENAME
350
6
  3
AcDbVariableDictionary
350
20B
  3
ASE_INDEX_DICTIONARY
350
214
  0
DICTIONARY
  5
1F
102
{ACAD_REACTORS
330
7
102
}
330
7
100
AcDbDictionary
281
     1
  0
DICTIONARY
  5
B
102
{ACAD_REACTORS
330
7
102
}
330
7
100
AcDbDictionary
281
     1
  3
Model
350
A
  3
ﾚｲｱｳﾄ1
350
F
  0
DICTIONARY
  5
20
102
{ACAD_REACTORS
330
7
102
}
330
7
100
AcDbDictionary
281
     1
  3
Standard
350
22
  0
DICTIONARY
  5
21
102
{ACAD_REACTORS
330
7
102
}
330
7
100
AcDbDictionary
281
     1
  0
ACDBDICTIONARYWDFLT
  5
6
102
{ACAD_REACTORS
330
7
102
}
330
7
100
AcDbDictionary
281
     1
  3
Normal
350
5
100
AcDbDictionaryWithDefault
340
5
  0
DICTIONARY
  5
20B
102
{ACAD_REACTORS
330
7
102
}
330
7
100
AcDbDictionary
281
     1
  3
DIMASSOC
350
20C
  0
DICTIONARY
  5
214
102
{ACAD_REACTORS
330
7
102
}
330
7
100
AcDbDictionary
281
     1
  3
ASEBlockHierarchyIndexRecord
350
216
1001
DCO15
1040
1518866679.125
  0
LAYOUT
  5
A
102
{ACAD_REACTORS
330
B
102
}
330
B
100
AcDbPlotSettings
  1

  2
C:\Program Files\AutoCAD 2000i\plotters\DWF Classic.pc3
  4

  6

 40
0.0
 41
0.0
 42
0.0
 43
0.0
 44
0.0
 45
0.0
 46
0.0
 47
0.0
 48
0.0
 49
0.0
140
0.0
141
0.0
142
1.0
143
1.0
 70
  1712
 72
     0
 73
     0
 74
     0
  7

 75
     0
147
1.0
148
0.0
149
0.0
100
AcDbLayout
  1
Model
 70
     1
 71
     0
 10
0.0
 20
0.0
 11
12.0
 21
9.0
 12
0.0
 22
0.0
 32
0.0
 14
0.0
 24
0.0
 34
0.0
 15
0.0
 25
0.0
 35
0.0
146
0.0
 13
0.0
 23
0.0
 33
0.0
 16
1.0
 26
0.0
 36
0.0
 17
0.0
 27
1.0
 37
0.0
 76
     0
330
2
  0
LAYOUT
  5
F
102
{ACAD_REACTORS
330
B
102
}
330
B
100
AcDbPlotSettings
  1

  2
C:\Program Files\AutoCAD 2000i\plotters\DWF Classic.pc3
  4

  6

 40
0.0
 41
0.0
 42
0.0
 43
0.0
 44
0.0
 45
0.0
 46
0.0
 47
0.0
 48
0.0
 49
0.0
140
0.0
141
0.0
142
1.0
143
1.0
 70
   688
 72
     0
 73
     0
 74
     5
  7

 75
    16
147
1.0
148
0.0
149
0.0
100
AcDbLayout
  1
ﾚｲｱｳﾄ1
 70
     1
 71
     1
 10
0.0
 20
0.0
 11
12.0
 21
9.0
 12
0.0
 22
0.0
 32
0.0
 14
1.000000000000000E+20
 24
1.000000000000000E+20
 34
1.000000000000000E+20
 15
-1.000000000000000E+20
 25
-1.000000000000000E+20
 35
-1.000000000000000E+20
146
0.0
 13
0.0
 23
0.0
 33
0.0
 16
1.0
 26
0.0
 36
0.0
 17
0.0
 27
1.0
 37
0.0
 76
     0
330
C
  0
MLINESTYLE
  5
22
102
{ACAD_REACTORS
330
20
102
}
330
20
100
AcDbMlineStyle
  2
STANDARD
 70
     0
  3

 62
   256
 51
90.0
 52
90.0
 71
     2
 49
0.5
 62
   256
  6
BYLAYER
 49
-0.5
 62
   256
  6
BYLAYER
  0
ACDBPLACEHOLDER
  5
5
102
{ACAD_REACTORS
330
6
102
}
330
6
  0
DICTIONARYVAR
  5
20C
102
{ACAD_REACTORS
330
20B
102
}
330
20B
100
DictionaryVariables
280
     0
  1
1
  0
XRECORD
  5
216
102
{ACAD_REACTORS
330
214
102
}
330
214
100
AcDbXrecord
280
     1
  0
ENDSEC
  0
EOF
