  0
SECTION
  2
HEADER
  9
$ACADVER
  1
AC1015
  9
$ACADMAINTVER
 70
    13
  9
$DWGCODEPAGE
  3
ANSI_932
  9
$INSBASE
 10
0.0
 20
0.0
 30
0.0
  9
$EXTMIN
 10
-0.0203073028986864
 20
-0.0007496668014255
 30
-0.0000000349181948
  9
$EXTMAX
 10
210.0244252968357
 20
297.0183229054498
 30
0.0000000814935747
  9
$LIMMIN
 10
-190.1474273682
 20
-3.174999999999998
  9
$LIMMAX
 10
3.174999999999998
 20
291.2585876465
  9
$ORTHOMODE
 70
     0
  9
$REGENMODE
 70
     1
  9
$FILLMODE
 70
     1
  9
$QTEXTMODE
 70
     0
  9
$MIRRTEXT
 70
     0
  9
$LTSCALE
 40
1.0
  9
$ATTMODE
 70
     1
  9
$TEXTSIZE
 40
2.999994039499997
  9
$TRACEWID
 40
0.05
  9
$TEXTSTYLE
  7
STANDARD
  9
$CLAYER
  8
0
  9
$CELTYPE
  6
ByLayer
  9
$CECOLOR
 62
   256
  9
$CELTSCALE
 40
1.0
  9
$DISPSILH
 70
     0
  9
$DIMSCALE
 40
1.0
  9
$DIMASZ
 40
1.9727878465
  9
$DIMEXO
 40
2.539999961899999
  9
$DIMDLI
 40
0.38
  9
$DIMRND
 40
0.0
  9
$DIMDLE
 40
0.0
  9
$DIMEXE
 40
3.809999942799997
  9
$DIMTP
 40
0.0
  9
$DIMTM
 40
0.0
  9
$DIMTXT
 40
2.999994039499997
  9
$DIMCEN
 40
0.09
  9
$DIMTSZ
 40
0.0
  9
$DIMTOL
 70
     0
  9
$DIMLIM
 70
     0
  9
$DIMTIH
 70
     0
  9
$DIMTOH
 70
     1
  9
$DIMSE1
 70
     0
  9
$DIMSE2
 70
     0
  9
$DIMTAD
 70
     0
  9
$DIMZIN
 70
     0
  9
$DIMBLK
  1

  9
$DIMASO
 70
     1
  9
$DIMSHO
 70
     0
  9
$DIMPOST
  1

  9
$DIMAPOST
  1

  9
$DIMALT
 70
     0
  9
$DIMALTD
 70
     2
  9
$DIMALTF
 40
25.4
  9
$DIMLFAC
 40
1.0
  9
$DIMTOFL
 70
     0
  9
$DIMTVP
 40
0.0
  9
$DIMTIX
 70
     0
  9
$DIMSOXD
 70
     0
  9
$DIMSAH
 70
     0
  9
$DIMBLK1
  1

  9
$DIMBLK2
  1

  9
$DIMSTYLE
  2
Standard
  9
$DIMCLRD
 70
     0
  9
$DIMCLRE
 70
     0
  9
$DIMCLRT
 70
     0
  9
$DIMTFAC
 40
1.0
  9
$DIMGAP
 40
0.09
  9
$DIMJUST
 70
     0
  9
$DIMSD1
 70
     0
  9
$DIMSD2
 70
     0
  9
$DIMTOLJ
 70
     1
  9
$DIMTZIN
 70
     0
  9
$DIMALTZ
 70
     0
  9
$DIMALTTZ
 70
     0
  9
$DIMUPT
 70
     0
  9
$DIMDEC
 70
     4
  9
$DIMTDEC
 70
     4
  9
$DIMALTU
 70
     2
  9
$DIMALTTD
 70
     2
  9
$DIMTXSTY
  7
STANDARD
  9
$DIMAUNIT
 70
     0
  9
$DIMADEC
 70
     0
  9
$DIMALTRND
 40
0.0
  9
$DIMAZIN
 70
     0
  9
$DIMDSEP
 70
    46
  9
$DIMATFIT
 70
     3
  9
$DIMFRAC
 70
     0
  9
$DIMLDRBLK
  1

  9
$DIMLUNIT
 70
     2
  9
$DIMLWD
 70
    -2
  9
$DIMLWE
 70
    -2
  9
$DIMTMOVE
 70
     0
  9
$LUNITS
 70
     2
  9
$LUPREC
 70
     3
  9
$SKETCHINC
 40
0.1
  9
$FILLETRAD
 40
0.0625
  9
$AUNITS
 70
     0
  9
$AUPREC
 70
     0
  9
$MENU
  1
ACAD
  9
$ELEVATION
 40
0.0
  9
$PELEVATION
 40
0.0
  9
$THICKNESS
 40
0.0
  9
$LIMCHECK
 70
     0
  9
$CHAMFERA
 40
0.0
  9
$CHAMFERB
 40
0.0
  9
$CHAMFERC
 40
0.0
  9
$CHAMFERD
 40
0.0
  9
$SKPOLY
 70
     0
  9
$TDCREATE
 40
2452310.776238426
  9
$TDUCREATE
 40
2452310.401238426
  9
$TDUPDATE
 40
2453382.694612442
  9
$TDUUPDATE
 40
2453382.319612442
  9
$TDINDWG
 40
0.0029935417
  9
$TDUSRTIMER
 40
0.0029908218
  9
$USRTIMER
 70
     1
  9
$ANGBASE
 50
0.0
  9
$ANGDIR
 70
     0
  9
$PDMODE
 70
     0
  9
$PDSIZE
 40
0.0
  9
$PLINEWID
 40
0.0
  9
$SPLFRAME
 70
     0
  9
$SPLINETYPE
 70
     6
  9
$SPLINESEGS
 70
     8
  9
$HANDSEED
  5
283
  9
$SURFTAB1
 70
     6
  9
$SURFTAB2
 70
     6
  9
$SURFTYPE
 70
     6
  9
$SURFU
 70
     6
  9
$SURFV
 70
     6
  9
$UCSBASE
  2

  9
$UCSNAME
  2

  9
$UCSORG
 10
0.0
 20
0.0
 30
0.0
  9
$UCSXDIR
 10
1.0
 20
0.0
 30
0.0
  9
$UCSYDIR
 10
0.0
 20
1.0
 30
0.0
  9
$UCSORTHOREF
  2

  9
$UCSORTHOVIEW
 70
     0
  9
$UCSORGTOP
 10
0.0
 20
0.0
 30
0.0
  9
$UCSORGBOTTOM
 10
0.0
 20
0.0
 30
0.0
  9
$UCSORGLEFT
 10
0.0
 20
0.0
 30
0.0
  9
$UCSORGRIGHT
 10
0.0
 20
0.0
 30
0.0
  9
$UCSORGFRONT
 10
0.0
 20
0.0
 30
0.0
  9
$UCSORGBACK
 10
0.0
 20
0.0
 30
0.0
  9
$PUCSBASE
  2

  9
$PUCSNAME
  2

  9
$PUCSORG
 10
0.0
 20
0.0
 30
0.0
  9
$PUCSXDIR
 10
1.0
 20
0.0
 30
0.0
  9
$PUCSYDIR
 10
0.0
 20
1.0
 30
0.0
  9
$PUCSORTHOREF
  2

  9
$PUCSORTHOVIEW
 70
     0
  9
$PUCSORGTOP
 10
0.0
 20
0.0
 30
0.0
  9
$PUCSORGBOTTOM
 10
0.0
 20
0.0
 30
0.0
  9
$PUCSORGLEFT
 10
0.0
 20
0.0
 30
0.0
  9
$PUCSORGRIGHT
 10
0.0
 20
0.0
 30
0.0
  9
$PUCSORGFRONT
 10
0.0
 20
0.0
 30
0.0
  9
$PUCSORGBACK
 10
0.0
 20
0.0
 30
0.0
  9
$USERI1
 70
     9
  9
$USERI2
 70
     0
  9
$USERI3
 70
     0
  9
$USERI4
 70
     0
  9
$USERI5
 70
     0
  9
$USERR1
 40
0.0
  9
$USERR2
 40
0.0
  9
$USERR3
 40
0.0
  9
$USERR4
 40
0.0
  9
$USERR5
 40
0.0
  9
$WORLDVIEW
 70
     1
  9
$SHADEDGE
 70
     3
  9
$SHADEDIF
 70
    70
  9
$TILEMODE
 70
     1
  9
$MAXACTVP
 70
    64
  9
$PINSBASE
 10
0.0
 20
0.0
 30
0.0
  9
$PLIMCHECK
 70
     0
  9
$PEXTMIN
 10
1.000000000000000E+20
 20
1.000000000000000E+20
 30
1.000000000000000E+20
  9
$PEXTMAX
 10
-1.000000000000000E+20
 20
-1.000000000000000E+20
 30
-1.000000000000000E+20
  9
$PLIMMIN
 10
0.0
 20
0.0
  9
$PLIMMAX
 10
12.0
 20
9.0
  9
$UNITMODE
 70
     0
  9
$VISRETAIN
 70
     1
  9
$PLINEGEN
 70
     0
  9
$PSLTSCALE
 70
     1
  9
$TREEDEPTH
 70
  3020
  9
$CMLSTYLE
  2
Standard
  9
$CMLJUST
 70
     0
  9
$CMLSCALE
 40
1.0
  9
$PROXYGRAPHICS
 70
     1
  9
$MEASUREMENT
 70
     0
  9
$CELWEIGHT
370
    -1
  9
$ENDCAPS
280
     0
  9
$JOINSTYLE
280
     0
  9
$LWDISPLAY
290
     0
  9
$INSUNITS
 70
     0
  9
$HYPERLINKBASE
  1

  9
$STYLESHEET
  1

  9
$XEDIT
290
     1
  9
$CEPSNTYPE
380
     0
  9
$PSTYLEMODE
290
     1
  9
$FINGERPRINTGUID
  2
{CCF61CD3-7B6B-4B5E-956E-D49BC6EB0AF8}
  9
$VERSIONGUID
  2
{13791965-6858-4BE4-B66D-EF42326EB48F}
  9
$EXTNAMES
290
     1
  9
$PSVPSCALE
 40
0.0
  9
$OLESTARTUP
290
     0
  0
ENDSEC
  0
SECTION
  2
CLASSES
  0
CLASS
  1
ACDBDICTIONARYWDFLT
  2
AcDbDictionaryWithDefault
  3
AutoCAD 2000
 90
        0
280
     0
281
     0
  0
CLASS
  1
ACDBPLACEHOLDER
  2
AcDbPlaceHolder
  3
AutoCAD 2000
 90
        0
280
     0
281
     0
  0
CLASS
  1
LAYOUT
  2
AcDbLayout
  3
AutoCAD 2000
 90
        0
280
     0
281
     0
  0
CLASS
  1
DICTIONARYVAR
  2
AcDbDictionaryVar
  3
AutoCAD 2000
 90
        0
280
     0
281
     0
  0
ENDSEC
  0
SECTION
  2
TABLES
  0
TABLE
  2
VPORT
  5
19
330
0
100
AcDbSymbolTable
 70
     2
  0
VPORT
  5
282
330
19
100
AcDbSymbolTableRecord
100
AcDbViewportTableRecord
  2
*Active
 70
     0
 10
0.0
 20
0.0
 11
1.0
 21
1.0
 12
105.0020589969684
 22
148.5087866193242
 13
0.0
 23
0.0
 14
1.0
 24
1.0
 15
0.0
 25
0.0
 16
0.0
 26
0.0
 36
1.0
 17
0.0
 27
0.0
 37
0.0
 40
301.3551174273207
 41
2.407317073170731
 42
50.0
 43
0.0
 44
0.0
 50
0.0
 51
0.0
 71
     0
 72
   100
 73
     1
 74
     1
 75
     0
 76
     0
 77
     0
 78
     0
281
     0
 65
     1
110
0.0
120
0.0
130
0.0
111
1.0
121
0.0
131
0.0
112
0.0
122
1.0
132
0.0
 79
     0
146
0.0
  0
ENDTAB
  0
TABLE
  2
LTYPE
  5
14
330
0
100
AcDbSymbolTable
 70
     3
  0
LTYPE
  5
15
330
14
100
AcDbSymbolTableRecord
100
AcDbLinetypeTableRecord
  2
ByBlock
 70
     0
  3

 72
    65
 73
     0
 40
0.0
  0
LTYPE
  5
16
330
14
100
AcDbSymbolTableRecord
100
AcDbLinetypeTableRecord
  2
ByLayer
 70
     0
  3

 72
    65
 73
     0
 40
0.0
  0
LTYPE
  5
8
330
14
100
AcDbSymbolTableRecord
100
AcDbLinetypeTableRecord
  2
Continuous
 70
     0
  3
Solid line
 72
    65
 73
     0
 40
0.0
  0
LTYPE
  5
61
330
14
100
AcDbSymbolTableRecord
100
AcDbLinetypeTableRecord
  2
DASH
 70
     0
  3
Dash
 72
    65
 73
     2
 40
1.9999960661
 49
0.9999980329999999
 74
     0
 49
-0.9999980329999999
 74
     0
  0
LTYPE
  5
27
330
14
100
AcDbSymbolTableRecord
100
AcDbLinetypeTableRecord
  2
CENTER
 70
     0
  3
Center
 72
    65
 73
     4
 40
9.100006759199999
 49
6.5000119209
 74
     0
 49
-0.7999984026000001
 74
     0
 49
0.9999980329999999
 74
     0
 49
-0.7999984026000001
 74
     0
  0
ENDTAB
  0
TABLE
  2
LAYER
  5
10
330
0
100
AcDbSymbolTable
 70
     1
  0
LAYER
  5
4
330
10
100
AcDbSymbolTableRecord
100
AcDbLayerTableRecord
  2
0
 70
     0
 62
     7
  6
Continuous
370
    -3
390
5
  0
ENDTAB
  0
TABLE
  2
STYLE
  5
11
330
0
100
AcDbSymbolTable
 70
     1
  0
STYLE
  5
12
330
11
100
AcDbSymbolTableRecord
100
AcDbTextStyleTableRecord
  2
STANDARD
 70
     0
 40
0.0
 41
1.0
 50
0.0
 71
     0
 42
2.999994039499997
  3
romans.shx
  4
bigfont.shx
  0
ENDTAB
  0
TABLE
  2
VIEW
  5
17
330
0
100
AcDbSymbolTable
 70
     0
  0
ENDTAB
  0
TABLE
  2
UCS
  5
18
330
0
100
AcDbSymbolTable
 70
     0
  0
ENDTAB
  0
TABLE
  2
APPID
  5
1B
330
0
100
AcDbSymbolTable
 70
     2
  0
APPID
  5
1C
330
1B
100
AcDbSymbolTableRecord
100
AcDbRegAppTableRecord
  2
ACAD
 70
     0
  0
APPID
  5
280
330
1B
100
AcDbSymbolTableRecord
100
AcDbRegAppTableRecord
  2
DCO15
 70
     0
  0
ENDTAB
  0
TABLE
  2
DIMSTYLE
  5
1D
330
0
100
AcDbSymbolTable
 70
     1
100
AcDbDimStyleTable
 71
     0
  0
DIMSTYLE
105
23
330
1D
100
AcDbSymbolTableRecord
100
AcDbDimStyleTableRecord
  2
Standard
 70
     0
340
12
  0
ENDTAB
  0
TABLE
  2
BLOCK_RECORD
  5
1
330
0
100
AcDbSymbolTable
 70
     0
  0
BLOCK_RECORD
  5
2
330
1
100
AcDbSymbolTableRecord
100
AcDbBlockTableRecord
  2
*Model_Space
340
A
  0
BLOCK_RECORD
  5
C
330
1
100
AcDbSymbolTableRecord
100
AcDbBlockTableRecord
  2
*Paper_Space
340
F
  0
ENDTAB
  0
ENDSEC
  0
SECTION
  2
BLOCKS
  0
BLOCK
  5
3
330
2
100
AcDbEntity
  8
0
100
AcDbBlockBegin
  2
*Model_Space
 70
     2
 10
0.0
 20
0.0
 30
0.0
  3
*Model_Space
  1

  0
ENDBLK
  5
9
330
2
100
AcDbEntity
  8
0
100
AcDbBlockEnd
  0
BLOCK
  5
D
330
C
100
AcDbEntity
 67
     1
  8
0
100
AcDbBlockBegin
  2
*Paper_Space
 70
     0
 10
0.0
 20
0.0
 30
0.0
  3
*Paper_Space
  1

  0
ENDBLK
  5
E
330
C
100
AcDbEntity
 67
     1
  8
0
100
AcDbBlockEnd
  0
ENDSEC
  0
SECTION
  2
ENTITIES
  0
LINE
  5
24
330
2
100
AcDbEntity
  8
0
100
AcDbLine
 10
210.0
 20
0.0
 30
0.0
 11
210.0
 21
297.0
 31
0.0
  0
LINE
  5
25
330
2
100
AcDbEntity
  8
0
100
AcDbLine
 10
0.0
 20
297.0
 30
0.0
 11
0.0
 21
0.0
 31
0.0
  0
LINE
  5
26
330
2
100
AcDbEntity
  8
0
  6
CENTER
 62
     3
100
AcDbLine
 10
127.9832781780998
 20
169.2999267577999
 30
0.0
 11
169.9493578900998
 21
169.2999267577999
 31
0.0
  0
ARC
  5
28
330
2
100
AcDbEntity
  8
0
 62
     3
100
AcDbCircle
 10
146.8377093304998
 20
223.4111633301
 30
0.0
 40
3.6499996185
100
AcDbArc
 50
270.0000726275999
 51
344.4938415839997
  0
ARC
  5
29
330
2
100
AcDbEntity
  8
0
 62
     3
100
AcDbCircle
 10
146.8377093304998
 20
223.4111633301
 30
0.0
 40
3.0
100
AcDbArc
 50
270.0000726275999
 51
352.4566263825
  0
ARC
  5
2A
330
2
100
AcDbEntity
  8
0
 62
     3
100
AcDbCircle
 10
146.3377093304996
 20
211.3943939209
 30
0.0
 40
4.149999618499998
100
AcDbArc
 50
14.7884592135
 51
89.99998201389999
  0
ARC
  5
2B
330
2
100
AcDbEntity
  8
0
 62
     3
100
AcDbCircle
 10
146.3377093304996
 20
211.3943939209
 30
0.0
 40
3.5
100
AcDbArc
 50
7.7140532147
 51
89.99998201389999
  0
ARC
  5
2C
330
2
100
AcDbEntity
  8
0
 62
     3
100
AcDbCircle
 10
145.3297442425998
 20
209.9943847655999
 30
0.0
 40
3.5
100
AcDbArc
 50
7.508782124400001
 51
89.99998201389999
  0
ARC
  5
2D
330
2
100
AcDbEntity
  8
0
 62
     3
100
AcDbCircle
 10
146.8377093304998
 20
162.3886413573998
 30
0.0
 40
3.6499996185
100
AcDbArc
 50
15.50616183109999
 51
89.99998201389999
  0
ARC
  5
2E
330
2
100
AcDbEntity
  8
0
 62
     3
100
AcDbCircle
 10
146.8377093304998
 20
162.3886413573998
 30
0.0
 40
3.0
100
AcDbArc
 50
7.543377032599999
 51
89.99998201389999
  0
ARC
  5
2F
330
2
100
AcDbEntity
  8
0
 62
     3
100
AcDbCircle
 10
146.3377093304996
 20
174.4054107666
 30
0.0
 40
4.149999618499998
100
AcDbArc
 50
270.0000179861
 51
345.2115407865
  0
ARC
  5
30
330
2
100
AcDbEntity
  8
0
 62
     3
100
AcDbCircle
 10
146.3377093304996
 20
174.4054107666
 30
0.0
 40
3.5
100
AcDbArc
 50
270.0000179861
 51
352.2859467852999
  0
ARC
  5
31
330
2
100
AcDbEntity
  8
0
 62
     3
100
AcDbCircle
 10
145.3297442425998
 20
175.8054199218999
 30
0.0
 40
3.5
100
AcDbArc
 50
270.0000179861
 51
352.4912178756
  0
TEXT
  5
32
330
2
100
AcDbEntity
  8
0
 62
     5
100
AcDbText
 10
145.0
 20
10.0
 30
0.0
 40
5.0
  1
ＭＡ４-Ｈ００８６３Ｂ
 41
0.8418911459846412
 72
     5
 11
199.0413935612998
 21
10.0
 31
0.0
100
AcDbText
  0
LINE
  5
33
330
2
100
AcDbEntity
  8
0
100
AcDbLine
 10
0.0
 20
0.0
 30
0.0
 11
210.0
 21
0.0
 31
0.0
  0
LINE
  5
34
330
2
100
AcDbEntity
  8
0
  6
CENTER
 62
     3
100
AcDbLine
 10
85.60405149359995
 20
216.4998931885
 30
0.0
 11
171.2119158734997
 21
216.4998931885
 31
0.0
  0
LINE
  5
35
330
2
100
AcDbEntity
  8
0
  6
CENTER
 62
     3
100
AcDbLine
 10
80.72232236759996
 20
168.4999847412
 30
0.0
 11
151.1735705364999
 21
168.4999847412
 31
0.0
  0
LINE
  5
36
330
2
100
AcDbEntity
  8
0
 62
     3
100
AcDbLine
 10
87.39532651799995
 20
211.3999023437997
 30
0.0
 11
92.89540281189994
 21
211.3999023437997
 31
0.0
  0
LINE
  5
37
330
2
100
AcDbEntity
  8
0
 62
     3
100
AcDbLine
 10
87.39532651799995
 20
162.8999938965
 30
0.0
 11
92.89534177679994
 21
162.8999938965
 31
0.0
  0
LINE
  5
38
330
2
100
AcDbEntity
  8
0
 62
     3
100
AcDbLine
 10
87.39532651799995
 20
172.1000061035
 30
0.0
 11
92.89534177679994
 21
172.1000061035
 31
0.0
  0
LINE
  5
39
330
2
100
AcDbEntity
  8
0
  6
CENTER
 62
     3
100
AcDbLine
 10
86.39532651799994
 20
167.5
 30
0.0
 11
93.89532651799994
 21
167.5
 31
0.0
  0
LINE
  5
3A
330
2
100
AcDbEntity
  8
0
 62
     3
100
AcDbLine
 10
87.39532651799995
 20
172.8999938965
 30
0.0
 11
90.89532651799995
 21
172.8999938965
 31
0.0
  0
LINE
  5
3B
330
2
100
AcDbEntity
  8
0
 62
     3
100
AcDbLine
 10
87.39532651799995
 20
210.8999023437998
 30
0.0
 11
92.89540281189994
 21
210.8999023437998
 31
0.0
  0
LINE
  5
3C
330
2
100
AcDbEntity
  8
0
 62
     3
100
AcDbLine
 10
87.39532651799995
 20
217.6999053954999
 30
0.0
 11
92.89538755309996
 21
217.6999053954999
 31
0.0
  0
LINE
  5
3D
330
2
100
AcDbEntity
  8
0
 62
     3
100
AcDbLine
 10
87.39532651799995
 20
218.1999053954999
 30
0.0
 11
92.89538755309996
 21
218.1999053954999
 31
0.0
  0
LINE
  5
3E
330
2
100
AcDbEntity
  8
0
 62
     3
100
AcDbLine
 10
87.39532651799995
 20
162.0999908446998
 30
0.0
 11
90.89532651799995
 21
162.0999908446998
 31
0.0
  0
LINE
  5
3F
330
2
100
AcDbEntity
  8
0
 62
     3
100
AcDbLine
 10
87.39532651799995
 20
167.8999938965
 30
0.0
 11
90.89532651799995
 21
167.8999938965
 31
0.0
  0
LINE
  5
40
330
2
100
AcDbEntity
  8
0
 62
     3
100
AcDbLine
 10
87.39532651799995
 20
167.0999908446999
 30
0.0
 11
90.89532651799995
 21
167.0999908446999
 31
0.0
  0
LINE
  5
41
330
2
100
AcDbEntity
  8
0
  6
CENTER
 62
     3
100
AcDbLine
 10
86.39532651799994
 20
172.4999847412
 30
0.0
 11
93.89532651799994
 21
172.4999847412
 31
0.0
  0
LINE
  5
42
330
2
100
AcDbEntity
  8
0
  6
CENTER
 62
     3
100
AcDbLine
 10
86.39532651799994
 20
162.5
 30
0.0
 11
93.89532651799994
 21
162.5
 31
0.0
  0
LINE
  5
43
330
2
100
AcDbEntity
  8
0
  6
CENTER
 62
     3
100
AcDbLine
 10
52.43929752169993
 20
182.9000244140999
 30
0.0
 11
52.43929752169993
 21
154.1000213623
 31
0.0
  0
LINE
  5
44
330
2
100
AcDbEntity
  8
0
 62
     3
100
AcDbLine
 10
57.53928836639993
 20
167.8999938965
 30
0.0
 11
58.03928836639993
 21
167.8999938965
 31
0.0
  0
LINE
  5
45
330
2
100
AcDbEntity
  8
0
 62
     3
100
AcDbLine
 10
57.53928836639993
 20
162.0999908446998
 30
0.0
 11
58.03928836639993
 21
162.0999908446998
 31
0.0
  0
ARC
  5
46
330
2
100
AcDbEntity
  8
0
 62
     3
100
AcDbCircle
 10
52.43931278039993
 20
168.5000305176
 30
0.0
 40
11.89999961849999
100
AcDbArc
 50
228.4085919033
 51
311.5914304084999
  0
ARC
  5
47
330
2
100
AcDbEntity
  8
0
 62
     3
100
AcDbCircle
 10
52.43928226289995
 20
168.5000457763998
 30
0.0
 40
10.5
100
AcDbArc
 50
41.0823276877
 51
138.9176329249999
  0
ARC
  5
48
330
2
100
AcDbEntity
  8
0
 62
     3
100
AcDbCircle
 10
52.43928226289995
 20
168.5000457763998
 30
0.0
 40
10.5
100
AcDbArc
 50
237.9536446645999
 51
302.0463913076
  0
LINE
  5
49
330
2
100
AcDbEntity
  8
0
 62
     3
100
AcDbLine
 10
58.20076144869995
 20
181.9272045836999
 30
0.0
 11
56.10432659279997
 21
178.3395862472
 31
0.0
  0
LINE
  5
4A
330
2
100
AcDbEntity
  8
0
 62
     3
100
AcDbLine
 10
59.22227434079997
 20
181.0986406475999
 30
0.0
 11
57.29914768149996
 21
177.807603749
 31
0.0
  0
LINE
  5
4B
330
2
100
AcDbEntity
  8
0
 62
     3
100
AcDbLine
 10
58.03928836639993
 20
168.9000396728999
 30
0.0
 11
57.53928836639993
 21
168.9000396728999
 31
0.0
  0
LINE
  5
4C
330
2
100
AcDbEntity
  8
0
 62
     3
100
AcDbLine
 10
57.53928836639993
 20
166.1000518798998
 30
0.0
 11
58.03928836639993
 21
166.1000518798998
 31
0.0
  0
LINE
  5
4D
330
2
100
AcDbEntity
  8
0
 62
     3
100
AcDbLine
 10
58.03928836639993
 20
174.9000396728999
 30
0.0
 11
57.53928836639993
 21
174.9000396728999
 31
0.0
  0
LINE
  5
4E
330
2
100
AcDbEntity
  8
0
 62
     3
100
AcDbLine
 10
57.53928836639993
 20
172.1000518799
 30
0.0
 11
58.03928836639993
 21
172.1000518799
 31
0.0
  0
LINE
  5
4F
330
2
100
AcDbEntity
  8
0
 62
     3
100
AcDbLine
 10
58.03928836639993
 20
162.9000396728999
 30
0.0
 11
57.53928836639993
 21
162.9000396728999
 31
0.0
  0
LINE
  5
50
330
2
100
AcDbEntity
  8
0
 62
     3
100
AcDbLine
 10
57.53928836639993
 20
160.1000518799
 30
0.0
 11
58.03928836639993
 21
160.1000518799
 31
0.0
  0
LINE
  5
51
330
2
100
AcDbEntity
  8
0
 62
     3
100
AcDbLine
 10
44.53927310759993
 20
175.4000396728999
 30
0.0
 11
60.33927615939993
 21
175.4000396728999
 31
0.0
  0
LINE
  5
52
330
2
100
AcDbEntity
  8
0
 62
     3
100
AcDbLine
 10
44.53927310759993
 20
159.6000518799
 30
0.0
 11
60.33927615939993
 21
159.6000518799
 31
0.0
  0
LINE
  5
53
330
2
100
AcDbEntity
  8
0
  6
CENTER
 62
     3
100
AcDbLine
 10
38.03931888399995
 20
168.4999847412
 30
0.0
 11
66.55706485559996
 21
168.4999847412
 31
0.0
  0
LINE
  5
54
330
2
100
AcDbEntity
  8
0
 62
     3
100
AcDbLine
 10
57.53928836639993
 20
172.8999938965
 30
0.0
 11
58.03928836639993
 21
172.8999938965
 31
0.0
  0
LINE
  5
55
330
2
100
AcDbEntity
  8
0
 62
     3
100
AcDbLine
 10
57.53928836639993
 20
167.0999908446999
 30
0.0
 11
58.03928836639993
 21
167.0999908446999
 31
0.0
  0
ARC
  5
56
330
2
100
AcDbEntity
  8
0
 62
     3
100
AcDbCircle
 10
52.43931278039993
 20
168.5000305176
 30
0.0
 40
11.89999961849999
100
AcDbArc
 50
68.3999732166
 51
221.5909529784996
  0
ARC
  5
57
330
2
100
AcDbEntity
  8
0
 62
     3
100
AcDbCircle
 10
52.43928226289995
 20
168.5000457763998
 30
0.0
 40
10.5
100
AcDbArc
 50
147.9536999894
 51
212.0462280663
  0
LINE
  5
58
330
2
100
AcDbEntity
  8
0
 62
     3
100
AcDbLine
 10
44.33926090059991
 20
174.4000396728999
 30
0.0
 11
50.73928531459995
 21
174.4000396728999
 31
0.0
  0
LINE
  5
59
330
2
100
AcDbEntity
  8
0
 62
     3
100
AcDbLine
 10
44.33926090059991
 20
160.6000366211
 30
0.0
 11
50.73928531459995
 21
160.6000366211
 31
0.0
  0
LINE
  5
5A
330
2
100
AcDbEntity
  8
0
 62
     3
100
AcDbLine
 10
44.33926090059991
 20
174.4000396728999
 30
0.0
 11
44.33926090059991
 21
160.6000366211
 31
0.0
  0
LINE
  5
5B
330
2
100
AcDbEntity
  8
0
 62
     3
100
AcDbLine
 10
46.93928226289995
 20
174.4000396728999
 30
0.0
 11
46.93928226289995
 21
160.6000366211
 31
0.0
  0
LINE
  5
5C
330
2
100
AcDbEntity
  8
0
 62
     3
100
AcDbLine
 10
43.53927310759993
 20
162.9500427246
 30
0.0
 11
43.53927310759993
 21
172.0500335693
 31
0.0
  0
LINE
  5
5D
330
2
100
AcDbEntity
  8
0
 62
     3
100
AcDbLine
 10
43.53927310759993
 20
160.6000518799
 30
0.0
 11
43.53927310759993
 21
174.4000396728999
 31
0.0
  0
ARC
  5
5E
330
2
100
AcDbEntity
  8
0
 62
     3
100
AcDbCircle
 10
44.53927310759993
 20
160.6000518799
 30
0.0
 40
1.0
100
AcDbArc
 50
180.0000359722
 51
270.0000179861
  0
LINE
  5
5F
330
2
100
AcDbEntity
  8
0
 62
     3
100
AcDbLine
 10
44.33926090059991
 20
162.9500427246
 30
0.0
 11
43.53927310759993
 21
162.9500427246
 31
0.0
  0
LINE
  5
60
330
2
100
AcDbEntity
  8
0
  6
DASH
 62
     3
100
AcDbLine
 10
48.93928226289995
 20
159.6000518799
 30
0.0
 11
48.93928226289995
 21
160.6000518799
 31
0.0
  0
LINE
  5
62
330
2
100
AcDbEntity
  8
0
 62
     3
100
AcDbLine
 10
44.33926090059991
 20
172.0500488280999
 30
0.0
 11
43.53927310759993
 21
172.0500488280999
 31
0.0
  0
ARC
  5
63
330
2
100
AcDbEntity
  8
0
 62
     3
100
AcDbCircle
 10
44.53927310759993
 20
174.4000396728999
 30
0.0
 40
1.0
100
AcDbArc
 50
90.83867460250003
 51
179.9999640277999
  0
LINE
  5
64
330
2
100
AcDbEntity
  8
0
  6
DASH
 62
     3
100
AcDbLine
 10
48.93928226289995
 20
174.4000396728999
 30
0.0
 11
48.93928226289995
 21
175.4000396728999
 31
0.0
  0
LINE
  5
65
330
2
100
AcDbEntity
  8
0
 62
     3
100
AcDbLine
 10
52.13927921109996
 20
160.6000366211
 30
0.0
 11
52.13927921109996
 21
174.4000396728999
 31
0.0
  0
LINE
  5
66
330
2
100
AcDbEntity
  8
0
 62
     3
100
AcDbLine
 10
53.73927005579997
 20
160.6000366211
 30
0.0
 11
53.73927005579997
 21
174.4000396728999
 31
0.0
  0
LINE
  5
67
330
2
100
AcDbEntity
  8
0
 62
     3
100
AcDbLine
 10
51.23928531459995
 20
160.6000366211
 30
0.0
 11
57.53928836639993
 21
160.6000366211
 31
0.0
  0
LINE
  5
68
330
2
100
AcDbEntity
  8
0
 62
     3
100
AcDbLine
 10
50.73928531459995
 20
162.9000396728999
 30
0.0
 11
50.73928531459995
 21
160.1000518799
 31
0.0
  0
LINE
  5
69
330
2
100
AcDbEntity
  8
0
 62
     3
100
AcDbLine
 10
51.23928531459995
 20
160.1000518799
 30
0.0
 11
51.23928531459995
 21
162.9000396728999
 31
0.0
  0
LINE
  5
6A
330
2
100
AcDbEntity
  8
0
  6
DASH
 62
     3
100
AcDbLine
 10
51.33927615939995
 20
159.6000518799
 30
0.0
 11
51.33927615939995
 21
160.6000518799
 31
0.0
  0
LINE
  5
6B
330
2
100
AcDbEntity
  8
0
 62
     3
100
AcDbLine
 10
50.73928531459995
 20
160.1000518799
 30
0.0
 11
51.23928531459995
 21
160.1000518799
 31
0.0
  0
LINE
  5
6C
330
2
100
AcDbEntity
  8
0
 62
     3
100
AcDbLine
 10
50.73928531459995
 20
162.0999908446998
 30
0.0
 11
51.23928531459995
 21
162.0999908446998
 31
0.0
  0
LINE
  5
6D
330
2
100
AcDbEntity
  8
0
 62
     3
100
AcDbLine
 10
51.23928531459995
 20
162.9000396728999
 30
0.0
 11
50.73928531459995
 21
162.9000396728999
 31
0.0
  0
LINE
  5
6E
330
2
100
AcDbEntity
  8
0
 62
     3
100
AcDbLine
 10
57.53928836639993
 20
162.9000396728999
 30
0.0
 11
57.53928836639993
 21
160.1000518799
 31
0.0
  0
LINE
  5
6F
330
2
100
AcDbEntity
  8
0
  6
DASH
 62
     3
100
AcDbLine
 10
55.73928531459995
 20
159.6000518799
 30
0.0
 11
55.73928531459995
 21
160.6000518799
 31
0.0
  0
LINE
  5
70
330
2
100
AcDbEntity
  8
0
 62
     3
100
AcDbLine
 10
51.23928531459995
 20
174.4000396728999
 30
0.0
 11
57.53928836639993
 21
174.4000396728999
 31
0.0
  0
LINE
  5
71
330
2
100
AcDbEntity
  8
0
 62
     3
100
AcDbLine
 10
50.73928531459995
 20
168.9000396728999
 30
0.0
 11
50.73928531459995
 21
166.1000518798998
 31
0.0
  0
LINE
  5
72
330
2
100
AcDbEntity
  8
0
 62
     3
100
AcDbLine
 10
51.23928531459995
 20
168.9000396728999
 30
0.0
 11
50.73928531459995
 21
168.9000396728999
 31
0.0
  0
LINE
  5
73
330
2
100
AcDbEntity
  8
0
 62
     3
100
AcDbLine
 10
51.23928531459995
 20
166.1000518798998
 30
0.0
 11
51.23928531459995
 21
168.9000396728999
 31
0.0
  0
LINE
  5
74
330
2
100
AcDbEntity
  8
0
 62
     3
100
AcDbLine
 10
50.73928531459995
 20
166.1000518798998
 30
0.0
 11
51.23928531459995
 21
166.1000518798998
 31
0.0
  0
LINE
  5
75
330
2
100
AcDbEntity
  8
0
 62
     3
100
AcDbLine
 10
50.73928531459995
 20
167.0999908446999
 30
0.0
 11
51.23928531459995
 21
167.0999908446999
 31
0.0
  0
LINE
  5
76
330
2
100
AcDbEntity
  8
0
 62
     3
100
AcDbLine
 10
50.73928531459995
 20
167.8999938965
 30
0.0
 11
51.23928531459995
 21
167.8999938965
 31
0.0
  0
LINE
  5
77
330
2
100
AcDbEntity
  8
0
 62
     3
100
AcDbLine
 10
50.73928531459995
 20
174.9000396728999
 30
0.0
 11
50.73928531459995
 21
172.1000518799
 31
0.0
  0
LINE
  5
78
330
2
100
AcDbEntity
  8
0
 62
     3
100
AcDbLine
 10
51.23928531459995
 20
174.9000396728999
 30
0.0
 11
50.73928531459995
 21
174.9000396728999
 31
0.0
  0
LINE
  5
79
330
2
100
AcDbEntity
  8
0
 62
     3
100
AcDbLine
 10
51.23928531459995
 20
172.1000518799
 30
0.0
 11
51.23928531459995
 21
174.9000396728999
 31
0.0
  0
LINE
  5
7A
330
2
100
AcDbEntity
  8
0
 62
     3
100
AcDbLine
 10
50.73928531459995
 20
172.1000518799
 30
0.0
 11
51.23928531459995
 21
172.1000518799
 31
0.0
  0
LINE
  5
7B
330
2
100
AcDbEntity
  8
0
  6
DASH
 62
     3
100
AcDbLine
 10
51.33927615939995
 20
174.4000396728999
 30
0.0
 11
51.33927615939995
 21
175.4000396728999
 31
0.0
  0
LINE
  5
7C
330
2
100
AcDbEntity
  8
0
 62
     3
100
AcDbLine
 10
50.73928531459995
 20
172.8999938965
 30
0.0
 11
51.23928531459995
 21
172.8999938965
 31
0.0
  0
LINE
  5
7D
330
2
100
AcDbEntity
  8
0
 62
     3
100
AcDbLine
 10
57.53928836639993
 20
168.9000396728999
 30
0.0
 11
57.53928836639993
 21
166.1000518798998
 31
0.0
  0
LINE
  5
7E
330
2
100
AcDbEntity
  8
0
 62
     3
100
AcDbLine
 10
57.53928836639993
 20
174.9000396728999
 30
0.0
 11
57.53928836639993
 21
172.1000518799
 31
0.0
  0
LINE
  5
7F
330
2
100
AcDbEntity
  8
0
  6
DASH
 62
     3
100
AcDbLine
 10
55.73928531459995
 20
174.4000396728999
 30
0.0
 11
55.73928531459995
 21
175.4000396728999
 31
0.0
  0
LINE
  5
80
330
2
100
AcDbEntity
  8
0
 62
     3
100
AcDbLine
 10
60.08566991259993
 20
180.5941130190999
 30
0.0
 11
58.16253555469993
 21
177.3030629462
 31
0.0
  0
LINE
  5
81
330
2
100
AcDbEntity
  8
0
 62
     3
100
AcDbLine
 10
61.30897760229992
 20
180.1109097404
 30
0.0
 11
59.21253504789996
 21
176.5232782295999
 31
0.0
  0
ARC
  5
82
330
2
100
AcDbEntity
  8
0
 62
     3
100
AcDbCircle
 10
52.43931278039993
 20
168.5000305176
 30
0.0
 40
11.89999961849999
100
AcDbArc
 50
38.39990407989999
 51
51.00007996639999
  0
ARC
  5
83
330
2
100
AcDbEntity
  8
0
  6
DASH
 62
     3
100
AcDbCircle
 10
64.63795169649995
 20
176.3789672851999
 30
0.0
 40
1.0
100
AcDbArc
 50
29.6992573604
 51
119.6996116195998
  0
LINE
  5
84
330
2
100
AcDbEntity
  8
0
  6
DASH
 62
     3
100
AcDbLine
 10
64.61289219259995
 20
176.0192623061
 30
0.0
 11
65.10835085509995
 21
175.1506308239
 31
0.0
  0
LINE
  5
85
330
2
100
AcDbEntity
  8
0
  6
DASH
 62
     3
100
AcDbLine
 10
65.10835085509995
 20
175.1506308239
 30
0.0
 11
61.79736929699996
 21
173.2620802381999
 31
0.0
  0
LINE
  5
86
330
2
100
AcDbEntity
  8
0
  6
DASH
 62
     3
100
AcDbLine
 10
65.92616471389996
 20
174.1205107210998
 30
0.0
 11
62.31678989779993
 21
172.0617596215999
 31
0.0
  0
ARC
  5
87
330
2
100
AcDbEntity
  8
0
 62
     3
100
AcDbCircle
 10
52.43931278039993
 20
168.5000305176
 30
0.0
 40
11.89999961849999
100
AcDbArc
 50
318.4084612191
 51
20.99996984849997
  0
ARC
  5
88
330
2
100
AcDbEntity
  8
0
 62
     3
100
AcDbCircle
 10
52.43928226289995
 20
168.5000457763998
 30
0.0
 40
10.5
100
AcDbArc
 50
327.9535788672
 51
32.04642113279993
  0
LINE
  5
89
330
2
100
AcDbEntity
  8
0
 62
     3
100
AcDbLine
 10
58.93928226289995
 20
160.6000366211
 30
0.0
 11
58.93928226289995
 21
174.4000396728999
 31
0.0
  0
LINE
  5
8A
330
2
100
AcDbEntity
  8
0
 62
     3
100
AcDbLine
 10
60.53927310759993
 20
160.9000396728999
 30
0.0
 11
60.53927310759993
 21
174.1000366211
 31
0.0
  0
LINE
  5
8B
330
2
100
AcDbEntity
  8
0
 62
     3
100
AcDbLine
 10
61.33927615939995
 20
160.6000518799
 30
0.0
 11
61.33927615939995
 21
174.4000396728999
 31
0.0
  0
ARC
  5
8C
330
2
100
AcDbEntity
  8
0
 62
     3
100
AcDbCircle
 10
60.33927615939993
 20
160.6000518799
 30
0.0
 40
1.0
100
AcDbArc
 50
270.0000179861
 51
0.0
  0
LINE
  5
8D
330
2
100
AcDbEntity
  8
0
 62
     3
100
AcDbLine
 10
58.03928836639993
 20
160.1000518799
 30
0.0
 11
58.03928836639993
 21
162.9000396728999
 31
0.0
  0
LINE
  5
8E
330
2
100
AcDbEntity
  8
0
  6
DASH
 62
     3
100
AcDbLine
 10
58.13927921109996
 20
159.6000518799
 30
0.0
 11
58.13927921109996
 21
160.6000518799
 31
0.0
  0
LINE
  5
8F
330
2
100
AcDbEntity
  8
0
 62
     3
100
AcDbLine
 10
58.03928836639993
 20
160.6000366211
 30
0.0
 11
60.23927005579998
 21
160.6000366211
 31
0.0
  0
LINE
  5
90
330
2
100
AcDbEntity
  8
0
 62
     3
100
AcDbLine
 10
60.53931177549995
 20
160.8999370349
 30
0.0
 11
60.23931843659998
 21
160.5999426591
 31
0.0
  0
ARC
  5
91
330
2
100
AcDbEntity
  8
0
 62
     3
100
AcDbCircle
 10
60.33927615939993
 20
174.4000396728999
 30
0.0
 40
1.0
100
AcDbArc
 50
0.0
 51
89.16128942530001
  0
LINE
  5
92
330
2
100
AcDbEntity
  8
0
  6
DASH
 62
     3
100
AcDbLine
 10
64.14251806489997
 20
177.2475761041999
 30
0.0
 11
60.74928054099997
 21
175.3121075425999
 31
0.0
  0
LINE
  5
93
330
2
100
AcDbEntity
  8
0
  6
DASH
 62
     3
100
AcDbLine
 10
64.61289219259995
 20
176.0192623061
 30
0.0
 11
61.30191063449996
 21
174.1307117202999
 31
0.0
  0
LINE
  5
94
330
2
100
AcDbEntity
  8
0
 62
     3
100
AcDbLine
 10
58.03928836639993
 20
166.1000518798998
 30
0.0
 11
58.03928836639993
 21
168.9000396728999
 31
0.0
  0
LINE
  5
95
330
2
100
AcDbEntity
  8
0
 62
     3
100
AcDbLine
 10
58.03928836639993
 20
174.4000396728999
 30
0.0
 11
60.23927005579998
 21
174.4000396728999
 31
0.0
  0
LINE
  5
96
330
2
100
AcDbEntity
  8
0
 62
     3
100
AcDbLine
 10
58.03928836639993
 20
172.1000518799
 30
0.0
 11
58.03928836639993
 21
174.9000396728999
 31
0.0
  0
LINE
  5
97
330
2
100
AcDbEntity
  8
0
  6
DASH
 62
     3
100
AcDbLine
 10
58.13927921109996
 20
174.4000396728999
 30
0.0
 11
58.13927921109996
 21
175.4000396728999
 31
0.0
  0
LINE
  5
98
330
2
100
AcDbEntity
  8
0
 62
     3
100
AcDbLine
 10
60.23933851829998
 20
174.3999205633
 30
0.0
 11
60.53933264119996
 21
174.0999269713999
 31
0.0
  0
ARC
  5
99
330
2
100
AcDbEntity
  8
0
 62
     3
100
AcDbCircle
 10
52.43931278039993
 20
168.5000305176
 30
0.0
 40
11.89999961849999
100
AcDbArc
 50
27.2918137534
 51
32.1080021184
  0
ARC
  5
9A
330
2
100
AcDbEntity
  8
0
  6
DASH
 62
     3
100
AcDbCircle
 10
65.43082889369995
 20
174.9892578125
 30
0.0
 40
0.9999999404
100
AcDbArc
 50
299.7001940068999
 51
29.70015894540005
  0
LINE
  5
9B
330
2
100
AcDbEntity
  8
0
  6
DASH
 62
     3
100
AcDbLine
 10
65.50661576969992
 20
176.8743900302998
 30
0.0
 11
66.29933753349994
 21
175.4846008657
 31
0.0
  0
ARC
  5
9C
330
2
100
AcDbEntity
  8
0
 62
     3
100
AcDbCircle
 10
60.44566043669993
 20
180.6156158446999
 30
0.0
 40
0.9999999404
100
AcDbArc
 50
329.7001333699999
 51
59.70011538400002
  0
ARC
  5
9D
330
2
100
AcDbEntity
  8
0
 62
     3
100
AcDbCircle
 10
59.06423648649997
 20
181.4228820800999
 30
0.0
 40
0.9999999404
100
AcDbArc
 50
59.70022466699998
 51
149.6999881147999
  0
LINE
  5
9E
330
2
100
AcDbEntity
  8
0
 62
     3
100
AcDbLine
 10
59.22227434079997
 20
181.0986406475999
 30
0.0
 11
60.08566991259993
 21
180.5941130190999
 31
0.0
  0
ARC
  5
9F
330
2
100
AcDbEntity
  8
0
 62
     3
100
AcDbCircle
 10
52.43931278039993
 20
168.5000305176
 30
0.0
 40
11.89999961849999
100
AcDbArc
 50
57.29190679580001
 51
62.10805759470002
  0
LINE
  5
A0
330
2
100
AcDbEntity
  8
0
 62
     3
100
AcDbLine
 10
59.55280953189996
 20
182.2953491962
 30
0.0
 11
60.96549732419994
 21
181.4698411151999
 31
0.0
  0
LINE
  5
A1
330
2
100
AcDbEntity
  8
0
 62
     3
100
AcDbLine
 10
87.39532651799995
 20
162.8999786377
 30
0.0
 11
87.39532651799995
 21
162.0999755859999
 31
0.0
  0
LINE
  5
A2
330
2
100
AcDbEntity
  8
0
 62
     3
100
AcDbLine
 10
87.39532651799995
 20
167.8999786377
 30
0.0
 11
87.39532651799995
 21
167.099975586
 31
0.0
  0
LINE
  5
A3
330
2
100
AcDbEntity
  8
0
 62
     3
100
AcDbLine
 10
87.39532651799995
 20
172.8999786377
 30
0.0
 11
87.39532651799995
 21
172.0999908447
 31
0.0
  0
LINE
  5
A4
330
2
100
AcDbEntity
  8
0
 62
     3
100
AcDbLine
 10
87.39537229439994
 20
211.3999023437997
 30
0.0
 11
87.39537229439994
 21
210.8999023437998
 31
0.0
  0
LINE
  5
A5
330
2
100
AcDbEntity
  8
0
 62
     3
100
AcDbLine
 10
87.39537229439994
 20
218.1999053954999
 30
0.0
 11
87.39537229439994
 21
217.6999053954999
 31
0.0
  0
LINE
  5
A6
330
2
100
AcDbEntity
  8
0
 62
     3
100
AcDbLine
 10
117.8953174719998
 20
224.3994711852999
 30
0.0
 11
118.3615277262997
 21
217.4995539806999
 31
0.0
  0
LINE
  5
A7
330
2
100
AcDbEntity
  8
0
 62
     3
100
AcDbLine
 10
116.1452807415997
 20
208.5999298095999
 30
0.0
 11
120.0953082073997
 21
208.5999298095999
 31
0.0
  0
LINE
  5
A8
330
2
100
AcDbEntity
  8
0
 62
     3
100
AcDbLine
 10
117.9255421421998
 20
215.4990588226998
 30
0.0
 11
118.3917194795998
 21
208.5996287885
 31
0.0
  0
LINE
  5
A9
330
2
100
AcDbEntity
  8
0
 62
     3
100
AcDbLine
 10
120.0953082073997
 20
224.3998565674
 30
0.0
 11
116.8327349652998
 21
224.3998565674
 31
0.0
  0
LINE
  5
AA
330
2
100
AcDbEntity
  8
0
 62
     3
100
AcDbLine
 10
121.2953051556998
 20
217.4998321533
 30
0.0
 11
116.8615283001998
 21
217.4998321533
 31
0.0
  0
LINE
  5
AB
330
2
100
AcDbEntity
  8
0
 62
     3
100
AcDbLine
 10
121.2953051556998
 20
215.4998321533
 30
0.0
 11
116.3953112591997
 21
215.4998321533
 31
0.0
  0
LINE
  5
AC
330
2
100
AcDbEntity
  8
0
 62
     3
100
AcDbLine
 10
120.0953082073997
 20
176.4999542236
 30
0.0
 11
116.1953143109996
 21
176.4999542236
 31
0.0
  0
LINE
  5
AD
330
2
100
AcDbEntity
  8
0
 62
     3
100
AcDbLine
 10
120.0953082073997
 20
175.8999786377
 30
0.0
 11
115.8953265179997
 21
175.8999786377
 31
0.0
  0
LINE
  5
AE
330
2
100
AcDbEntity
  8
0
 62
     3
100
AcDbLine
 10
115.8953265179997
 20
161.1000366210999
 30
0.0
 11
120.0953234661997
 21
161.1000366210999
 31
0.0
  0
LINE
  5
AF
330
2
100
AcDbEntity
  8
0
 62
     3
100
AcDbLine
 10
116.1953143109996
 20
160.5000457763999
 30
0.0
 11
120.0953234661997
 21
160.5000457763999
 31
0.0
  0
LINE
  5
B0
330
2
100
AcDbEntity
  8
0
 62
     3
100
AcDbLine
 10
104.8953875530998
 20
175.3999938965
 30
0.0
 11
92.89538755309996
 21
175.3999938965
 31
0.0
  0
LINE
  5
B1
330
2
100
AcDbEntity
  8
0
 62
     3
100
AcDbLine
 10
104.8953722943998
 20
159.6000061035
 30
0.0
 11
92.89537229439995
 21
159.6000061035
 31
0.0
  0
LINE
  5
B2
330
2
100
AcDbEntity
  8
0
 62
     3
100
AcDbLine
 10
92.89532651799994
 20
175.3999938965
 30
0.0
 11
92.89532651799994
 21
159.6000061035
 31
0.0
  0
LINE
  5
B3
330
2
100
AcDbEntity
  8
0
 62
     3
100
AcDbLine
 10
90.89532651799995
 20
160.1000061034999
 30
0.0
 11
92.89534177679994
 21
160.1000061034999
 31
0.0
  0
LINE
  5
B4
330
2
100
AcDbEntity
  8
0
 62
     3
100
AcDbLine
 10
90.89532651799995
 20
162.0999755859999
 30
0.0
 11
90.89532651799995
 21
160.0999908446999
 31
0.0
  0
LINE
  5
B5
330
2
100
AcDbEntity
  8
0
 62
     3
100
AcDbLine
 10
90.89532651799995
 20
174.8999938965
 30
0.0
 11
92.89534177679994
 21
174.8999938965
 31
0.0
  0
LINE
  5
B6
330
2
100
AcDbEntity
  8
0
 62
     3
100
AcDbLine
 10
90.89532651799995
 20
166.1000061034999
 30
0.0
 11
92.89534177679994
 21
166.1000061034999
 31
0.0
  0
LINE
  5
B7
330
2
100
AcDbEntity
  8
0
 62
     3
100
AcDbLine
 10
90.89532651799995
 20
168.8999938965
 30
0.0
 11
92.89534177679994
 21
168.8999938965
 31
0.0
  0
LINE
  5
B8
330
2
100
AcDbEntity
  8
0
 62
     3
100
AcDbLine
 10
90.89532651799995
 20
168.8999786376999
 30
0.0
 11
90.89532651799995
 21
167.8999786377
 31
0.0
  0
LINE
  5
B9
330
2
100
AcDbEntity
  8
0
 62
     3
100
AcDbLine
 10
90.89532651799995
 20
167.099975586
 30
0.0
 11
90.89532651799995
 21
166.0999908446999
 31
0.0
  0
LINE
  5
BA
330
2
100
AcDbEntity
  8
0
 62
     3
100
AcDbLine
 10
90.89532651799995
 20
174.8999786377
 30
0.0
 11
90.89532651799995
 21
172.8999786377
 31
0.0
  0
LINE
  5
BB
330
2
100
AcDbEntity
  8
0
 62
     3
100
AcDbLine
 10
114.6453417767997
 20
179.0000305175999
 30
0.0
 11
114.6453417767997
 21
171.728302002
 31
0.0
  0
LINE
  5
BC
330
2
100
AcDbEntity
  8
0
 62
     3
100
AcDbLine
 10
113.6453417767997
 20
179.0000305175999
 30
0.0
 11
113.6453417767997
 21
171.728302002
 31
0.0
  0
LINE
  5
BD
330
2
100
AcDbEntity
  8
0
 62
     3
100
AcDbLine
 10
112.5953387249998
 20
182.4228515625
 30
0.0
 11
112.5953387249998
 21
171.7282714844
 31
0.0
  0
LINE
  5
BE
330
2
100
AcDbEntity
  8
0
 62
     3
100
AcDbLine
 10
111.5953387249999
 20
182.4228515625
 30
0.0
 11
111.5953387249999
 21
171.7282714844
 31
0.0
  0
LINE
  5
BF
330
2
100
AcDbEntity
  8
0
 62
     3
100
AcDbLine
 10
104.8953265179997
 20
177.9999847412
 30
0.0
 11
104.8953265179997
 21
159.0000457763999
 31
0.0
  0
LINE
  5
C0
330
2
100
AcDbEntity
  8
0
 62
     3
100
AcDbLine
 10
110.3953265179998
 20
178.9999847412
 30
0.0
 11
110.3953265179998
 21
169.0999908446999
 31
0.0
  0
LINE
  5
C1
330
2
100
AcDbEntity
  8
0
 62
     3
100
AcDbLine
 10
106.0953387249996
 20
178.9999847412
 30
0.0
 11
106.0953387249996
 21
169.0999908446999
 31
0.0
  0
LINE
  5
C2
330
2
100
AcDbEntity
  8
0
 62
     3
100
AcDbLine
 10
115.3953265179997
 20
178.9999847412
 30
0.0
 11
115.3953265179997
 21
158.0
 31
0.0
  0
LINE
  5
C3
330
2
100
AcDbEntity
  8
0
 62
     3
100
AcDbLine
 10
115.3953570355997
 20
158.0
 30
0.0
 11
105.8953722943998
 21
158.0
 31
0.0
  0
LINE
  5
C4
330
2
100
AcDbEntity
  8
0
 62
     3
100
AcDbLine
 10
110.3953265179998
 20
167.8999938965
 30
0.0
 11
110.3953265179998
 21
158.0
 31
0.0
  0
LINE
  5
C5
330
2
100
AcDbEntity
  8
0
 62
     3
100
AcDbLine
 10
106.0953387249996
 20
167.8999938965
 30
0.0
 11
106.0953387249996
 21
158.0
 31
0.0
  0
LINE
  5
C6
330
2
100
AcDbEntity
  8
0
 62
     3
100
AcDbLine
 10
110.3953722943997
 20
159.8999938965
 30
0.0
 11
106.0953845013998
 21
159.8999938965
 31
0.0
  0
ARC
  5
C7
330
2
100
AcDbEntity
  8
0
 62
     3
100
AcDbCircle
 10
105.8953265179997
 20
159.0000915527
 30
0.0
 40
1.0
100
AcDbArc
 50
180.0000359722
 51
270.0000179861
  0
LINE
  5
C8
330
2
100
AcDbEntity
  8
0
 62
     3
100
AcDbLine
 10
110.3953722943997
 20
177.0999908446999
 30
0.0
 11
106.0953845013998
 21
177.0999908446999
 31
0.0
  0
LINE
  5
C9
330
2
100
AcDbEntity
  8
0
 62
     3
100
AcDbLine
 10
110.3953417767997
 20
167.8999938965
 30
0.0
 11
106.0953539837997
 21
167.8999938965
 31
0.0
  0
LINE
  5
CA
330
2
100
AcDbEntity
  8
0
 62
     3
100
AcDbLine
 10
110.3953417767997
 20
169.0999908446999
 30
0.0
 11
106.0953539837997
 21
169.0999908446999
 31
0.0
  0
LINE
  5
CB
330
2
100
AcDbEntity
  8
0
 62
     3
100
AcDbLine
 10
116.1953143109996
 20
176.4999084472999
 30
0.0
 11
116.1953143109996
 21
160.4999999999999
 31
0.0
  0
LINE
  5
CC
330
2
100
AcDbEntity
  8
0
 62
     3
100
AcDbLine
 10
115.8953265179997
 20
175.8999328612999
 30
0.0
 11
115.8953265179997
 21
161.0999908446999
 31
0.0
  0
LINE
  5
CD
330
2
100
AcDbEntity
  8
0
 62
     3
100
AcDbLine
 10
116.1953776240997
 20
160.4999306595999
 30
0.0
 11
115.8953770448997
 21
161.0999323378998
 31
0.0
  0
LINE
  5
CE
330
2
100
AcDbEntity
  8
0
 62
     3
100
AcDbLine
 10
115.8953265179997
 20
161.1499938965
 30
0.0
 11
115.3953417767997
 21
161.1499938965
 31
0.0
  0
LINE
  5
CF
330
2
100
AcDbEntity
  8
0
 62
     3
100
AcDbLine
 10
111.5953387249999
 20
171.728302002
 30
0.0
 11
115.3953265179997
 21
171.728302002
 31
0.0
  0
LINE
  5
D0
330
2
100
AcDbEntity
  8
0
 62
     3
100
AcDbLine
 10
111.5953387249999
 20
172.5017242431999
 30
0.0
 11
112.5953387249998
 21
172.5017242431999
 31
0.0
  0
LINE
  5
D1
330
2
100
AcDbEntity
  8
0
 62
     3
100
AcDbLine
 10
112.3953417767997
 20
173.4968261718999
 30
0.0
 11
112.3953417767997
 21
172.5016937256
 31
0.0
  0
LINE
  5
D2
330
2
100
AcDbEntity
  8
0
 62
     3
100
AcDbLine
 10
112.3953417767997
 20
173.4968566895
 30
0.0
 11
112.5953387249998
 21
173.4968566895
 31
0.0
  0
LINE
  5
D3
330
2
100
AcDbEntity
  8
0
 62
     3
100
AcDbLine
 10
115.8952796134997
 20
175.8996971616999
 30
0.0
 11
116.1953143123998
 21
176.4997670793999
 31
0.0
  0
LINE
  5
D4
330
2
100
AcDbEntity
  8
0
 62
     3
100
AcDbLine
 10
115.8953265179997
 20
175.8498840332
 30
0.0
 11
115.3953417767997
 21
175.8498840332
 31
0.0
  0
LINE
  5
D5
330
2
100
AcDbEntity
  8
0
 62
     3
100
AcDbLine
 10
111.5953387249999
 20
178.9999847412
 30
0.0
 11
105.8953722943998
 21
178.9999847412
 31
0.0
  0
ARC
  5
D6
330
2
100
AcDbEntity
  8
0
 62
     3
100
AcDbCircle
 10
105.8953265179997
 20
178.000076294
 30
0.0
 40
1.0
100
AcDbArc
 50
89.99998201389999
 51
179.9999640277999
  0
LINE
  5
D7
330
2
100
AcDbEntity
  8
0
 62
     3
100
AcDbLine
 10
115.3953570355997
 20
178.9999847412
 30
0.0
 11
112.5953387249998
 21
178.9999847412
 31
0.0
  0
LINE
  5
D8
330
2
100
AcDbEntity
  8
0
 62
     3
100
AcDbLine
 10
111.5953387249999
 20
182.4228668213
 30
0.0
 11
112.5953387249998
 21
182.4228668213
 31
0.0
  0
LINE
  5
D9
330
2
100
AcDbEntity
  8
0
 62
     3
100
AcDbLine
 10
111.5953387249999
 20
180.9743347168
 30
0.0
 11
112.5953387249998
 21
180.9743347168
 31
0.0
  0
LINE
  5
DA
330
2
100
AcDbEntity
  8
0
 62
     3
100
AcDbLine
 10
100.8953417767997
 20
220.0000457763997
 30
0.0
 11
103.8953417767997
 21
220.0000457763997
 31
0.0
  0
LINE
  5
DB
330
2
100
AcDbEntity
  8
0
 62
     3
100
AcDbLine
 10
103.8953417767997
 20
213.0000610351998
 30
0.0
 11
100.8953417767997
 21
213.0000610351998
 31
0.0
  0
LINE
  5
DC
330
2
100
AcDbEntity
  8
0
 62
     3
100
AcDbLine
 10
92.89537229439995
 20
207.6001586913998
 30
0.0
 11
104.8953417767997
 21
207.6001586913998
 31
0.0
  0
LINE
  5
DD
330
2
100
AcDbEntity
  8
0
 62
     3
100
AcDbLine
 10
92.89537229439995
 20
225.4000701903998
 30
0.0
 11
104.8953417767997
 21
225.4000701903998
 31
0.0
  0
LINE
  5
DE
330
2
100
AcDbEntity
  8
0
 62
     3
100
AcDbLine
 10
92.89537229439995
 20
225.4000701903998
 30
0.0
 11
92.89537229439995
 21
207.6001586913998
 31
0.0
  0
LINE
  5
DF
330
2
100
AcDbEntity
  8
0
 62
     3
100
AcDbLine
 10
96.09535398379996
 20
220.0000762939999
 30
0.0
 11
94.59535398379996
 21
220.0000762939999
 31
0.0
  0
LINE
  5
E0
330
2
100
AcDbEntity
  8
0
 62
     3
100
AcDbLine
 10
96.09535398379996
 20
217.6001281737999
 30
0.0
 11
94.59535398379996
 21
217.6001281737999
 31
0.0
  0
LINE
  5
E1
330
2
100
AcDbEntity
  8
0
 62
     3
100
AcDbLine
 10
96.09535398379996
 20
213.2002563476998
 30
0.0
 11
94.59535398379996
 21
213.2002563476998
 31
0.0
  0
LINE
  5
E2
330
2
100
AcDbEntity
  8
0
 62
     3
100
AcDbLine
 10
96.09535398379996
 20
210.8003540038999
 30
0.0
 11
94.59535398379996
 21
210.8003540038999
 31
0.0
  0
LINE
  5
E3
330
2
100
AcDbEntity
  8
0
 62
     3
100
AcDbLine
 10
94.59535398379996
 20
210.8003540038999
 30
0.0
 11
94.59535398379996
 21
213.2002563476998
 31
0.0
  0
LINE
  5
E4
330
2
100
AcDbEntity
  8
0
 62
     3
100
AcDbLine
 10
90.89532651799995
 20
211.3999023437997
 30
0.0
 11
90.89532651799995
 21
210.8999023437998
 31
0.0
  0
LINE
  5
E5
330
2
100
AcDbEntity
  8
0
 62
     3
100
AcDbLine
 10
90.89532651799995
 20
218.1999053954999
 30
0.0
 11
90.89532651799995
 21
217.6999053954999
 31
0.0
  0
LINE
  5
E6
330
2
100
AcDbEntity
  8
0
 62
     3
100
AcDbLine
 10
94.59535398379996
 20
220.0000762939999
 30
0.0
 11
94.59535398379996
 21
217.6001281737999
 31
0.0
  0
LINE
  5
E7
330
2
100
AcDbEntity
  8
0
 62
     3
100
AcDbLine
 10
96.09535398379996
 20
210.8003540038999
 30
0.0
 11
96.09535398379996
 21
213.2002563476998
 31
0.0
  0
LINE
  5
E8
330
2
100
AcDbEntity
  8
0
 62
     3
100
AcDbLine
 10
96.09535398379996
 20
220.0000762939999
 30
0.0
 11
96.09535398379996
 21
217.6001281737999
 31
0.0
  0
LINE
  5
E9
330
2
100
AcDbEntity
  8
0
 62
     3
100
AcDbLine
 10
100.8953417767997
 20
213.0000610351998
 30
0.0
 11
100.8953417767997
 21
220.0000457763997
 31
0.0
  0
LINE
  5
EA
330
2
100
AcDbEntity
  8
0
 62
     3
100
AcDbLine
 10
117.3953102231998
 20
224.3994551647999
 30
0.0
 11
117.8615204774999
 21
217.4995379601998
 31
0.0
  0
LINE
  5
EB
330
2
100
AcDbEntity
  8
0
 62
     3
100
AcDbLine
 10
116.8953181984997
 20
224.3994401729997
 30
0.0
 11
117.3615366819998
 21
217.4994011757
 31
0.0
  0
LINE
  5
EC
330
2
100
AcDbEntity
  8
0
 62
     3
100
AcDbLine
 10
116.4324658981998
 20
223.8495304809
 30
0.0
 11
116.8615212039997
 21
217.4995069478999
 31
0.0
  0
LINE
  5
ED
330
2
100
AcDbEntity
  8
0
 62
     3
100
AcDbLine
 10
115.8953265179997
 20
223.8498840331998
 30
0.0
 11
115.8953265179997
 21
209.0998840331999
 31
0.0
  0
LINE
  5
EE
330
2
100
AcDbEntity
  8
0
 62
     3
100
AcDbLine
 10
104.8953417767997
 20
226.0000457763998
 30
0.0
 11
104.8953417767997
 21
207.0000610351999
 31
0.0
  0
LINE
  5
EF
330
2
100
AcDbEntity
  8
0
 62
     3
100
AcDbLine
 10
110.3953417767997
 20
227.0000457763999
 30
0.0
 11
110.3953417767997
 21
217.1001434326
 31
0.0
  0
LINE
  5
F0
330
2
100
AcDbEntity
  8
0
 62
     3
100
AcDbLine
 10
106.0953539837997
 20
227.0000457763999
 30
0.0
 11
106.0953539837997
 21
217.1001434326
 31
0.0
  0
LINE
  5
F1
330
2
100
AcDbEntity
  8
0
 62
     3
100
AcDbLine
 10
115.3953265179997
 20
227.0000457763999
 30
0.0
 11
115.3953265179997
 21
206.0000610351998
 31
0.0
  0
LINE
  5
F2
330
2
100
AcDbEntity
  8
0
 62
     3
100
AcDbLine
 10
105.8953417767998
 20
206.0000610351998
 30
0.0
 11
111.5953387249999
 21
206.0000610351998
 31
0.0
  0
LINE
  5
F3
330
2
100
AcDbEntity
  8
0
 62
     3
100
AcDbLine
 10
110.3953417767997
 20
215.9000701903999
 30
0.0
 11
110.3953417767997
 21
206.0000610351998
 31
0.0
  0
LINE
  5
F4
330
2
100
AcDbEntity
  8
0
 62
     3
100
AcDbLine
 10
106.0953539837997
 20
215.9000701903999
 30
0.0
 11
106.0953539837997
 21
206.0000610351998
 31
0.0
  0
LINE
  5
F5
330
2
100
AcDbEntity
  8
0
 62
     3
100
AcDbLine
 10
106.0953539837997
 20
207.9000854491999
 30
0.0
 11
110.3953417767997
 21
207.9000854491999
 31
0.0
  0
ARC
  5
F6
330
2
100
AcDbEntity
  8
0
 62
     3
100
AcDbCircle
 10
105.8952960003997
 20
207.0000610351999
 30
0.0
 40
1.0
100
AcDbArc
 50
179.9999640277999
 51
269.9999460416999
  0
LINE
  5
F7
330
2
100
AcDbEntity
  8
0
 62
     3
100
AcDbLine
 10
106.0953539837997
 20
217.1001434326
 30
0.0
 11
110.3953417767997
 21
217.1001434326
 31
0.0
  0
LINE
  5
F8
330
2
100
AcDbEntity
  8
0
 62
     3
100
AcDbLine
 10
106.0953539837997
 20
215.9000701903999
 30
0.0
 11
110.3953417767997
 21
215.9000701903999
 31
0.0
  0
LINE
  5
F9
330
2
100
AcDbEntity
  8
0
 62
     3
100
AcDbLine
 10
103.8953417767997
 20
220.0000457763997
 30
0.0
 11
103.8953417767997
 21
213.0000610351998
 31
0.0
  0
LINE
  5
FA
330
2
100
AcDbEntity
  8
0
 62
     3
100
AcDbLine
 10
117.4302708157997
 20
215.4991180993999
 30
0.0
 11
117.8964563824997
 21
208.5995662725999
 31
0.0
  0
LINE
  5
FB
330
2
100
AcDbEntity
  8
0
 62
     3
100
AcDbLine
 10
116.3941802381999
 20
208.5996105843999
 30
0.0
 11
115.9769338695997
 21
214.7748617100999
 31
0.0
  0
LINE
  5
FC
330
2
100
AcDbEntity
  8
0
 62
     3
100
AcDbLine
 10
116.8953222979997
 20
208.5995809325999
 30
0.0
 11
116.5583026387998
 21
213.5874758224999
 31
0.0
  0
LINE
  5
FD
330
2
100
AcDbEntity
  8
0
 62
     3
100
AcDbLine
 10
117.3964643576997
 20
208.5995512808
 30
0.0
 11
116.9302787910998
 21
215.4991031075999
 31
0.0
  0
LINE
  5
FE
330
2
100
AcDbEntity
  8
0
 62
     3
100
AcDbLine
 10
114.6453417767997
 20
212.8866577149
 30
0.0
 11
114.6453417767997
 21
206.0000610351998
 31
0.0
  0
LINE
  5
FF
330
2
100
AcDbEntity
  8
0
 62
     3
100
AcDbLine
 10
113.6453417767997
 20
212.8866577149
 30
0.0
 11
113.6453417767997
 21
206.0000610351998
 31
0.0
  0
LINE
  5
100
330
2
100
AcDbEntity
  8
0
 62
     3
100
AcDbLine
 10
112.5953387249998
 20
212.8866119385
 30
0.0
 11
112.5953387249998
 21
203.5380401610999
 31
0.0
  0
LINE
  5
101
330
2
100
AcDbEntity
  8
0
 62
     3
100
AcDbLine
 10
111.5953387249999
 20
212.8866119385
 30
0.0
 11
111.5953387249999
 21
203.5380401610999
 31
0.0
  0
LINE
  5
102
330
2
100
AcDbEntity
  8
0
 62
     3
100
AcDbLine
 10
112.5953387249998
 20
206.0000610351998
 30
0.0
 11
115.3953265179997
 21
206.0000610351998
 31
0.0
  0
LINE
  5
103
330
2
100
AcDbEntity
  8
0
 62
     3
100
AcDbLine
 10
111.5953387249999
 20
205.3369598388999
 30
0.0
 11
112.5953387249998
 21
205.3369598388999
 31
0.0
  0
LINE
  5
104
330
2
100
AcDbEntity
  8
0
 62
     3
100
AcDbLine
 10
111.5953387249999
 20
203.5380859375
 30
0.0
 11
112.5953387249998
 21
203.5380859375
 31
0.0
  0
LINE
  5
105
330
2
100
AcDbEntity
  8
0
 62
     3
100
AcDbLine
 10
111.5953387249999
 20
210.7852172851998
 30
0.0
 11
112.5953387249998
 21
210.7852172851998
 31
0.0
  0
LINE
  5
106
330
2
100
AcDbEntity
  8
0
 62
     3
100
AcDbLine
 10
112.3953417767997
 20
210.7851715087998
 30
0.0
 11
112.3953417767997
 21
209.2928771972999
 31
0.0
  0
LINE
  5
107
330
2
100
AcDbEntity
  8
0
 62
     3
100
AcDbLine
 10
112.3953417767997
 20
209.2929229735998
 30
0.0
 11
112.5953387249998
 21
209.2929229735998
 31
0.0
  0
LINE
  5
108
330
2
100
AcDbEntity
  8
0
 62
     3
100
AcDbLine
 10
116.1453134108997
 20
208.5998089493
 30
0.0
 11
115.8953595583998
 21
209.0997170873999
 31
0.0
  0
LINE
  5
109
330
2
100
AcDbEntity
  8
0
 62
     3
100
AcDbLine
 10
115.8953265179997
 20
209.1499328612999
 30
0.0
 11
115.3953265179997
 21
209.1499328612999
 31
0.0
  0
LINE
  5
10A
330
2
100
AcDbEntity
  8
0
 62
     3
100
AcDbLine
 10
113.4898089398997
 20
221.6103668212999
 30
0.0
 11
114.2898119915997
 21
221.6103668212999
 31
0.0
  0
LINE
  5
10B
330
2
100
AcDbEntity
  8
0
 62
     3
100
AcDbLine
 10
113.8898161091997
 20
214.6103044688999
 30
0.0
 11
114.7898124077997
 21
217.1102979883999
 31
0.0
  0
LINE
  5
10C
330
2
100
AcDbEntity
  8
0
 62
     3
100
AcDbLine
 10
111.5953539837998
 20
212.8866577149
 30
0.0
 11
115.3953265179997
 21
212.8866577149
 31
0.0
  0
LINE
  5
10D
330
2
100
AcDbEntity
  8
0
 62
     3
100
AcDbLine
 10
113.4898089398997
 20
221.6103668212999
 30
0.0
 11
113.4898089398997
 21
217.1103668212999
 31
0.0
  0
LINE
  5
10E
330
2
100
AcDbEntity
  8
0
 62
     3
100
AcDbLine
 10
112.9898076439998
 20
217.1102968842999
 30
0.0
 11
113.8898102196997
 21
214.6102893247999
 31
0.0
  0
LINE
  5
10F
330
2
100
AcDbEntity
  8
0
 62
     3
100
AcDbLine
 10
112.9898089398997
 20
217.1103668212999
 30
0.0
 11
113.4898089398997
 21
217.1103668212999
 31
0.0
  0
LINE
  5
110
330
2
100
AcDbEntity
  8
0
 62
     3
100
AcDbLine
 10
114.2898119915997
 20
221.6103668212999
 30
0.0
 11
114.2898119915997
 21
217.1103668212999
 31
0.0
  0
LINE
  5
111
330
2
100
AcDbEntity
  8
0
 62
     3
100
AcDbLine
 10
115.9766398158996
 20
214.7748706912998
 30
0.0
 11
116.5580085128999
 21
213.5874903029999
 31
0.0
  0
LINE
  5
112
330
2
100
AcDbEntity
  8
0
 62
     3
100
AcDbLine
 10
116.3951771945997
 20
215.4994070847
 30
0.0
 11
115.9767202131998
 21
214.7746182089
 31
0.0
  0
LINE
  5
113
330
2
100
AcDbEntity
  8
0
 62
     3
100
AcDbLine
 10
114.2898119915997
 20
217.1103668212999
 30
0.0
 11
114.7898119915996
 21
217.1103668212999
 31
0.0
  0
LINE
  5
114
330
2
100
AcDbEntity
  8
0
 62
     3
100
AcDbLine
 10
116.5582158892997
 20
213.5874600775999
 30
0.0
 11
117.0010270628997
 21
214.4500440818998
 31
0.0
  0
LINE
  5
115
330
2
100
AcDbEntity
  8
0
 62
     3
100
AcDbLine
 10
116.3950467068997
 20
215.4995972857999
 30
0.0
 11
117.0009197425997
 21
214.4501942264998
 31
0.0
  0
LINE
  5
116
330
2
100
AcDbEntity
  8
0
 62
     3
100
AcDbLine
 10
105.8953417767998
 20
227.0000457763999
 30
0.0
 11
115.3953265179997
 21
227.0000457763999
 31
0.0
  0
LINE
  5
117
330
2
100
AcDbEntity
  8
0
 62
     3
100
AcDbLine
 10
106.0953539837997
 20
225.1001434326
 30
0.0
 11
110.3953417767997
 21
225.1001434326
 31
0.0
  0
ARC
  5
118
330
2
100
AcDbEntity
  8
0
 62
     3
100
AcDbCircle
 10
105.8952960003997
 20
226.0000457763998
 30
0.0
 40
1.0
100
AcDbArc
 50
89.99998201389999
 51
179.9999640277999
  0
LINE
  5
119
330
2
100
AcDbEntity
  8
0
 62
     3
100
AcDbLine
 10
116.5577715862998
 20
223.8498840331998
 30
0.0
 11
115.3953265179997
 21
223.8498840331998
 31
0.0
  0
LINE
  5
11A
330
2
100
AcDbEntity
  8
0
 62
     3
100
AcDbLine
 10
116.5578264354998
 20
223.8497219847
 30
0.0
 11
116.8327490598997
 21
224.3995677098999
 31
0.0
  0
LINE
  5
11B
330
2
100
AcDbEntity
  8
0
 62
     3
100
AcDbLine
 10
134.5893508315997
 20
156.6997339577999
 30
0.0
 11
128.8952348813997
 21
156.5998469558999
 31
0.0
  0
LINE
  5
11C
330
2
100
AcDbEntity
  8
0
 62
     3
100
AcDbLine
 10
128.8952168973998
 20
180.3998209058
 30
0.0
 11
134.5893328475997
 21
180.299933904
 31
0.0
  0
LINE
  5
11D
330
2
100
AcDbEntity
  8
0
 62
     3
100
AcDbLine
 10
128.8953112591997
 20
180.3999481201
 30
0.0
 11
128.8953112591997
 21
156.599975586
 31
0.0
  0
LINE
  5
11E
330
2
100
AcDbEntity
  8
0
 62
     3
100
AcDbLine
 10
128.2953204144999
 20
158.5001068114999
 30
0.0
 11
128.2953204144999
 21
178.4999694823999
 31
0.0
  0
LINE
  5
11F
330
2
100
AcDbEntity
  8
0
 62
     3
100
AcDbLine
 10
125.0947741497998
 20
177.4500427246
 30
0.0
 11
126.0388812054997
 21
177.4500427246
 31
0.0
  0
LINE
  5
120
330
2
100
AcDbEntity
  8
0
 62
     3
100
AcDbLine
 10
125.0947653010997
 20
174.6647783992999
 30
0.0
 11
126.0388699188996
 21
177.4499241910999
 31
0.0
  0
LINE
  5
121
330
2
100
AcDbEntity
  8
0
 62
     3
100
AcDbLine
 10
125.0947741497998
 20
159.5500335693
 30
0.0
 11
126.0388659466997
 21
159.5500335693
 31
0.0
  0
LINE
  5
122
330
2
100
AcDbEntity
  8
0
 62
     3
100
AcDbLine
 10
125.0947613859997
 20
162.3350140899999
 30
0.0
 11
126.0388469257996
 21
159.5499102493
 31
0.0
  0
LINE
  5
123
330
2
100
AcDbEntity
  8
0
 62
     3
100
AcDbLine
 10
125.0947588909997
 20
159.599975586
 30
0.0
 11
125.0947588909997
 21
177.3995056151998
 31
0.0
  0
LINE
  5
124
330
2
100
AcDbEntity
  8
0
 62
     3
100
AcDbLine
 10
121.2953204144997
 20
171.4999847412
 30
0.0
 11
121.2953204144997
 21
165.4999847412
 31
0.0
  0
LINE
  5
125
330
2
100
AcDbEntity
  8
0
 62
     3
100
AcDbLine
 10
125.0952319134997
 20
177.3998413085998
 30
0.0
 11
125.0952319134997
 21
159.5998535156
 31
0.0
  0
LINE
  5
126
330
2
100
AcDbEntity
  8
0
 62
     3
100
AcDbLine
 10
125.0952929485998
 20
159.599975586
 30
0.0
 11
121.2953051556998
 21
159.599975586
 31
0.0
  0
LINE
  5
127
330
2
100
AcDbEntity
  8
0
 62
     3
100
AcDbLine
 10
120.0953234661997
 20
165.4999847412
 30
0.0
 11
120.0953234661997
 21
160.1208648681999
 31
0.0
  0
LINE
  5
128
330
2
100
AcDbEntity
  8
0
 62
     3
100
AcDbLine
 10
120.0953234661997
 20
160.1208648681999
 30
0.0
 11
121.2953204144997
 21
160.1208648681999
 31
0.0
  0
LINE
  5
129
330
2
100
AcDbEntity
  8
0
 62
     3
100
AcDbLine
 10
121.2952834471997
 20
159.5999340196999
 30
0.0
 11
121.2952987059997
 21
160.1208233019
 31
0.0
  0
LINE
  5
12A
330
2
100
AcDbEntity
  8
0
 62
     3
100
AcDbLine
 10
121.2953204144997
 20
165.4999847412
 30
0.0
 11
120.0953234661997
 21
165.4999847412
 31
0.0
  0
LINE
  5
12B
330
2
100
AcDbEntity
  8
0
 62
     3
100
AcDbLine
 10
122.0952319134997
 20
160.5097503661999
 30
0.0
 11
122.0952319134997
 21
160.0866394043
 31
0.0
  0
LINE
  5
12C
330
2
100
AcDbEntity
  8
0
 62
     3
100
AcDbLine
 10
125.0953082073998
 20
160.0867614745999
 30
0.0
 11
122.0953082073997
 21
160.0867614745999
 31
0.0
  0
LINE
  5
12D
330
2
100
AcDbEntity
  8
0
 62
     3
100
AcDbLine
 10
125.0953082073998
 20
165.6221466065
 30
0.0
 11
122.0953082073997
 21
165.6221466065
 31
0.0
  0
LINE
  5
12E
330
2
100
AcDbEntity
  8
0
 62
     3
100
AcDbLine
 10
125.0953082073998
 20
164.5796966553
 30
0.0
 11
122.0953082073997
 21
164.5796966553
 31
0.0
  0
LINE
  5
12F
330
2
100
AcDbEntity
  8
0
 62
     3
100
AcDbLine
 10
125.0953082073998
 20
163.5404815674
 30
0.0
 11
122.0953082073997
 21
163.5404815674
 31
0.0
  0
LINE
  5
130
330
2
100
AcDbEntity
  8
0
 62
     3
100
AcDbLine
 10
125.0953082073998
 20
162.6654663086
 30
0.0
 11
122.0953082073997
 21
162.6654663086
 31
0.0
  0
LINE
  5
131
330
2
100
AcDbEntity
  8
0
 62
     3
100
AcDbLine
 10
125.0953082073998
 20
161.7967681884999
 30
0.0
 11
122.0953082073997
 21
161.7967681884999
 31
0.0
  0
LINE
  5
132
330
2
100
AcDbEntity
  8
0
 62
     3
100
AcDbLine
 10
125.0953082073998
 20
161.1098785400999
 30
0.0
 11
122.0953082073997
 21
161.1098785400999
 31
0.0
  0
LINE
  5
133
330
2
100
AcDbEntity
  8
0
 62
     3
100
AcDbLine
 10
125.0953082073998
 20
160.5098876952999
 30
0.0
 11
122.0953082073997
 21
160.5098876952999
 31
0.0
  0
LINE
  5
134
330
2
100
AcDbEntity
  8
0
 62
     3
100
AcDbLine
 10
122.0953082073997
 20
165.6221466065
 30
0.0
 11
122.0953082073997
 21
164.5796966553
 31
0.0
  0
LINE
  5
135
330
2
100
AcDbEntity
  8
0
 62
     3
100
AcDbLine
 10
122.0953082073997
 20
162.6654663086
 30
0.0
 11
122.0953082073997
 21
163.5404815674
 31
0.0
  0
LINE
  5
136
330
2
100
AcDbEntity
  8
0
 62
     3
100
AcDbLine
 10
122.0953082073997
 20
161.1098785400999
 30
0.0
 11
122.0953082073997
 21
161.7967681884999
 31
0.0
  0
LINE
  5
137
330
2
100
AcDbEntity
  8
0
 62
     3
100
AcDbLine
 10
121.2953204144997
 20
177.3999786377
 30
0.0
 11
125.0953082073998
 21
177.3999786377
 31
0.0
  0
LINE
  5
138
330
2
100
AcDbEntity
  8
0
 62
     3
100
AcDbLine
 10
120.0953234661997
 20
176.8791503905999
 30
0.0
 11
120.0953234661997
 21
171.4999847412
 31
0.0
  0
LINE
  5
139
330
2
100
AcDbEntity
  8
0
 62
     3
100
AcDbLine
 10
120.0953234661997
 20
171.4999847412
 30
0.0
 11
121.2953204144997
 21
171.4999847412
 31
0.0
  0
LINE
  5
13A
330
2
100
AcDbEntity
  8
0
 62
     3
100
AcDbLine
 10
121.2953204144997
 20
176.8791503905999
 30
0.0
 11
120.0953234661997
 21
176.8791503905999
 31
0.0
  0
LINE
  5
13B
330
2
100
AcDbEntity
  8
0
 62
     3
100
AcDbLine
 10
121.2953204144997
 20
177.3999786377
 30
0.0
 11
121.2953204144997
 21
176.8791503905999
 31
0.0
  0
LINE
  5
13C
330
2
100
AcDbEntity
  8
0
 62
     3
100
AcDbLine
 10
122.0953082073997
 20
172.4202575684
 30
0.0
 11
122.0953082073997
 21
171.3778076172
 31
0.0
  0
LINE
  5
13D
330
2
100
AcDbEntity
  8
0
 62
     3
100
AcDbLine
 10
122.0953082073997
 20
169.0999908446999
 30
0.0
 11
125.0953082073998
 21
169.0999908446999
 31
0.0
  0
LINE
  5
13E
330
2
100
AcDbEntity
  8
0
 62
     3
100
AcDbLine
 10
122.0953082073997
 20
170.1924438477
 30
0.0
 11
125.0953082073998
 21
170.1924438477
 31
0.0
  0
LINE
  5
13F
330
2
100
AcDbEntity
  8
0
 62
     3
100
AcDbLine
 10
122.0953082073997
 20
171.3778076172
 30
0.0
 11
125.0953082073998
 21
171.3778076172
 31
0.0
  0
LINE
  5
140
330
2
100
AcDbEntity
  8
0
 62
     3
100
AcDbLine
 10
125.0953082073998
 20
167.8999633789
 30
0.0
 11
122.0953082073997
 21
167.8999633789
 31
0.0
  0
LINE
  5
141
330
2
100
AcDbEntity
  8
0
 62
     3
100
AcDbLine
 10
125.0953082073998
 20
166.8075103759998
 30
0.0
 11
122.0953082073997
 21
166.8075103759998
 31
0.0
  0
LINE
  5
142
330
2
100
AcDbEntity
  8
0
 62
     3
100
AcDbLine
 10
122.0953082073997
 20
170.1924438477
 30
0.0
 11
122.0953082073997
 21
169.0999908446999
 31
0.0
  0
LINE
  5
143
330
2
100
AcDbEntity
  8
0
 62
     3
100
AcDbLine
 10
122.0953082073997
 20
167.8999633789
 30
0.0
 11
122.0953082073997
 21
166.8075103759998
 31
0.0
  0
LINE
  5
144
330
2
100
AcDbEntity
  8
0
 62
     3
100
AcDbLine
 10
122.0953082073997
 20
172.4202575684
 30
0.0
 11
125.0953082073998
 21
172.4202575684
 31
0.0
  0
LINE
  5
145
330
2
100
AcDbEntity
  8
0
 62
     3
100
AcDbLine
 10
122.0953082073997
 20
173.4594726562999
 30
0.0
 11
125.0953082073998
 21
173.4594726562999
 31
0.0
  0
LINE
  5
146
330
2
100
AcDbEntity
  8
0
 62
     3
100
AcDbLine
 10
122.0953082073997
 20
174.3344879150999
 30
0.0
 11
125.0953082073998
 21
174.3344879150999
 31
0.0
  0
LINE
  5
147
330
2
100
AcDbEntity
  8
0
 62
     3
100
AcDbLine
 10
122.0953082073997
 20
175.2031860351999
 30
0.0
 11
125.0953082073998
 21
175.2031860351999
 31
0.0
  0
LINE
  5
148
330
2
100
AcDbEntity
  8
0
 62
     3
100
AcDbLine
 10
122.0953082073997
 20
175.8900756835998
 30
0.0
 11
125.0953082073998
 21
175.8900756835998
 31
0.0
  0
LINE
  5
149
330
2
100
AcDbEntity
  8
0
 62
     3
100
AcDbLine
 10
122.0953082073997
 20
176.4900665283
 30
0.0
 11
125.0953082073998
 21
176.4900665283
 31
0.0
  0
LINE
  5
14A
330
2
100
AcDbEntity
  8
0
 62
     3
100
AcDbLine
 10
122.0953082073997
 20
176.913192749
 30
0.0
 11
125.0953082073998
 21
176.913192749
 31
0.0
  0
LINE
  5
14B
330
2
100
AcDbEntity
  8
0
 62
     3
100
AcDbLine
 10
122.0953082073997
 20
173.4594726562999
 30
0.0
 11
122.0953082073997
 21
174.3344879150999
 31
0.0
  0
LINE
  5
14C
330
2
100
AcDbEntity
  8
0
 62
     3
100
AcDbLine
 10
122.0953082073997
 20
175.2031860351999
 30
0.0
 11
122.0953082073997
 21
175.8900756835998
 31
0.0
  0
LINE
  5
14D
330
2
100
AcDbEntity
  8
0
 62
     3
100
AcDbLine
 10
122.0953539837998
 20
176.9132080077999
 30
0.0
 11
122.0953539837998
 21
176.4900970459
 31
0.0
  0
LINE
  5
14E
330
2
100
AcDbEntity
  8
0
 62
     3
100
AcDbLine
 10
126.0947588909997
 20
162.4999847411999
 30
0.0
 11
126.0947588909997
 21
174.4999542235999
 31
0.0
  0
LINE
  5
14F
330
2
100
AcDbEntity
  8
0
 62
     3
100
AcDbLine
 10
127.8953265179997
 20
175.8999328612999
 30
0.0
 11
127.8953265179997
 21
161.0999908446999
 31
0.0
  0
LINE
  5
150
330
2
100
AcDbEntity
  8
0
 62
     3
100
AcDbLine
 10
126.0947534237998
 20
162.4999182962
 30
0.0
 11
126.9859146037997
 21
159.8709442039
 31
0.0
  0
LINE
  5
151
330
2
100
AcDbEntity
  8
0
 62
     3
100
AcDbLine
 10
126.0388377051997
 20
159.5499032453
 30
0.0
 11
126.9859066347998
 21
159.8709334448998
 31
0.0
  0
LINE
  5
152
330
2
100
AcDbEntity
  8
0
 62
     3
100
AcDbLine
 10
128.2953204144999
 20
158.5001068114999
 30
0.0
 11
128.8953265179997
 21
158.5001068114999
 31
0.0
  0
LINE
  5
153
330
2
100
AcDbEntity
  8
0
 62
     3
100
AcDbLine
 10
126.5693377484996
 20
161.1000366210999
 30
0.0
 11
127.8953265179997
 21
161.1000366210999
 31
0.0
  0
LINE
  5
154
330
2
100
AcDbEntity
  8
0
 62
     3
100
AcDbLine
 10
126.7727221478998
 20
160.5000457763999
 30
0.0
 11
128.2953204144999
 21
160.5000457763999
 31
0.0
  0
LINE
  5
155
330
2
100
AcDbEntity
  8
0
 62
     3
100
AcDbLine
 10
128.1953681670997
 20
160.4999401491999
 30
0.0
 11
127.8953675877998
 21
161.0999418275
 31
0.0
  0
LINE
  5
156
330
2
100
AcDbEntity
  8
0
 62
     3
100
AcDbLine
 10
127.8953265179997
 20
175.8999786377
 30
0.0
 11
126.5693530071997
 21
175.8999786377
 31
0.0
  0
LINE
  5
157
330
2
100
AcDbEntity
  8
0
 62
     3
100
AcDbLine
 10
128.2953204144999
 20
176.4999542236
 30
0.0
 11
126.7727374066996
 21
176.4999542236
 31
0.0
  0
LINE
  5
158
330
2
100
AcDbEntity
  8
0
 62
     3
100
AcDbLine
 10
126.0947767021998
 20
174.4999304287999
 30
0.0
 11
126.9859322213997
 21
177.1288742952999
 31
0.0
  0
LINE
  5
159
330
2
100
AcDbEntity
  8
0
 62
     3
100
AcDbLine
 10
126.0388860755996
 20
177.4499075015999
 30
0.0
 11
126.9859503560997
 21
177.128863593
 31
0.0
  0
LINE
  5
15A
330
2
100
AcDbEntity
  8
0
 62
     3
100
AcDbLine
 10
127.8952087409997
 20
175.8997354397
 30
0.0
 11
128.1952434398998
 21
176.4998053574
 31
0.0
  0
LINE
  5
15B
330
2
100
AcDbEntity
  8
0
 62
     3
100
AcDbLine
 10
128.2953204144999
 20
178.4999694823999
 30
0.0
 11
128.8953265179997
 21
178.4999694823999
 31
0.0
  0
LINE
  5
15C
330
2
100
AcDbEntity
  8
0
 62
     3
100
AcDbLine
 10
139.6953448284998
 20
179.8941650390999
 30
0.0
 11
139.6953448284998
 21
157.105758667
 31
0.0
  0
LINE
  5
15D
330
2
100
AcDbEntity
  8
0
 62
     3
100
AcDbLine
 10
134.8953417767998
 20
179.9941711425999
 30
0.0
 11
134.8953417767998
 21
157.0057525635
 31
0.0
  0
LINE
  5
15E
330
2
100
AcDbEntity
  8
0
 62
     3
100
AcDbLine
 10
134.5953234661999
 20
180.2999572754
 30
0.0
 11
134.5953234661999
 21
156.6999816895
 31
0.0
  0
LINE
  5
15F
330
2
100
AcDbEntity
  8
0
 62
     3
100
AcDbLine
 10
139.8953570355998
 20
179.6903991698999
 30
0.0
 11
139.8953570355998
 21
157.3095245361
 31
0.0
  0
LINE
  5
160
330
2
100
AcDbEntity
  8
0
 62
     3
100
AcDbLine
 10
141.3953112591998
 20
177.9999542236
 30
0.0
 11
141.3953112591998
 21
158.9999694823999
 31
0.0
  0
LINE
  5
161
330
2
100
AcDbEntity
  8
0
 62
     3
100
AcDbLine
 10
141.3953221065998
 20
158.9999212351999
 30
0.0
 11
139.8953650189997
 21
157.7852798892
 31
0.0
  0
LINE
  5
162
330
2
100
AcDbEntity
  8
0
 62
     3
100
AcDbLine
 10
139.6914755286998
 20
157.1055448108999
 30
0.0
 11
134.8953056424996
 21
157.0056167417
 31
0.0
  0
LINE
  5
163
330
2
100
AcDbEntity
  8
0
 62
     3
100
AcDbLine
 10
134.5894328058999
 20
156.6997950591999
 30
0.0
 11
134.8953173558999
 21
157.0056804342999
 31
0.0
  0
LINE
  5
164
330
2
100
AcDbEntity
  8
0
 62
     3
100
AcDbLine
 10
139.6914166284999
 20
157.105648892
 30
0.0
 11
139.8952642378997
 21
157.3094968451
 31
0.0
  0
LINE
  5
165
330
2
100
AcDbEntity
  8
0
 62
     3
100
AcDbLine
 10
141.6952990521996
 20
160.2998809815
 30
0.0
 11
141.6952990521996
 21
176.7000122069999
 31
0.0
  0
LINE
  5
166
330
2
100
AcDbEntity
  8
0
 62
     3
100
AcDbLine
 10
141.8952960003998
 20
160.4999542235999
 30
0.0
 11
141.8952960003998
 21
176.4998168944998
 31
0.0
  0
LINE
  5
167
330
2
100
AcDbEntity
  8
0
 62
     3
100
AcDbLine
 10
141.8952960003998
 20
165.3886413573999
 30
0.0
 11
146.8377093304998
 21
165.3886413573999
 31
0.0
  0
LINE
  5
168
330
2
100
AcDbEntity
  8
0
 62
     3
100
AcDbLine
 10
141.6952032967999
 20
160.2997851824
 30
0.0
 11
141.8952014016996
 21
160.4997788872998
 31
0.0
  0
LINE
  5
169
330
2
100
AcDbEntity
  8
0
 62
     3
100
AcDbLine
 10
141.3952960003999
 20
160.2998809815
 30
0.0
 11
141.6952990521996
 21
160.2998809815
 31
0.0
  0
LINE
  5
16A
330
2
100
AcDbEntity
  8
0
 62
     3
100
AcDbLine
 10
141.8952960003998
 20
172.3054199218999
 30
0.0
 11
145.3297442425998
 21
172.3054199218999
 31
0.0
  0
LINE
  5
16B
330
2
100
AcDbEntity
  8
0
 62
     3
100
AcDbLine
 10
141.8952960003998
 20
170.9054107665999
 30
0.0
 11
146.3377093304996
 21
170.9054107665999
 31
0.0
  0
LINE
  5
16C
330
2
100
AcDbEntity
  8
0
 62
     3
100
AcDbLine
 10
141.8952761856997
 20
176.4998651054
 30
0.0
 11
141.6951853305997
 21
176.6998739223
 31
0.0
  0
LINE
  5
16D
330
2
100
AcDbEntity
  8
0
 62
     3
100
AcDbLine
 10
141.6952074993999
 20
176.7000122069999
 30
0.0
 11
141.3952960003999
 21
176.7000122069999
 31
0.0
  0
LINE
  5
16E
330
2
100
AcDbEntity
  8
0
 62
     3
100
AcDbLine
 10
145.3656329144998
 20
170.2554168700999
 30
0.0
 11
146.3377093304996
 21
170.2554168700999
 31
0.0
  0
LINE
  5
16F
330
2
100
AcDbEntity
  8
0
 62
     3
100
AcDbLine
 10
145.3656329144998
 20
166.0386505127
 30
0.0
 11
146.8377093304998
 21
166.0386505127
 31
0.0
  0
LINE
  5
170
330
2
100
AcDbEntity
  8
0
 62
     3
100
AcDbLine
 10
145.3656176556997
 20
170.2553405762
 30
0.0
 11
145.3656176556997
 21
166.0385894775999
 31
0.0
  0
LINE
  5
171
330
2
100
AcDbEntity
  8
0
 62
     3
100
AcDbLine
 10
139.8947705142999
 20
179.213785658
 30
0.0
 11
141.3947276019998
 21
177.999144312
 31
0.0
  0
LINE
  5
172
330
2
100
AcDbEntity
  8
0
 62
     3
100
AcDbLine
 10
134.8952816299997
 20
179.9940644733999
 30
0.0
 11
139.6914362606998
 21
179.894136722
 31
0.0
  0
LINE
  5
173
330
2
100
AcDbEntity
  8
0
 62
     3
100
AcDbLine
 10
134.8948063683999
 20
179.9935839511999
 30
0.0
 11
134.5889218183998
 21
180.2994693261999
 31
0.0
  0
LINE
  5
174
330
2
100
AcDbEntity
  8
0
 62
     3
100
AcDbLine
 10
139.8947667580997
 20
179.689762651
 30
0.0
 11
139.6909191486997
 21
179.893610604
 31
0.0
  0
LINE
  5
175
330
2
100
AcDbEntity
  8
0
 62
     3
100
AcDbLine
 10
134.5893477752996
 20
204.6996250007
 30
0.0
 11
128.8952318250996
 21
204.5997379987999
 31
0.0
  0
LINE
  5
176
330
2
100
AcDbEntity
  8
0
 62
     3
100
AcDbLine
 10
128.8952202212998
 20
228.3997272051998
 30
0.0
 11
134.5893361714999
 21
228.2998402033999
 31
0.0
  0
LINE
  5
177
330
2
100
AcDbEntity
  8
0
 62
     3
100
AcDbLine
 10
126.0948038443997
 20
222.4998133996999
 30
0.0
 11
126.9859593635997
 21
225.1287572660998
 31
0.0
  0
LINE
  5
178
330
2
100
AcDbEntity
  8
0
 62
     3
100
AcDbLine
 10
122.0953082073997
 20
223.2030792236
 30
0.0
 11
122.0953082073997
 21
223.8899688720997
 31
0.0
  0
LINE
  5
179
330
2
100
AcDbEntity
  8
0
 62
     3
100
AcDbLine
 10
120.0953234661997
 20
224.8790435790999
 30
0.0
 11
120.0953234661997
 21
219.4998779296998
 31
0.0
  0
LINE
  5
17A
330
2
100
AcDbEntity
  8
0
 62
     3
100
AcDbLine
 10
125.0947924432997
 20
222.6646613701999
 30
0.0
 11
126.0388970610998
 21
225.4498071618999
 31
0.0
  0
LINE
  5
17B
330
2
100
AcDbEntity
  8
0
 62
     3
100
AcDbLine
 10
128.8953112591997
 20
228.3998565673999
 30
0.0
 11
128.8953112591997
 21
204.5998687743999
 31
0.0
  0
LINE
  5
17C
330
2
100
AcDbEntity
  8
0
 62
     3
100
AcDbLine
 10
128.2953204144999
 20
206.4999999999999
 30
0.0
 11
128.2953204144999
 21
226.4998779297
 31
0.0
  0
LINE
  5
17D
330
2
100
AcDbEntity
  8
0
 62
     3
100
AcDbLine
 10
125.0947588909997
 20
207.5998840331999
 30
0.0
 11
125.0947588909997
 21
225.3994140625
 31
0.0
  0
LINE
  5
17E
330
2
100
AcDbEntity
  8
0
 62
     3
100
AcDbLine
 10
125.0951708782997
 20
225.3997192383
 30
0.0
 11
125.0951708782997
 21
207.5997314452997
 31
0.0
  0
LINE
  5
17F
330
2
100
AcDbEntity
  8
0
 62
     3
100
AcDbLine
 10
125.0947741497998
 20
207.5499420165999
 30
0.0
 11
126.0388659466997
 21
207.5499420165999
 31
0.0
  0
LINE
  5
180
330
2
100
AcDbEntity
  8
0
 62
     3
100
AcDbLine
 10
125.0947417293998
 20
210.3349050832
 30
0.0
 11
126.0388272692997
 21
207.5498012425
 31
0.0
  0
LINE
  5
181
330
2
100
AcDbEntity
  8
0
 62
     3
100
AcDbLine
 10
120.0953234661997
 20
213.4998779297
 30
0.0
 11
120.0953234661997
 21
208.1207580566999
 31
0.0
  0
LINE
  5
182
330
2
100
AcDbEntity
  8
0
 62
     3
100
AcDbLine
 10
125.0952929485998
 20
207.5998687743999
 30
0.0
 11
121.2953051556998
 21
207.5998687743999
 31
0.0
  0
LINE
  5
183
330
2
100
AcDbEntity
  8
0
 62
     3
100
AcDbLine
 10
120.0953234661997
 20
208.1207580566999
 30
0.0
 11
121.2953204144997
 21
208.1207580566999
 31
0.0
  0
LINE
  5
184
330
2
100
AcDbEntity
  8
0
 62
     3
100
AcDbLine
 10
121.2952857362997
 20
207.5998119904999
 30
0.0
 11
121.2953009950997
 21
208.1207012726999
 31
0.0
  0
LINE
  5
185
330
2
100
AcDbEntity
  8
0
 62
     3
100
AcDbLine
 10
125.0953082073998
 20
211.5403747558999
 30
0.0
 11
122.0953082073997
 21
211.5403747558999
 31
0.0
  0
LINE
  5
186
330
2
100
AcDbEntity
  8
0
 62
     3
100
AcDbLine
 10
125.0953082073998
 20
210.6653594970999
 30
0.0
 11
122.0953082073997
 21
210.6653594970999
 31
0.0
  0
LINE
  5
187
330
2
100
AcDbEntity
  8
0
 62
     3
100
AcDbLine
 10
125.0953082073998
 20
209.7966613769997
 30
0.0
 11
122.0953082073997
 21
209.7966613769997
 31
0.0
  0
LINE
  5
188
330
2
100
AcDbEntity
  8
0
 62
     3
100
AcDbLine
 10
125.0953082073998
 20
209.1097717284998
 30
0.0
 11
122.0953082073997
 21
209.1097717284998
 31
0.0
  0
LINE
  5
189
330
2
100
AcDbEntity
  8
0
 62
     3
100
AcDbLine
 10
125.0953082073998
 20
208.5097808837999
 30
0.0
 11
122.0953082073997
 21
208.5097808837999
 31
0.0
  0
LINE
  5
18A
330
2
100
AcDbEntity
  8
0
 62
     3
100
AcDbLine
 10
125.0953082073998
 20
208.0866546630999
 30
0.0
 11
122.0953082073997
 21
208.0866546630999
 31
0.0
  0
LINE
  5
18B
330
2
100
AcDbEntity
  8
0
 62
     3
100
AcDbLine
 10
122.0953082073997
 20
210.6653594970999
 30
0.0
 11
122.0953082073997
 21
211.5403747558999
 31
0.0
  0
LINE
  5
18C
330
2
100
AcDbEntity
  8
0
 62
     3
100
AcDbLine
 10
122.0953082073997
 20
209.1097717284998
 30
0.0
 11
122.0953082073997
 21
209.7966613769997
 31
0.0
  0
LINE
  5
18D
330
2
100
AcDbEntity
  8
0
 62
     3
100
AcDbLine
 10
122.0951708782997
 20
208.5096282958999
 30
0.0
 11
122.0951708782997
 21
208.086517334
 31
0.0
  0
LINE
  5
18E
330
2
100
AcDbEntity
  8
0
 62
     3
100
AcDbLine
 10
121.2953204144997
 20
219.4998779296998
 30
0.0
 11
121.2953204144997
 21
213.4998626709
 31
0.0
  0
LINE
  5
18F
330
2
100
AcDbEntity
  8
0
 62
     3
100
AcDbLine
 10
121.2953204144997
 20
213.4998779297
 30
0.0
 11
120.0953234661997
 21
213.4998779297
 31
0.0
  0
LINE
  5
190
330
2
100
AcDbEntity
  8
0
 62
     3
100
AcDbLine
 10
120.0953234661997
 20
219.4998779296998
 30
0.0
 11
121.2953204144997
 21
219.4998779296998
 31
0.0
  0
LINE
  5
191
330
2
100
AcDbEntity
  8
0
 62
     3
100
AcDbLine
 10
122.0953082073997
 20
218.1923370361
 30
0.0
 11
122.0953082073997
 21
217.0998840331999
 31
0.0
  0
LINE
  5
192
330
2
100
AcDbEntity
  8
0
 62
     3
100
AcDbLine
 10
122.0953082073997
 20
217.0998840331999
 30
0.0
 11
125.0953082073998
 21
217.0998840331999
 31
0.0
  0
LINE
  5
193
330
2
100
AcDbEntity
  8
0
 62
     3
100
AcDbLine
 10
125.0953082073998
 20
215.8998565673999
 30
0.0
 11
122.0953082073997
 21
215.8998565673999
 31
0.0
  0
LINE
  5
194
330
2
100
AcDbEntity
  8
0
 62
     3
100
AcDbLine
 10
125.0953082073998
 20
214.8074035644999
 30
0.0
 11
122.0953082073997
 21
214.8074035644999
 31
0.0
  0
LINE
  5
195
330
2
100
AcDbEntity
  8
0
 62
     3
100
AcDbLine
 10
125.0953082073998
 20
213.6220397948999
 30
0.0
 11
122.0953082073997
 21
213.6220397948999
 31
0.0
  0
LINE
  5
196
330
2
100
AcDbEntity
  8
0
 62
     3
100
AcDbLine
 10
125.0953082073998
 20
212.5795898438
 30
0.0
 11
122.0953082073997
 21
212.5795898438
 31
0.0
  0
LINE
  5
197
330
2
100
AcDbEntity
  8
0
 62
     3
100
AcDbLine
 10
122.0953082073997
 20
215.8998565673999
 30
0.0
 11
122.0953082073997
 21
214.8074035644999
 31
0.0
  0
LINE
  5
198
330
2
100
AcDbEntity
  8
0
 62
     3
100
AcDbLine
 10
122.0953082073997
 20
213.6220397948999
 30
0.0
 11
122.0953082073997
 21
212.5795898438
 31
0.0
  0
LINE
  5
199
330
2
100
AcDbEntity
  8
0
 62
     3
100
AcDbLine
 10
122.0953082073997
 20
218.1923370361
 30
0.0
 11
125.0953082073998
 21
218.1923370361
 31
0.0
  0
LINE
  5
19A
330
2
100
AcDbEntity
  8
0
 62
     3
100
AcDbLine
 10
122.0953082073997
 20
219.3777008056999
 30
0.0
 11
125.0953082073998
 21
219.3777008056999
 31
0.0
  0
LINE
  5
19B
330
2
100
AcDbEntity
  8
0
 62
     3
100
AcDbLine
 10
122.0953082073997
 20
220.4201507568
 30
0.0
 11
125.0953082073998
 21
220.4201507568
 31
0.0
  0
LINE
  5
19C
330
2
100
AcDbEntity
  8
0
 62
     3
100
AcDbLine
 10
122.0953082073997
 20
221.4593658446998
 30
0.0
 11
125.0953082073998
 21
221.4593658446998
 31
0.0
  0
LINE
  5
19D
330
2
100
AcDbEntity
  8
0
 62
     3
100
AcDbLine
 10
122.0953082073997
 20
222.3343811034999
 30
0.0
 11
125.0953082073998
 21
222.3343811034999
 31
0.0
  0
LINE
  5
19E
330
2
100
AcDbEntity
  8
0
 62
     3
100
AcDbLine
 10
122.0953082073997
 20
223.2030792236
 30
0.0
 11
125.0953082073998
 21
223.2030792236
 31
0.0
  0
LINE
  5
19F
330
2
100
AcDbEntity
  8
0
 62
     3
100
AcDbLine
 10
122.0953082073997
 20
220.4201507568
 30
0.0
 11
122.0953082073997
 21
219.3777008056999
 31
0.0
  0
LINE
  5
1A0
330
2
100
AcDbEntity
  8
0
 62
     3
100
AcDbLine
 10
122.0953082073997
 20
221.4593658446998
 30
0.0
 11
122.0953082073997
 21
222.3343811034999
 31
0.0
  0
LINE
  5
1A1
330
2
100
AcDbEntity
  8
0
 62
     3
100
AcDbLine
 10
126.0947588909997
 20
210.4998931884999
 30
0.0
 11
126.0947588909997
 21
222.4998626709
 31
0.0
  0
LINE
  5
1A2
330
2
100
AcDbEntity
  8
0
 62
     3
100
AcDbLine
 10
126.7388171185998
 20
208.5999298095999
 30
0.0
 11
128.2953204144999
 21
208.5999298095999
 31
0.0
  0
LINE
  5
1A3
330
2
100
AcDbEntity
  8
0
 62
     3
100
AcDbLine
 10
126.0388439346997
 20
207.5498020943999
 30
0.0
 11
126.9859128643997
 21
207.8708322938999
 31
0.0
  0
LINE
  5
1A4
330
2
100
AcDbEntity
  8
0
 62
     3
100
AcDbLine
 10
126.0947337671997
 20
210.4998092893999
 30
0.0
 11
126.9858949471997
 21
207.8708351970997
 31
0.0
  0
LINE
  5
1A5
330
2
100
AcDbEntity
  8
0
 62
     3
100
AcDbLine
 10
128.2953204144999
 20
206.4999999999999
 30
0.0
 11
128.8953265179997
 21
206.4999999999999
 31
0.0
  0
LINE
  5
1A6
330
2
100
AcDbEntity
  8
0
 62
     3
100
AcDbLine
 10
128.1953143109997
 20
217.4998321533
 30
0.0
 11
126.0947436321998
 21
217.4998321533
 31
0.0
  0
LINE
  5
1A7
330
2
100
AcDbEntity
  8
0
 62
     3
100
AcDbLine
 10
128.1953143109997
 20
215.4998321533
 30
0.0
 11
126.0947436321998
 21
215.4998321533
 31
0.0
  0
LINE
  5
1A8
330
2
100
AcDbEntity
  8
0
 62
     3
100
AcDbLine
 10
125.0947741497998
 20
225.4499511718999
 30
0.0
 11
126.0388812054997
 21
225.4499511718999
 31
0.0
  0
LINE
  5
1A9
330
2
100
AcDbEntity
  8
0
 62
     3
100
AcDbLine
 10
121.2953204144997
 20
225.3998718261998
 30
0.0
 11
125.0953082073998
 21
225.3998718261998
 31
0.0
  0
LINE
  5
1AA
330
2
100
AcDbEntity
  8
0
 62
     3
100
AcDbLine
 10
121.2953204144997
 20
224.8790435790999
 30
0.0
 11
120.0953234661997
 21
224.8790435790999
 31
0.0
  0
LINE
  5
1AB
330
2
100
AcDbEntity
  8
0
 62
     3
100
AcDbLine
 10
121.2953204144997
 20
225.3998718261998
 30
0.0
 11
121.2953204144997
 21
224.8790435790999
 31
0.0
  0
LINE
  5
1AC
330
2
100
AcDbEntity
  8
0
 62
     3
100
AcDbLine
 10
122.0953082073997
 20
223.8899688720997
 30
0.0
 11
125.0953082073998
 21
223.8899688720997
 31
0.0
  0
LINE
  5
1AD
330
2
100
AcDbEntity
  8
0
 62
     3
100
AcDbLine
 10
122.0953082073997
 20
224.4899597168
 30
0.0
 11
125.0953082073998
 21
224.4899597168
 31
0.0
  0
LINE
  5
1AE
330
2
100
AcDbEntity
  8
0
 62
     3
100
AcDbLine
 10
122.0953082073997
 20
224.9130859375
 30
0.0
 11
125.0953082073998
 21
224.9130859375
 31
0.0
  0
LINE
  5
1AF
330
2
100
AcDbEntity
  8
0
 62
     3
100
AcDbLine
 10
122.0953845013997
 20
224.9131011963
 30
0.0
 11
122.0953845013997
 21
224.4899749756
 31
0.0
  0
LINE
  5
1B0
330
2
100
AcDbEntity
  8
0
 62
     3
100
AcDbLine
 10
128.2953204144999
 20
224.3998565674
 30
0.0
 11
126.7388323773998
 21
224.3998565674
 31
0.0
  0
LINE
  5
1B1
330
2
100
AcDbEntity
  8
0
 62
     3
100
AcDbLine
 10
126.0388991637998
 20
225.4498096845999
 30
0.0
 11
126.9859634442997
 21
225.1287657759998
 31
0.0
  0
LINE
  5
1B2
330
2
100
AcDbEntity
  8
0
 62
     3
100
AcDbLine
 10
128.2953204144999
 20
226.4998779297
 30
0.0
 11
128.8953265179997
 21
226.4998779297
 31
0.0
  0
LINE
  5
1B3
330
2
100
AcDbEntity
  8
0
 62
     3
100
AcDbLine
 10
139.6953448284998
 20
227.8940734862998
 30
0.0
 11
139.6953448284998
 21
205.1056518554998
 31
0.0
  0
LINE
  5
1B4
330
2
100
AcDbEntity
  8
0
 62
     3
100
AcDbLine
 10
134.8953417767998
 20
227.9940795899
 30
0.0
 11
134.8953417767998
 21
205.0056457519999
 31
0.0
  0
LINE
  5
1B5
330
2
100
AcDbEntity
  8
0
 62
     3
100
AcDbLine
 10
134.5953234661999
 20
228.2998657226998
 30
0.0
 11
134.5953234661999
 21
204.6998748778999
 31
0.0
  0
LINE
  5
1B6
330
2
100
AcDbEntity
  8
0
 62
     3
100
AcDbLine
 10
139.8953570355998
 20
227.6903076172
 30
0.0
 11
139.8953570355998
 21
205.3094177245998
 31
0.0
  0
LINE
  5
1B7
330
2
100
AcDbEntity
  8
0
 62
     3
100
AcDbLine
 10
141.3953112591998
 20
225.9998626708999
 30
0.0
 11
141.3953112591998
 21
206.9998626709
 31
0.0
  0
LINE
  5
1B8
330
2
100
AcDbEntity
  8
0
 62
     3
100
AcDbLine
 10
141.6952990521996
 20
208.2997589110997
 30
0.0
 11
141.6952990521996
 21
224.6999053954999
 31
0.0
  0
LINE
  5
1B9
330
2
100
AcDbEntity
  8
0
 62
     3
100
AcDbLine
 10
141.8952960003998
 20
208.4998321533
 30
0.0
 11
141.8952960003998
 21
224.4997100829999
 31
0.0
  0
LINE
  5
1BA
330
2
100
AcDbEntity
  8
0
 62
     3
100
AcDbLine
 10
141.3953226504996
 20
206.9998262274
 30
0.0
 11
139.8953655627998
 21
205.7851848813998
 31
0.0
  0
LINE
  5
1BB
330
2
100
AcDbEntity
  8
0
 62
     3
100
AcDbLine
 10
139.6914785480998
 20
205.1054472544997
 30
0.0
 11
134.8953086619997
 21
205.0055191853
 31
0.0
  0
LINE
  5
1BC
330
2
100
AcDbEntity
  8
0
 62
     3
100
AcDbLine
 10
134.5894179703998
 20
204.6996801255999
 30
0.0
 11
134.8953025202997
 21
205.0055655005998
 31
0.0
  0
LINE
  5
1BD
330
2
100
AcDbEntity
  8
0
 62
     3
100
AcDbLine
 10
139.6914166285999
 20
205.1055245174999
 30
0.0
 11
139.8952642379996
 21
205.3093724704999
 31
0.0
  0
LINE
  5
1BE
330
2
100
AcDbEntity
  8
0
 62
     3
100
AcDbLine
 10
141.6952275716999
 20
208.2996365367999
 30
0.0
 11
141.8952256765996
 21
208.4996302416999
 31
0.0
  0
LINE
  5
1BF
330
2
100
AcDbEntity
  8
0
 62
     3
100
AcDbLine
 10
141.3952960003999
 20
208.2997589110997
 30
0.0
 11
141.6952990521996
 21
208.2997589110997
 31
0.0
  0
LINE
  5
1C0
330
2
100
AcDbEntity
  8
0
 62
     3
100
AcDbLine
 10
141.8952960003998
 20
220.4111480712998
 30
0.0
 11
146.8377093304998
 21
220.4111480712998
 31
0.0
  0
LINE
  5
1C1
330
2
100
AcDbEntity
  8
0
 62
     3
100
AcDbLine
 10
141.8952960003998
 20
213.4943695068
 30
0.0
 11
145.3297442425998
 21
213.4943695068
 31
0.0
  0
LINE
  5
1C2
330
2
100
AcDbEntity
  8
0
 62
     3
100
AcDbLine
 10
141.8952960003998
 20
214.8943786620999
 30
0.0
 11
146.3377093304996
 21
214.8943786620999
 31
0.0
  0
LINE
  5
1C3
330
2
100
AcDbEntity
  8
0
 62
     3
100
AcDbLine
 10
145.3656176556997
 20
215.5443725586
 30
0.0
 11
145.3656176556997
 21
219.7611389159999
 31
0.0
  0
LINE
  5
1C4
330
2
100
AcDbEntity
  8
0
 62
     3
100
AcDbLine
 10
145.3656329144998
 20
215.5443725586
 30
0.0
 11
146.3377093304996
 21
215.5443725586
 31
0.0
  0
LINE
  5
1C5
330
2
100
AcDbEntity
  8
0
 62
     3
100
AcDbLine
 10
145.3656329144998
 20
219.7611389159999
 30
0.0
 11
146.8377093304998
 21
219.7611389159999
 31
0.0
  0
LINE
  5
1C6
330
2
100
AcDbEntity
  8
0
 62
     3
100
AcDbLine
 10
139.8947437081999
 20
227.2136824653999
 30
0.0
 11
141.3947007957997
 21
225.9990411193999
 31
0.0
  0
LINE
  5
1C7
330
2
100
AcDbEntity
  8
0
 62
     3
100
AcDbLine
 10
134.8952935480997
 20
227.9939513436
 30
0.0
 11
139.6914481787997
 21
227.8940235922998
 31
0.0
  0
LINE
  5
1C8
330
2
100
AcDbEntity
  8
0
 62
     3
100
AcDbLine
 10
134.8948043451997
 20
227.9934818301998
 30
0.0
 11
134.5889197951997
 21
228.2993672052999
 31
0.0
  0
LINE
  5
1C9
330
2
100
AcDbEntity
  8
0
 62
     3
100
AcDbLine
 10
139.8947696239999
 20
227.6896681164
 30
0.0
 11
139.6909220145998
 21
227.8935160693999
 31
0.0
  0
LINE
  5
1CA
330
2
100
AcDbEntity
  8
0
 62
     3
100
AcDbLine
 10
141.8952641956996
 20
224.4997550112
 30
0.0
 11
141.6951733405996
 21
224.6997638280999
 31
0.0
  0
LINE
  5
1CB
330
2
100
AcDbEntity
  8
0
 62
     3
100
AcDbLine
 10
141.6952074993999
 20
224.6999053954999
 30
0.0
 11
141.3952960003999
 21
224.6999053954999
 31
0.0
  0
ARC
  5
1CC
330
2
100
AcDbEntity
  8
0
 62
     3
100
AcDbCircle
 10
178.8889025677997
 20
180.6155700683999
 30
0.0
 40
0.9999999404
100
AcDbArc
 50
120.2998486438998
 51
210.2999945822999
  0
LINE
  5
1CD
330
2
100
AcDbEntity
  8
0
  6
CENTER
 62
     3
100
AcDbLine
 10
172.8952807415998
 20
168.5
 30
0.0
 11
200.8952807415997
 21
168.5
 31
0.0
  0
CIRCLE
  5
1CE
330
2
100
AcDbEntity
  8
0
 62
     3
100
AcDbCircle
 10
186.8952807415998
 20
168.5
 30
0.0
 40
11.8999938965
  0
CIRCLE
  5
1CF
330
2
100
AcDbEntity
  8
0
 62
     3
100
AcDbCircle
 10
186.8952807415998
 20
168.5
 30
0.0
 40
9.5
  0
CIRCLE
  5
1D0
330
2
100
AcDbEntity
  8
0
 62
     3
100
AcDbCircle
 10
186.8952807415998
 20
168.5
 30
0.0
 40
10.6999969482
  0
CIRCLE
  5
1D1
330
2
100
AcDbEntity
  8
0
 62
     3
100
AcDbCircle
 10
186.8952807415998
 20
168.5
 30
0.0
 40
11.19999694819999
  0
CIRCLE
  5
1D2
330
2
100
AcDbEntity
  8
0
 62
     3
100
AcDbCircle
 10
186.8952807415998
 20
168.5
 30
0.0
 40
11.5
  0
LINE
  5
1D3
330
2
100
AcDbEntity
  8
0
 62
     3
100
AcDbLine
 10
179.4063303973998
 20
177.7479956884999
 30
0.0
 11
178.0255770973998
 21
180.1108718079999
 31
0.0
  0
LINE
  5
1D4
330
2
100
AcDbEntity
  8
0
 62
     3
100
AcDbLine
 10
178.3690573754999
 20
181.4698031826998
 30
0.0
 11
179.7817451677997
 21
182.2953112637
 31
0.0
  0
ARC
  5
1D5
330
2
100
AcDbEntity
  8
0
 62
     3
100
AcDbCircle
 10
163.6156329144999
 20
170.1436309815
 30
0.0
 40
1.75
100
AcDbArc
 50
0.0
 51
179.9999640277999
  0
LINE
  5
1D6
330
2
100
AcDbEntity
  8
0
 62
     3
100
AcDbLine
 10
162.1656359661998
 20
165.3886413573999
 30
0.0
 11
165.0656451214998
 21
165.3886413573999
 31
0.0
  0
LINE
  5
1D7
330
2
100
AcDbEntity
  8
0
 62
     3
100
AcDbLine
 10
162.1656359661998
 20
166.8028564452999
 30
0.0
 11
165.0656451214998
 21
166.8028564452999
 31
0.0
  0
LINE
  5
1D8
330
2
100
AcDbEntity
  8
0
 62
     3
100
AcDbLine
 10
150.8366564739999
 20
162.9981231689999
 30
0.0
 11
165.8628405560998
 21
162.9981231689999
 31
0.0
  0
LINE
  5
1D9
330
2
100
AcDbEntity
  8
0
 62
     3
100
AcDbLine
 10
150.8336810101999
 20
173.7185058593999
 30
0.0
 11
165.8628405560998
 21
173.7185058593999
 31
0.0
  0
LINE
  5
1DA
330
2
100
AcDbEntity
  8
0
 62
     3
100
AcDbLine
 10
150.3074206341998
 20
162.3481140137
 30
0.0
 11
166.3055132855996
 21
162.3481140137
 31
0.0
  0
LINE
  5
1DB
330
2
100
AcDbEntity
  8
0
 62
     3
100
AcDbLine
 10
150.3015154827998
 20
174.3684997558999
 30
0.0
 11
166.3055132855996
 21
174.3684997558999
 31
0.0
  0
LINE
  5
1DC
330
2
100
AcDbEntity
  8
0
 62
     3
100
AcDbLine
 10
149.2954577435998
 20
175.7826995849999
 30
0.0
 11
166.2877215374996
 21
175.7826995849999
 31
0.0
  0
ARC
  5
1DD
330
2
100
AcDbEntity
  8
0
 62
     3
100
AcDbCircle
 10
150.3074206341998
 20
162.8481140137
 30
0.0
 40
0.5
100
AcDbArc
 50
187.5434061745996
 51
270.0001819106
  0
ARC
  5
1DE
330
2
100
AcDbEntity
  8
0
 62
     3
100
AcDbCircle
 10
150.8366564739999
 20
163.498123169
 30
0.0
 40
0.5
100
AcDbArc
 50
195.5062046334999
 51
270.0000726275999
  0
ARC
  5
1DF
330
2
100
AcDbEntity
  8
0
 62
     3
100
AcDbCircle
 10
150.3015154827998
 20
173.8684997558999
 30
0.0
 40
0.5
100
AcDbArc
 50
89.9993809573
 51
172.2858390961999
  0
ARC
  5
1E0
330
2
100
AcDbEntity
  8
0
 62
     3
100
AcDbCircle
 10
149.2954577435998
 20
175.282699585
 30
0.0
 40
0.5
100
AcDbArc
 50
89.9983427685
 51
172.4909633373
  0
ARC
  5
1E1
330
2
100
AcDbEntity
  8
0
 62
     3
100
AcDbCircle
 10
150.8336810101999
 20
173.2185058594
 30
0.0
 40
0.5
100
AcDbArc
 50
89.9994902403
 51
165.2114023613999
  0
LINE
  5
1E2
330
2
100
AcDbEntity
  8
0
 62
     3
100
AcDbLine
 10
161.8656329144998
 20
170.1436309815
 30
0.0
 11
161.8656329144998
 21
165.6886444092
 31
0.0
  0
ARC
  5
1E3
330
2
100
AcDbEntity
  8
0
 62
     3
100
AcDbCircle
 10
162.1656359661998
 20
165.6886444092
 30
0.0
 40
0.2999999522999999
100
AcDbArc
 50
179.9999640277999
 51
270.0000006831999
  0
ARC
  5
1E4
330
2
100
AcDbEntity
  8
0
 62
     3
100
AcDbCircle
 10
162.1656359661998
 20
167.1028442383
 30
0.0
 40
0.2999999522999999
100
AcDbArc
 50
179.9999640277999
 51
270.0000006831999
  0
LINE
  5
1E5
330
2
100
AcDbEntity
  8
0
 62
     3
100
AcDbLine
 10
165.3656329144998
 20
170.1436309815
 30
0.0
 11
165.3656329144998
 21
165.6886444092
 31
0.0
  0
ARC
  5
1E6
330
2
100
AcDbEntity
  8
0
 62
     3
100
AcDbCircle
 10
152.9197710980998
 20
168.3583068847999
 30
0.0
 40
14.3254938126
100
AcDbArc
 50
339.4185773135999
 51
20.58142268640002
  0
ARC
  5
1E7
330
2
100
AcDbEntity
  8
0
 62
     3
100
AcDbCircle
 10
152.9197710980998
 20
168.3583068847999
 30
0.0
 40
14.9754943848
100
AcDbArc
 50
337.6256629018
 51
22.37433709820004
  0
ARC
  5
1E8
330
2
100
AcDbEntity
  8
0
 62
     3
100
AcDbCircle
 10
165.0656451214998
 20
165.6886444092
 30
0.0
 40
0.2999999522999999
100
AcDbArc
 50
270.0000179861
 51
0.0
  0
ARC
  5
1E9
330
2
100
AcDbEntity
  8
0
 62
     3
100
AcDbCircle
 10
165.8628405560998
 20
163.498123169
 30
0.0
 40
0.5
100
AcDbArc
 50
270.0010561747999
 51
339.4189393136
  0
ARC
  5
1EA
330
2
100
AcDbEntity
  8
0
 62
     3
100
AcDbCircle
 10
166.3055132855996
 20
162.8481140137
 30
0.0
 40
0.5
100
AcDbArc
 50
270.0016572315
 51
337.6262776188
  0
ARC
  5
1EB
330
2
100
AcDbEntity
  8
0
 62
     3
100
AcDbCircle
 10
148.9211901653998
 20
169.0654144287
 30
0.0
 40
18.94589233399996
100
AcDbArc
 50
0.0
 51
19.6975859625
  0
ARC
  5
1EC
330
2
100
AcDbEntity
  8
0
 62
     3
100
AcDbCircle
 10
165.0656451214998
 20
167.1028442383
 30
0.0
 40
0.2999999522999999
100
AcDbArc
 50
270.0000179861
 51
0.0
  0
ARC
  5
1ED
330
2
100
AcDbEntity
  8
0
 62
     3
100
AcDbCircle
 10
165.8628405560998
 20
173.2185058594
 30
0.0
 40
0.5
100
AcDbArc
 50
20.5810641014
 51
89.9989438252
  0
ARC
  5
1EE
330
2
100
AcDbEntity
  8
0
 62
     3
100
AcDbCircle
 10
166.2877215374996
 20
175.282699585
 30
0.0
 40
0.5
100
AcDbArc
 50
19.69735373609998
 51
89.9992716742
  0
ARC
  5
1EF
330
2
100
AcDbEntity
  8
0
 62
     3
100
AcDbCircle
 10
166.3055132855996
 20
173.8684997558999
 30
0.0
 40
0.5
100
AcDbArc
 50
22.3737257963
 51
89.9983427685
  0
ARC
  5
1F0
330
2
100
AcDbEntity
  8
0
 62
     3
100
AcDbCircle
 10
163.6156329144999
 20
215.6561737060998
 30
0.0
 40
1.75
100
AcDbArc
 50
180.0000906136999
 51
0.0
  0
LINE
  5
1F1
330
2
100
AcDbEntity
  8
0
 62
     3
100
AcDbLine
 10
162.1656359661998
 20
220.4111480712998
 30
0.0
 11
165.0656451214998
 21
220.4111480712998
 31
0.0
  0
LINE
  5
1F2
330
2
100
AcDbEntity
  8
0
 62
     3
100
AcDbLine
 10
162.1656359661998
 20
218.9969329834
 30
0.0
 11
165.0656451214998
 21
218.9969329834
 31
0.0
  0
LINE
  5
1F3
330
2
100
AcDbEntity
  8
0
 62
     3
100
AcDbLine
 10
150.8366564739999
 20
222.8016662597998
 30
0.0
 11
165.8628405560998
 21
222.8016662597998
 31
0.0
  0
LINE
  5
1F4
330
2
100
AcDbEntity
  8
0
 62
     3
100
AcDbLine
 10
150.8336810101999
 20
212.0812835693
 30
0.0
 11
165.8628405560998
 21
212.0812835693
 31
0.0
  0
LINE
  5
1F5
330
2
100
AcDbEntity
  8
0
 62
     3
100
AcDbLine
 10
150.3074206341998
 20
223.4516754150999
 30
0.0
 11
166.3055132855996
 21
223.4516754150999
 31
0.0
  0
LINE
  5
1F6
330
2
100
AcDbEntity
  8
0
 62
     3
100
AcDbLine
 10
150.3015154827998
 20
211.4312896728999
 30
0.0
 11
166.3055132855996
 21
211.4312896728999
 31
0.0
  0
LINE
  5
1F7
330
2
100
AcDbEntity
  8
0
 62
     3
100
AcDbLine
 10
149.2954577435998
 20
210.0170898437998
 30
0.0
 11
166.2877215374996
 21
210.0170898437998
 31
0.0
  0
ARC
  5
1F8
330
2
100
AcDbEntity
  8
0
 62
     3
100
AcDbCircle
 10
150.3074206341998
 20
222.9516906738
 30
0.0
 40
0.5
100
AcDbArc
 50
89.99981808940002
 51
172.4565938254
  0
ARC
  5
1F9
330
2
100
AcDbEntity
  8
0
 62
     3
100
AcDbCircle
 10
150.3015154827998
 20
211.9313049316999
 30
0.0
 40
0.5
100
AcDbArc
 50
187.7142155452999
 51
270.0006736842
  0
ARC
  5
1FA
330
2
100
AcDbEntity
  8
0
 62
     3
100
AcDbCircle
 10
149.2954577435998
 20
210.5171051025999
 30
0.0
 40
0.5
100
AcDbArc
 50
187.5090913041999
 51
270.0017118729999
  0
ARC
  5
1FB
330
2
100
AcDbEntity
  8
0
 62
     3
100
AcDbCircle
 10
150.8336810101999
 20
212.5812988280999
 30
0.0
 40
0.5
100
AcDbArc
 50
194.7886522801
 51
270.0005644012
  0
ARC
  5
1FC
330
2
100
AcDbEntity
  8
0
 62
     3
100
AcDbCircle
 10
150.8366564739999
 20
222.3016815185998
 30
0.0
 40
0.5
100
AcDbArc
 50
89.99992737239997
 51
164.4937953664999
  0
LINE
  5
1FD
330
2
100
AcDbEntity
  8
0
 62
     3
100
AcDbLine
 10
161.8656329144998
 20
215.6561431884999
 30
0.0
 11
161.8656329144998
 21
220.1111297608
 31
0.0
  0
ARC
  5
1FE
330
2
100
AcDbEntity
  8
0
 62
     3
100
AcDbCircle
 10
162.1656359661998
 20
220.1111602783
 30
0.0
 40
0.2999999522999999
100
AcDbArc
 50
89.99998201389999
 51
180.0000186692996
  0
ARC
  5
1FF
330
2
100
AcDbEntity
  8
0
 62
     3
100
AcDbCircle
 10
162.1656359661998
 20
218.6969604491999
 30
0.0
 40
0.2999999522999999
100
AcDbArc
 50
89.99998201389999
 51
180.0000186692996
  0
ARC
  5
200
330
2
100
AcDbEntity
  8
0
 62
     3
100
AcDbCircle
 10
166.3055132855996
 20
222.9516906738
 30
0.0
 40
0.5
100
AcDbArc
 50
22.3737223812
 51
89.9983427685
  0
ARC
  5
201
330
2
100
AcDbEntity
  8
0
 62
     3
100
AcDbCircle
 10
148.9211901653998
 20
216.7343902588
 30
0.0
 40
18.94589233399996
100
AcDbArc
 50
340.3024174525998
 51
0.0
  0
ARC
  5
202
330
2
100
AcDbEntity
  8
0
 62
     3
100
AcDbCircle
 10
152.9197710980998
 20
217.4414978026999
 30
0.0
 40
14.9754943848
100
AcDbArc
 50
337.6256663168998
 51
22.37433709820004
  0
ARC
  5
203
330
2
100
AcDbEntity
  8
0
 62
     3
100
AcDbCircle
 10
166.2877215374996
 20
210.5171051025999
 30
0.0
 40
0.5
100
AcDbArc
 50
270.0007829672999
 51
340.302649679
  0
ARC
  5
204
330
2
100
AcDbEntity
  8
0
 62
     3
100
AcDbCircle
 10
166.3055132855996
 20
211.9313049316999
 30
0.0
 40
0.5
100
AcDbArc
 50
270.0017118729999
 51
337.6262776188
  0
ARC
  5
205
330
2
100
AcDbEntity
  8
0
 62
     3
100
AcDbCircle
 10
152.9197710980998
 20
217.4414978026999
 30
0.0
 40
14.3254938126
100
AcDbArc
 50
339.4185807286998
 51
20.58142268640002
  0
LINE
  5
206
330
2
100
AcDbEntity
  8
0
 62
     3
100
AcDbLine
 10
165.3656329144998
 20
215.6561431884999
 30
0.0
 11
165.3656329144998
 21
220.1111297608
 31
0.0
  0
ARC
  5
207
330
2
100
AcDbEntity
  8
0
 62
     3
100
AcDbCircle
 10
165.8628405560998
 20
212.5812988280999
 30
0.0
 40
0.5
100
AcDbArc
 50
270.0011108163999
 51
339.4189393136
  0
ARC
  5
208
330
2
100
AcDbEntity
  8
0
 62
     3
100
AcDbCircle
 10
165.0656451214998
 20
220.1111602783
 30
0.0
 40
0.2999999522999999
100
AcDbArc
 50
0.0
 51
89.99998201389999
  0
ARC
  5
209
330
2
100
AcDbEntity
  8
0
 62
     3
100
AcDbCircle
 10
165.0656451214998
 20
218.6969604491999
 30
0.0
 40
0.2999999522999999
100
AcDbArc
 50
0.0
 51
89.99998201389999
  0
ARC
  5
20A
330
2
100
AcDbEntity
  8
0
 62
     3
100
AcDbCircle
 10
165.8628405560998
 20
222.3016815185998
 30
0.0
 40
0.5
100
AcDbArc
 50
20.5810606864
 51
89.9989438252
  0
ARC
  5
20B
330
2
100
AcDbEntity
  8
0
 62
     3
100
AcDbCircle
 10
186.8952349652998
 20
168.4999389649
 30
0.0
 40
7.999996185299997
100
AcDbArc
 50
142.1802140240999
 51
127.8188057234
  0
ARC
  5
20C
330
2
100
AcDbEntity
  8
0
 62
     3
100
AcDbCircle
 10
186.8952349652998
 20
168.4999389649
 30
0.0
 40
8.1999969482
100
AcDbArc
 50
142.0041973305
 51
127.9948466912999
  0
ARC
  5
20D
330
2
100
AcDbEntity
  8
0
 62
     3
100
AcDbCircle
 10
186.8952807415998
 20
168.5
 30
0.0
 40
8.2999954224
100
AcDbArc
 50
141.9199206381998
 51
128.0801854677999
  0
LINE
  5
20E
330
2
100
AcDbEntity
  8
0
  6
CENTER
 62
     3
100
AcDbLine
 10
186.8952807415998
 20
182.5
 30
0.0
 11
186.8952807415998
 21
154.4999999999999
 31
0.0
  0
LINE
  5
20F
330
2
100
AcDbEntity
  8
0
 62
     3
100
AcDbLine
 10
187.2488772905996
 20
166.5907167423999
 30
0.0
 11
182.9355539782998
 21
170.9040400547
 31
0.0
  0
LINE
  5
210
330
2
100
AcDbEntity
  8
0
 62
     3
100
AcDbLine
 10
187.2488772905996
 20
165.8836099612
 30
0.0
 11
182.2284471970998
 21
170.9040400547
 31
0.0
  0
LINE
  5
211
330
2
100
AcDbEntity
  8
0
 62
     3
100
AcDbLine
 10
179.6125534795997
 20
174.3685136997
 30
0.0
 11
191.6329371759996
 21
162.3481300032
 31
0.0
  0
LINE
  5
212
330
2
100
AcDbEntity
  8
0
 62
     3
100
AcDbLine
 10
181.0267562523996
 20
175.7827164725
 30
0.0
 11
193.0471399487996
 21
163.762332776
 31
0.0
  0
LINE
  5
213
330
2
100
AcDbEntity
  8
0
 62
     3
100
AcDbLine
 10
185.4103737644996
 20
171.5404857899
 30
0.0
 11
189.7236970767997
 21
167.2271624775999
 31
0.0
  0
LINE
  5
214
330
2
100
AcDbEntity
  8
0
 62
     3
100
AcDbLine
 10
185.4103737644996
 20
172.2475925711
 30
0.0
 11
190.4308038579998
 21
167.2271624775999
 31
0.0
  0
LINE
  5
215
330
2
100
AcDbEntity
  8
0
 62
     3
100
AcDbLine
 10
181.0267562523996
 20
175.7827164725
 30
0.0
 11
179.6125534795997
 21
174.3685136997
 31
0.0
  0
LINE
  5
216
330
2
100
AcDbEntity
  8
0
 62
     3
100
AcDbLine
 10
185.4103448730996
 20
171.5418022915
 30
0.0
 11
185.4103448730996
 21
172.2489555996999
 31
0.0
  0
LINE
  5
217
330
2
100
AcDbEntity
  8
0
 62
     3
100
AcDbLine
 10
182.9354761409996
 20
170.9054497632999
 30
0.0
 11
182.2283686091998
 21
170.9054497632999
 31
0.0
  0
LINE
  5
218
330
2
100
AcDbEntity
  8
0
 62
     3
100
AcDbLine
 10
182.9355539782998
 20
170.9040400547
 30
0.0
 11
183.0062797617998
 21
170.9747658381999
 31
0.0
  0
LINE
  5
219
330
2
100
AcDbEntity
  8
0
 62
     3
100
AcDbLine
 10
182.2284471970998
 20
170.9040400547
 30
0.0
 11
182.6527263711998
 21
171.3283192287999
 31
0.0
  0
LINE
  5
21A
330
2
100
AcDbEntity
  8
0
 62
     3
100
AcDbLine
 10
185.3396695600998
 20
171.4697815854998
 30
0.0
 11
185.4103737644996
 21
171.5404857899
 31
0.0
  0
LINE
  5
21B
330
2
100
AcDbEntity
  8
0
 62
     3
100
AcDbLine
 10
184.9860730110998
 20
171.8233781344999
 30
0.0
 11
185.4103198165
 21
172.2476249398
 31
0.0
  0
LINE
  5
21C
330
2
100
AcDbEntity
  8
0
 62
     3
100
AcDbLine
 10
187.2488153005996
 20
166.5920953449
 30
0.0
 11
187.2488153005996
 21
165.8849420367
 31
0.0
  0
LINE
  5
21D
330
2
100
AcDbEntity
  8
0
 62
     3
100
AcDbLine
 10
187.6731564646998
 20
166.3078891353
 30
0.0
 11
187.2488772905996
 21
165.8836099612
 31
0.0
  0
LINE
  5
21E
330
2
100
AcDbEntity
  8
0
 62
     3
100
AcDbLine
 10
193.0471399487996
 20
163.762332776
 30
0.0
 11
191.6329371759996
 21
162.3481300032
 31
0.0
  0
LINE
  5
21F
330
2
100
AcDbEntity
  8
0
 62
     3
100
AcDbLine
 10
189.7236970767997
 20
167.2271624775999
 30
0.0
 11
189.6529928723998
 21
167.1564582732
 31
0.0
  0
LINE
  5
220
330
2
100
AcDbEntity
  8
0
 62
     3
100
AcDbLine
 10
187.2488125529997
 20
169.5606385926
 30
0.0
 11
187.3195167573998
 21
169.631342797
 31
0.0
  0
LINE
  5
221
330
2
100
AcDbEntity
  8
0
 62
     3
100
AcDbLine
 10
187.3196030740998
 20
166.6614425258998
 30
0.0
 11
187.2488772905996
 21
166.5907167423999
 31
0.0
  0
LINE
  5
222
330
2
100
AcDbEntity
  8
0
 62
     3
100
AcDbLine
 10
187.9559193341998
 20
168.8535318113999
 30
0.0
 11
188.0266235385996
 21
168.9242360158
 31
0.0
  0
LINE
  5
223
330
2
100
AcDbEntity
  8
0
 62
     3
100
AcDbLine
 10
190.4308038579998
 20
167.2271624775999
 30
0.0
 11
190.0065462629997
 21
166.8029048825999
 31
0.0
  0
LINE
  5
224
330
2
100
AcDbEntity
  8
0
 62
     3
100
AcDbLine
 10
189.7236840326996
 20
167.2284478730999
 30
0.0
 11
190.4307915644998
 21
167.2284478730999
 31
0.0
  0
LINE
  5
225
330
2
100
AcDbEntity
  8
0
 62
     3
100
AcDbLine
 10
182.5145465508999
 20
179.5642905316999
 30
0.0
 11
181.1337932509996
 21
181.9271666511999
 31
0.0
  0
ARC
  5
226
330
2
100
AcDbEntity
  8
0
 62
     3
100
AcDbCircle
 10
180.2703265179997
 20
181.4228363036999
 30
0.0
 40
0.9999999404
100
AcDbArc
 50
30.3000100639
 51
120.2997393607999
  0
LINE
  5
227
330
2
100
AcDbEntity
  8
0
 62
     3
100
AcDbLine
 10
180.4649598873998
 20
178.5130119352999
 30
0.0
 11
179.2488847870997
 21
180.5940750866999
 31
0.0
  0
LINE
  5
228
330
2
100
AcDbEntity
  8
0
 62
     3
100
AcDbLine
 10
181.3283554590999
 20
179.0175395636999
 30
0.0
 11
180.1122803587997
 21
181.0986027150999
 31
0.0
  0
LINE
  5
229
330
2
100
AcDbEntity
  8
0
 62
     3
100
AcDbLine
 10
179.2488847870997
 20
180.5940750866999
 30
0.0
 11
180.1122803587997
 21
181.0986027150999
 31
0.0
  0
LINE
  5
22E
330
2
100
AcDbEntity
  8
0
100
AcDbLine
 10
210.0
 20
297.0
 30
0.0
 11
0.0
 21
297.0
 31
0.0
  0
TEXT
  5
270
330
2
100
AcDbEntity
  8
0
 62
     7
100
AcDbText
 10
108.0
 20
110.0000029552498
 30
0.0
 40
2.999994089499998
  1
HA1K-2#C2V*
 11
108.0
 21
111.4999999999999
 31
0.0
100
AcDbText
 73
     2
  0
TEXT
  5
271
330
2
100
AcDbEntity
  8
0
 62
     7
100
AcDbText
 10
108.0
 20
115.0000029552499
 30
0.0
 40
2.999994089499998
  1
HA1K-2#C1V*
 11
108.0
 21
116.5
 31
0.0
100
AcDbText
 73
     2
  0
TEXT
  5
274
330
2
100
AcDbEntity
  8
0
 62
     7
100
AcDbText
 10
146.0
 20
110.0000029552498
 30
0.0
 40
2.999994089499998
  1
HA1K-3#C2V*
 11
146.0
 21
111.4999999999999
 31
0.0
100
AcDbText
 73
     2
  0
ENDSEC
  0
SECTION
  2
OBJECTS
  0
DICTIONARY
  5
7
330
0
100
AcDbDictionary
281
     1
  3
ACAD_GROUP
350
1F
  3
ACAD_LAYOUT
350
B
  3
ACAD_MLINESTYLE
350
20
  3
ACAD_PLOTSETTINGS
350
21
  3
ACAD_PLOTSTYLENAME
350
6
  3
AcDbVariableDictionary
350
276
  3
ASE_INDEX_DICTIONARY
350
27F
  0
DICTIONARY
  5
1F
102
{ACAD_REACTORS
330
7
102
}
330
7
100
AcDbDictionary
281
     1
  0
DICTIONARY
  5
B
102
{ACAD_REACTORS
330
7
102
}
330
7
100
AcDbDictionary
281
     1
  3
Model
350
A
  3
ﾚｲｱｳﾄ1
350
F
  0
DICTIONARY
  5
20
102
{ACAD_REACTORS
330
7
102
}
330
7
100
AcDbDictionary
281
     1
  3
Standard
350
22
  0
DICTIONARY
  5
21
102
{ACAD_REACTORS
330
7
102
}
330
7
100
AcDbDictionary
281
     1
  0
ACDBDICTIONARYWDFLT
  5
6
102
{ACAD_REACTORS
330
7
102
}
330
7
100
AcDbDictionary
281
     1
  3
Normal
350
5
100
AcDbDictionaryWithDefault
340
5
  0
DICTIONARY
  5
276
102
{ACAD_REACTORS
330
7
102
}
330
7
100
AcDbDictionary
281
     1
  3
DIMASSOC
350
277
  0
DICTIONARY
  5
27F
102
{ACAD_REACTORS
330
7
102
}
330
7
100
AcDbDictionary
281
     1
  3
ASEBlockHierarchyIndexRecord
350
281
1001
DCO15
1040
1518867310.515
  0
LAYOUT
  5
A
102
{ACAD_REACTORS
330
B
102
}
330
B
100
AcDbPlotSettings
  1

  2
C:\Program Files\AutoCAD 2000i\plotters\DWF Classic.pc3
  4

  6

 40
0.0
 41
0.0
 42
0.0
 43
0.0
 44
0.0
 45
0.0
 46
0.0
 47
0.0
 48
0.0
 49
0.0
140
0.0
141
0.0
142
1.0
143
1.0
 70
  1712
 72
     0
 73
     0
 74
     0
  7

 75
     0
147
1.0
148
0.0
149
0.0
100
AcDbLayout
  1
Model
 70
     1
 71
     0
 10
0.0
 20
0.0
 11
12.0
 21
9.0
 12
0.0
 22
0.0
 32
0.0
 14
0.0
 24
0.0
 34
0.0
 15
0.0
 25
0.0
 35
0.0
146
0.0
 13
0.0
 23
0.0
 33
0.0
 16
1.0
 26
0.0
 36
0.0
 17
0.0
 27
1.0
 37
0.0
 76
     0
330
2
  0
LAYOUT
  5
F
102
{ACAD_REACTORS
330
B
102
}
330
B
100
AcDbPlotSettings
  1

  2
C:\Program Files\AutoCAD 2000i\plotters\DWF Classic.pc3
  4

  6

 40
0.0
 41
0.0
 42
0.0
 43
0.0
 44
0.0
 45
0.0
 46
0.0
 47
0.0
 48
0.0
 49
0.0
140
0.0
141
0.0
142
1.0
143
1.0
 70
   688
 72
     0
 73
     0
 74
     5
  7

 75
    16
147
1.0
148
0.0
149
0.0
100
AcDbLayout
  1
ﾚｲｱｳﾄ1
 70
     1
 71
     1
 10
0.0
 20
0.0
 11
12.0
 21
9.0
 12
0.0
 22
0.0
 32
0.0
 14
1.000000000000000E+20
 24
1.000000000000000E+20
 34
1.000000000000000E+20
 15
-1.000000000000000E+20
 25
-1.000000000000000E+20
 35
-1.000000000000000E+20
146
0.0
 13
0.0
 23
0.0
 33
0.0
 16
1.0
 26
0.0
 36
0.0
 17
0.0
 27
1.0
 37
0.0
 76
     0
330
C
  0
MLINESTYLE
  5
22
102
{ACAD_REACTORS
330
20
102
}
330
20
100
AcDbMlineStyle
  2
STANDARD
 70
     0
  3

 62
   256
 51
90.0
 52
90.0
 71
     2
 49
0.5
 62
   256
  6
BYLAYER
 49
-0.5
 62
   256
  6
BYLAYER
  0
ACDBPLACEHOLDER
  5
5
102
{ACAD_REACTORS
330
6
102
}
330
6
  0
DICTIONARYVAR
  5
277
102
{ACAD_REACTORS
330
276
102
}
330
276
100
DictionaryVariables
280
     0
  1
1
  0
XRECORD
  5
281
102
{ACAD_REACTORS
330
27F
102
}
330
27F
100
AcDbXrecord
280
     1
  0
ENDSEC
  0
EOF
