  0
SECTION
  2
HEADER
  9
$ACADVER
  1
AC1015
  9
$ACADMAINTVER
 70
    13
  9
$DWGCODEPAGE
  3
ANSI_932
  9
$INSBASE
 10
0.0
 20
0.0
 30
0.0
  9
$EXTMIN
 10
-0.0202114154883475
 20
-0.0006537740625845
 30
-0.0000000000112498
  9
$EXTMAX
 10
210.0247558325539
 20
297.0044886908847
 30
0.0000000000002956
  9
$LIMMIN
 10
-189.9150207519998
 20
-3.174999999999998
  9
$LIMMAX
 10
3.174999999999998
 20
291.2585876465
  9
$ORTHOMODE
 70
     0
  9
$REGENMODE
 70
     1
  9
$FILLMODE
 70
     1
  9
$QTEXTMODE
 70
     0
  9
$MIRRTEXT
 70
     0
  9
$LTSCALE
 40
1.0
  9
$ATTMODE
 70
     1
  9
$TEXTSIZE
 40
2.999994039499998
  9
$TRACEWID
 40
0.05
  9
$TEXTSTYLE
  7
STANDARD
  9
$CLAYER
  8
0
  9
$CELTYPE
  6
ByLayer
  9
$CECOLOR
 62
   256
  9
$CELTSCALE
 40
1.0
  9
$DISPSILH
 70
     0
  9
$DIMSCALE
 40
1.0
  9
$DIMASZ
 40
1.9727878465
  9
$DIMEXO
 40
2.539999961899999
  9
$DIMDLI
 40
0.38
  9
$DIMRND
 40
0.0
  9
$DIMDLE
 40
0.0
  9
$DIMEXE
 40
3.809999942799998
  9
$DIMTP
 40
0.0
  9
$DIMTM
 40
0.0
  9
$DIMTXT
 40
2.999994039499998
  9
$DIMCEN
 40
0.09
  9
$DIMTSZ
 40
0.0
  9
$DIMTOL
 70
     0
  9
$DIMLIM
 70
     0
  9
$DIMTIH
 70
     0
  9
$DIMTOH
 70
     1
  9
$DIMSE1
 70
     0
  9
$DIMSE2
 70
     0
  9
$DIMTAD
 70
     0
  9
$DIMZIN
 70
     0
  9
$DIMBLK
  1

  9
$DIMASO
 70
     1
  9
$DIMSHO
 70
     0
  9
$DIMPOST
  1

  9
$DIMAPOST
  1

  9
$DIMALT
 70
     0
  9
$DIMALTD
 70
     2
  9
$DIMALTF
 40
25.4
  9
$DIMLFAC
 40
1.0
  9
$DIMTOFL
 70
     0
  9
$DIMTVP
 40
0.0
  9
$DIMTIX
 70
     0
  9
$DIMSOXD
 70
     0
  9
$DIMSAH
 70
     0
  9
$DIMBLK1
  1

  9
$DIMBLK2
  1

  9
$DIMSTYLE
  2
Standard
  9
$DIMCLRD
 70
     0
  9
$DIMCLRE
 70
     0
  9
$DIMCLRT
 70
     0
  9
$DIMTFAC
 40
1.0
  9
$DIMGAP
 40
0.09
  9
$DIMJUST
 70
     0
  9
$DIMSD1
 70
     0
  9
$DIMSD2
 70
     0
  9
$DIMTOLJ
 70
     1
  9
$DIMTZIN
 70
     0
  9
$DIMALTZ
 70
     0
  9
$DIMALTTZ
 70
     0
  9
$DIMUPT
 70
     0
  9
$DIMDEC
 70
     4
  9
$DIMTDEC
 70
     4
  9
$DIMALTU
 70
     2
  9
$DIMALTTD
 70
     2
  9
$DIMTXSTY
  7
STANDARD
  9
$DIMAUNIT
 70
     0
  9
$DIMADEC
 70
     0
  9
$DIMALTRND
 40
0.0
  9
$DIMAZIN
 70
     0
  9
$DIMDSEP
 70
    46
  9
$DIMATFIT
 70
     3
  9
$DIMFRAC
 70
     0
  9
$DIMLDRBLK
  1

  9
$DIMLUNIT
 70
     2
  9
$DIMLWD
 70
    -2
  9
$DIMLWE
 70
    -2
  9
$DIMTMOVE
 70
     0
  9
$LUNITS
 70
     2
  9
$LUPREC
 70
     3
  9
$SKETCHINC
 40
0.1
  9
$FILLETRAD
 40
0.0625
  9
$AUNITS
 70
     0
  9
$AUPREC
 70
     0
  9
$MENU
  1
ACAD
  9
$ELEVATION
 40
0.0
  9
$PELEVATION
 40
0.0
  9
$THICKNESS
 40
0.0
  9
$LIMCHECK
 70
     0
  9
$CHAMFERA
 40
0.0
  9
$CHAMFERB
 40
0.0
  9
$CHAMFERC
 40
0.0
  9
$CHAMFERD
 40
0.0
  9
$SKPOLY
 70
     0
  9
$TDCREATE
 40
2452310.764976851
  9
$TDUCREATE
 40
2452310.389976851
  9
$TDUPDATE
 40
2453321.627767650
  9
$TDUUPDATE
 40
2453321.252767650
  9
$TDINDWG
 40
0.0027833796
  9
$TDUSRTIMER
 40
0.0027765046
  9
$USRTIMER
 70
     1
  9
$ANGBASE
 50
0.0
  9
$ANGDIR
 70
     0
  9
$PDMODE
 70
     0
  9
$PDSIZE
 40
0.0
  9
$PLINEWID
 40
0.0
  9
$SPLFRAME
 70
     0
  9
$SPLINETYPE
 70
     6
  9
$SPLINESEGS
 70
     8
  9
$HANDSEED
  5
3BA
  9
$SURFTAB1
 70
     6
  9
$SURFTAB2
 70
     6
  9
$SURFTYPE
 70
     6
  9
$SURFU
 70
     6
  9
$SURFV
 70
     6
  9
$UCSBASE
  2

  9
$UCSNAME
  2

  9
$UCSORG
 10
0.0
 20
0.0
 30
0.0
  9
$UCSXDIR
 10
1.0
 20
0.0
 30
0.0
  9
$UCSYDIR
 10
0.0
 20
1.0
 30
0.0
  9
$UCSORTHOREF
  2

  9
$UCSORTHOVIEW
 70
     0
  9
$UCSORGTOP
 10
0.0
 20
0.0
 30
0.0
  9
$UCSORGBOTTOM
 10
0.0
 20
0.0
 30
0.0
  9
$UCSORGLEFT
 10
0.0
 20
0.0
 30
0.0
  9
$UCSORGRIGHT
 10
0.0
 20
0.0
 30
0.0
  9
$UCSORGFRONT
 10
0.0
 20
0.0
 30
0.0
  9
$UCSORGBACK
 10
0.0
 20
0.0
 30
0.0
  9
$PUCSBASE
  2

  9
$PUCSNAME
  2

  9
$PUCSORG
 10
0.0
 20
0.0
 30
0.0
  9
$PUCSXDIR
 10
1.0
 20
0.0
 30
0.0
  9
$PUCSYDIR
 10
0.0
 20
1.0
 30
0.0
  9
$PUCSORTHOREF
  2

  9
$PUCSORTHOVIEW
 70
     0
  9
$PUCSORGTOP
 10
0.0
 20
0.0
 30
0.0
  9
$PUCSORGBOTTOM
 10
0.0
 20
0.0
 30
0.0
  9
$PUCSORGLEFT
 10
0.0
 20
0.0
 30
0.0
  9
$PUCSORGRIGHT
 10
0.0
 20
0.0
 30
0.0
  9
$PUCSORGFRONT
 10
0.0
 20
0.0
 30
0.0
  9
$PUCSORGBACK
 10
0.0
 20
0.0
 30
0.0
  9
$USERI1
 70
     9
  9
$USERI2
 70
     0
  9
$USERI3
 70
     0
  9
$USERI4
 70
     0
  9
$USERI5
 70
     0
  9
$USERR1
 40
0.0
  9
$USERR2
 40
0.0
  9
$USERR3
 40
0.0
  9
$USERR4
 40
0.0
  9
$USERR5
 40
0.0
  9
$WORLDVIEW
 70
     1
  9
$SHADEDGE
 70
     3
  9
$SHADEDIF
 70
    70
  9
$TILEMODE
 70
     1
  9
$MAXACTVP
 70
    64
  9
$PINSBASE
 10
0.0
 20
0.0
 30
0.0
  9
$PLIMCHECK
 70
     0
  9
$PEXTMIN
 10
1.000000000000000E+20
 20
1.000000000000000E+20
 30
1.000000000000000E+20
  9
$PEXTMAX
 10
-1.000000000000000E+20
 20
-1.000000000000000E+20
 30
-1.000000000000000E+20
  9
$PLIMMIN
 10
0.0
 20
0.0
  9
$PLIMMAX
 10
12.0
 20
9.0
  9
$UNITMODE
 70
     0
  9
$VISRETAIN
 70
     1
  9
$PLINEGEN
 70
     0
  9
$PSLTSCALE
 70
     1
  9
$TREEDEPTH
 70
  3020
  9
$CMLSTYLE
  2
Standard
  9
$CMLJUST
 70
     0
  9
$CMLSCALE
 40
1.0
  9
$PROXYGRAPHICS
 70
     1
  9
$MEASUREMENT
 70
     0
  9
$CELWEIGHT
370
    -1
  9
$ENDCAPS
280
     0
  9
$JOINSTYLE
280
     0
  9
$LWDISPLAY
290
     0
  9
$INSUNITS
 70
     0
  9
$HYPERLINKBASE
  1

  9
$STYLESHEET
  1

  9
$XEDIT
290
     1
  9
$CEPSNTYPE
380
     0
  9
$PSTYLEMODE
290
     1
  9
$FINGERPRINTGUID
  2
{FD22DA66-819F-4545-B287-DB58097A3119}
  9
$VERSIONGUID
  2
{EFCDDFF1-60D5-425C-B370-DE643528B5F1}
  9
$EXTNAMES
290
     1
  9
$PSVPSCALE
 40
0.0
  9
$OLESTARTUP
290
     0
  0
ENDSEC
  0
SECTION
  2
CLASSES
  0
CLASS
  1
ACDBDICTIONARYWDFLT
  2
AcDbDictionaryWithDefault
  3
AutoCAD 2000
 90
        0
280
     0
281
     0
  0
CLASS
  1
ACDBPLACEHOLDER
  2
AcDbPlaceHolder
  3
AutoCAD 2000
 90
        0
280
     0
281
     0
  0
CLASS
  1
LAYOUT
  2
AcDbLayout
  3
AutoCAD 2000
 90
        0
280
     0
281
     0
  0
CLASS
  1
DICTIONARYVAR
  2
AcDbDictionaryVar
  3
AutoCAD 2000
 90
        0
280
     0
281
     0
  0
ENDSEC
  0
SECTION
  2
TABLES
  0
TABLE
  2
VPORT
  5
8
330
0
100
AcDbSymbolTable
 70
     2
  0
VPORT
  5
3B9
330
8
100
AcDbSymbolTableRecord
100
AcDbViewportTableRecord
  2
*Active
 70
     0
 10
0.0
 20
0.0
 11
1.0
 21
1.0
 12
105.0022722085328
 22
148.5019174584111
 13
0.0
 23
0.0
 14
1.0
 24
1.0
 15
0.0
 25
0.0
 16
0.0
 26
0.0
 36
1.0
 17
0.0
 27
0.0
 37
0.0
 40
302.4883143258386
 41
2.780864197530864
 42
50.0
 43
0.0
 44
0.0
 50
0.0
 51
0.0
 71
     0
 72
   100
 73
     1
 74
     1
 75
     0
 76
     0
 77
     0
 78
     0
281
     0
 65
     1
110
0.0
120
0.0
130
0.0
111
1.0
121
0.0
131
0.0
112
0.0
122
1.0
132
0.0
 79
     0
146
0.0
  0
ENDTAB
  0
TABLE
  2
LTYPE
  5
5
330
0
100
AcDbSymbolTable
 70
     3
  0
LTYPE
  5
13
330
5
100
AcDbSymbolTableRecord
100
AcDbLinetypeTableRecord
  2
ByBlock
 70
     0
  3

 72
    65
 73
     0
 40
0.0
  0
LTYPE
  5
14
330
5
100
AcDbSymbolTableRecord
100
AcDbLinetypeTableRecord
  2
ByLayer
 70
     0
  3

 72
    65
 73
     0
 40
0.0
  0
LTYPE
  5
15
330
5
100
AcDbSymbolTableRecord
100
AcDbLinetypeTableRecord
  2
Continuous
 70
     0
  3
Solid line
 72
    65
 73
     0
 40
0.0
  0
LTYPE
  5
24
330
5
100
AcDbSymbolTableRecord
100
AcDbLinetypeTableRecord
  2
DASH
 70
     0
  3
Dash
 72
    65
 73
     2
 40
1.9999960661
 49
0.9999980329999999
 74
     0
 49
-0.9999980329999999
 74
     0
  0
LTYPE
  5
25
330
5
100
AcDbSymbolTableRecord
100
AcDbLinetypeTableRecord
  2
CENTER
 70
     0
  3
Center
 72
    65
 73
     4
 40
9.100006759199999
 49
6.5000119209
 74
     0
 49
-0.7999984026000001
 74
     0
 49
0.9999980329999999
 74
     0
 49
-0.7999984026000001
 74
     0
  0
ENDTAB
  0
TABLE
  2
LAYER
  5
2
330
0
100
AcDbSymbolTable
 70
     1
  0
LAYER
  5
10
330
2
100
AcDbSymbolTableRecord
100
AcDbLayerTableRecord
  2
0
 70
     0
 62
     7
  6
Continuous
370
    -3
390
F
  0
ENDTAB
  0
TABLE
  2
STYLE
  5
3
330
0
100
AcDbSymbolTable
 70
     1
  0
STYLE
  5
11
330
3
100
AcDbSymbolTableRecord
100
AcDbTextStyleTableRecord
  2
STANDARD
 70
     0
 40
0.0
 41
1.0
 50
0.0
 71
     0
 42
2.999994039499998
  3
romans.shx
  4
bigfont.shx
  0
ENDTAB
  0
TABLE
  2
VIEW
  5
6
330
0
100
AcDbSymbolTable
 70
     0
  0
ENDTAB
  0
TABLE
  2
UCS
  5
7
330
0
100
AcDbSymbolTable
 70
     0
  0
ENDTAB
  0
TABLE
  2
APPID
  5
9
330
0
100
AcDbSymbolTable
 70
     1
  0
APPID
  5
12
330
9
100
AcDbSymbolTableRecord
100
AcDbRegAppTableRecord
  2
ACAD
 70
     0
  0
ENDTAB
  0
TABLE
  2
DIMSTYLE
  5
A
330
0
100
AcDbSymbolTable
 70
     1
100
AcDbDimStyleTable
 71
     0
  0
DIMSTYLE
105
37B
330
A
100
AcDbSymbolTableRecord
100
AcDbDimStyleTableRecord
  2
Standard
 70
     0
340
11
  0
ENDTAB
  0
TABLE
  2
BLOCK_RECORD
  5
1
330
0
100
AcDbSymbolTable
 70
     1
  0
BLOCK_RECORD
  5
1E
330
1
100
AcDbSymbolTableRecord
100
AcDbBlockTableRecord
  2
*Model_Space
340
21
  0
BLOCK_RECORD
  5
1A
330
1
100
AcDbSymbolTableRecord
100
AcDbBlockTableRecord
  2
*Paper_Space
340
1D
  0
ENDTAB
  0
ENDSEC
  0
SECTION
  2
BLOCKS
  0
BLOCK
  5
1F
330
1E
100
AcDbEntity
  8
0
100
AcDbBlockBegin
  2
*Model_Space
 70
     0
 10
0.0
 20
0.0
 30
0.0
  3
*Model_Space
  1

  0
ENDBLK
  5
20
330
1E
100
AcDbEntity
  8
0
100
AcDbBlockEnd
  0
BLOCK
  5
1B
330
1A
100
AcDbEntity
 67
     1
  8
0
100
AcDbBlockBegin
  2
*Paper_Space
 70
     0
 10
0.0
 20
0.0
 30
0.0
  3
*Paper_Space
  1

  0
ENDBLK
  5
1C
330
1A
100
AcDbEntity
 67
     1
  8
0
100
AcDbBlockEnd
  0
ENDSEC
  0
SECTION
  2
ENTITIES
  0
ARC
  5
15F
330
1E
100
AcDbEntity
  8
0
 62
     3
100
AcDbCircle
 10
155.2716615925998
 20
207.0998535155999
 30
0.0
 40
0.5
100
AcDbArc
 50
270.0000179861
 51
0.0
  0
ARC
  5
160
330
1E
100
AcDbEntity
  8
0
 62
     3
100
AcDbCircle
 10
155.2716615925998
 20
225.8998565672998
 30
0.0
 40
0.5
100
AcDbArc
 50
0.0
 51
89.99998201389999
  0
ARC
  5
161
330
1E
100
AcDbEntity
  8
0
 62
     3
100
AcDbCircle
 10
155.2716615925998
 20
159.0999450683
 30
0.0
 40
0.5
100
AcDbArc
 50
270.0000179861
 51
0.0
  0
ARC
  5
162
330
1E
100
AcDbEntity
  8
0
 62
     3
100
AcDbCircle
 10
155.2716615925998
 20
177.8999481200999
 30
0.0
 40
0.5
100
AcDbArc
 50
0.0
 51
89.99998201389999
  0
CIRCLE
  5
163
330
1E
100
AcDbEntity
  8
0
 62
     3
100
AcDbCircle
 10
178.6716249714998
 20
168.4999847412
 30
0.0
 40
8.199999809299999
  0
CIRCLE
  5
164
330
1E
100
AcDbEntity
  8
0
 62
     3
100
AcDbCircle
 10
178.6716249714998
 20
168.4999847412
 30
0.0
 40
8.799999237099997
  0
CIRCLE
  5
165
330
1E
100
AcDbEntity
  8
0
 62
     3
100
AcDbCircle
 10
178.6716249714998
 20
168.4999847412
 30
0.0
 40
8.5
  0
ARC
  5
166
330
1E
100
AcDbEntity
  8
0
 62
     3
100
AcDbCircle
 10
53.67171652419995
 20
168.4999694824
 30
0.0
 40
11.89999961849999
100
AcDbArc
 50
318.4084612191
 51
20.99996984849998
  0
ARC
  5
167
330
1E
100
AcDbEntity
  8
0
 62
     3
100
AcDbCircle
 10
53.67171652419995
 20
168.4999694824
 30
0.0
 40
11.89999961849999
100
AcDbArc
 50
228.4085919033
 51
311.5914304084999
  0
ARC
  5
169
330
1E
100
AcDbEntity
  8
0
 62
     3
100
AcDbCircle
 10
53.67171652419995
 20
168.4999694824
 30
0.0
 40
11.89999961849999
100
AcDbArc
 50
38.39990407989999
 51
51.00007996639999
  0
ARC
  5
16A
330
1E
100
AcDbEntity
  8
0
 62
     3
100
AcDbCircle
 10
53.67171652419995
 20
168.4999694824
 30
0.0
 40
11.89999961849999
100
AcDbArc
 50
57.29190679580001
 51
62.10805759470002
  0
ARC
  5
16B
330
1E
100
AcDbEntity
  8
0
 62
     3
100
AcDbCircle
 10
53.67171652419995
 20
168.4999694824
 30
0.0
 40
11.89999961849999
100
AcDbArc
 50
68.3999732166
 51
221.5909529784998
  0
ARC
  5
16C
330
1E
100
AcDbEntity
  8
0
 62
     3
100
AcDbCircle
 10
53.67171652419995
 20
168.4999694824
 30
0.0
 40
11.89999961849999
100
AcDbArc
 50
27.2918137534
 51
32.1080021184
  0
ARC
  5
16D
330
1E
100
AcDbEntity
  8
0
 62
     3
100
AcDbCircle
 10
178.6716249714998
 20
168.4999847412
 30
0.0
 40
10.59988403319999
100
AcDbArc
 50
258.5732207877
 51
281.4267059015
  0
CIRCLE
  5
16E
330
1E
100
AcDbEntity
  8
0
 62
     3
100
AcDbCircle
 10
178.6716249714998
 20
168.4999847412
 30
0.0
 40
9.799987792999999
  0
CIRCLE
  5
16F
330
1E
100
AcDbEntity
  8
0
 62
     3
100
AcDbCircle
 10
178.6716249714998
 20
168.4999847412
 30
0.0
 40
10.0999908447
  0
CIRCLE
  5
170
330
1E
100
AcDbEntity
  8
0
 62
     3
100
AcDbCircle
 10
178.6716249714998
 20
168.4999847412
 30
0.0
 40
10.30000305179999
  0
CIRCLE
  5
171
330
1E
100
AcDbEntity
  8
0
 62
     3
100
AcDbCircle
 10
178.6716249714998
 20
168.4999847412
 30
0.0
 40
11.40000915529999
  0
CIRCLE
  5
172
330
1E
100
AcDbEntity
  8
0
 62
     3
100
AcDbCircle
 10
178.6716249714998
 20
168.4999847412
 30
0.0
 40
11.89999961849999
  0
ARC
  5
173
330
1E
100
AcDbEntity
  8
0
 62
     3
100
AcDbCircle
 10
170.6652467975999
 20
180.6155548095
 30
0.0
 40
0.9999999404
100
AcDbArc
 50
120.2998486438998
 51
210.2999945823
  0
ARC
  5
174
330
1E
100
AcDbEntity
  8
0
 62
     3
100
AcDbCircle
 10
172.0466707477998
 20
181.4228210449
 30
0.0
 40
0.9999999404
100
AcDbArc
 50
30.3000100639
 51
120.2997393607999
  0
ARC
  5
175
330
1E
100
AcDbEntity
  8
0
  6
DASH
 62
     3
100
AcDbCircle
 10
65.87035544019994
 20
176.37890625
 30
0.0
 40
1.0
100
AcDbArc
 50
29.6992573604
 51
119.6996116195998
  0
ARC
  5
177
330
1E
100
AcDbEntity
  8
0
 62
     3
100
AcDbCircle
 10
61.67806418049995
 20
180.6155548095
 30
0.0
 40
0.9999999404
100
AcDbArc
 50
329.7001333699999
 51
59.70011538400002
  0
ARC
  5
178
330
1E
100
AcDbEntity
  8
0
 62
     3
100
AcDbCircle
 10
60.29664023029994
 20
181.4228210449
 30
0.0
 40
0.9999999404
100
AcDbArc
 50
59.70022466699998
 51
149.6999881147999
  0
ARC
  5
179
330
1E
100
AcDbEntity
  8
0
  6
DASH
 62
     3
100
AcDbCircle
 10
66.66323263749996
 20
174.9891967772999
 30
0.0
 40
0.9999999404
100
AcDbArc
 50
299.7001940068999
 51
29.70015894540005
  0
ARC
  5
17A
330
1E
100
AcDbEntity
  8
0
 62
     3
100
AcDbCircle
 10
53.67168600659997
 20
168.4999847412
 30
0.0
 40
10.5
100
AcDbArc
 50
41.0823276877
 51
138.9176329249999
  0
ARC
  5
17B
330
1E
100
AcDbEntity
  8
0
 62
     3
100
AcDbCircle
 10
53.67168600659997
 20
168.4999847412
 30
0.0
 40
10.5
100
AcDbArc
 50
147.9536999894
 51
212.0462280663
  0
ARC
  5
17C
330
1E
100
AcDbEntity
  8
0
 62
     3
100
AcDbCircle
 10
53.67168600659997
 20
168.4999847412
 30
0.0
 40
10.5
100
AcDbArc
 50
237.9536446645999
 51
302.0463913076
  0
ARC
  5
17D
330
1E
100
AcDbEntity
  8
0
 62
     3
100
AcDbCircle
 10
45.77167685129995
 20
174.3999786377
 30
0.0
 40
1.0
100
AcDbArc
 50
90.83867460250003
 51
179.9999640277999
  0
ARC
  5
17E
330
1E
100
AcDbEntity
  8
0
 62
     3
100
AcDbCircle
 10
45.77167685129995
 20
160.5999908447
 30
0.0
 40
1.0
100
AcDbArc
 50
180.0000359722
 51
270.0000179861
  0
ARC
  5
17F
330
1E
100
AcDbEntity
  8
0
 62
     3
100
AcDbCircle
 10
61.57167990309995
 20
160.5999908447
 30
0.0
 40
1.0
100
AcDbArc
 50
270.0000179861
 51
0.0
  0
ARC
  5
180
330
1E
100
AcDbEntity
  8
0
 62
     3
100
AcDbCircle
 10
61.57167990309995
 20
174.3999786377
 30
0.0
 40
1.0
100
AcDbArc
 50
0.0
 51
89.16128942530001
  0
ARC
  5
181
330
1E
100
AcDbEntity
  8
0
 62
     3
100
AcDbCircle
 10
53.67168600659997
 20
168.4999847412
 30
0.0
 40
10.5
100
AcDbArc
 50
327.9535788672
 51
32.04642113279993
  0
LINE
  5
193
330
1E
100
AcDbEntity
  8
0
 62
     3
100
AcDbLine
 10
151.6716402302998
 20
226.3998565672998
 30
0.0
 11
155.2716615925998
 21
226.3998565672998
 31
0.0
  0
LINE
  5
194
330
1E
100
AcDbEntity
  8
0
 62
     3
100
AcDbLine
 10
151.6716402302998
 20
206.5998535155999
 30
0.0
 11
155.2716615925998
 21
206.5998535155999
 31
0.0
  0
LINE
  5
195
330
1E
100
AcDbEntity
  8
0
 62
     3
100
AcDbLine
 10
155.7716615925999
 20
207.0998535155999
 30
0.0
 11
155.7716615925999
 21
225.8998565672998
 31
0.0
  0
LINE
  5
196
330
1E
100
AcDbEntity
  8
0
 62
     3
100
AcDbLine
 10
151.6716402302998
 20
178.3999481200999
 30
0.0
 11
155.2716615925998
 21
178.3999481200999
 31
0.0
  0
LINE
  5
197
330
1E
100
AcDbEntity
  8
0
 62
     3
100
AcDbLine
 10
151.6716402302998
 20
158.5999450682999
 30
0.0
 11
155.2716615925998
 21
158.5999450682999
 31
0.0
  0
LINE
  5
198
330
1E
100
AcDbEntity
  8
0
 62
     3
100
AcDbLine
 10
155.7716615925999
 20
159.0999450683
 30
0.0
 11
155.7716615925999
 21
177.8999481200999
 31
0.0
  0
LINE
  5
199
330
1E
100
AcDbEntity
  8
0
 62
     3
100
AcDbLine
 10
45.57166464429994
 20
174.3999786377
 30
0.0
 11
45.57166464429994
 21
160.5999755858999
 31
0.0
  0
LINE
  5
19A
330
1E
100
AcDbEntity
  8
0
 62
     3
100
AcDbLine
 10
151.3665102253998
 20
179.9048461913999
 30
0.0
 11
151.3665102253998
 21
157.0944061278999
 31
0.0
  0
LINE
  5
19B
330
1E
100
AcDbEntity
  8
0
 62
     3
100
AcDbLine
 10
171.1826824199998
 20
177.7479948344
 30
0.0
 11
169.8019291199998
 21
180.1108709539
 31
0.0
  0
LINE
  5
19C
330
1E
100
AcDbEntity
  8
0
 62
     3
100
AcDbLine
 10
180.7716158161998
 20
157.2950592041
 30
0.0
 11
180.7716158161998
 21
158.4163208007
 31
0.0
  0
LINE
  5
19D
330
1E
100
AcDbEntity
  8
0
 62
     3
100
AcDbLine
 10
176.5716188679999
 20
157.2950592041
 30
0.0
 11
176.5716188679999
 21
158.4163208007
 31
0.0
  0
LINE
  5
19E
330
1E
100
AcDbEntity
  8
0
 62
     3
100
AcDbLine
 10
170.1454093979998
 20
181.4698023285999
 30
0.0
 11
171.5580971902998
 21
182.2953104096
 31
0.0
  0
LINE
  5
19F
330
1E
100
AcDbEntity
  8
0
 62
     3
100
AcDbLine
 10
174.2908985734999
 20
179.5642896776
 30
0.0
 11
172.9101452734999
 21
181.9271657971
 31
0.0
  0
LINE
  5
1A0
330
1E
100
AcDbEntity
  8
0
 62
     3
100
AcDbLine
 10
172.2413119098998
 20
178.5130110811
 30
0.0
 11
171.0252368096998
 21
180.5940742326
 31
0.0
  0
LINE
  5
1A1
330
1E
100
AcDbEntity
  8
0
 62
     3
100
AcDbLine
 10
173.1047074815998
 20
179.0175387095
 30
0.0
 11
171.8886323813999
 21
181.098601861
 31
0.0
  0
LINE
  5
1A2
330
1E
100
AcDbEntity
  8
0
 62
     3
100
AcDbLine
 10
171.0252368096998
 20
180.5940742326
 30
0.0
 11
171.8886323813999
 21
181.098601861
 31
0.0
  0
LINE
  5
1A5
330
1E
100
AcDbEntity
  8
0
 62
     3
100
AcDbLine
 10
60.78520098009994
 20
182.2953334818
 30
0.0
 11
62.19788877239995
 21
181.4698254008
 31
0.0
  0
LINE
  5
1A6
330
1E
100
AcDbEntity
  8
0
 62
     3
100
AcDbLine
 10
62.54136905049995
 20
180.1108940261
 30
0.0
 11
60.44492649609995
 21
176.5232625153
 31
0.0
  0
LINE
  5
1A7
330
1E
100
AcDbEntity
  8
0
 62
     3
100
AcDbLine
 10
59.43315289699995
 20
181.9271888692999
 30
0.0
 11
57.33671804109994
 21
178.3395705328999
 31
0.0
  0
LINE
  5
1A8
330
1E
100
AcDbEntity
  8
0
 62
     3
100
AcDbLine
 10
61.31806136079996
 20
180.5940973048
 30
0.0
 11
59.39492700299997
 21
177.3030472318
 31
0.0
  0
LINE
  5
1A9
330
1E
100
AcDbEntity
  8
0
 62
     3
100
AcDbLine
 10
60.45466578909998
 20
181.0986249332
 30
0.0
 11
58.53153912969995
 21
177.8075880345999
 31
0.0
  0
LINE
  5
1AA
330
1E
100
AcDbEntity
  8
0
 62
     3
100
AcDbLine
 10
60.45466578909998
 20
181.0986249332
 30
0.0
 11
61.31806136079996
 21
180.5940973048
 31
0.0
  0
LINE
  5
1AB
330
1E
100
AcDbEntity
  8
0
  6
DASH
 62
     3
100
AcDbLine
 10
67.15855924749996
 20
174.1204812353
 30
0.0
 11
63.54917117709996
 21
172.0617225756
 31
0.0
  0
LINE
  5
1AC
330
1E
100
AcDbEntity
  8
0
  6
DASH
 62
     3
100
AcDbLine
 10
65.37489934429996
 20
177.2475390582
 30
0.0
 11
61.98166182029996
 21
175.3120704967
 31
0.0
  0
LINE
  5
1AD
330
1E
100
AcDbEntity
  8
0
  6
DASH
 62
     3
100
AcDbLine
 10
66.34074538869995
 20
175.1506013380999
 30
0.0
 11
63.02975057639994
 21
173.2620431922999
 31
0.0
  0
LINE
  5
1AE
330
1E
100
AcDbEntity
  8
0
  6
DASH
 62
     3
100
AcDbLine
 10
65.84528672619995
 20
176.0192328201999
 30
0.0
 11
62.53429191389992
 21
174.1306746743999
 31
0.0
  0
LINE
  5
1AF
330
1E
100
AcDbEntity
  8
0
  6
DASH
 62
     3
100
AcDbLine
 10
65.84528672619995
 20
176.0192328201999
 30
0.0
 11
66.34074538869995
 21
175.1506013380999
 31
0.0
  0
LINE
  5
1B0
330
1E
100
AcDbEntity
  8
0
  6
DASH
 62
     3
100
AcDbLine
 10
66.73899704899994
 20
176.8743529843999
 30
0.0
 11
67.53171881279996
 21
175.4845638197999
 31
0.0
  0
LINE
  5
1B1
330
1E
100
AcDbEntity
  8
0
 62
     3
100
AcDbLine
 10
60.17168600659997
 20
160.5999755858999
 30
0.0
 11
60.17168600659997
 21
174.3999786377
 31
0.0
  0
LINE
  5
1B2
330
1E
100
AcDbEntity
  8
0
 62
     3
100
AcDbLine
 10
53.37168295489997
 20
160.5999755858999
 30
0.0
 11
53.37168295489997
 21
174.3999786377
 31
0.0
  0
LINE
  5
1B3
330
1E
100
AcDbEntity
  8
0
 62
     3
100
AcDbLine
 10
54.97167379959996
 20
160.5999755858999
 30
0.0
 11
54.97167379959996
 21
174.3999786377
 31
0.0
  0
LINE
  5
1B4
330
1E
100
AcDbEntity
  8
0
 62
     3
100
AcDbLine
 10
48.17168600659996
 20
174.3999786377
 30
0.0
 11
48.17168600659996
 21
160.5999755858999
 31
0.0
  0
LINE
  5
1B5
330
1E
100
AcDbEntity
  8
0
 62
     3
100
AcDbLine
 10
44.77167685129993
 20
162.9499816894
 30
0.0
 11
44.77167685129993
 21
172.0499725340999
 31
0.0
  0
LINE
  5
1B6
330
1E
100
AcDbEntity
  8
0
 62
     3
100
AcDbLine
 10
61.47170517419997
 20
174.3998967648
 30
0.0
 11
61.77169929709996
 21
174.0999031728999
 31
0.0
  0
LINE
  5
1B7
330
1E
100
AcDbEntity
  8
0
 62
     3
100
AcDbLine
 10
61.77170001059997
 20
160.8998962933
 30
0.0
 11
61.47170667169996
 21
160.5999019176
 31
0.0
  0
LINE
  5
1B8
330
1E
100
AcDbEntity
  8
0
 62
     3
100
AcDbLine
 10
45.57166464429994
 20
174.3999786377
 30
0.0
 11
51.97168905839996
 21
174.3999786377
 31
0.0
  0
LINE
  5
1B9
330
1E
100
AcDbEntity
  8
0
 62
     3
100
AcDbLine
 10
45.57166464429994
 20
160.5999755858999
 30
0.0
 11
51.97168905839996
 21
160.5999755858999
 31
0.0
  0
LINE
  5
1BA
330
1E
100
AcDbEntity
  8
0
 62
     3
100
AcDbLine
 10
61.77167685129993
 20
160.8999786376999
 30
0.0
 11
61.77167685129993
 21
174.0999755858999
 31
0.0
  0
LINE
  5
1BB
330
1E
100
AcDbEntity
  8
0
 62
     3
100
AcDbLine
 10
52.47168905839996
 20
174.3999786377
 30
0.0
 11
58.77169211009993
 21
174.3999786377
 31
0.0
  0
LINE
  5
1BC
330
1E
100
AcDbEntity
  8
0
 62
     3
100
AcDbLine
 10
59.27169211009993
 20
174.3999786377
 30
0.0
 11
61.47167379959995
 21
174.3999786377
 31
0.0
  0
LINE
  5
1BD
330
1E
100
AcDbEntity
  8
0
 62
     3
100
AcDbLine
 10
52.47168905839996
 20
160.5999755858999
 30
0.0
 11
58.77169211009993
 21
160.5999755858999
 31
0.0
  0
LINE
  5
1BE
330
1E
100
AcDbEntity
  8
0
 62
     3
100
AcDbLine
 10
59.27169211009993
 20
160.5999755858999
 30
0.0
 11
61.47167379959995
 21
160.5999755858999
 31
0.0
  0
LINE
  5
1BF
330
1E
100
AcDbEntity
  8
0
 62
     3
100
AcDbLine
 10
51.97168905839996
 20
168.8999786377
 30
0.0
 11
51.97168905839996
 21
166.0999908446999
 31
0.0
  0
LINE
  5
1C0
330
1E
100
AcDbEntity
  8
0
 62
     3
100
AcDbLine
 10
52.47168905839996
 20
168.8999786377
 30
0.0
 11
51.97168905839996
 21
168.8999786377
 31
0.0
  0
LINE
  5
1C1
330
1E
100
AcDbEntity
  8
0
 62
     3
100
AcDbLine
 10
52.47168905839996
 20
166.0999908446999
 30
0.0
 11
52.47168905839996
 21
168.8999786377
 31
0.0
  0
LINE
  5
1C2
330
1E
100
AcDbEntity
  8
0
 62
     3
100
AcDbLine
 10
51.97168905839996
 20
166.0999908446999
 30
0.0
 11
52.47168905839996
 21
166.0999908446999
 31
0.0
  0
LINE
  5
1C3
330
1E
100
AcDbEntity
  8
0
 62
     3
100
AcDbLine
 10
51.97168905839996
 20
174.8999786377
 30
0.0
 11
51.97168905839996
 21
172.0999908447
 31
0.0
  0
LINE
  5
1C4
330
1E
100
AcDbEntity
  8
0
 62
     3
100
AcDbLine
 10
52.47168905839996
 20
174.8999786377
 30
0.0
 11
51.97168905839996
 21
174.8999786377
 31
0.0
  0
LINE
  5
1C5
330
1E
100
AcDbEntity
  8
0
 62
     3
100
AcDbLine
 10
52.47168905839996
 20
172.0999908447
 30
0.0
 11
52.47168905839996
 21
174.8999786377
 31
0.0
  0
LINE
  5
1C6
330
1E
100
AcDbEntity
  8
0
 62
     3
100
AcDbLine
 10
51.97168905839996
 20
172.0999908447
 30
0.0
 11
52.47168905839996
 21
172.0999908447
 31
0.0
  0
LINE
  5
1C7
330
1E
100
AcDbEntity
  8
0
 62
     3
100
AcDbLine
 10
51.97168905839996
 20
162.8999786377
 30
0.0
 11
51.97168905839996
 21
160.0999908446999
 31
0.0
  0
LINE
  5
1C8
330
1E
100
AcDbEntity
  8
0
 62
     3
100
AcDbLine
 10
52.47168905839996
 20
162.8999786377
 30
0.0
 11
51.97168905839996
 21
162.8999786377
 31
0.0
  0
LINE
  5
1C9
330
1E
100
AcDbEntity
  8
0
 62
     3
100
AcDbLine
 10
52.47168905839996
 20
160.0999908446999
 30
0.0
 11
52.47168905839996
 21
162.8999786377
 31
0.0
  0
LINE
  5
1CA
330
1E
100
AcDbEntity
  8
0
 62
     3
100
AcDbLine
 10
51.97168905839996
 20
160.0999908446999
 30
0.0
 11
52.47168905839996
 21
160.0999908446999
 31
0.0
  0
LINE
  5
1CB
330
1E
100
AcDbEntity
  8
0
 62
     3
100
AcDbLine
 10
58.77169211009993
 20
168.8999786377
 30
0.0
 11
58.77169211009993
 21
166.0999908446999
 31
0.0
  0
LINE
  5
1CC
330
1E
100
AcDbEntity
  8
0
 62
     3
100
AcDbLine
 10
59.27169211009993
 20
168.8999786377
 30
0.0
 11
58.77169211009993
 21
168.8999786377
 31
0.0
  0
LINE
  5
1CD
330
1E
100
AcDbEntity
  8
0
 62
     3
100
AcDbLine
 10
59.27169211009993
 20
166.0999908446999
 30
0.0
 11
59.27169211009993
 21
168.8999786377
 31
0.0
  0
LINE
  5
1CE
330
1E
100
AcDbEntity
  8
0
 62
     3
100
AcDbLine
 10
58.77169211009993
 20
166.0999908446999
 30
0.0
 11
59.27169211009993
 21
166.0999908446999
 31
0.0
  0
LINE
  5
1CF
330
1E
100
AcDbEntity
  8
0
 62
     3
100
AcDbLine
 10
58.77169211009993
 20
174.8999786377
 30
0.0
 11
58.77169211009993
 21
172.0999908447
 31
0.0
  0
LINE
  5
1D0
330
1E
100
AcDbEntity
  8
0
 62
     3
100
AcDbLine
 10
59.27169211009993
 20
174.8999786377
 30
0.0
 11
58.77169211009993
 21
174.8999786377
 31
0.0
  0
LINE
  5
1D1
330
1E
100
AcDbEntity
  8
0
 62
     3
100
AcDbLine
 10
59.27169211009993
 20
172.0999908447
 30
0.0
 11
59.27169211009993
 21
174.8999786377
 31
0.0
  0
LINE
  5
1D2
330
1E
100
AcDbEntity
  8
0
 62
     3
100
AcDbLine
 10
58.77169211009993
 20
172.0999908447
 30
0.0
 11
59.27169211009993
 21
172.0999908447
 31
0.0
  0
LINE
  5
1D3
330
1E
100
AcDbEntity
  8
0
 62
     3
100
AcDbLine
 10
58.77169211009993
 20
162.8999786377
 30
0.0
 11
58.77169211009993
 21
160.0999908446999
 31
0.0
  0
LINE
  5
1D4
330
1E
100
AcDbEntity
  8
0
 62
     3
100
AcDbLine
 10
59.27169211009993
 20
162.8999786377
 30
0.0
 11
58.77169211009993
 21
162.8999786377
 31
0.0
  0
LINE
  5
1D5
330
1E
100
AcDbEntity
  8
0
 62
     3
100
AcDbLine
 10
59.27169211009993
 20
160.0999908446999
 30
0.0
 11
59.27169211009993
 21
162.8999786377
 31
0.0
  0
LINE
  5
1D6
330
1E
100
AcDbEntity
  8
0
 62
     3
100
AcDbLine
 10
58.77169211009993
 20
160.0999908446999
 30
0.0
 11
59.27169211009993
 21
160.0999908446999
 31
0.0
  0
LINE
  5
1D7
330
1E
100
AcDbEntity
  8
0
  6
DASH
 62
     3
100
AcDbLine
 10
59.37168295489996
 20
174.3999786377
 30
0.0
 11
59.37168295489996
 21
175.3999786377
 31
0.0
  0
LINE
  5
1D8
330
1E
100
AcDbEntity
  8
0
  6
DASH
 62
     3
100
AcDbLine
 10
56.97168905839996
 20
174.3999786377
 30
0.0
 11
56.97168905839996
 21
175.3999786377
 31
0.0
  0
LINE
  5
1D9
330
1E
100
AcDbEntity
  8
0
  6
DASH
 62
     3
100
AcDbLine
 10
50.17168600659997
 20
174.3999786377
 30
0.0
 11
50.17168600659997
 21
175.3999786377
 31
0.0
  0
LINE
  5
1DA
330
1E
100
AcDbEntity
  8
0
  6
DASH
 62
     3
100
AcDbLine
 10
52.57167990309994
 20
174.3999786377
 30
0.0
 11
52.57167990309994
 21
175.3999786377
 31
0.0
  0
LINE
  5
1DB
330
1E
100
AcDbEntity
  8
0
  6
DASH
 62
     3
100
AcDbLine
 10
59.37168295489996
 20
159.5999908447
 30
0.0
 11
59.37168295489996
 21
160.5999908447
 31
0.0
  0
LINE
  5
1DC
330
1E
100
AcDbEntity
  8
0
  6
DASH
 62
     3
100
AcDbLine
 10
56.97168905839996
 20
159.5999908447
 30
0.0
 11
56.97168905839996
 21
160.5999908447
 31
0.0
  0
LINE
  5
1DD
330
1E
100
AcDbEntity
  8
0
  6
DASH
 62
     3
100
AcDbLine
 10
50.17168600659997
 20
159.5999908447
 30
0.0
 11
50.17168600659997
 21
160.5999908447
 31
0.0
  0
LINE
  5
1DE
330
1E
100
AcDbEntity
  8
0
  6
DASH
 62
     3
100
AcDbLine
 10
52.57167990309994
 20
159.5999908447
 30
0.0
 11
52.57167990309994
 21
160.5999908447
 31
0.0
  0
LINE
  5
1DF
330
1E
100
AcDbEntity
  8
0
 62
     3
100
AcDbLine
 10
45.57166464429994
 20
172.0499877928999
 30
0.0
 11
44.77167685129993
 21
172.0499877928999
 31
0.0
  0
LINE
  5
1E0
330
1E
100
AcDbEntity
  8
0
 62
     3
100
AcDbLine
 10
45.57166464429994
 20
162.9499816894
 30
0.0
 11
44.77167685129993
 21
162.9499816894
 31
0.0
  0
LINE
  5
1E1
330
1E
100
AcDbEntity
  8
0
 62
     3
100
AcDbLine
 10
45.77167685129995
 20
175.3999786377
 30
0.0
 11
61.57167990309995
 21
175.3999786377
 31
0.0
  0
LINE
  5
1E2
330
1E
100
AcDbEntity
  8
0
 62
     3
100
AcDbLine
 10
44.77167685129993
 20
160.5999908447
 30
0.0
 11
44.77167685129993
 21
174.3999786377
 31
0.0
  0
LINE
  5
1E3
330
1E
100
AcDbEntity
  8
0
 62
     3
100
AcDbLine
 10
62.57167990309994
 20
160.5999908447
 30
0.0
 11
62.57167990309994
 21
174.3999786377
 31
0.0
  0
LINE
  5
1E4
330
1E
100
AcDbEntity
  8
0
 62
     3
100
AcDbLine
 10
45.77167685129995
 20
159.5999908447
 30
0.0
 11
61.57167990309995
 21
159.5999908447
 31
0.0
  0
LINE
  5
1E5
330
1E
100
AcDbEntity
  8
0
  6
CENTER
 62
     3
100
AcDbLine
 10
92.49868185619996
 20
168.4999694824
 30
0.0
 11
157.9060762653998
 21
168.4999694824
 31
0.0
  0
LINE
  5
1E6
330
1E
100
AcDbEntity
  8
0
  6
CENTER
 62
     3
100
AcDbLine
 10
39.78766806229995
 20
168.4999694824
 30
0.0
 11
67.78946859939996
 21
168.4999694824
 31
0.0
  0
LINE
  5
1E7
330
1E
100
AcDbEntity
  8
0
  6
CENTER
 62
     3
100
AcDbLine
 10
53.67170126539995
 20
181.6666259765
 30
0.0
 11
53.67170126539995
 21
155.1516265869
 31
0.0
  0
LINE
  5
1E8
330
1E
100
AcDbEntity
  8
0
 62
     3
100
AcDbLine
 10
140.6716707477998
 20
180.3999176024999
 30
0.0
 11
140.6716707477998
 21
156.5999755858999
 31
0.0
  0
LINE
  5
1E9
330
1E
100
AcDbEntity
  8
0
 62
     3
100
AcDbLine
 10
145.8716829548999
 20
180.3053131102999
 30
0.0
 11
145.8716829548999
 21
156.6945190428999
 31
0.0
  0
LINE
  5
1EA
330
1E
100
AcDbEntity
  8
0
 62
     3
100
AcDbLine
 10
146.1716707477998
 20
179.9942779541
 30
0.0
 11
146.1716707477998
 21
157.0055847167999
 31
0.0
  0
LINE
  5
1EB
330
1E
100
AcDbEntity
  8
0
 62
     3
100
AcDbLine
 10
151.6716707477998
 20
179.5946197509
 30
0.0
 11
151.6716707477998
 21
157.4052581786999
 31
0.0
  0
LINE
  5
1EC
330
1E
100
AcDbEntity
  8
0
 62
     3
100
AcDbLine
 10
146.1715683927999
 20
156.9998500197999
 30
0.0
 11
145.8660066543998
 21
156.6942891828999
 31
0.0
  0
LINE
  5
1ED
330
1E
100
AcDbEntity
  8
0
 62
     3
100
AcDbLine
 10
151.6715062704998
 20
157.3997979011999
 30
0.0
 11
151.3659447123998
 21
157.0942368840999
 31
0.0
  0
LINE
  5
1EE
330
1E
100
AcDbEntity
  8
0
 62
     3
100
AcDbLine
 10
151.366081026
 20
157.0943888781999
 30
0.0
 11
146.1716574291998
 21
156.9999453597
 31
0.0
  0
LINE
  5
1EF
330
1E
100
AcDbEntity
  8
0
 62
     3
100
AcDbLine
 10
151.3714631980999
 20
179.9048034942999
 30
0.0
 11
151.6714183941998
 21
179.5943733642999
 31
0.0
  0
LINE
  5
1F0
330
1E
100
AcDbEntity
  8
0
 62
     3
100
AcDbLine
 10
146.1716375390998
 20
179.9940065392
 30
0.0
 11
151.3716775224999
 21
179.9047617877999
 31
0.0
  0
LINE
  5
1F1
330
1E
100
AcDbEntity
  8
0
 62
     3
100
AcDbLine
 10
145.8714644010998
 20
180.3051035373
 30
0.0
 11
146.1714095091998
 21
179.9940486385
 31
0.0
  0
LINE
  5
1F2
330
1E
100
AcDbEntity
  8
0
 62
     3
100
AcDbLine
 10
145.8661002029998
 20
156.694402626
 30
0.0
 11
140.6716613498998
 21
156.5999579397999
 31
0.0
  0
LINE
  5
1F3
330
1E
100
AcDbEntity
  8
0
  6
CENTER
 62
     3
100
AcDbLine
 10
163.7716310749998
 20
168.5
 30
0.0
 11
193.5715730915999
 21
168.5
 31
0.0
  0
LINE
  5
1F4
330
1E
100
AcDbEntity
  8
0
  6
CENTER
 62
     3
100
AcDbLine
 10
178.6716249714998
 20
153.5999755858999
 30
0.0
 11
178.6716249714998
 21
183.399810791
 31
0.0
  0
LINE
  5
1F5
330
1E
100
AcDbEntity
  8
0
 62
     3
100
AcDbLine
 10
140.6716630762
 20
180.3997625034
 30
0.0
 11
145.8717009795998
 21
180.3052160158999
 31
0.0
  0
LINE
  5
1F6
330
1E
100
AcDbEntity
  8
0
 62
     3
100
AcDbLine
 10
151.3716524372998
 20
227.9045410155999
 30
0.0
 11
151.3716524372998
 21
205.0941619872999
 31
0.0
  0
LINE
  5
1F7
330
1E
100
AcDbEntity
  8
0
  6
CENTER
 62
     3
100
AcDbLine
 10
97.38041098219996
 20
216.4998779297
 30
0.0
 11
157.9060915241998
 21
216.4998779297
 31
0.0
  0
LINE
  5
1F8
330
1E
100
AcDbEntity
  8
0
 62
     3
100
AcDbLine
 10
145.8716676960998
 20
228.3053131103
 30
0.0
 11
145.8716676960998
 21
204.6944732665999
 31
0.0
  0
LINE
  5
1F9
330
1E
100
AcDbEntity
  8
0
 62
     3
100
AcDbLine
 10
151.6714906759998
 20
205.3996633272
 30
0.0
 11
151.3659291179998
 21
205.09410231
 31
0.0
  0
LINE
  5
1FA
330
1E
100
AcDbEntity
  8
0
 62
     3
100
AcDbLine
 10
146.1716554889998
 20
227.9942779540998
 30
0.0
 11
146.1716554889998
 21
205.0055084228
 31
0.0
  0
LINE
  5
1FB
330
1E
100
AcDbEntity
  8
0
 62
     3
100
AcDbLine
 10
151.6716402302998
 20
227.5937957762999
 30
0.0
 11
151.6716402302998
 21
205.3999176025
 31
0.0
  0
LINE
  5
1FC
330
1E
100
AcDbEntity
  8
0
 62
     3
100
AcDbLine
 10
140.6716554889998
 20
228.3999176025
 30
0.0
 11
140.6716554889998
 21
204.5998687743999
 31
0.0
  0
LINE
  5
1FD
330
1E
100
AcDbEntity
  8
0
 62
     3
100
AcDbLine
 10
151.3713213782998
 20
227.9045987346
 30
0.0
 11
151.6712765743999
 21
227.5941686045999
 31
0.0
  0
LINE
  5
1FE
330
1E
100
AcDbEntity
  8
0
 62
     3
100
AcDbLine
 10
140.6716423935998
 20
228.3996241524
 30
0.0
 11
145.8716802968998
 21
228.3050776647999
 31
0.0
  0
LINE
  5
1FF
330
1E
100
AcDbEntity
  8
0
 62
     3
100
AcDbLine
 10
151.3660827487998
 20
205.0940667477
 30
0.0
 11
146.1716438957998
 21
204.9996229516998
 31
0.0
  0
LINE
  5
200
330
1E
100
AcDbEntity
  8
0
 62
     3
100
AcDbLine
 10
145.8713970506998
 20
228.3050010114
 30
0.0
 11
146.1713421587998
 21
227.9939461125998
 31
0.0
  0
LINE
  5
201
330
1E
100
AcDbEntity
  8
0
 62
     3
100
AcDbLine
 10
146.1715373725998
 20
204.9997580140998
 30
0.0
 11
145.8659756341998
 21
204.6941971772
 31
0.0
  0
LINE
  5
202
330
1E
100
AcDbEntity
  8
0
 62
     3
100
AcDbLine
 10
146.1716190432998
 20
227.9937814444
 30
0.0
 11
151.3716590266999
 21
227.9045366929998
 31
0.0
  0
LINE
  5
203
330
1E
100
AcDbEntity
  8
0
 62
     3
100
AcDbLine
 10
145.8660928695999
 20
204.6941264138
 30
0.0
 11
140.6716540164998
 21
204.5996817275999
 31
0.0
  0
LINE
  5
23D
330
1E
100
AcDbEntity
  8
0
 62
     3
100
AcDbLine
 10
95.67173178299997
 20
162.3999633788999
 30
0.0
 11
95.67173178299997
 21
160.5999908447
 31
0.0
  0
LINE
  5
23E
330
1E
100
AcDbEntity
  8
0
 62
     3
100
AcDbLine
 10
96.17173178299998
 20
160.0999908446999
 30
0.0
 11
104.6717317829998
 21
160.0999908446999
 31
0.0
  0
LINE
  5
23F
330
1E
100
AcDbEntity
  8
0
 62
     3
100
AcDbLine
 10
96.17173178299998
 20
162.8999786377
 30
0.0
 11
104.6717317829998
 21
162.8999786377
 31
0.0
  0
LINE
  5
240
330
1E
100
AcDbEntity
  8
0
 62
     3
100
AcDbLine
 10
96.17177432249997
 20
162.8999331513
 30
0.0
 11
95.67177050449991
 21
162.3999142865
 31
0.0
  0
LINE
  5
241
330
1E
100
AcDbEntity
  8
0
 62
     3
100
AcDbLine
 10
95.67173488689999
 20
160.5999629755
 30
0.0
 11
96.17173541769997
 21
160.0999624446999
 31
0.0
  0
LINE
  5
242
330
1E
100
AcDbEntity
  8
0
 62
     3
100
AcDbLine
 10
95.67173178299997
 20
174.3999633789
 30
0.0
 11
95.67173178299997
 21
172.5999908447
 31
0.0
  0
LINE
  5
243
330
1E
100
AcDbEntity
  8
0
 62
     3
100
AcDbLine
 10
96.17173178299998
 20
172.0999908447
 30
0.0
 11
104.6717317829998
 21
172.0999908447
 31
0.0
  0
LINE
  5
244
330
1E
100
AcDbEntity
  8
0
 62
     3
100
AcDbLine
 10
96.17173178299998
 20
174.8999786377
 30
0.0
 11
104.6717317829998
 21
174.8999786377
 31
0.0
  0
LINE
  5
245
330
1E
100
AcDbEntity
  8
0
 62
     3
100
AcDbLine
 10
96.17174481989996
 20
174.8999248192999
 30
0.0
 11
95.67174100179991
 21
174.3999059544
 31
0.0
  0
LINE
  5
246
330
1E
100
AcDbEntity
  8
0
 62
     3
100
AcDbLine
 10
95.67171330769996
 20
172.5999541353999
 30
0.0
 11
96.17171383849997
 21
172.0999536045999
 31
0.0
  0
LINE
  5
247
330
1E
100
AcDbEntity
  8
0
 62
     3
100
AcDbLine
 10
95.67173178299997
 20
168.3999633788999
 30
0.0
 11
95.67173178299997
 21
166.5999908447
 31
0.0
  0
LINE
  5
248
330
1E
100
AcDbEntity
  8
0
 62
     3
100
AcDbLine
 10
96.17173178299998
 20
166.0999908446999
 30
0.0
 11
104.6717317829998
 21
166.0999908446999
 31
0.0
  0
LINE
  5
249
330
1E
100
AcDbEntity
  8
0
 62
     3
100
AcDbLine
 10
96.17173178299998
 20
168.8999786377
 30
0.0
 11
104.6717317829998
 21
168.8999786377
 31
0.0
  0
LINE
  5
24A
330
1E
100
AcDbEntity
  8
0
 62
     3
100
AcDbLine
 10
96.17175957119997
 20
168.8999289853
 30
0.0
 11
95.67175575309997
 21
168.3999101204999
 31
0.0
  0
LINE
  5
24B
330
1E
100
AcDbEntity
  8
0
 62
     3
100
AcDbLine
 10
95.67172409729995
 20
166.5999585555
 30
0.0
 11
96.17172462809996
 21
166.0999580247
 31
0.0
  0
LINE
  5
24D
330
1E
100
AcDbEntity
  8
0
  6
CENTER
 62
     3
100
AcDbLine
 10
95.17173178299996
 20
173.4999694823999
 30
0.0
 11
100.4439969274998
 21
173.4999694823999
 31
0.0
  0
LINE
  5
24E
330
1E
100
AcDbEntity
  8
0
 62
     3
100
AcDbLine
 10
97.27173178299997
 20
172.8999694824
 30
0.0
 11
98.67173178299998
 21
172.8999694824
 31
0.0
  0
LINE
  5
24F
330
1E
100
AcDbEntity
  8
0
 62
     3
100
AcDbLine
 10
97.27173178299997
 20
174.0999694824
 30
0.0
 11
98.67173178299998
 21
174.0999694824
 31
0.0
  0
ARC
  5
250
330
1E
100
AcDbEntity
  8
0
 62
     3
100
AcDbCircle
 10
97.27173178299997
 20
173.4999694823999
 30
0.0
 40
0.6
100
AcDbArc
 50
90.0
 51
270.0
  0
ARC
  5
251
330
1E
100
AcDbEntity
  8
0
 62
     3
100
AcDbCircle
 10
98.67173178299998
 20
173.4999694823999
 30
0.0
 40
0.6
100
AcDbArc
 50
270.0
 51
90.0
  0
ARC
  5
252
330
1E
100
AcDbEntity
  8
0
 62
     3
100
AcDbCircle
 10
98.67173178299998
 20
167.4999694823999
 30
0.0
 40
0.6
100
AcDbArc
 50
270.0
 51
90.0
  0
ARC
  5
253
330
1E
100
AcDbEntity
  8
0
 62
     3
100
AcDbCircle
 10
97.27173178299997
 20
167.4999694823999
 30
0.0
 40
0.6
100
AcDbArc
 50
90.0
 51
270.0
  0
LINE
  5
254
330
1E
100
AcDbEntity
  8
0
 62
     3
100
AcDbLine
 10
97.27173178299997
 20
168.0999694824
 30
0.0
 11
98.67173178299998
 21
168.0999694824
 31
0.0
  0
LINE
  5
255
330
1E
100
AcDbEntity
  8
0
 62
     3
100
AcDbLine
 10
97.27173178299997
 20
166.8999694824
 30
0.0
 11
98.67173178299998
 21
166.8999694824
 31
0.0
  0
LINE
  5
256
330
1E
100
AcDbEntity
  8
0
  6
CENTER
 62
     3
100
AcDbLine
 10
95.17173178299996
 20
167.4999694823999
 30
0.0
 11
100.4439969274998
 21
167.4999694823999
 31
0.0
  0
LINE
  5
257
330
1E
100
AcDbEntity
  8
0
  6
CENTER
 62
     3
100
AcDbLine
 10
95.17173178299996
 20
161.4999694824
 30
0.0
 11
100.4439969274998
 21
161.4999694824
 31
0.0
  0
LINE
  5
258
330
1E
100
AcDbEntity
  8
0
 62
     3
100
AcDbLine
 10
97.27173178299997
 20
160.8999694823999
 30
0.0
 11
98.67173178299998
 21
160.8999694823999
 31
0.0
  0
LINE
  5
259
330
1E
100
AcDbEntity
  8
0
 62
     3
100
AcDbLine
 10
97.27173178299997
 20
162.0999694824
 30
0.0
 11
98.67173178299998
 21
162.0999694824
 31
0.0
  0
ARC
  5
25A
330
1E
100
AcDbEntity
  8
0
 62
     3
100
AcDbCircle
 10
97.27173178299997
 20
161.4999694824
 30
0.0
 40
0.6
100
AcDbArc
 50
90.0
 51
270.0
  0
ARC
  5
25B
330
1E
100
AcDbEntity
  8
0
 62
     3
100
AcDbCircle
 10
98.67173178299998
 20
161.4999694824
 30
0.0
 40
0.6
100
AcDbArc
 50
270.0
 51
90.0
  0
ARC
  5
261
330
1E
100
AcDbEntity
  8
0
 62
     3
100
AcDbCircle
 10
117.6717470417998
 20
159.0000305174999
 30
0.0
 40
1.0
100
AcDbArc
 50
180.0000359722
 51
270.0000179861
  0
ARC
  5
262
330
1E
100
AcDbEntity
  8
0
 62
     3
100
AcDbCircle
 10
117.6717470417998
 20
178.0000152587999
 30
0.0
 40
1.0
100
AcDbArc
 50
89.99998201389999
 51
179.9999640277999
  0
LINE
  5
263
330
1E
100
AcDbEntity
  8
0
 62
     3
100
AcDbLine
 10
123.3717287311998
 20
182.4228057861
 30
0.0
 11
124.3717287311998
 21
182.4228057861
 31
0.0
  0
LINE
  5
264
330
1E
100
AcDbEntity
  8
0
 62
     3
100
AcDbLine
 10
123.3717287311998
 20
180.9742736815999
 30
0.0
 11
124.3717287311998
 21
180.9742736815999
 31
0.0
  0
LINE
  5
265
330
1E
100
AcDbEntity
  8
0
 62
     3
100
AcDbLine
 10
137.8152775322999
 20
177.4498552128999
 30
0.0
 11
138.7623418127998
 21
177.1288113043
 31
0.0
  0
LINE
  5
266
330
1E
100
AcDbEntity
  8
0
 62
     3
100
AcDbLine
 10
137.8152093782998
 20
159.5498111422999
 30
0.0
 11
138.7622783078998
 21
159.8708413418
 31
0.0
  0
LINE
  5
267
330
1E
100
AcDbEntity
  8
0
 62
     3
100
AcDbLine
 10
136.8711641559999
 20
177.4499816894
 30
0.0
 11
137.8152712116998
 21
177.4499816894
 31
0.0
  0
LINE
  5
268
330
1E
100
AcDbEntity
  8
0
 62
     3
100
AcDbLine
 10
136.8711641559999
 20
159.5499725340999
 30
0.0
 11
137.8152559528998
 21
159.5499725340999
 31
0.0
  0
LINE
  5
269
330
1E
100
AcDbEntity
  8
0
 62
     3
100
AcDbLine
 10
136.8711750951998
 20
162.3349354135
 30
0.0
 11
137.8152606349998
 21
159.5498315728
 31
0.0
  0
LINE
  5
26A
330
1E
100
AcDbEntity
  8
0
 62
     3
100
AcDbLine
 10
136.8711485762998
 20
174.6647219476
 30
0.0
 11
137.8152531940998
 21
177.4498677394
 31
0.0
  0
LINE
  5
26B
330
1E
100
AcDbEntity
  8
0
 62
     3
100
AcDbLine
 10
137.8711599773999
 20
174.4998739770999
 30
0.0
 11
138.7623154965998
 21
177.1288178435
 31
0.0
  0
LINE
  5
26C
330
1E
100
AcDbEntity
  8
0
 62
     3
100
AcDbLine
 10
137.8711671329998
 20
162.4998396197
 30
0.0
 11
138.7623283129998
 21
159.8708655273999
 31
0.0
  0
LINE
  5
26D
330
1E
100
AcDbEntity
  8
0
 62
     3
100
AcDbLine
 10
137.8710878620998
 20
162.499923706
 30
0.0
 11
137.8710878620998
 21
174.4998931884
 31
0.0
  0
LINE
  5
26E
330
1E
100
AcDbEntity
  8
0
 62
     3
100
AcDbLine
 10
136.8710878620998
 20
159.5999145506999
 30
0.0
 11
136.8710878620998
 21
177.3994445799999
 31
0.0
  0
LINE
  5
26F
330
1E
100
AcDbEntity
  8
0
 62
     3
100
AcDbLine
 10
140.0717104206998
 20
158.4999694823999
 30
0.0
 11
140.0717104206998
 21
178.4999694823999
 31
0.0
  0
LINE
  5
270
330
1E
100
AcDbEntity
  8
0
 62
     3
100
AcDbLine
 10
125.4217317829998
 20
178.9999694824
 30
0.0
 11
125.4217317829998
 21
171.7282409667999
 31
0.0
  0
LINE
  5
271
330
1E
100
AcDbEntity
  8
0
 62
     3
100
AcDbLine
 10
126.4217317829998
 20
178.9999694824
 30
0.0
 11
126.4217317829998
 21
171.7282409667999
 31
0.0
  0
LINE
  5
272
330
1E
100
AcDbEntity
  8
0
 62
     3
100
AcDbLine
 10
124.3717287311998
 20
182.4227905272999
 30
0.0
 11
124.3717287311998
 21
171.7282104491999
 31
0.0
  0
LINE
  5
273
330
1E
100
AcDbEntity
  8
0
 62
     3
100
AcDbLine
 10
123.3717287311998
 20
182.4227905272999
 30
0.0
 11
123.3717287311998
 21
171.7282104491999
 31
0.0
  0
LINE
  5
274
330
1E
100
AcDbEntity
  8
0
 62
     3
100
AcDbLine
 10
123.3717287311998
 20
178.9999694824
 30
0.0
 11
117.6717623005998
 21
178.9999694824
 31
0.0
  0
LINE
  5
275
330
1E
100
AcDbEntity
  8
0
 62
     3
100
AcDbLine
 10
124.1717317829998
 20
173.4967651367
 30
0.0
 11
124.1717317829998
 21
172.5016326904
 31
0.0
  0
LINE
  5
276
330
1E
100
AcDbEntity
  8
0
 62
     3
100
AcDbLine
 10
123.3717287311998
 20
172.501663208
 30
0.0
 11
124.3717287311998
 21
172.501663208
 31
0.0
  0
LINE
  5
277
330
1E
100
AcDbEntity
  8
0
 62
     3
100
AcDbLine
 10
124.1717317829998
 20
173.4967956543
 30
0.0
 11
124.3717287311998
 21
173.4967956543
 31
0.0
  0
LINE
  5
278
330
1E
100
AcDbEntity
  8
0
 62
     3
100
AcDbLine
 10
123.3717287311998
 20
171.7282409667999
 30
0.0
 11
127.1717165241998
 21
171.7282409667999
 31
0.0
  0
LINE
  5
279
330
1E
100
AcDbEntity
  8
0
 62
     3
100
AcDbLine
 10
104.6717165241998
 20
175.3999786377
 30
0.0
 11
104.6717165241998
 21
159.5999908447
 31
0.0
  0
LINE
  5
27A
330
1E
100
AcDbEntity
  8
0
 62
     3
100
AcDbLine
 10
122.1717165241999
 20
167.8999786377
 30
0.0
 11
122.1717165241999
 21
157.9999847412
 31
0.0
  0
LINE
  5
27B
330
1E
100
AcDbEntity
  8
0
 62
     3
100
AcDbLine
 10
122.1717623005999
 20
159.8999786377
 30
0.0
 11
117.8717745075998
 21
159.8999786377
 31
0.0
  0
LINE
  5
27C
330
1E
100
AcDbEntity
  8
0
 62
     3
100
AcDbLine
 10
122.1717623005999
 20
177.0999755858999
 30
0.0
 11
117.8717745075998
 21
177.0999755858999
 31
0.0
  0
LINE
  5
27D
330
1E
100
AcDbEntity
  8
0
 62
     3
100
AcDbLine
 10
122.1717165241999
 20
178.9999694824
 30
0.0
 11
122.1717165241999
 21
169.0999755858999
 31
0.0
  0
LINE
  5
27E
330
1E
100
AcDbEntity
  8
0
 62
     3
100
AcDbLine
 10
117.8717287311998
 20
167.8999786377
 30
0.0
 11
117.8717287311998
 21
157.9999847412
 31
0.0
  0
LINE
  5
27F
330
1E
100
AcDbEntity
  8
0
 62
     3
100
AcDbLine
 10
122.1717317829998
 20
167.8999786377
 30
0.0
 11
117.8717439899998
 21
167.8999786377
 31
0.0
  0
LINE
  5
280
330
1E
100
AcDbEntity
  8
0
 62
     3
100
AcDbLine
 10
122.1717317829998
 20
169.0999755858999
 30
0.0
 11
117.8717439899998
 21
169.0999755858999
 31
0.0
  0
LINE
  5
281
330
1E
100
AcDbEntity
  8
0
 62
     3
100
AcDbLine
 10
117.8717287311998
 20
178.9999694824
 30
0.0
 11
117.8717287311998
 21
169.0999755858999
 31
0.0
  0
LINE
  5
282
330
1E
100
AcDbEntity
  8
0
 62
     3
100
AcDbLine
 10
116.6717165241998
 20
177.9999694824
 30
0.0
 11
116.6717165241998
 21
159.0000305174999
 31
0.0
  0
LINE
  5
283
330
1E
100
AcDbEntity
  8
0
 62
     3
100
AcDbLine
 10
127.1717165241998
 20
178.9999694824
 30
0.0
 11
127.1717165241998
 21
157.9999847412
 31
0.0
  0
LINE
  5
284
330
1E
100
AcDbEntity
  8
0
 62
     3
100
AcDbLine
 10
116.6717775593998
 20
175.3999786377
 30
0.0
 11
104.6717775593998
 21
175.3999786377
 31
0.0
  0
LINE
  5
285
330
1E
100
AcDbEntity
  8
0
 62
     3
100
AcDbLine
 10
116.6717623005998
 20
159.5999908447
 30
0.0
 11
104.6717623005999
 21
159.5999908447
 31
0.0
  0
LINE
  5
286
330
1E
100
AcDbEntity
  8
0
 62
     3
100
AcDbLine
 10
127.1717470417998
 20
157.9999847412
 30
0.0
 11
117.6717623005998
 21
157.9999847412
 31
0.0
  0
LINE
  5
287
330
1E
100
AcDbEntity
  8
0
 62
     3
100
AcDbLine
 10
127.1717470417998
 20
178.9999694824
 30
0.0
 11
124.3717287311998
 21
178.9999694824
 31
0.0
  0
LINE
  5
288
330
1E
100
AcDbEntity
  8
0
 62
     3
100
AcDbLine
 10
131.8716982136998
 20
176.4998931884
 30
0.0
 11
127.9717043171998
 21
176.4998931884
 31
0.0
  0
LINE
  5
289
330
1E
100
AcDbEntity
  8
0
 62
     3
100
AcDbLine
 10
131.8716982136998
 20
175.8999176025
 30
0.0
 11
127.6717165241998
 21
175.8999176025
 31
0.0
  0
LINE
  5
28A
330
1E
100
AcDbEntity
  8
0
 62
     3
100
AcDbLine
 10
138.3457277546998
 20
161.0999755858999
 30
0.0
 11
139.6717165241998
 21
161.0999755858999
 31
0.0
  0
LINE
  5
28B
330
1E
100
AcDbEntity
  8
0
 62
     3
100
AcDbLine
 10
138.5491121540998
 20
160.4999847411999
 30
0.0
 11
140.0717104206998
 21
160.4999847411999
 31
0.0
  0
LINE
  5
28C
330
1E
100
AcDbEntity
  8
0
 62
     3
100
AcDbLine
 10
133.8716371784998
 20
170.1923828124999
 30
0.0
 11
133.8716371784998
 21
169.0999298094999
 31
0.0
  0
LINE
  5
28D
330
1E
100
AcDbEntity
  8
0
 62
     3
100
AcDbLine
 10
133.8716371784998
 20
170.1923828124999
 30
0.0
 11
136.8716371784998
 21
170.1923828124999
 31
0.0
  0
LINE
  5
28E
330
1E
100
AcDbEntity
  8
0
 62
     3
100
AcDbLine
 10
133.8716371784998
 20
169.0999298094999
 30
0.0
 11
136.8716371784998
 21
169.0999298094999
 31
0.0
  0
LINE
  5
28F
330
1E
100
AcDbEntity
  8
0
 62
     3
100
AcDbLine
 10
133.8716371784998
 20
172.4201965331999
 30
0.0
 11
133.8716371784998
 21
171.3777465819999
 31
0.0
  0
LINE
  5
290
330
1E
100
AcDbEntity
  8
0
 62
     3
100
AcDbLine
 10
133.8716371784998
 20
171.3777465819999
 30
0.0
 11
136.8716371784998
 21
171.3777465819999
 31
0.0
  0
LINE
  5
291
330
1E
100
AcDbEntity
  8
0
 62
     3
100
AcDbLine
 10
133.8716371784998
 20
172.4201965331999
 30
0.0
 11
136.8716371784998
 21
172.4201965331999
 31
0.0
  0
LINE
  5
292
330
1E
100
AcDbEntity
  8
0
 62
     3
100
AcDbLine
 10
133.8716371784998
 20
173.4594116211
 30
0.0
 11
133.8716371784998
 21
174.3344268797999
 31
0.0
  0
LINE
  5
293
330
1E
100
AcDbEntity
  8
0
 62
     3
100
AcDbLine
 10
133.8716371784998
 20
173.4594116211
 30
0.0
 11
136.8716371784998
 21
173.4594116211
 31
0.0
  0
LINE
  5
294
330
1E
100
AcDbEntity
  8
0
 62
     3
100
AcDbLine
 10
133.8716371784998
 20
174.3344268797999
 30
0.0
 11
136.8716371784998
 21
174.3344268797999
 31
0.0
  0
LINE
  5
295
330
1E
100
AcDbEntity
  8
0
 62
     3
100
AcDbLine
 10
133.8716371784998
 20
175.2031249999999
 30
0.0
 11
136.8716371784998
 21
175.2031249999999
 31
0.0
  0
LINE
  5
296
330
1E
100
AcDbEntity
  8
0
 62
     3
100
AcDbLine
 10
133.8716371784998
 20
175.2031249999999
 30
0.0
 11
133.8716371784998
 21
175.8900146483999
 31
0.0
  0
LINE
  5
297
330
1E
100
AcDbEntity
  8
0
 62
     3
100
AcDbLine
 10
133.8716371784998
 20
175.8900146483999
 30
0.0
 11
136.8716371784998
 21
175.8900146483999
 31
0.0
  0
LINE
  5
298
330
1E
100
AcDbEntity
  8
0
 62
     3
100
AcDbLine
 10
133.8716371784998
 20
176.4900054931
 30
0.0
 11
136.8716371784998
 21
176.4900054931
 31
0.0
  0
LINE
  5
299
330
1E
100
AcDbEntity
  8
0
 62
     3
100
AcDbLine
 10
133.8716829548998
 20
176.9131011962999
 30
0.0
 11
133.8716829548998
 21
176.4899902343
 31
0.0
  0
LINE
  5
29A
330
1E
100
AcDbEntity
  8
0
 62
     3
100
AcDbLine
 10
133.8716371784998
 20
176.9131317138
 30
0.0
 11
136.8716371784998
 21
176.9131317138
 31
0.0
  0
LINE
  5
29B
330
1E
100
AcDbEntity
  8
0
 62
     3
100
AcDbLine
 10
133.8716371784998
 20
167.8999023436999
 30
0.0
 11
133.8716371784998
 21
166.8074493407999
 31
0.0
  0
LINE
  5
29C
330
1E
100
AcDbEntity
  8
0
 62
     3
100
AcDbLine
 10
136.8716371784998
 20
166.8074493407999
 30
0.0
 11
133.8716371784998
 21
166.8074493407999
 31
0.0
  0
LINE
  5
29D
330
1E
100
AcDbEntity
  8
0
 62
     3
100
AcDbLine
 10
136.8716371784998
 20
167.8999023436999
 30
0.0
 11
133.8716371784998
 21
167.8999023436999
 31
0.0
  0
LINE
  5
29E
330
1E
100
AcDbEntity
  8
0
 62
     3
100
AcDbLine
 10
133.8716371784998
 20
165.6220855712999
 30
0.0
 11
133.8716371784998
 21
164.5796356201
 31
0.0
  0
LINE
  5
29F
330
1E
100
AcDbEntity
  8
0
 62
     3
100
AcDbLine
 10
136.8716371784998
 20
165.6220855712999
 30
0.0
 11
133.8716371784998
 21
165.6220855712999
 31
0.0
  0
LINE
  5
2A0
330
1E
100
AcDbEntity
  8
0
 62
     3
100
AcDbLine
 10
136.8716371784998
 20
164.5796356201
 30
0.0
 11
133.8716371784998
 21
164.5796356201
 31
0.0
  0
LINE
  5
2A1
330
1E
100
AcDbEntity
  8
0
 62
     3
100
AcDbLine
 10
133.8716371784998
 20
162.6654052733999
 30
0.0
 11
133.8716371784998
 21
163.5404205321999
 31
0.0
  0
LINE
  5
2A2
330
1E
100
AcDbEntity
  8
0
 62
     3
100
AcDbLine
 10
136.8716371784998
 20
163.5404205321999
 30
0.0
 11
133.8716371784998
 21
163.5404205321999
 31
0.0
  0
LINE
  5
2A3
330
1E
100
AcDbEntity
  8
0
 62
     3
100
AcDbLine
 10
136.8716371784998
 20
162.6654052733999
 30
0.0
 11
133.8716371784998
 21
162.6654052733999
 31
0.0
  0
LINE
  5
2A4
330
1E
100
AcDbEntity
  8
0
 62
     3
100
AcDbLine
 10
136.8716371784998
 20
161.7967071532999
 30
0.0
 11
133.8716371784998
 21
161.7967071532999
 31
0.0
  0
LINE
  5
2A5
330
1E
100
AcDbEntity
  8
0
 62
     3
100
AcDbLine
 10
133.8716371784998
 20
161.1098175048
 30
0.0
 11
133.8716371784998
 21
161.7967071532999
 31
0.0
  0
LINE
  5
2A6
330
1E
100
AcDbEntity
  8
0
 62
     3
100
AcDbLine
 10
136.8716371784998
 20
161.1098175048
 30
0.0
 11
133.8716371784998
 21
161.1098175048
 31
0.0
  0
LINE
  5
2A7
330
1E
100
AcDbEntity
  8
0
 62
     3
100
AcDbLine
 10
136.8716371784998
 20
160.5098266600999
 30
0.0
 11
133.8716371784998
 21
160.5098266600999
 31
0.0
  0
LINE
  5
2A8
330
1E
100
AcDbEntity
  8
0
 62
     3
100
AcDbLine
 10
133.8716066608999
 20
160.5097808838
 30
0.0
 11
133.8716066608999
 21
160.0866699218
 31
0.0
  0
LINE
  5
2A9
330
1E
100
AcDbEntity
  8
0
 62
     3
100
AcDbLine
 10
136.8716371784998
 20
160.0867004393999
 30
0.0
 11
133.8716371784998
 21
160.0867004393999
 31
0.0
  0
LINE
  5
2AA
330
1E
100
AcDbEntity
  8
0
 62
     3
100
AcDbLine
 10
131.8716524372998
 20
160.120803833
 30
0.0
 11
133.0716493854999
 21
160.120803833
 31
0.0
  0
LINE
  5
2AB
330
1E
100
AcDbEntity
  8
0
 62
     3
100
AcDbLine
 10
131.8716524372998
 20
165.499923706
 30
0.0
 11
131.8716524372998
 21
160.120803833
 31
0.0
  0
LINE
  5
2AC
330
1E
100
AcDbEntity
  8
0
 62
     3
100
AcDbLine
 10
133.0716493854999
 20
165.499923706
 30
0.0
 11
131.8716524372998
 21
165.499923706
 31
0.0
  0
LINE
  5
2AD
330
1E
100
AcDbEntity
  8
0
 62
     3
100
AcDbLine
 10
131.8716524372998
 20
171.4999237059999
 30
0.0
 11
133.0716493854999
 21
171.4999237059999
 31
0.0
  0
LINE
  5
2AE
330
1E
100
AcDbEntity
  8
0
 62
     3
100
AcDbLine
 10
131.8716524372998
 20
176.8790893553999
 30
0.0
 11
131.8716524372998
 21
171.4999237059999
 31
0.0
  0
LINE
  5
2AF
330
1E
100
AcDbEntity
  8
0
 62
     3
100
AcDbLine
 10
133.0716493854999
 20
176.8790893553999
 30
0.0
 11
131.8716524372998
 21
176.8790893553999
 31
0.0
  0
LINE
  5
2B0
330
1E
100
AcDbEntity
  8
0
 62
     3
100
AcDbLine
 10
133.0716493854999
 20
171.4999237059999
 30
0.0
 11
133.0716493854999
 21
165.499923706
 31
0.0
  0
LINE
  5
2B1
330
1E
100
AcDbEntity
  8
0
 62
     3
100
AcDbLine
 10
133.0716319336998
 20
159.5999041615999
 30
0.0
 11
133.0716471924998
 21
160.1207934439
 31
0.0
  0
LINE
  5
2B2
330
1E
100
AcDbEntity
  8
0
 62
     3
100
AcDbLine
 10
133.0716493854999
 20
177.3999176025
 30
0.0
 11
133.0716493854999
 21
176.8790893553999
 31
0.0
  0
LINE
  5
2B3
330
1E
100
AcDbEntity
  8
0
 62
     3
100
AcDbLine
 10
136.8716219196998
 20
159.5999145506999
 30
0.0
 11
133.0716341266999
 21
159.5999145506999
 31
0.0
  0
LINE
  5
2B4
330
1E
100
AcDbEntity
  8
0
 62
     3
100
AcDbLine
 10
136.8716066608998
 20
177.3998718260999
 30
0.0
 11
136.8716066608998
 21
159.5998840332
 31
0.0
  0
LINE
  5
2B5
330
1E
100
AcDbEntity
  8
0
 62
     3
100
AcDbLine
 10
133.0716493854999
 20
177.3999176025
 30
0.0
 11
136.8716371784998
 21
177.3999176025
 31
0.0
  0
LINE
  5
2B6
330
1E
100
AcDbEntity
  8
0
 62
     3
100
AcDbLine
 10
139.6717012653998
 20
175.8999176025
 30
0.0
 11
139.6717012653998
 21
161.0999755858999
 31
0.0
  0
LINE
  5
2B7
330
1E
100
AcDbEntity
  8
0
 62
     3
100
AcDbLine
 10
127.9717043171998
 20
176.4998931884
 30
0.0
 11
127.9717043171998
 21
160.4999847411999
 31
0.0
  0
LINE
  5
2B8
330
1E
100
AcDbEntity
  8
0
 62
     3
100
AcDbLine
 10
139.9717044166998
 20
160.4998641044
 30
0.0
 11
139.6717038373998
 21
161.0998657826999
 31
0.0
  0
LINE
  5
2B9
330
1E
100
AcDbEntity
  8
0
 62
     3
100
AcDbLine
 10
139.6715728727998
 20
175.8996684046
 30
0.0
 11
139.9716075716998
 21
176.4997383223
 31
0.0
  0
LINE
  5
2BA
330
1E
100
AcDbEntity
  8
0
 62
     3
100
AcDbLine
 10
127.6717165241998
 20
161.0999755858999
 30
0.0
 11
131.8717134723998
 21
161.0999755858999
 31
0.0
  0
LINE
  5
2BB
330
1E
100
AcDbEntity
  8
0
 62
     3
100
AcDbLine
 10
127.9717138736998
 20
160.4998546148
 30
0.0
 11
127.6717132944998
 21
161.0998562930999
 31
0.0
  0
LINE
  5
2BC
330
1E
100
AcDbEntity
  8
0
 62
     3
100
AcDbLine
 10
127.9717043171998
 20
160.4999847411999
 30
0.0
 11
131.8717134723998
 21
160.4999847411999
 31
0.0
  0
LINE
  5
2BD
330
1E
100
AcDbEntity
  8
0
 62
     3
100
AcDbLine
 10
139.6717165241998
 20
175.8999176025
 30
0.0
 11
138.3457430134998
 21
175.8999176025
 31
0.0
  0
LINE
  5
2BE
330
1E
100
AcDbEntity
  8
0
 62
     3
100
AcDbLine
 10
127.6716164494998
 20
175.8996437745
 30
0.0
 11
127.9716511483998
 21
176.4997136922
 31
0.0
  0
LINE
  5
2BF
330
1E
100
AcDbEntity
  8
0
 62
     3
100
AcDbLine
 10
140.0717104206998
 20
176.4998931884
 30
0.0
 11
138.5491274128998
 21
176.4998931884
 31
0.0
  0
LINE
  5
2C0
330
1E
100
AcDbEntity
  8
0
 62
     3
100
AcDbLine
 10
127.6717165241998
 20
175.8999176025
 30
0.0
 11
127.6717165241998
 21
161.0999755858999
 31
0.0
  0
LINE
  5
2C1
330
1E
100
AcDbEntity
  8
0
 62
     3
100
AcDbLine
 10
127.6717165241998
 20
161.1499786377
 30
0.0
 11
127.1717317829998
 21
161.1499786377
 31
0.0
  0
LINE
  5
2C2
330
1E
100
AcDbEntity
  8
0
 62
     3
100
AcDbLine
 10
127.6717165241998
 20
175.8498687743999
 30
0.0
 11
127.1717317829998
 21
175.8498687743999
 31
0.0
  0
ARC
  5
2D3
330
1E
100
AcDbEntity
  8
0
 62
     3
100
AcDbCircle
 10
117.6717012653998
 20
225.9999847412
 30
0.0
 40
1.0
100
AcDbArc
 50
89.99998201389999
 51
179.9999640277999
  0
ARC
  5
2D4
330
1E
100
AcDbEntity
  8
0
 62
     3
100
AcDbCircle
 10
117.6717012653998
 20
207.0
 30
0.0
 40
1.0
100
AcDbArc
 50
179.9999640277999
 51
269.9999460416999
  0
LINE
  5
2D5
330
1E
100
AcDbEntity
  8
0
 62
     3
100
AcDbLine
 10
95.67173178299997
 20
217.6998901366999
 30
0.0
 11
104.6717623005999
 21
217.6998901366999
 31
0.0
  0
LINE
  5
2D6
330
1E
100
AcDbEntity
  8
0
 62
     3
100
AcDbLine
 10
95.67173178299997
 20
218.1998901366999
 30
0.0
 11
104.6717623005999
 21
218.1998901366999
 31
0.0
  0
LINE
  5
2D7
330
1E
100
AcDbEntity
  8
0
 62
     3
100
AcDbLine
 10
95.67173178299997
 20
218.1998901366999
 30
0.0
 11
95.67173178299997
 21
217.6998901366999
 31
0.0
  0
LINE
  5
2D8
330
1E
100
AcDbEntity
  8
0
 62
     3
100
AcDbLine
 10
95.67174704179992
 20
210.8998870848998
 30
0.0
 11
104.6717775593998
 21
210.8998870848998
 31
0.0
  0
LINE
  5
2D9
330
1E
100
AcDbEntity
  8
0
 62
     3
100
AcDbLine
 10
95.67174704179992
 20
211.3998870848998
 30
0.0
 11
104.6717775593998
 21
211.3998870848998
 31
0.0
  0
LINE
  5
2DA
330
1E
100
AcDbEntity
  8
0
 62
     3
100
AcDbLine
 10
95.67174704179992
 20
211.3998870848998
 30
0.0
 11
95.67174704179992
 21
210.8998870848998
 31
0.0
  0
LINE
  5
2DB
330
1E
100
AcDbEntity
  8
0
 62
     3
100
AcDbLine
 10
126.0661867389998
 20
217.1103057860999
 30
0.0
 11
126.5661867389998
 21
217.1103057860999
 31
0.0
  0
LINE
  5
2DC
330
1E
100
AcDbEntity
  8
0
 62
     3
100
AcDbLine
 10
125.6661874263998
 20
214.6101975314
 30
0.0
 11
126.5661837250999
 21
217.1101910508999
 31
0.0
  0
LINE
  5
2DD
330
1E
100
AcDbEntity
  8
0
 62
     3
100
AcDbLine
 10
124.7661666322998
 20
217.1102650194999
 30
0.0
 11
125.6661692079998
 21
214.6102574598999
 31
0.0
  0
LINE
  5
2DE
330
1E
100
AcDbEntity
  8
0
 62
     3
100
AcDbLine
 10
124.7661836872998
 20
217.1103057860999
 30
0.0
 11
125.2661836872998
 21
217.1103057860999
 31
0.0
  0
LINE
  5
2DF
330
1E
100
AcDbEntity
  8
0
 62
     3
100
AcDbLine
 10
126.0661867389998
 20
221.6103057861
 30
0.0
 11
126.0661867389998
 21
217.1103057860999
 31
0.0
  0
LINE
  5
2E0
330
1E
100
AcDbEntity
  8
0
 62
     3
100
AcDbLine
 10
125.2661836872998
 20
221.6103057861
 30
0.0
 11
125.2661836872998
 21
217.1103057860999
 31
0.0
  0
LINE
  5
2E1
330
1E
100
AcDbEntity
  8
0
 62
     3
100
AcDbLine
 10
125.2661836872998
 20
221.6103057861
 30
0.0
 11
126.0661867389998
 21
221.6103057861
 31
0.0
  0
LINE
  5
2E2
330
1E
100
AcDbEntity
  8
0
 62
     3
100
AcDbLine
 10
137.8152655412998
 20
225.4497532173
 30
0.0
 11
138.7623298217998
 21
225.1287093087
 31
0.0
  0
LINE
  5
2E3
330
1E
100
AcDbEntity
  8
0
 62
     3
100
AcDbLine
 10
137.8151812211998
 20
207.5497050939998
 30
0.0
 11
138.7622501508999
 21
207.8707352934999
 31
0.0
  0
LINE
  5
2E4
330
1E
100
AcDbEntity
  8
0
 62
     3
100
AcDbLine
 10
136.8711488971998
 20
225.4498901367
 30
0.0
 11
137.8152559528998
 21
225.4498901367
 31
0.0
  0
LINE
  5
2E5
330
1E
100
AcDbEntity
  8
0
 62
     3
100
AcDbLine
 10
136.8711488971998
 20
207.5498809813999
 30
0.0
 11
137.8152406940999
 21
207.5498809813999
 31
0.0
  0
LINE
  5
2E6
330
1E
100
AcDbEntity
  8
0
 62
     3
100
AcDbLine
 10
136.8711231875999
 20
210.3348170157
 30
0.0
 11
137.8152087273998
 21
207.5497131749999
 31
0.0
  0
LINE
  5
2E7
330
1E
100
AcDbEntity
  8
0
 62
     3
100
AcDbLine
 10
136.8711466132998
 20
222.6646104375999
 30
0.0
 11
137.8152512309999
 21
225.4497562292999
 31
0.0
  0
LINE
  5
2E8
330
1E
100
AcDbEntity
  8
0
 62
     3
100
AcDbLine
 10
137.8711580142998
 20
222.4997624669999
 30
0.0
 11
138.7623135335998
 21
225.1287063335
 31
0.0
  0
LINE
  5
2E9
330
1E
100
AcDbEntity
  8
0
 62
     3
100
AcDbLine
 10
137.8711152253998
 20
210.4997212219
 30
0.0
 11
138.7622764053998
 21
207.8707471296
 31
0.0
  0
LINE
  5
2EA
330
1E
100
AcDbEntity
  8
0
 62
     3
100
AcDbLine
 10
137.8710573444999
 20
210.4998321532999
 30
0.0
 11
137.8710573444999
 21
222.4998016357
 31
0.0
  0
LINE
  5
2EB
330
1E
100
AcDbEntity
  8
0
 62
     3
100
AcDbLine
 10
140.0716951618998
 20
206.4998809813999
 30
0.0
 11
140.6717012653998
 21
206.4998809813999
 31
0.0
  0
LINE
  5
2EC
330
1E
100
AcDbEntity
  8
0
 62
     3
100
AcDbLine
 10
140.0716951618998
 20
226.4998748778999
 30
0.0
 11
140.6717012653998
 21
226.4998748778999
 31
0.0
  0
LINE
  5
2ED
330
1E
100
AcDbEntity
  8
0
 62
     3
100
AcDbLine
 10
140.0716951618998
 20
206.4998809813999
 30
0.0
 11
140.0716951618998
 21
226.4998748778999
 31
0.0
  0
LINE
  5
2EE
330
1E
100
AcDbEntity
  8
0
 62
     3
100
AcDbLine
 10
136.8710573444999
 20
207.599822998
 30
0.0
 11
136.8710573444999
 21
225.3993530272999
 31
0.0
  0
LINE
  5
2EF
330
1E
100
AcDbEntity
  8
0
 62
     3
100
AcDbLine
 10
126.4217165241998
 20
212.8865966797
 30
0.0
 11
126.4217165241998
 21
206.0
 31
0.0
  0
LINE
  5
2F0
330
1E
100
AcDbEntity
  8
0
 62
     3
100
AcDbLine
 10
125.4217165241998
 20
212.8865966797
 30
0.0
 11
125.4217165241998
 21
206.0
 31
0.0
  0
LINE
  5
2F1
330
1E
100
AcDbEntity
  8
0
 62
     3
100
AcDbLine
 10
124.1717165241999
 20
210.7851104736
 30
0.0
 11
124.1717165241999
 21
209.2928161620999
 31
0.0
  0
LINE
  5
2F2
330
1E
100
AcDbEntity
  8
0
 62
     3
100
AcDbLine
 10
124.1717165241999
 20
209.2928619383998
 30
0.0
 11
124.3717134723998
 21
209.2928619383998
 31
0.0
  0
LINE
  5
2F3
330
1E
100
AcDbEntity
  8
0
 62
     3
100
AcDbLine
 10
123.3717134723998
 20
210.78515625
 30
0.0
 11
124.3717134723998
 21
210.78515625
 31
0.0
  0
LINE
  5
2F4
330
1E
100
AcDbEntity
  8
0
 62
     3
100
AcDbLine
 10
123.3717134723998
 20
205.3368988037
 30
0.0
 11
124.3717134723998
 21
205.3368988037
 31
0.0
  0
LINE
  5
2F5
330
1E
100
AcDbEntity
  8
0
 62
     3
100
AcDbLine
 10
124.3717134723998
 20
206.0
 30
0.0
 11
127.1717012653998
 21
206.0
 31
0.0
  0
LINE
  5
2F6
330
1E
100
AcDbEntity
  8
0
 62
     3
100
AcDbLine
 10
123.3717134723998
 20
203.5380249022999
 30
0.0
 11
124.3717134723998
 21
203.5380249022999
 31
0.0
  0
LINE
  5
2F7
330
1E
100
AcDbEntity
  8
0
 62
     3
100
AcDbLine
 10
115.6717165241998
 20
219.9999847412
 30
0.0
 11
115.6717165241998
 21
213.0
 31
0.0
  0
LINE
  5
2F8
330
1E
100
AcDbEntity
  8
0
 62
     3
100
AcDbLine
 10
112.6717165241999
 20
219.9999847412
 30
0.0
 11
115.6717165241998
 21
219.9999847412
 31
0.0
  0
LINE
  5
2F9
330
1E
100
AcDbEntity
  8
0
 62
     3
100
AcDbLine
 10
112.6717165241999
 20
213.0
 30
0.0
 11
112.6717165241999
 21
219.9999847412
 31
0.0
  0
LINE
  5
2FA
330
1E
100
AcDbEntity
  8
0
 62
     3
100
AcDbLine
 10
115.6717165241998
 20
213.0
 30
0.0
 11
112.6717165241999
 21
213.0
 31
0.0
  0
LINE
  5
2FB
330
1E
100
AcDbEntity
  8
0
 62
     3
100
AcDbLine
 10
107.8717287311998
 20
210.8002929687
 30
0.0
 11
107.8717287311998
 21
213.2001953125
 31
0.0
  0
LINE
  5
2FC
330
1E
100
AcDbEntity
  8
0
 62
     3
100
AcDbLine
 10
107.8717287311998
 20
220.0000152588
 30
0.0
 11
107.8717287311998
 21
217.6000671385999
 31
0.0
  0
LINE
  5
2FD
330
1E
100
AcDbEntity
  8
0
 62
     3
100
AcDbLine
 10
107.8717287311998
 20
213.2001953125
 30
0.0
 11
106.3717287311998
 21
213.2001953125
 31
0.0
  0
LINE
  5
2FE
330
1E
100
AcDbEntity
  8
0
 62
     3
100
AcDbLine
 10
107.8717287311998
 20
210.8002929687
 30
0.0
 11
106.3717287311998
 21
210.8002929687
 31
0.0
  0
LINE
  5
2FF
330
1E
100
AcDbEntity
  8
0
 62
     3
100
AcDbLine
 10
107.8717287311998
 20
220.0000152588
 30
0.0
 11
106.3717287311998
 21
220.0000152588
 31
0.0
  0
LINE
  5
300
330
1E
100
AcDbEntity
  8
0
 62
     3
100
AcDbLine
 10
107.8717287311998
 20
217.6000671385999
 30
0.0
 11
106.3717287311998
 21
217.6000671385999
 31
0.0
  0
LINE
  5
301
330
1E
100
AcDbEntity
  8
0
 62
     3
100
AcDbLine
 10
106.3717287311998
 20
220.0000152588
 30
0.0
 11
106.3717287311998
 21
217.6000671385999
 31
0.0
  0
LINE
  5
302
330
1E
100
AcDbEntity
  8
0
 62
     3
100
AcDbLine
 10
106.3717287311998
 20
210.8002929687
 30
0.0
 11
106.3717287311998
 21
213.2001953125
 31
0.0
  0
LINE
  5
303
330
1E
100
AcDbEntity
  8
0
 62
     3
100
AcDbLine
 10
123.3717287311998
 20
212.8865966797
 30
0.0
 11
127.1717012653998
 21
212.8865966797
 31
0.0
  0
LINE
  5
304
330
1E
100
AcDbEntity
  8
0
 62
     3
100
AcDbLine
 10
122.1717165241999
 20
226.9999847412
 30
0.0
 11
122.1717165241999
 21
217.1000823973999
 31
0.0
  0
LINE
  5
305
330
1E
100
AcDbEntity
  8
0
 62
     3
100
AcDbLine
 10
117.8717287311998
 20
225.1000823974
 30
0.0
 11
122.1717165241999
 21
225.1000823974
 31
0.0
  0
LINE
  5
306
330
1E
100
AcDbEntity
  8
0
 62
     3
100
AcDbLine
 10
117.8717287311998
 20
207.9000244139999
 30
0.0
 11
122.1717165241999
 21
207.9000244139999
 31
0.0
  0
LINE
  5
307
330
1E
100
AcDbEntity
  8
0
 62
     3
100
AcDbLine
 10
122.1717165241999
 20
215.9000091552
 30
0.0
 11
122.1717165241999
 21
206.0
 31
0.0
  0
LINE
  5
308
330
1E
100
AcDbEntity
  8
0
 62
     3
100
AcDbLine
 10
117.8717287311998
 20
226.9999847412
 30
0.0
 11
117.8717287311998
 21
217.1000823973999
 31
0.0
  0
LINE
  5
309
330
1E
100
AcDbEntity
  8
0
 62
     3
100
AcDbLine
 10
117.8717287311998
 20
217.1000823973999
 30
0.0
 11
122.1717165241999
 21
217.1000823973999
 31
0.0
  0
LINE
  5
30A
330
1E
100
AcDbEntity
  8
0
 62
     3
100
AcDbLine
 10
117.8717287311998
 20
215.9000091552
 30
0.0
 11
122.1717165241999
 21
215.9000091552
 31
0.0
  0
LINE
  5
30B
330
1E
100
AcDbEntity
  8
0
 62
     3
100
AcDbLine
 10
117.8717287311998
 20
215.9000091552
 30
0.0
 11
117.8717287311998
 21
206.0
 31
0.0
  0
LINE
  5
30C
330
1E
100
AcDbEntity
  8
0
 62
     3
100
AcDbLine
 10
116.6717165241998
 20
225.9999847412
 30
0.0
 11
116.6717165241998
 21
207.0
 31
0.0
  0
LINE
  5
30D
330
1E
100
AcDbEntity
  8
0
 62
     3
100
AcDbLine
 10
127.1717012653998
 20
226.9999847412
 30
0.0
 11
127.1717012653998
 21
206.0
 31
0.0
  0
LINE
  5
30E
330
1E
100
AcDbEntity
  8
0
 62
     3
100
AcDbLine
 10
104.6717470417998
 20
225.4000091552
 30
0.0
 11
104.6717470417998
 21
207.6000976561999
 31
0.0
  0
LINE
  5
30F
330
1E
100
AcDbEntity
  8
0
 62
     3
100
AcDbLine
 10
104.6717470417998
 20
207.6000976561999
 30
0.0
 11
116.6717165241998
 21
207.6000976561999
 31
0.0
  0
LINE
  5
310
330
1E
100
AcDbEntity
  8
0
 62
     3
100
AcDbLine
 10
104.6717470417998
 20
225.4000091552
 30
0.0
 11
116.6717165241998
 21
225.4000091552
 31
0.0
  0
LINE
  5
311
330
1E
100
AcDbEntity
  8
0
 62
     3
100
AcDbLine
 10
117.6717165241998
 20
226.9999847412
 30
0.0
 11
127.1717012653998
 21
226.9999847412
 31
0.0
  0
LINE
  5
312
330
1E
100
AcDbEntity
  8
0
 62
     3
100
AcDbLine
 10
117.6717165241998
 20
206.0
 30
0.0
 11
123.3717134723998
 21
206.0
 31
0.0
  0
LINE
  5
313
330
1E
100
AcDbEntity
  8
0
 62
     3
100
AcDbLine
 10
124.3717134723998
 20
212.8865509032999
 30
0.0
 11
124.3717134723998
 21
203.5379791258999
 31
0.0
  0
LINE
  5
314
330
1E
100
AcDbEntity
  8
0
 62
     3
100
AcDbLine
 10
123.3717134723998
 20
212.8865509032999
 30
0.0
 11
123.3717134723998
 21
203.5379791258999
 31
0.0
  0
LINE
  5
315
330
1E
100
AcDbEntity
  8
0
 62
     3
100
AcDbLine
 10
131.8716829548998
 20
224.3997955321999
 30
0.0
 11
128.6091097126998
 21
224.3997955321999
 31
0.0
  0
LINE
  5
316
330
1E
100
AcDbEntity
  8
0
 62
     3
100
AcDbLine
 10
133.0716799030999
 20
217.4997711180999
 30
0.0
 11
128.6379030475998
 21
217.4997711180999
 31
0.0
  0
LINE
  5
317
330
1E
100
AcDbEntity
  8
0
 62
     3
100
AcDbLine
 10
133.0716799030999
 20
215.4997711180999
 30
0.0
 11
128.1716860065999
 21
215.4997711180999
 31
0.0
  0
LINE
  5
318
330
1E
100
AcDbEntity
  8
0
 62
     3
100
AcDbLine
 10
138.5151918659998
 20
208.5998687743999
 30
0.0
 11
140.0716951618998
 21
208.5998687743999
 31
0.0
  0
LINE
  5
319
330
1E
100
AcDbEntity
  8
0
 62
     3
100
AcDbLine
 10
133.8716066608999
 20
218.1922760008999
 30
0.0
 11
133.8716066608999
 21
217.0998229979999
 31
0.0
  0
LINE
  5
31A
330
1E
100
AcDbEntity
  8
0
 62
     3
100
AcDbLine
 10
133.8716066608999
 20
218.1922760008999
 30
0.0
 11
136.8716066608998
 21
218.1922760008999
 31
0.0
  0
LINE
  5
31B
330
1E
100
AcDbEntity
  8
0
 62
     3
100
AcDbLine
 10
133.8716066608999
 20
217.0998229979999
 30
0.0
 11
136.8716066608998
 21
217.0998229979999
 31
0.0
  0
LINE
  5
31C
330
1E
100
AcDbEntity
  8
0
 62
     3
100
AcDbLine
 10
133.8716066608999
 20
220.4200897215998
 30
0.0
 11
133.8716066608999
 21
219.3776397705
 31
0.0
  0
LINE
  5
31D
330
1E
100
AcDbEntity
  8
0
 62
     3
100
AcDbLine
 10
133.8716066608999
 20
219.3776397705
 30
0.0
 11
136.8716066608998
 21
219.3776397705
 31
0.0
  0
LINE
  5
31E
330
1E
100
AcDbEntity
  8
0
 62
     3
100
AcDbLine
 10
133.8716066608999
 20
220.4200897215998
 30
0.0
 11
136.8716066608998
 21
220.4200897215998
 31
0.0
  0
LINE
  5
31F
330
1E
100
AcDbEntity
  8
0
 62
     3
100
AcDbLine
 10
133.8716066608999
 20
221.4593048095
 30
0.0
 11
133.8716066608999
 21
222.3343200682999
 31
0.0
  0
LINE
  5
320
330
1E
100
AcDbEntity
  8
0
 62
     3
100
AcDbLine
 10
133.8716066608999
 20
221.4593048095
 30
0.0
 11
136.8716066608998
 21
221.4593048095
 31
0.0
  0
LINE
  5
321
330
1E
100
AcDbEntity
  8
0
 62
     3
100
AcDbLine
 10
133.8716066608999
 20
222.3343200682999
 30
0.0
 11
136.8716066608998
 21
222.3343200682999
 31
0.0
  0
LINE
  5
322
330
1E
100
AcDbEntity
  8
0
 62
     3
100
AcDbLine
 10
133.8716066608999
 20
223.2030181883999
 30
0.0
 11
136.8716066608998
 21
223.2030181883999
 31
0.0
  0
LINE
  5
323
330
1E
100
AcDbEntity
  8
0
 62
     3
100
AcDbLine
 10
133.8716066608999
 20
223.2030181883999
 30
0.0
 11
133.8716066608999
 21
223.8899078368999
 31
0.0
  0
LINE
  5
324
330
1E
100
AcDbEntity
  8
0
 62
     3
100
AcDbLine
 10
133.8716066608999
 20
223.8899078368999
 30
0.0
 11
136.8716066608998
 21
223.8899078368999
 31
0.0
  0
LINE
  5
325
330
1E
100
AcDbEntity
  8
0
 62
     3
100
AcDbLine
 10
133.8716066608999
 20
224.4898986816
 30
0.0
 11
136.8716066608998
 21
224.4898986816
 31
0.0
  0
LINE
  5
326
330
1E
100
AcDbEntity
  8
0
 62
     3
100
AcDbLine
 10
133.8716829548998
 20
224.9129791259
 30
0.0
 11
133.8716829548998
 21
224.4898681639999
 31
0.0
  0
LINE
  5
327
330
1E
100
AcDbEntity
  8
0
 62
     3
100
AcDbLine
 10
133.8716066608999
 20
224.9130249023
 30
0.0
 11
136.8716066608998
 21
224.9130249023
 31
0.0
  0
LINE
  5
328
330
1E
100
AcDbEntity
  8
0
 62
     3
100
AcDbLine
 10
133.8716066608999
 20
215.8997955321999
 30
0.0
 11
133.8716066608999
 21
214.8073425293
 31
0.0
  0
LINE
  5
329
330
1E
100
AcDbEntity
  8
0
 62
     3
100
AcDbLine
 10
136.8716066608998
 20
214.8073425293
 30
0.0
 11
133.8716066608999
 21
214.8073425293
 31
0.0
  0
LINE
  5
32A
330
1E
100
AcDbEntity
  8
0
 62
     3
100
AcDbLine
 10
136.8716066608998
 20
215.8997955321999
 30
0.0
 11
133.8716066608999
 21
215.8997955321999
 31
0.0
  0
LINE
  5
32B
330
1E
100
AcDbEntity
  8
0
 62
     3
100
AcDbLine
 10
133.8716066608999
 20
213.6219787597
 30
0.0
 11
133.8716066608999
 21
212.5795288086
 31
0.0
  0
LINE
  5
32C
330
1E
100
AcDbEntity
  8
0
 62
     3
100
AcDbLine
 10
136.8716066608998
 20
213.6219787597
 30
0.0
 11
133.8716066608999
 21
213.6219787597
 31
0.0
  0
LINE
  5
32D
330
1E
100
AcDbEntity
  8
0
 62
     3
100
AcDbLine
 10
136.8716066608998
 20
212.5795288086
 30
0.0
 11
133.8716066608999
 21
212.5795288086
 31
0.0
  0
LINE
  5
32E
330
1E
100
AcDbEntity
  8
0
 62
     3
100
AcDbLine
 10
133.8716066608999
 20
210.6652984619
 30
0.0
 11
133.8716066608999
 21
211.5403137207
 31
0.0
  0
LINE
  5
32F
330
1E
100
AcDbEntity
  8
0
 62
     3
100
AcDbLine
 10
136.8716066608998
 20
211.5403137207
 30
0.0
 11
133.8716066608999
 21
211.5403137207
 31
0.0
  0
LINE
  5
330
330
1E
100
AcDbEntity
  8
0
 62
     3
100
AcDbLine
 10
136.8716066608998
 20
210.6652984619
 30
0.0
 11
133.8716066608999
 21
210.6652984619
 31
0.0
  0
LINE
  5
331
330
1E
100
AcDbEntity
  8
0
 62
     3
100
AcDbLine
 10
136.8716066608998
 20
209.7966003418
 30
0.0
 11
133.8716066608999
 21
209.7966003418
 31
0.0
  0
LINE
  5
332
330
1E
100
AcDbEntity
  8
0
 62
     3
100
AcDbLine
 10
133.8716066608999
 20
209.1097106932999
 30
0.0
 11
133.8716066608999
 21
209.7966003418
 31
0.0
  0
LINE
  5
333
330
1E
100
AcDbEntity
  8
0
 62
     3
100
AcDbLine
 10
136.8716066608998
 20
209.1097106932999
 30
0.0
 11
133.8716066608999
 21
209.1097106932999
 31
0.0
  0
LINE
  5
334
330
1E
100
AcDbEntity
  8
0
 62
     3
100
AcDbLine
 10
136.8716066608998
 20
208.5097198486
 30
0.0
 11
133.8716066608999
 21
208.5097198486
 31
0.0
  0
LINE
  5
335
330
1E
100
AcDbEntity
  8
0
 62
     3
100
AcDbLine
 10
133.8715303669998
 20
208.5096740722
 30
0.0
 11
133.8715303669998
 21
208.0865631103
 31
0.0
  0
LINE
  5
336
330
1E
100
AcDbEntity
  8
0
 62
     3
100
AcDbLine
 10
136.8716066608998
 20
208.0865936279
 30
0.0
 11
133.8716066608999
 21
208.0865936279
 31
0.0
  0
LINE
  5
337
330
1E
100
AcDbEntity
  8
0
 62
     3
100
AcDbLine
 10
131.8716219196998
 20
208.1206970213999
 30
0.0
 11
133.0716188679998
 21
208.1206970213999
 31
0.0
  0
LINE
  5
338
330
1E
100
AcDbEntity
  8
0
 62
     3
100
AcDbLine
 10
131.8716219196998
 20
213.4998168944999
 30
0.0
 11
131.8716219196998
 21
208.1206970213999
 31
0.0
  0
LINE
  5
339
330
1E
100
AcDbEntity
  8
0
 62
     3
100
AcDbLine
 10
133.0716188679998
 20
213.4998168944999
 30
0.0
 11
131.8716219196998
 21
213.4998168944999
 31
0.0
  0
LINE
  5
33A
330
1E
100
AcDbEntity
  8
0
 62
     3
100
AcDbLine
 10
131.8716219196998
 20
219.4998168944998
 30
0.0
 11
133.0716188679998
 21
219.4998168944998
 31
0.0
  0
LINE
  5
33B
330
1E
100
AcDbEntity
  8
0
 62
     3
100
AcDbLine
 10
131.8716219196998
 20
224.8789825438998
 30
0.0
 11
131.8716219196998
 21
219.4998168944998
 31
0.0
  0
LINE
  5
33C
330
1E
100
AcDbEntity
  8
0
 62
     3
100
AcDbLine
 10
133.0716188679998
 20
224.8789825438998
 30
0.0
 11
131.8716219196998
 21
224.8789825438998
 31
0.0
  0
LINE
  5
33D
330
1E
100
AcDbEntity
  8
0
 62
     3
100
AcDbLine
 10
133.0716188679998
 20
219.4998168944998
 30
0.0
 11
133.0716188679998
 21
213.4998016356998
 31
0.0
  0
LINE
  5
33E
330
1E
100
AcDbEntity
  8
0
 62
     3
100
AcDbLine
 10
133.0715939147998
 20
207.5997821400998
 30
0.0
 11
133.0716091735998
 21
208.1206714222998
 31
0.0
  0
LINE
  5
33F
330
1E
100
AcDbEntity
  8
0
 62
     3
100
AcDbLine
 10
133.0716188679998
 20
225.3998107909999
 30
0.0
 11
133.0716188679998
 21
224.8789825438998
 31
0.0
  0
LINE
  5
340
330
1E
100
AcDbEntity
  8
0
 62
     3
100
AcDbLine
 10
136.8715914020998
 20
207.5998077392
 30
0.0
 11
133.0716036091999
 21
207.5998077392
 31
0.0
  0
LINE
  5
341
330
1E
100
AcDbEntity
  8
0
 62
     3
100
AcDbLine
 10
136.8715303669998
 20
225.3997650145998
 30
0.0
 11
136.8715303669998
 21
207.5997619628998
 31
0.0
  0
LINE
  5
342
330
1E
100
AcDbEntity
  8
0
 62
     3
100
AcDbLine
 10
133.0716188679998
 20
225.3998107909999
 30
0.0
 11
136.8716066608998
 21
225.3998107909999
 31
0.0
  0
LINE
  5
343
330
1E
100
AcDbEntity
  8
0
 62
     3
100
AcDbLine
 10
128.3346261154998
 20
213.5874347495
 30
0.0
 11
128.7774372890998
 21
214.4500187538
 31
0.0
  0
LINE
  5
344
330
1E
100
AcDbEntity
  8
0
 62
     3
100
AcDbLine
 10
127.7530184650998
 20
214.7748359498999
 30
0.0
 11
128.3343871619998
 21
213.5874555616999
 31
0.0
  0
LINE
  5
345
330
1E
100
AcDbEntity
  8
0
 62
     3
100
AcDbLine
 10
128.1715494594998
 20
215.4993427303999
 30
0.0
 11
127.7530924781998
 21
214.7745538546
 31
0.0
  0
LINE
  5
346
330
1E
100
AcDbEntity
  8
0
 62
     3
100
AcDbLine
 10
128.1714505529999
 20
215.4995638772999
 30
0.0
 11
128.7773235886998
 21
214.4501608180998
 31
0.0
  0
LINE
  5
347
330
1E
100
AcDbEntity
  8
0
 62
     3
100
AcDbLine
 10
128.2087732640998
 20
223.8494790363999
 30
0.0
 11
128.6378285697998
 21
217.4994555033999
 31
0.0
  0
LINE
  5
348
330
1E
100
AcDbEntity
  8
0
 62
     3
100
AcDbLine
 10
128.3341793602998
 20
223.8496440956998
 30
0.0
 11
128.6091019846998
 21
224.3994898208
 31
0.0
  0
LINE
  5
349
330
1E
100
AcDbEntity
  8
0
 62
     3
100
AcDbLine
 10
129.6716248378998
 20
224.3994197407999
 30
0.0
 11
130.1378350921999
 21
217.4995025362
 31
0.0
  0
LINE
  5
34A
330
1E
100
AcDbEntity
  8
0
 62
     3
100
AcDbLine
 10
129.1716175890998
 20
224.3994037204
 30
0.0
 11
129.6378278433999
 21
217.4994865157
 31
0.0
  0
LINE
  5
34B
330
1E
100
AcDbEntity
  8
0
 62
     3
100
AcDbLine
 10
128.6716255643998
 20
224.3993887285
 30
0.0
 11
129.1378440478998
 21
217.4993497313
 31
0.0
  0
LINE
  5
34C
330
1E
100
AcDbEntity
  8
0
 62
     3
100
AcDbLine
 10
127.9216554889998
 20
208.5998687743999
 30
0.0
 11
131.8716829548998
 21
208.5998687743999
 31
0.0
  0
LINE
  5
34D
330
1E
100
AcDbEntity
  8
0
 62
     3
100
AcDbLine
 10
140.0716951618998
 20
224.3997955321999
 30
0.0
 11
138.5152071247998
 21
224.3997955321999
 31
0.0
  0
LINE
  5
34E
330
1E
100
AcDbEntity
  8
0
 62
     3
100
AcDbLine
 10
139.9716890583998
 20
215.4997711180999
 30
0.0
 11
137.8711183796998
 21
215.4997711180999
 31
0.0
  0
LINE
  5
34F
330
1E
100
AcDbEntity
  8
0
 62
     3
100
AcDbLine
 10
139.9716890583998
 20
217.4997711180999
 30
0.0
 11
137.8711183796998
 21
217.4997711180999
 31
0.0
  0
LINE
  5
350
330
1E
100
AcDbEntity
  8
0
 62
     3
100
AcDbLine
 10
129.2065781816998
 20
215.4990666548998
 30
0.0
 11
129.6727647769999
 21
208.5994996039999
 31
0.0
  0
LINE
  5
351
330
1E
100
AcDbEntity
  8
0
 62
     3
100
AcDbLine
 10
129.7018495080998
 20
215.4990073781999
 30
0.0
 11
130.1680278741998
 21
208.5995621198999
 31
0.0
  0
LINE
  5
352
330
1E
100
AcDbEntity
  8
0
 62
     3
100
AcDbLine
 10
128.1704886327998
 20
208.5995439157998
 30
0.0
 11
127.7532412354998
 21
214.7748102656998
 31
0.0
  0
LINE
  5
353
330
1E
100
AcDbEntity
  8
0
 62
     3
100
AcDbLine
 10
129.1727727522998
 20
208.5994846121999
 30
0.0
 11
128.7065861569999
 21
215.4990516630999
 31
0.0
  0
LINE
  5
354
330
1E
100
AcDbEntity
  8
0
 62
     3
100
AcDbLine
 10
128.6716306924999
 20
208.5995142639999
 30
0.0
 11
128.3346100045999
 21
213.587424378
 31
0.0
  0
LINE
  5
355
330
1E
100
AcDbEntity
  8
0
 62
     3
100
AcDbLine
 10
127.6717012653998
 20
223.8498687743999
 30
0.0
 11
127.6717012653998
 21
209.0998687743998
 31
0.0
  0
LINE
  5
356
330
1E
100
AcDbEntity
  8
0
 62
     3
100
AcDbLine
 10
127.6717012653998
 20
209.1499176024998
 30
0.0
 11
127.1717012653998
 21
209.1499176024998
 31
0.0
  0
LINE
  5
357
330
1E
100
AcDbEntity
  8
0
 62
     3
100
AcDbLine
 10
128.3341463337999
 20
223.8498687743999
 30
0.0
 11
127.1717012653998
 21
223.8498687743999
 31
0.0
  0
LINE
  5
358
330
1E
100
AcDbEntity
  8
0
 62
     3
100
AcDbLine
 10
127.9216303499998
 20
208.5997220505
 30
0.0
 11
127.6716764974998
 21
209.0996301886
 31
0.0
  0
LINE
  5
36F
330
1E
100
AcDbEntity
  8
0
 62
     3
100
AcDbLine
 10
140.0717104206998
 20
178.4999694823999
 30
0.0
 11
140.6716707477998
 21
178.4999694823999
 31
0.0
  0
LINE
  5
370
330
1E
100
AcDbEntity
  8
0
 62
     3
100
AcDbLine
 10
140.0717104206998
 20
158.4999694823999
 30
0.0
 11
140.6716707477998
 21
158.4999694823999
 31
0.0
  0
LINE
  5
382
330
1E
100
AcDbEntity
  8
0
100
AcDbLine
 10
0.0
 20
0.0
 30
0.0
 11
210.0
 21
0.0
 31
0.0
  0
LINE
  5
383
330
1E
100
AcDbEntity
  8
0
100
AcDbLine
 10
210.0
 20
0.0
 30
0.0
 11
210.0
 21
297.0
 31
0.0
  0
LINE
  5
384
330
1E
100
AcDbEntity
  8
0
100
AcDbLine
 10
210.0
 20
297.0
 30
0.0
 11
0.0
 21
297.0
 31
0.0
  0
LINE
  5
385
330
1E
100
AcDbEntity
  8
0
100
AcDbLine
 10
0.0
 20
297.0
 30
0.0
 11
0.0
 21
0.0
 31
0.0
  0
TEXT
  5
38A
330
1E
100
AcDbEntity
  8
0
 62
     5
100
AcDbText
 10
145.0
 20
10.0
 30
0.0
 40
5.0
  1
ＭＡ４－Ｈ０１４０９Ｂ
 41
0.84439677439531
 72
     5
 11
199.0413935612998
 21
10.0
 31
0.0
100
AcDbText
  0
TEXT
  5
3AB
330
1E
100
AcDbEntity
  8
0
 62
     7
100
AcDbText
 10
108.0
 20
115.0000029552499
 30
0.0
 40
2.999994089499998
  1
HA1B-M2C1*
 11
108.0
 21
116.5
 31
0.0
100
AcDbText
 73
     2
  0
TEXT
  5
3AC
330
1E
100
AcDbEntity
  8
0
 62
     7
100
AcDbText
 10
108.0
 20
110.0000029552498
 30
0.0
 40
2.999994089499998
  1
HA1B-M2C2*
 11
108.0
 21
111.4999999999999
 31
0.0
100
AcDbText
 73
     2
  0
TEXT
  5
3AD
330
1E
100
AcDbEntity
  8
0
 62
     7
100
AcDbText
 10
108.0
 20
105.0000029552498
 30
0.0
 40
2.999994089499998
  1
HA1B-M2C5*
 11
108.0
 21
106.4999999999999
 31
0.0
100
AcDbText
 73
     2
  0
TEXT
  5
3AE
330
1E
100
AcDbEntity
  8
0
 62
     7
100
AcDbText
 10
108.0
 20
100.0000029552498
 30
0.0
 40
2.999994089499998
  1
HA1B-M2C6*
 11
108.0
 21
101.4999999999999
 31
0.0
100
AcDbText
 73
     2
  0
TEXT
  5
3AF
330
1E
100
AcDbEntity
  8
0
 62
     7
100
AcDbText
 10
146.0
 20
100.0000029552498
 30
0.0
 40
2.999994089499998
  1
HA1B-A2C6*
 11
146.0
 21
101.4999999999999
 31
0.0
100
AcDbText
 73
     2
  0
TEXT
  5
3B4
330
1E
100
AcDbEntity
  8
0
 62
     7
100
AcDbText
 10
146.0
 20
115.0000029552499
 30
0.0
 40
2.999994089499998
  1
HA1B-A2C1*
 11
146.0
 21
116.5
 31
0.0
100
AcDbText
 73
     2
  0
TEXT
  5
3B5
330
1E
100
AcDbEntity
  8
0
 62
     7
100
AcDbText
 10
146.0
 20
110.0000029552498
 30
0.0
 40
2.999994089499998
  1
HA1B-A2C2*
 11
146.0
 21
111.4999999999999
 31
0.0
100
AcDbText
 73
     2
  0
TEXT
  5
3B6
330
1E
100
AcDbEntity
  8
0
 62
     7
100
AcDbText
 10
146.0
 20
105.0000029552498
 30
0.0
 40
2.999994089499998
  1
HA1B-A2C5*
 11
146.0
 21
106.4999999999999
 31
0.0
100
AcDbText
 73
     2
  0
ENDSEC
  0
SECTION
  2
OBJECTS
  0
DICTIONARY
  5
C
330
0
100
AcDbDictionary
281
     1
  3
ACAD_GROUP
350
D
  3
ACAD_LAYOUT
350
19
  3
ACAD_MLINESTYLE
350
16
  3
ACAD_PLOTSETTINGS
350
18
  3
ACAD_PLOTSTYLENAME
350
E
  3
AcDbVariableDictionary
350
3B7
  0
DICTIONARY
  5
D
102
{ACAD_REACTORS
330
C
102
}
330
C
100
AcDbDictionary
281
     1
  0
DICTIONARY
  5
19
102
{ACAD_REACTORS
330
C
102
}
330
C
100
AcDbDictionary
281
     1
  3
Model
350
21
  3
ﾚｲｱｳﾄ1
350
1D
  0
DICTIONARY
  5
16
102
{ACAD_REACTORS
330
C
102
}
330
C
100
AcDbDictionary
281
     1
  3
Standard
350
17
  0
DICTIONARY
  5
18
102
{ACAD_REACTORS
330
C
102
}
330
C
100
AcDbDictionary
281
     1
  0
ACDBDICTIONARYWDFLT
  5
E
102
{ACAD_REACTORS
330
C
102
}
330
C
100
AcDbDictionary
281
     1
  3
Normal
350
F
100
AcDbDictionaryWithDefault
340
F
  0
DICTIONARY
  5
3B7
102
{ACAD_REACTORS
330
C
102
}
330
C
100
AcDbDictionary
281
     1
  3
DIMASSOC
350
3B8
  0
LAYOUT
  5
21
102
{ACAD_REACTORS
330
19
102
}
330
19
100
AcDbPlotSettings
  1

  2
C:\Program Files\AutoCAD 2000i\plotters\DWF Classic.pc3
  4

  6

 40
0.0
 41
0.0
 42
0.0
 43
0.0
 44
0.0
 45
0.0
 46
0.0
 47
0.0
 48
0.0
 49
0.0
140
0.0
141
0.0
142
1.0
143
1.0
 70
  1712
 72
     0
 73
     0
 74
     0
  7

 75
     0
147
1.0
148
0.0
149
0.0
100
AcDbLayout
  1
Model
 70
     1
 71
     0
 10
0.0
 20
0.0
 11
12.0
 21
9.0
 12
0.0
 22
0.0
 32
0.0
 14
0.0
 24
0.0
 34
0.0
 15
0.0
 25
0.0
 35
0.0
146
0.0
 13
0.0
 23
0.0
 33
0.0
 16
1.0
 26
0.0
 36
0.0
 17
0.0
 27
1.0
 37
0.0
 76
     0
330
1E
  0
LAYOUT
  5
1D
102
{ACAD_REACTORS
330
19
102
}
330
19
100
AcDbPlotSettings
  1

  2
C:\Program Files\AutoCAD 2000i\plotters\DWF Classic.pc3
  4

  6

 40
0.0
 41
0.0
 42
0.0
 43
0.0
 44
0.0
 45
0.0
 46
0.0
 47
0.0
 48
0.0
 49
0.0
140
0.0
141
0.0
142
1.0
143
1.0
 70
   688
 72
     0
 73
     0
 74
     5
  7

 75
    16
147
1.0
148
0.0
149
0.0
100
AcDbLayout
  1
ﾚｲｱｳﾄ1
 70
     1
 71
     1
 10
0.0
 20
0.0
 11
12.0
 21
9.0
 12
0.0
 22
0.0
 32
0.0
 14
1.000000000000000E+20
 24
1.000000000000000E+20
 34
1.000000000000000E+20
 15
-1.000000000000000E+20
 25
-1.000000000000000E+20
 35
-1.000000000000000E+20
146
0.0
 13
0.0
 23
0.0
 33
0.0
 16
1.0
 26
0.0
 36
0.0
 17
0.0
 27
1.0
 37
0.0
 76
     0
330
1A
  0
MLINESTYLE
  5
17
102
{ACAD_REACTORS
330
16
102
}
330
16
100
AcDbMlineStyle
  2
STANDARD
 70
     0
  3

 62
   256
 51
90.0
 52
90.0
 71
     2
 49
0.5
 62
   256
  6
BYLAYER
 49
-0.5
 62
   256
  6
BYLAYER
  0
ACDBPLACEHOLDER
  5
F
102
{ACAD_REACTORS
330
E
102
}
330
E
  0
DICTIONARYVAR
  5
3B8
102
{ACAD_REACTORS
330
3B7
102
}
330
3B7
100
DictionaryVariables
280
     0
  1
1
  0
ENDSEC
  0
EOF
