  0
SECTION
  2
HEADER
  9
$ACADVER
  1
AC1015
  9
$ACADMAINTVER
 70
    13
  9
$DWGCODEPAGE
  3
ANSI_932
  9
$INSBASE
 10
0.0
 20
0.0
 30
0.0
  9
$EXTMIN
 10
-0.0222129024202786
 20
-0.0008465416681247
 30
-0.0015258207003583
  9
$EXTMAX
 10
210.0120269261166
 20
297.0091613129236
 30
0.0000000349246037
  9
$LIMMIN
 10
-184.0682495116999
 20
-3.174999999999998
  9
$LIMMAX
 10
3.174999999999998
 20
291.2585876465
  9
$ORTHOMODE
 70
     0
  9
$REGENMODE
 70
     1
  9
$FILLMODE
 70
     1
  9
$QTEXTMODE
 70
     0
  9
$MIRRTEXT
 70
     0
  9
$LTSCALE
 40
1.0
  9
$ATTMODE
 70
     1
  9
$TEXTSIZE
 40
2.999994039499997
  9
$TRACEWID
 40
0.05
  9
$TEXTSTYLE
  7
STANDARD
  9
$CLAYER
  8
0
  9
$CELTYPE
  6
ByLayer
  9
$CECOLOR
 62
   256
  9
$CELTSCALE
 40
1.0
  9
$DISPSILH
 70
     0
  9
$DIMSCALE
 40
1.0
  9
$DIMASZ
 40
1.9727878465
  9
$DIMEXO
 40
2.539999961899999
  9
$DIMDLI
 40
0.38
  9
$DIMRND
 40
0.0
  9
$DIMDLE
 40
0.0
  9
$DIMEXE
 40
3.809999942799997
  9
$DIMTP
 40
0.0
  9
$DIMTM
 40
0.0
  9
$DIMTXT
 40
2.999994039499997
  9
$DIMCEN
 40
0.09
  9
$DIMTSZ
 40
0.0
  9
$DIMTOL
 70
     0
  9
$DIMLIM
 70
     0
  9
$DIMTIH
 70
     0
  9
$DIMTOH
 70
     1
  9
$DIMSE1
 70
     0
  9
$DIMSE2
 70
     0
  9
$DIMTAD
 70
     0
  9
$DIMZIN
 70
     0
  9
$DIMBLK
  1

  9
$DIMASO
 70
     1
  9
$DIMSHO
 70
     0
  9
$DIMPOST
  1

  9
$DIMAPOST
  1

  9
$DIMALT
 70
     0
  9
$DIMALTD
 70
     2
  9
$DIMALTF
 40
25.4
  9
$DIMLFAC
 40
1.0
  9
$DIMTOFL
 70
     0
  9
$DIMTVP
 40
0.0
  9
$DIMTIX
 70
     0
  9
$DIMSOXD
 70
     0
  9
$DIMSAH
 70
     0
  9
$DIMBLK1
  1

  9
$DIMBLK2
  1

  9
$DIMSTYLE
  2
Standard
  9
$DIMCLRD
 70
     0
  9
$DIMCLRE
 70
     0
  9
$DIMCLRT
 70
     0
  9
$DIMTFAC
 40
1.0
  9
$DIMGAP
 40
0.09
  9
$DIMJUST
 70
     0
  9
$DIMSD1
 70
     0
  9
$DIMSD2
 70
     0
  9
$DIMTOLJ
 70
     1
  9
$DIMTZIN
 70
     0
  9
$DIMALTZ
 70
     0
  9
$DIMALTTZ
 70
     0
  9
$DIMUPT
 70
     0
  9
$DIMDEC
 70
     4
  9
$DIMTDEC
 70
     4
  9
$DIMALTU
 70
     2
  9
$DIMALTTD
 70
     2
  9
$DIMTXSTY
  7
STANDARD
  9
$DIMAUNIT
 70
     0
  9
$DIMADEC
 70
     0
  9
$DIMALTRND
 40
0.0
  9
$DIMAZIN
 70
     0
  9
$DIMDSEP
 70
    46
  9
$DIMATFIT
 70
     3
  9
$DIMFRAC
 70
     0
  9
$DIMLDRBLK
  1

  9
$DIMLUNIT
 70
     2
  9
$DIMLWD
 70
    -2
  9
$DIMLWE
 70
    -2
  9
$DIMTMOVE
 70
     0
  9
$LUNITS
 70
     2
  9
$LUPREC
 70
     3
  9
$SKETCHINC
 40
0.1
  9
$FILLETRAD
 40
0.0625
  9
$AUNITS
 70
     0
  9
$AUPREC
 70
     0
  9
$MENU
  1
ACAD
  9
$ELEVATION
 40
0.0
  9
$PELEVATION
 40
0.0
  9
$THICKNESS
 40
0.0
  9
$LIMCHECK
 70
     0
  9
$CHAMFERA
 40
0.0
  9
$CHAMFERB
 40
0.0
  9
$CHAMFERC
 40
0.0
  9
$CHAMFERD
 40
0.0
  9
$SKPOLY
 70
     0
  9
$TDCREATE
 40
2452310.762777789
  9
$TDUCREATE
 40
2452310.387777789
  9
$TDUPDATE
 40
2453321.612664201
  9
$TDUUPDATE
 40
2453321.237664201
  9
$TDINDWG
 40
0.0029396412
  9
$TDUSRTIMER
 40
0.0029351157
  9
$USRTIMER
 70
     1
  9
$ANGBASE
 50
0.0
  9
$ANGDIR
 70
     0
  9
$PDMODE
 70
     0
  9
$PDSIZE
 40
0.0
  9
$PLINEWID
 40
0.0
  9
$SPLFRAME
 70
     0
  9
$SPLINETYPE
 70
     6
  9
$SPLINESEGS
 70
     8
  9
$HANDSEED
  5
1FB
  9
$SURFTAB1
 70
     6
  9
$SURFTAB2
 70
     6
  9
$SURFTYPE
 70
     6
  9
$SURFU
 70
     6
  9
$SURFV
 70
     6
  9
$UCSBASE
  2

  9
$UCSNAME
  2

  9
$UCSORG
 10
0.0
 20
0.0
 30
0.0
  9
$UCSXDIR
 10
1.0
 20
0.0
 30
0.0
  9
$UCSYDIR
 10
0.0
 20
1.0
 30
0.0
  9
$UCSORTHOREF
  2

  9
$UCSORTHOVIEW
 70
     0
  9
$UCSORGTOP
 10
0.0
 20
0.0
 30
0.0
  9
$UCSORGBOTTOM
 10
0.0
 20
0.0
 30
0.0
  9
$UCSORGLEFT
 10
0.0
 20
0.0
 30
0.0
  9
$UCSORGRIGHT
 10
0.0
 20
0.0
 30
0.0
  9
$UCSORGFRONT
 10
0.0
 20
0.0
 30
0.0
  9
$UCSORGBACK
 10
0.0
 20
0.0
 30
0.0
  9
$PUCSBASE
  2

  9
$PUCSNAME
  2

  9
$PUCSORG
 10
0.0
 20
0.0
 30
0.0
  9
$PUCSXDIR
 10
1.0
 20
0.0
 30
0.0
  9
$PUCSYDIR
 10
0.0
 20
1.0
 30
0.0
  9
$PUCSORTHOREF
  2

  9
$PUCSORTHOVIEW
 70
     0
  9
$PUCSORGTOP
 10
0.0
 20
0.0
 30
0.0
  9
$PUCSORGBOTTOM
 10
0.0
 20
0.0
 30
0.0
  9
$PUCSORGLEFT
 10
0.0
 20
0.0
 30
0.0
  9
$PUCSORGRIGHT
 10
0.0
 20
0.0
 30
0.0
  9
$PUCSORGFRONT
 10
0.0
 20
0.0
 30
0.0
  9
$PUCSORGBACK
 10
0.0
 20
0.0
 30
0.0
  9
$USERI1
 70
     9
  9
$USERI2
 70
     0
  9
$USERI3
 70
     0
  9
$USERI4
 70
     0
  9
$USERI5
 70
     0
  9
$USERR1
 40
0.0
  9
$USERR2
 40
0.0
  9
$USERR3
 40
0.0
  9
$USERR4
 40
0.0
  9
$USERR5
 40
0.0
  9
$WORLDVIEW
 70
     1
  9
$SHADEDGE
 70
     3
  9
$SHADEDIF
 70
    70
  9
$TILEMODE
 70
     1
  9
$MAXACTVP
 70
    64
  9
$PINSBASE
 10
0.0
 20
0.0
 30
0.0
  9
$PLIMCHECK
 70
     0
  9
$PEXTMIN
 10
1.000000000000000E+20
 20
1.000000000000000E+20
 30
1.000000000000000E+20
  9
$PEXTMAX
 10
-1.000000000000000E+20
 20
-1.000000000000000E+20
 30
-1.000000000000000E+20
  9
$PLIMMIN
 10
0.0
 20
0.0
  9
$PLIMMAX
 10
12.0
 20
9.0
  9
$UNITMODE
 70
     0
  9
$VISRETAIN
 70
     1
  9
$PLINEGEN
 70
     0
  9
$PSLTSCALE
 70
     1
  9
$TREEDEPTH
 70
  3020
  9
$CMLSTYLE
  2
Standard
  9
$CMLJUST
 70
     0
  9
$CMLSCALE
 40
1.0
  9
$PROXYGRAPHICS
 70
     1
  9
$MEASUREMENT
 70
     0
  9
$CELWEIGHT
370
    -1
  9
$ENDCAPS
280
     0
  9
$JOINSTYLE
280
     0
  9
$LWDISPLAY
290
     0
  9
$INSUNITS
 70
     0
  9
$HYPERLINKBASE
  1

  9
$STYLESHEET
  1

  9
$XEDIT
290
     1
  9
$CEPSNTYPE
380
     0
  9
$PSTYLEMODE
290
     1
  9
$FINGERPRINTGUID
  2
{1D2A943C-D558-410C-BB10-BC2610A0B886}
  9
$VERSIONGUID
  2
{B43DD113-9563-47C3-88E1-37C560EB33A3}
  9
$EXTNAMES
290
     1
  9
$PSVPSCALE
 40
0.0
  9
$OLESTARTUP
290
     0
  0
ENDSEC
  0
SECTION
  2
CLASSES
  0
CLASS
  1
ACDBDICTIONARYWDFLT
  2
AcDbDictionaryWithDefault
  3
AutoCAD 2000
 90
        0
280
     0
281
     0
  0
CLASS
  1
ACDBPLACEHOLDER
  2
AcDbPlaceHolder
  3
AutoCAD 2000
 90
        0
280
     0
281
     0
  0
CLASS
  1
LAYOUT
  2
AcDbLayout
  3
AutoCAD 2000
 90
        0
280
     0
281
     0
  0
CLASS
  1
DICTIONARYVAR
  2
AcDbDictionaryVar
  3
AutoCAD 2000
 90
        0
280
     0
281
     0
  0
ENDSEC
  0
SECTION
  2
TABLES
  0
TABLE
  2
VPORT
  5
19
330
0
100
AcDbSymbolTable
 70
     2
  0
VPORT
  5
1FA
330
19
100
AcDbSymbolTableRecord
100
AcDbViewportTableRecord
  2
*Active
 70
     0
 10
0.0
 20
0.0
 11
1.0
 21
1.0
 12
104.9949070118481
 22
148.5041573856277
 13
0.0
 23
0.0
 14
1.0
 24
1.0
 15
0.0
 25
0.0
 16
0.0
 26
0.0
 36
1.0
 17
0.0
 27
0.0
 37
0.0
 40
301.5677061848413
 41
2.479487179487179
 42
50.0
 43
0.0
 44
0.0
 50
0.0
 51
0.0
 71
     0
 72
   100
 73
     1
 74
     1
 75
     0
 76
     0
 77
     0
 78
     0
281
     0
 65
     1
110
0.0
120
0.0
130
0.0
111
1.0
121
0.0
131
0.0
112
0.0
122
1.0
132
0.0
 79
     0
146
0.0
  0
ENDTAB
  0
TABLE
  2
LTYPE
  5
14
330
0
100
AcDbSymbolTable
 70
     3
  0
LTYPE
  5
15
330
14
100
AcDbSymbolTableRecord
100
AcDbLinetypeTableRecord
  2
ByBlock
 70
     0
  3

 72
    65
 73
     0
 40
0.0
  0
LTYPE
  5
16
330
14
100
AcDbSymbolTableRecord
100
AcDbLinetypeTableRecord
  2
ByLayer
 70
     0
  3

 72
    65
 73
     0
 40
0.0
  0
LTYPE
  5
8
330
14
100
AcDbSymbolTableRecord
100
AcDbLinetypeTableRecord
  2
Continuous
 70
     0
  3
Solid line
 72
    65
 73
     0
 40
0.0
  0
LTYPE
  5
3F
330
14
100
AcDbSymbolTableRecord
100
AcDbLinetypeTableRecord
  2
DASH
 70
     0
  3
Dash
 72
    65
 73
     2
 40
1.9999960661
 49
0.9999980329999999
 74
     0
 49
-0.9999980329999999
 74
     0
  0
LTYPE
  5
2C
330
14
100
AcDbSymbolTableRecord
100
AcDbLinetypeTableRecord
  2
CENTER
 70
     0
  3
Center
 72
    65
 73
     4
 40
9.100006759199999
 49
6.5000119209
 74
     0
 49
-0.7999984026000001
 74
     0
 49
0.9999980329999999
 74
     0
 49
-0.7999984026000001
 74
     0
  0
ENDTAB
  0
TABLE
  2
LAYER
  5
10
330
0
100
AcDbSymbolTable
 70
     1
  0
LAYER
  5
4
330
10
100
AcDbSymbolTableRecord
100
AcDbLayerTableRecord
  2
0
 70
     0
 62
     7
  6
Continuous
370
    -3
390
5
  0
ENDTAB
  0
TABLE
  2
STYLE
  5
11
330
0
100
AcDbSymbolTable
 70
     1
  0
STYLE
  5
12
330
11
100
AcDbSymbolTableRecord
100
AcDbTextStyleTableRecord
  2
STANDARD
 70
     0
 40
0.0
 41
1.0
 50
0.0
 71
     0
 42
2.999994039499997
  3
romans.shx
  4
bigfont.shx
  0
ENDTAB
  0
TABLE
  2
VIEW
  5
17
330
0
100
AcDbSymbolTable
 70
     0
  0
ENDTAB
  0
TABLE
  2
UCS
  5
18
330
0
100
AcDbSymbolTable
 70
     0
  0
ENDTAB
  0
TABLE
  2
APPID
  5
1B
330
0
100
AcDbSymbolTable
 70
     1
  0
APPID
  5
1C
330
1B
100
AcDbSymbolTableRecord
100
AcDbRegAppTableRecord
  2
ACAD
 70
     0
  0
ENDTAB
  0
TABLE
  2
DIMSTYLE
  5
1D
330
0
100
AcDbSymbolTable
 70
     1
100
AcDbDimStyleTable
 71
     0
  0
DIMSTYLE
105
23
330
1D
100
AcDbSymbolTableRecord
100
AcDbDimStyleTableRecord
  2
Standard
 70
     0
340
12
  0
ENDTAB
  0
TABLE
  2
BLOCK_RECORD
  5
1
330
0
100
AcDbSymbolTable
 70
     1
  0
BLOCK_RECORD
  5
2
330
1
100
AcDbSymbolTableRecord
100
AcDbBlockTableRecord
  2
*Model_Space
340
A
  0
BLOCK_RECORD
  5
C
330
1
100
AcDbSymbolTableRecord
100
AcDbBlockTableRecord
  2
*Paper_Space
340
F
  0
ENDTAB
  0
ENDSEC
  0
SECTION
  2
BLOCKS
  0
BLOCK
  5
3
330
2
100
AcDbEntity
  8
0
100
AcDbBlockBegin
  2
*Model_Space
 70
     2
 10
0.0
 20
0.0
 30
0.0
  3
*Model_Space
  1

  0
ENDBLK
  5
9
330
2
100
AcDbEntity
  8
0
100
AcDbBlockEnd
  0
BLOCK
  5
D
330
C
100
AcDbEntity
 67
     1
  8
0
100
AcDbBlockBegin
  2
*Paper_Space
 70
     0
 10
0.0
 20
0.0
 30
0.0
  3
*Paper_Space
  1

  0
ENDBLK
  5
E
330
C
100
AcDbEntity
 67
     1
  8
0
100
AcDbBlockEnd
  0
ENDSEC
  0
SECTION
  2
ENTITIES
  0
LINE
  5
24
330
2
100
AcDbEntity
  8
0
100
AcDbLine
 10
210.0
 20
0.0
 30
0.0
 11
210.0
 21
297.0
 31
0.0
  0
LINE
  5
25
330
2
100
AcDbEntity
  8
0
100
AcDbLine
 10
0.0
 20
297.0
 30
0.0
 11
0.0
 21
0.0
 31
0.0
  0
LINE
  5
26
330
2
100
AcDbEntity
  8
0
 62
     3
100
AcDbLine
 10
140.1184469809999
 20
260.1443087858999
 30
0.0
 11
145.3184848843
 21
260.0497622983999
 31
0.0
  0
LINE
  5
27
330
2
100
AcDbEntity
  8
0
 62
     3
100
AcDbLine
 10
145.3128974569999
 20
236.4388110473
 30
0.0
 11
140.1184586038999
 21
236.3443663610997
 31
0.0
  0
LINE
  5
28
330
2
100
AcDbEntity
  8
0
 62
     3
100
AcDbLine
 10
140.1184676635999
 20
215.1444471368999
 30
0.0
 11
145.3185055669998
 21
215.0499006493999
 31
0.0
  0
LINE
  5
29
330
2
100
AcDbEntity
  8
0
 62
     3
100
AcDbLine
 10
145.3129047903999
 20
191.4390872594999
 30
0.0
 11
140.1184659372999
 21
191.3446425733
 31
0.0
  0
LINE
  5
2A
330
2
100
AcDbEntity
  8
0
100
AcDbLine
 10
0.0
 20
0.0
 30
0.0
 11
210.0
 21
0.0
 31
0.0
  0
LINE
  5
2B
330
2
100
AcDbEntity
  8
0
  6
CENTER
 62
     3
100
AcDbLine
 10
96.8272308284
 20
248.2445625631999
 30
0.0
 11
152.8443054133999
 21
248.2445625631999
 31
0.0
  0
LINE
  5
2D
330
2
100
AcDbEntity
  8
0
  6
CENTER
 62
     3
100
AcDbLine
 10
91.94554747879999
 20
203.2446541158999
 30
0.0
 11
152.5815643245
 21
203.2446541158999
 31
0.0
  0
LINE
  5
2E
330
2
100
AcDbEntity
  8
0
 62
     3
100
AcDbLine
 10
50.01846923169998
 20
195.3446602194
 30
0.0
 11
56.4184936458
 21
195.3446602194
 31
0.0
  0
LINE
  5
2F
330
2
100
AcDbEntity
  8
0
 62
     3
100
AcDbLine
 10
50.01846923169998
 20
209.1446632712
 30
0.0
 11
56.4184936458
 21
209.1446632712
 31
0.0
  0
ARC
  5
30
330
2
100
AcDbEntity
  8
0
 62
     3
100
AcDbCircle
 10
58.11858214679998
 20
203.2446541158999
 30
0.0
 40
11.89999961849999
100
AcDbArc
 50
68.3999732166
 51
221.5909529784997
  0
LINE
  5
31
330
2
100
AcDbEntity
  8
0
 62
     3
100
AcDbLine
 10
50.21848143879996
 20
210.1446632711999
 30
0.0
 11
66.03303949009998
 21
210.1446632711999
 31
0.0
  0
ARC
  5
32
330
2
100
AcDbEntity
  8
0
 62
     3
100
AcDbCircle
 10
58.11849059399998
 20
203.2446693747
 30
0.0
 40
10.5
100
AcDbArc
 50
237.9536446645999
 51
302.0463913076
  0
ARC
  5
33
330
2
100
AcDbEntity
  8
0
 62
     3
100
AcDbCircle
 10
58.11849059399998
 20
203.2446693747
 30
0.0
 40
10.5
100
AcDbArc
 50
41.0823276877
 51
138.9176329249999
  0
ARC
  5
34
330
2
100
AcDbEntity
  8
0
 62
     3
100
AcDbCircle
 10
58.11858214679998
 20
203.2446541158999
 30
0.0
 40
11.89999961849999
100
AcDbArc
 50
228.4085919033
 51
311.5914304084999
  0
LINE
  5
35
330
2
100
AcDbEntity
  8
0
  6
CENTER
 62
     3
100
AcDbLine
 10
44.23453368479999
 20
203.2446541158999
 30
0.0
 11
72.23633422199998
 21
203.2446541158999
 31
0.0
  0
LINE
  5
36
330
2
100
AcDbEntity
  8
0
 62
     3
100
AcDbLine
 10
50.21848143879996
 20
194.3446754781999
 30
0.0
 11
66.01848449049999
 21
194.3446754781999
 31
0.0
  0
ARC
  5
37
330
2
100
AcDbEntity
  8
0
 62
     3
100
AcDbCircle
 10
58.11849059399998
 20
203.2446693747
 30
0.0
 40
10.5
100
AcDbArc
 50
147.9536999894
 51
212.0462280663
  0
LINE
  5
38
330
2
100
AcDbEntity
  8
0
 62
     3
100
AcDbLine
 10
49.21848143879995
 20
195.3446754781999
 30
0.0
 11
49.21848143879995
 21
209.1446632712
 31
0.0
  0
LINE
  5
39
330
2
100
AcDbEntity
  8
0
 62
     3
100
AcDbLine
 10
49.21848143879995
 20
197.6946663229
 30
0.0
 11
49.21848143879995
 21
206.7946571677
 31
0.0
  0
LINE
  5
3A
330
2
100
AcDbEntity
  8
0
 62
     3
100
AcDbLine
 10
52.61849059399998
 20
209.1446632712
 30
0.0
 11
52.61849059399998
 21
195.3446602194
 31
0.0
  0
LINE
  5
3B
330
2
100
AcDbEntity
  8
0
 62
     3
100
AcDbLine
 10
50.01846923169998
 20
195.3446602194
 30
0.0
 11
50.01846923169998
 21
209.1446632712
 31
0.0
  0
LINE
  5
3C
330
2
100
AcDbEntity
  8
0
 62
     3
100
AcDbLine
 10
50.01846923169998
 20
197.6946663229
 30
0.0
 11
49.21848143879995
 21
197.6946663229
 31
0.0
  0
ARC
  5
3D
330
2
100
AcDbEntity
  8
0
 62
     3
100
AcDbCircle
 10
50.21848143879996
 20
195.3446754781999
 30
0.0
 40
1.0
100
AcDbArc
 50
180.0000359722
 51
270.0000179861
  0
LINE
  5
3E
330
2
100
AcDbEntity
  8
0
  6
DASH
 62
     3
100
AcDbLine
 10
54.61849059399998
 20
194.3446754781999
 30
0.0
 11
54.61849059399998
 21
195.3446754781999
 31
0.0
  0
ARC
  5
40
330
2
100
AcDbEntity
  8
0
 62
     3
100
AcDbCircle
 10
50.21848143879996
 20
209.1446632712
 30
0.0
 40
1.0
100
AcDbArc
 50
90.83867460250003
 51
179.9999640277999
  0
LINE
  5
41
330
2
100
AcDbEntity
  8
0
 62
     3
100
AcDbLine
 10
50.01846923169998
 20
206.7946724265
 30
0.0
 11
49.21848143879995
 21
206.7946724265
 31
0.0
  0
LINE
  5
42
330
2
100
AcDbEntity
  8
0
  6
DASH
 62
     3
100
AcDbLine
 10
54.61849059399998
 20
209.1446632712
 30
0.0
 11
54.61849059399998
 21
210.1446632711999
 31
0.0
  0
ARC
  5
43
330
2
100
AcDbEntity
  8
0
 62
     3
100
AcDbCircle
 10
66.12486876789998
 20
215.3602394431
 30
0.0
 40
0.9999999404
100
AcDbArc
 50
329.7001333699999
 51
59.70011538400002
  0
LINE
  5
44
330
2
100
AcDbEntity
  8
0
 62
     3
100
AcDbLine
 10
64.90149262039998
 20
215.8432787161999
 30
0.0
 11
65.76488819209998
 21
215.3387510878
 31
0.0
  0
LINE
  5
45
330
2
100
AcDbEntity
  8
0
 62
     3
100
AcDbLine
 10
64.90149262039998
 20
215.8432787161999
 30
0.0
 11
62.97836596109997
 21
212.5522418176999
 31
0.0
  0
LINE
  5
46
330
2
100
AcDbEntity
  8
0
  6
CENTER
 62
     3
100
AcDbLine
 10
58.11856688799998
 20
216.4113106099999
 30
0.0
 11
58.11856688799998
 21
189.8963112203999
 31
0.0
  0
LINE
  5
47
330
2
100
AcDbEntity
  8
0
 62
     3
100
AcDbLine
 10
63.87997972829999
 20
216.6718426524
 30
0.0
 11
61.78354439129996
 21
213.0842234925
 31
0.0
  0
LINE
  5
48
330
2
100
AcDbEntity
  8
0
  6
DASH
 62
     3
100
AcDbLine
 10
70.29210853779996
 20
210.7638681907
 30
0.0
 11
70.78756720029997
 21
209.8952367084999
 31
0.0
  0
LINE
  5
49
330
2
100
AcDbEntity
  8
0
  6
DASH
 62
     3
100
AcDbLine
 10
71.60538105899998
 20
208.8651166057
 30
0.0
 11
67.99599298859995
 21
206.8063579460999
 31
0.0
  0
ARC
  5
4A
330
2
100
AcDbEntity
  8
0
 62
     3
100
AcDbCircle
 10
58.11858214679998
 20
203.2446541158999
 30
0.0
 40
11.89999961849999
100
AcDbArc
 50
318.4084612191
 51
20.99996984849997
  0
LINE
  5
4B
330
2
100
AcDbEntity
  8
0
  6
DASH
 62
     3
100
AcDbLine
 10
70.78756720029997
 20
209.8952367084999
 30
0.0
 11
67.47657238789997
 21
208.0066785626999
 31
0.0
  0
LINE
  5
4C
330
2
100
AcDbEntity
  8
0
 62
     3
100
AcDbLine
 10
56.9184936458
 20
195.3446602194
 30
0.0
 11
63.2184966975
 21
195.3446602194
 31
0.0
  0
LINE
  5
4D
330
2
100
AcDbEntity
  8
0
 62
     3
100
AcDbLine
 10
56.9184936458
 20
209.1446632712
 30
0.0
 11
63.2184966975
 21
209.1446632712
 31
0.0
  0
LINE
  5
4E
330
2
100
AcDbEntity
  8
0
 62
     3
100
AcDbLine
 10
59.41847838699999
 20
195.3446602194
 30
0.0
 11
59.41847838699999
 21
209.1446632712
 31
0.0
  0
LINE
  5
4F
330
2
100
AcDbEntity
  8
0
 62
     3
100
AcDbLine
 10
57.81848754229997
 20
195.3446602194
 30
0.0
 11
57.81848754229997
 21
209.1446632712
 31
0.0
  0
LINE
  5
50
330
2
100
AcDbEntity
  8
0
  6
DASH
 62
     3
100
AcDbLine
 10
57.01848449049996
 20
194.3446754781999
 30
0.0
 11
57.01848449049996
 21
195.3446754781999
 31
0.0
  0
LINE
  5
51
330
2
100
AcDbEntity
  8
0
 62
     3
100
AcDbLine
 10
56.4184936458
 20
194.8446754781999
 30
0.0
 11
56.9184936458
 21
194.8446754781999
 31
0.0
  0
LINE
  5
52
330
2
100
AcDbEntity
  8
0
 62
     3
100
AcDbLine
 10
56.9184936458
 20
194.8446754781999
 30
0.0
 11
56.9184936458
 21
197.6446632711999
 31
0.0
  0
LINE
  5
53
330
2
100
AcDbEntity
  8
0
 62
     3
100
AcDbLine
 10
56.9184936458
 20
197.6446632711999
 30
0.0
 11
56.4184936458
 21
197.6446632711999
 31
0.0
  0
LINE
  5
54
330
2
100
AcDbEntity
  8
0
 62
     3
100
AcDbLine
 10
56.4184936458
 20
197.6446632711999
 30
0.0
 11
56.4184936458
 21
194.8446754781999
 31
0.0
  0
LINE
  5
55
330
2
100
AcDbEntity
  8
0
 62
     3
100
AcDbLine
 10
56.4184936458
 20
196.8446602193999
 30
0.0
 11
56.9184936458
 21
196.8446602193999
 31
0.0
  0
LINE
  5
56
330
2
100
AcDbEntity
  8
0
 62
     3
100
AcDbLine
 10
56.4184936458
 20
200.8446754782
 30
0.0
 11
56.9184936458
 21
200.8446754782
 31
0.0
  0
LINE
  5
57
330
2
100
AcDbEntity
  8
0
 62
     3
100
AcDbLine
 10
56.9184936458
 20
200.8446754782
 30
0.0
 11
56.9184936458
 21
203.6446632711999
 31
0.0
  0
LINE
  5
58
330
2
100
AcDbEntity
  8
0
 62
     3
100
AcDbLine
 10
56.9184936458
 20
203.6446632711999
 30
0.0
 11
56.4184936458
 21
203.6446632711999
 31
0.0
  0
LINE
  5
59
330
2
100
AcDbEntity
  8
0
 62
     3
100
AcDbLine
 10
56.4184936458
 20
203.6446632711999
 30
0.0
 11
56.4184936458
 21
200.8446754782
 31
0.0
  0
LINE
  5
5A
330
2
100
AcDbEntity
  8
0
 62
     3
100
AcDbLine
 10
56.4184936458
 20
201.8446602193999
 30
0.0
 11
56.9184936458
 21
201.8446602193999
 31
0.0
  0
LINE
  5
5B
330
2
100
AcDbEntity
  8
0
 62
     3
100
AcDbLine
 10
56.4184936458
 20
202.6446632712
 30
0.0
 11
56.9184936458
 21
202.6446632712
 31
0.0
  0
LINE
  5
5C
330
2
100
AcDbEntity
  8
0
  6
DASH
 62
     3
100
AcDbLine
 10
61.4184936458
 20
194.3446754781999
 30
0.0
 11
61.4184936458
 21
195.3446754781999
 31
0.0
  0
LINE
  5
5D
330
2
100
AcDbEntity
  8
0
  6
DASH
 62
     3
100
AcDbLine
 10
57.01848449049996
 20
209.1446632712
 30
0.0
 11
57.01848449049996
 21
210.1446632711999
 31
0.0
  0
LINE
  5
5E
330
2
100
AcDbEntity
  8
0
 62
     3
100
AcDbLine
 10
56.9184936458
 20
209.6446632711999
 30
0.0
 11
56.4184936458
 21
209.6446632711999
 31
0.0
  0
LINE
  5
5F
330
2
100
AcDbEntity
  8
0
 62
     3
100
AcDbLine
 10
56.4184936458
 20
206.8446754782
 30
0.0
 11
56.9184936458
 21
206.8446754782
 31
0.0
  0
LINE
  5
60
330
2
100
AcDbEntity
  8
0
 62
     3
100
AcDbLine
 10
56.4184936458
 20
207.6446632711999
 30
0.0
 11
56.9184936458
 21
207.6446632711999
 31
0.0
  0
LINE
  5
61
330
2
100
AcDbEntity
  8
0
 62
     3
100
AcDbLine
 10
56.9184936458
 20
206.8446754782
 30
0.0
 11
56.9184936458
 21
209.6446632711999
 31
0.0
  0
LINE
  5
62
330
2
100
AcDbEntity
  8
0
 62
     3
100
AcDbLine
 10
56.4184936458
 20
209.6446632711999
 30
0.0
 11
56.4184936458
 21
206.8446754782
 31
0.0
  0
LINE
  5
63
330
2
100
AcDbEntity
  8
0
  6
DASH
 62
     3
100
AcDbLine
 10
61.4184936458
 20
209.1446632712
 30
0.0
 11
61.4184936458
 21
210.1446632711999
 31
0.0
  0
LINE
  5
64
330
2
100
AcDbEntity
  8
0
 62
     3
100
AcDbLine
 10
67.01848449049996
 20
195.3446754781999
 30
0.0
 11
67.01848449049996
 21
209.1446632712
 31
0.0
  0
LINE
  5
65
330
2
100
AcDbEntity
  8
0
 62
     3
100
AcDbLine
 10
66.21848143879995
 20
195.6446632711999
 30
0.0
 11
66.21848143879995
 21
208.8446602193999
 31
0.0
  0
LINE
  5
66
330
2
100
AcDbEntity
  8
0
 62
     3
100
AcDbLine
 10
64.61849059399998
 20
195.3446602194
 30
0.0
 11
64.61849059399998
 21
209.1446632712
 31
0.0
  0
ARC
  5
67
330
2
100
AcDbEntity
  8
0
 62
     3
100
AcDbCircle
 10
58.11849059399998
 20
203.2446693747
 30
0.0
 40
10.5
100
AcDbArc
 50
327.9535788672
 51
32.04642113279993
  0
ARC
  5
68
330
2
100
AcDbEntity
  8
0
 62
     3
100
AcDbCircle
 10
66.01848449049999
 20
195.3446754781999
 30
0.0
 40
1.0
100
AcDbArc
 50
270.0000179861
 51
0.0
  0
LINE
  5
69
330
2
100
AcDbEntity
  8
0
 62
     3
100
AcDbLine
 10
63.7184966975
 20
195.3446602194
 30
0.0
 11
65.91847838699999
 21
195.3446602194
 31
0.0
  0
LINE
  5
6A
330
2
100
AcDbEntity
  8
0
  6
DASH
 62
     3
100
AcDbLine
 10
63.81848754229998
 20
194.3446754781999
 30
0.0
 11
63.81848754229998
 21
195.3446754781999
 31
0.0
  0
LINE
  5
6B
330
2
100
AcDbEntity
  8
0
 62
     3
100
AcDbLine
 10
63.2184966975
 20
194.8446754781999
 30
0.0
 11
63.7184966975
 21
194.8446754781999
 31
0.0
  0
LINE
  5
6C
330
2
100
AcDbEntity
  8
0
 62
     3
100
AcDbLine
 10
63.7184966975
 20
194.8446754781999
 30
0.0
 11
63.7184966975
 21
197.6446632711999
 31
0.0
  0
LINE
  5
6D
330
2
100
AcDbEntity
  8
0
 62
     3
100
AcDbLine
 10
63.7184966975
 20
197.6446632711999
 30
0.0
 11
63.2184966975
 21
197.6446632711999
 31
0.0
  0
LINE
  5
6E
330
2
100
AcDbEntity
  8
0
 62
     3
100
AcDbLine
 10
63.2184966975
 20
197.6446632711999
 30
0.0
 11
63.2184966975
 21
194.8446754781999
 31
0.0
  0
LINE
  5
6F
330
2
100
AcDbEntity
  8
0
 62
     3
100
AcDbLine
 10
63.2184966975
 20
196.8446602193999
 30
0.0
 11
63.7184966975
 21
196.8446602193999
 31
0.0
  0
LINE
  5
70
330
2
100
AcDbEntity
  8
0
 62
     3
100
AcDbLine
 10
66.21852790529999
 20
195.6445582439999
 30
0.0
 11
65.91853456629999
 21
195.3445638682
 31
0.0
  0
LINE
  5
71
330
2
100
AcDbEntity
  8
0
 62
     3
100
AcDbLine
 10
63.2184966975
 20
200.8446754782
 30
0.0
 11
63.7184966975
 21
200.8446754782
 31
0.0
  0
LINE
  5
72
330
2
100
AcDbEntity
  8
0
 62
     3
100
AcDbLine
 10
63.7184966975
 20
200.8446754782
 30
0.0
 11
63.7184966975
 21
203.6446632711999
 31
0.0
  0
LINE
  5
73
330
2
100
AcDbEntity
  8
0
 62
     3
100
AcDbLine
 10
63.7184966975
 20
203.6446632711999
 30
0.0
 11
63.2184966975
 21
203.6446632711999
 31
0.0
  0
LINE
  5
74
330
2
100
AcDbEntity
  8
0
 62
     3
100
AcDbLine
 10
63.2184966975
 20
203.6446632711999
 30
0.0
 11
63.2184966975
 21
200.8446754782
 31
0.0
  0
LINE
  5
75
330
2
100
AcDbEntity
  8
0
 62
     3
100
AcDbLine
 10
63.2184966975
 20
201.8446602193999
 30
0.0
 11
63.7184966975
 21
201.8446602193999
 31
0.0
  0
LINE
  5
76
330
2
100
AcDbEntity
  8
0
 62
     3
100
AcDbLine
 10
63.2184966975
 20
202.6446632712
 30
0.0
 11
63.7184966975
 21
202.6446632712
 31
0.0
  0
LINE
  5
77
330
2
100
AcDbEntity
  8
0
  6
DASH
 62
     3
100
AcDbLine
 10
69.82173441
 20
211.9921819886999
 30
0.0
 11
66.42852609759998
 21
210.0567300892
 31
0.0
  0
LINE
  5
78
330
2
100
AcDbEntity
  8
0
 62
     3
100
AcDbLine
 10
66.98816953309997
 20
214.8555632060999
 30
0.0
 11
64.89173419599999
 21
211.2679440462999
 31
0.0
  0
ARC
  5
79
330
2
100
AcDbEntity
  8
0
 62
     3
100
AcDbCircle
 10
58.11858214679998
 20
203.2446541158999
 30
0.0
 40
11.89999961849999
100
AcDbArc
 50
38.39990407989999
 51
51.00007996639999
  0
ARC
  5
7A
330
2
100
AcDbEntity
  8
0
 62
     3
100
AcDbCircle
 10
66.01848449049999
 20
209.1446632712
 30
0.0
 40
1.0
100
AcDbArc
 50
0.0
 51
89.16128942530001
  0
LINE
  5
7B
330
2
100
AcDbEntity
  8
0
  6
DASH
 62
     3
100
AcDbLine
 10
63.81848754229998
 20
209.1446632712
 30
0.0
 11
63.81848754229998
 21
210.1446632711999
 31
0.0
  0
LINE
  5
7C
330
2
100
AcDbEntity
  8
0
 62
     3
100
AcDbLine
 10
63.7184966975
 20
209.1446632712
 30
0.0
 11
65.91847838699999
 21
209.1446632712
 31
0.0
  0
LINE
  5
7D
330
2
100
AcDbEntity
  8
0
 62
     3
100
AcDbLine
 10
63.7184966975
 20
209.6446632711999
 30
0.0
 11
63.2184966975
 21
209.6446632711999
 31
0.0
  0
LINE
  5
7E
330
2
100
AcDbEntity
  8
0
 62
     3
100
AcDbLine
 10
63.2184966975
 20
206.8446754782
 30
0.0
 11
63.7184966975
 21
206.8446754782
 31
0.0
  0
LINE
  5
7F
330
2
100
AcDbEntity
  8
0
 62
     3
100
AcDbLine
 10
63.2184966975
 20
207.6446632711999
 30
0.0
 11
63.7184966975
 21
207.6446632711999
 31
0.0
  0
LINE
  5
80
330
2
100
AcDbEntity
  8
0
 62
     3
100
AcDbLine
 10
63.7184966975
 20
206.8446754782
 30
0.0
 11
63.7184966975
 21
209.6446632711999
 31
0.0
  0
LINE
  5
81
330
2
100
AcDbEntity
  8
0
 62
     3
100
AcDbLine
 10
63.2184966975
 20
209.6446632711999
 30
0.0
 11
63.2184966975
 21
206.8446754782
 31
0.0
  0
LINE
  5
82
330
2
100
AcDbEntity
  8
0
 62
     3
100
AcDbLine
 10
65.91852143629998
 20
209.1445695049999
 30
0.0
 11
66.2185155592
 21
208.8445759131
 31
0.0
  0
LINE
  5
83
330
2
100
AcDbEntity
  8
0
 62
     3
100
AcDbLine
 10
65.76488819209998
 20
215.3387510878
 30
0.0
 11
63.84177548629998
 21
212.0477380677999
 31
0.0
  0
ARC
  5
84
330
2
100
AcDbEntity
  8
0
 62
     3
100
AcDbCircle
 10
58.11858214679998
 20
203.2446541158999
 30
0.0
 40
11.89999961849999
100
AcDbArc
 50
57.29190679580001
 51
62.10805759470002
  0
LINE
  5
85
330
2
100
AcDbEntity
  8
0
  6
DASH
 62
     3
100
AcDbLine
 10
70.29210853779996
 20
210.7638681907
 30
0.0
 11
66.98111372539997
 21
208.8753100448
 31
0.0
  0
ARC
  5
86
330
2
100
AcDbEntity
  8
0
 62
     3
100
AcDbCircle
 10
58.11858214679998
 20
203.2446541158999
 30
0.0
 40
11.89999961849999
100
AcDbArc
 50
27.2918137534
 51
32.1080021184
  0
ARC
  5
87
330
2
100
AcDbEntity
  8
0
  6
DASH
 62
     3
100
AcDbCircle
 10
71.1100372249
 20
209.7338814107999
 30
0.0
 40
0.9999999404
100
AcDbArc
 50
299.7001940068999
 51
29.70015894540005
  0
ARC
  5
88
330
2
100
AcDbEntity
  8
0
 62
     3
100
AcDbCircle
 10
64.74344481769998
 20
216.1675056783999
 30
0.0
 40
0.9999999404
100
AcDbArc
 50
59.70022466699998
 51
149.6999881147999
  0
LINE
  5
89
330
2
100
AcDbEntity
  8
0
 62
     3
100
AcDbLine
 10
65.23202733029998
 20
217.0399864414
 30
0.0
 11
66.64471512259996
 21
216.2144783605
 31
0.0
  0
LINE
  5
8A
330
2
100
AcDbEntity
  8
0
 62
     3
100
AcDbLine
 10
104.1185363703999
 20
257.1446937888
 30
0.0
 11
116.1185058527999
 21
257.1446937888
 31
0.0
  0
LINE
  5
8B
330
2
100
AcDbEntity
  8
0
 62
     3
100
AcDbLine
 10
115.1185058527999
 20
244.7446846334999
 30
0.0
 11
112.1185058527999
 21
244.7446846334999
 31
0.0
  0
LINE
  5
8C
330
2
100
AcDbEntity
  8
0
 62
     3
100
AcDbLine
 10
112.1185058527999
 20
251.7446693746999
 30
0.0
 11
115.1185058527999
 21
251.7446693746999
 31
0.0
  0
LINE
  5
8D
330
2
100
AcDbEntity
  8
0
 62
     3
100
AcDbLine
 10
116.1185516291999
 20
210.1446632711999
 30
0.0
 11
104.1185516292
 21
210.1446632711999
 31
0.0
  0
LINE
  5
8E
330
2
100
AcDbEntity
  8
0
 62
     3
100
AcDbLine
 10
104.1185363703999
 20
239.3447822896999
 30
0.0
 11
116.1185058527999
 21
239.3447822896999
 31
0.0
  0
LINE
  5
8F
330
2
100
AcDbEntity
  8
0
 62
     3
100
AcDbLine
 10
116.1185363703999
 20
194.3446754781999
 30
0.0
 11
104.1185363703999
 21
194.3446754781999
 31
0.0
  0
LINE
  5
90
330
2
100
AcDbEntity
  8
0
  6
CENTER
 62
     3
100
AcDbLine
 10
97.61849059399999
 20
207.2446541158999
 30
0.0
 11
105.118490594
 21
207.2446541158999
 31
0.0
  0
LINE
  5
91
330
2
100
AcDbEntity
  8
0
  6
CENTER
 62
     3
100
AcDbLine
 10
97.61849059399999
 20
197.2446693746999
 30
0.0
 11
105.118490594
 21
197.2446693746999
 31
0.0
  0
LINE
  5
92
330
2
100
AcDbEntity
  8
0
 62
     3
100
AcDbLine
 10
98.618490594
 20
201.8446602193999
 30
0.0
 11
102.1184905939997
 21
201.8446602193999
 31
0.0
  0
LINE
  5
93
330
2
100
AcDbEntity
  8
0
 62
     3
100
AcDbLine
 10
98.618490594
 20
202.6446632712
 30
0.0
 11
102.1184905939997
 21
202.6446632712
 31
0.0
  0
LINE
  5
94
330
2
100
AcDbEntity
  8
0
 62
     3
100
AcDbLine
 10
98.618490594
 20
196.8446602193999
 30
0.0
 11
102.1184905939997
 21
196.8446602193999
 31
0.0
  0
LINE
  5
95
330
2
100
AcDbEntity
  8
0
 62
     3
100
AcDbLine
 10
98.618490594
 20
207.6446632711999
 30
0.0
 11
102.1184905939997
 21
207.6446632711999
 31
0.0
  0
LINE
  5
96
330
2
100
AcDbEntity
  8
0
  6
CENTER
 62
     3
100
AcDbLine
 10
97.61849059399999
 20
202.2446693746999
 30
0.0
 11
105.118490594
 21
202.2446693746999
 31
0.0
  0
LINE
  5
97
330
2
100
AcDbEntity
  8
0
 62
     3
100
AcDbLine
 10
98.618490594
 20
206.8446754782
 30
0.0
 11
104.1185058527999
 21
206.8446754782
 31
0.0
  0
LINE
  5
98
330
2
100
AcDbEntity
  8
0
 62
     3
100
AcDbLine
 10
98.618490594
 20
197.6446632711999
 30
0.0
 11
104.1185058527999
 21
197.6446632711999
 31
0.0
  0
LINE
  5
99
330
2
100
AcDbEntity
  8
0
 62
     3
100
AcDbLine
 10
98.618490594
 20
197.6446480123999
 30
0.0
 11
98.618490594
 21
196.8446449605999
 31
0.0
  0
LINE
  5
9A
330
2
100
AcDbEntity
  8
0
 62
     3
100
AcDbLine
 10
98.618490594
 20
202.6446480124
 30
0.0
 11
98.618490594
 21
201.8446449605999
 31
0.0
  0
LINE
  5
9B
330
2
100
AcDbEntity
  8
0
 62
     3
100
AcDbLine
 10
98.618490594
 20
207.6446480124
 30
0.0
 11
98.618490594
 21
206.8446602193999
 31
0.0
  0
LINE
  5
9C
330
2
100
AcDbEntity
  8
0
 62
     3
100
AcDbLine
 10
104.118490594
 20
210.1446632711999
 30
0.0
 11
104.118490594
 21
194.3446754781999
 31
0.0
  0
LINE
  5
9D
330
2
100
AcDbEntity
  8
0
 62
     3
100
AcDbLine
 10
102.1184905939997
 20
203.6446632711999
 30
0.0
 11
104.1185058527999
 21
203.6446632711999
 31
0.0
  0
LINE
  5
9E
330
2
100
AcDbEntity
  8
0
 62
     3
100
AcDbLine
 10
102.1184905939997
 20
200.8446754782
 30
0.0
 11
104.1185058527999
 21
200.8446754782
 31
0.0
  0
LINE
  5
9F
330
2
100
AcDbEntity
  8
0
 62
     3
100
AcDbLine
 10
102.1184905939997
 20
194.8446754781999
 30
0.0
 11
104.1185058527999
 21
194.8446754781999
 31
0.0
  0
LINE
  5
A0
330
2
100
AcDbEntity
  8
0
 62
     3
100
AcDbLine
 10
102.1184905939997
 20
196.8446449605999
 30
0.0
 11
102.1184905939997
 21
194.8446602194
 31
0.0
  0
LINE
  5
A1
330
2
100
AcDbEntity
  8
0
 62
     3
100
AcDbLine
 10
102.1184905939997
 20
201.8446449605999
 30
0.0
 11
102.1184905939997
 21
200.8446602194
 31
0.0
  0
LINE
  5
A2
330
2
100
AcDbEntity
  8
0
 62
     3
100
AcDbLine
 10
102.1184905939997
 20
203.6446480124
 30
0.0
 11
102.1184905939997
 21
202.6446480124
 31
0.0
  0
LINE
  5
A3
330
2
100
AcDbEntity
  8
0
 62
     3
100
AcDbLine
 10
102.1184905939997
 20
209.6446632711999
 30
0.0
 11
104.1185058527999
 21
209.6446632711999
 31
0.0
  0
LINE
  5
A4
330
2
100
AcDbEntity
  8
0
 62
     3
100
AcDbLine
 10
102.1184905939997
 20
209.6446480124
 30
0.0
 11
102.1184905939997
 21
207.6446480124
 31
0.0
  0
LINE
  5
A5
330
2
100
AcDbEntity
  8
0
 62
     3
100
AcDbLine
 10
98.618490594
 20
249.4445747701998
 30
0.0
 11
104.1185516292
 21
249.4445747701998
 31
0.0
  0
LINE
  5
A6
330
2
100
AcDbEntity
  8
0
 62
     3
100
AcDbLine
 10
98.618490594
 20
249.9445747701998
 30
0.0
 11
104.1185516292
 21
249.9445747701998
 31
0.0
  0
LINE
  5
A7
330
2
100
AcDbEntity
  8
0
 62
     3
100
AcDbLine
 10
98.618490594
 20
242.6445717183999
 30
0.0
 11
104.1185668879998
 21
242.6445717183999
 31
0.0
  0
LINE
  5
A8
330
2
100
AcDbEntity
  8
0
 62
     3
100
AcDbLine
 10
98.618490594
 20
243.1445717183998
 30
0.0
 11
104.1185668879998
 21
243.1445717183998
 31
0.0
  0
LINE
  5
A9
330
2
100
AcDbEntity
  8
0
 62
     3
100
AcDbLine
 10
98.61853637040001
 20
243.1445717183998
 30
0.0
 11
98.61853637040001
 21
242.6445717183999
 31
0.0
  0
LINE
  5
AA
330
2
100
AcDbEntity
  8
0
 62
     3
100
AcDbLine
 10
98.61853637040001
 20
249.9445747701998
 30
0.0
 11
98.61853637040001
 21
249.4445747701998
 31
0.0
  0
LINE
  5
AB
330
2
100
AcDbEntity
  8
0
 62
     3
100
AcDbLine
 10
107.3185180597999
 20
249.3447517722
 30
0.0
 11
105.8185180597998
 21
249.3447517722
 31
0.0
  0
LINE
  5
AC
330
2
100
AcDbEntity
  8
0
 62
     3
100
AcDbLine
 10
107.3185180597999
 20
251.7446998922999
 30
0.0
 11
105.8185180597998
 21
251.7446998922999
 31
0.0
  0
LINE
  5
AD
330
2
100
AcDbEntity
  8
0
 62
     3
100
AcDbLine
 10
107.3185180597999
 20
242.5449776021999
 30
0.0
 11
105.8185180597998
 21
242.5449776021999
 31
0.0
  0
LINE
  5
AE
330
2
100
AcDbEntity
  8
0
 62
     3
100
AcDbLine
 10
107.3185180597999
 20
244.9448799459998
 30
0.0
 11
105.8185180597998
 21
244.9448799459998
 31
0.0
  0
LINE
  5
AF
330
2
100
AcDbEntity
  8
0
 62
     3
100
AcDbLine
 10
105.8185180597998
 20
251.7446998922999
 30
0.0
 11
105.8185180597998
 21
249.3447517722
 31
0.0
  0
LINE
  5
B0
330
2
100
AcDbEntity
  8
0
 62
     3
100
AcDbLine
 10
104.1185363703999
 20
257.1446937888
 30
0.0
 11
104.1185363703999
 21
239.3447822896999
 31
0.0
  0
LINE
  5
B1
330
2
100
AcDbEntity
  8
0
 62
     3
100
AcDbLine
 10
102.1184905939997
 20
243.1445717183998
 30
0.0
 11
102.1184905939997
 21
242.6445717183999
 31
0.0
  0
LINE
  5
B2
330
2
100
AcDbEntity
  8
0
 62
     3
100
AcDbLine
 10
102.1184905939997
 20
249.9445747701998
 30
0.0
 11
102.1184905939997
 21
249.4445747701998
 31
0.0
  0
LINE
  5
B3
330
2
100
AcDbEntity
  8
0
 62
     3
100
AcDbLine
 10
105.8185180597998
 20
242.5449776021999
 30
0.0
 11
105.8185180597998
 21
244.9448799459998
 31
0.0
  0
LINE
  5
B4
330
2
100
AcDbEntity
  8
0
 62
     3
100
AcDbLine
 10
112.1185058527999
 20
244.7446846334999
 30
0.0
 11
112.1185058527999
 21
251.7446693746999
 31
0.0
  0
LINE
  5
B5
330
2
100
AcDbEntity
  8
0
 62
     3
100
AcDbLine
 10
107.3185180597999
 20
251.7446998922999
 30
0.0
 11
107.3185180597999
 21
249.3447517722
 31
0.0
  0
LINE
  5
B6
330
2
100
AcDbEntity
  8
0
 62
     3
100
AcDbLine
 10
107.3185180597999
 20
242.5449776021999
 30
0.0
 11
107.3185180597999
 21
244.9448799459998
 31
0.0
  0
LINE
  5
B7
330
2
100
AcDbEntity
  8
0
 62
     3
100
AcDbLine
 10
122.8185028010999
 20
217.1674751608
 30
0.0
 11
122.8185028010999
 21
206.4728950826999
 31
0.0
  0
LINE
  5
B8
330
2
100
AcDbEntity
  8
0
 62
     3
100
AcDbLine
 10
123.8185028010999
 20
217.1674751608
 30
0.0
 11
123.8185028010999
 21
206.4728950826999
 31
0.0
  0
LINE
  5
B9
330
2
100
AcDbEntity
  8
0
 62
     3
100
AcDbLine
 10
131.3184722834999
 20
210.6446022359999
 30
0.0
 11
127.1184905939998
 21
210.6446022359999
 31
0.0
  0
LINE
  5
BA
330
2
100
AcDbEntity
  8
0
 62
     3
100
AcDbLine
 10
131.3184722834999
 20
211.2445778219999
 30
0.0
 11
127.4184783869999
 21
211.2445778219999
 31
0.0
  0
LINE
  5
BB
330
2
100
AcDbEntity
  8
0
 62
     3
100
AcDbLine
 10
127.4184783869999
 20
195.2446693746999
 30
0.0
 11
131.3184875422997
 21
195.2446693746999
 31
0.0
  0
LINE
  5
BC
330
2
100
AcDbEntity
  8
0
 62
     3
100
AcDbLine
 10
127.1184905939998
 20
195.8446602194
 30
0.0
 11
131.3184875422997
 21
195.8446602194
 31
0.0
  0
ARC
  5
BD
330
2
100
AcDbEntity
  8
0
 62
     3
100
AcDbCircle
 10
117.1185211115999
 20
193.7447151510999
 30
0.0
 40
1.0
100
AcDbArc
 50
180.0000359722
 51
270.0000179861
  0
LINE
  5
BE
330
2
100
AcDbEntity
  8
0
 62
     3
100
AcDbLine
 10
126.6185211115999
 20
192.7446693746999
 30
0.0
 11
117.1185363703999
 21
192.7446693746999
 31
0.0
  0
LINE
  5
BF
330
2
100
AcDbEntity
  8
0
 62
     3
100
AcDbLine
 10
122.8185028010999
 20
213.7446541159
 30
0.0
 11
117.1185363703999
 21
213.7446541159
 31
0.0
  0
LINE
  5
C0
330
2
100
AcDbEntity
  8
0
 62
     3
100
AcDbLine
 10
121.618490594
 20
213.7446541159
 30
0.0
 11
121.618490594
 21
203.8446602193999
 31
0.0
  0
LINE
  5
C1
330
2
100
AcDbEntity
  8
0
 62
     3
100
AcDbLine
 10
116.1184905939999
 20
212.7446541158999
 30
0.0
 11
116.1184905939999
 21
193.7447151510999
 31
0.0
  0
LINE
  5
C2
330
2
100
AcDbEntity
  8
0
 62
     3
100
AcDbLine
 10
117.3185028010999
 20
213.7446541159
 30
0.0
 11
117.3185028010999
 21
203.8446602193999
 31
0.0
  0
LINE
  5
C3
330
2
100
AcDbEntity
  8
0
 62
     3
100
AcDbLine
 10
121.6185058527999
 20
203.8446602193999
 30
0.0
 11
117.3185180597998
 21
203.8446602193999
 31
0.0
  0
LINE
  5
C4
330
2
100
AcDbEntity
  8
0
 62
     3
100
AcDbLine
 10
121.6185058527999
 20
202.6446632712
 30
0.0
 11
117.3185180597998
 21
202.6446632712
 31
0.0
  0
LINE
  5
C5
330
2
100
AcDbEntity
  8
0
 62
     3
100
AcDbLine
 10
121.6185363703999
 20
194.6446632712
 30
0.0
 11
117.3185485774
 21
194.6446632712
 31
0.0
  0
LINE
  5
C6
330
2
100
AcDbEntity
  8
0
 62
     3
100
AcDbLine
 10
117.3185028010999
 20
202.6446632712
 30
0.0
 11
117.3185028010999
 21
192.7446693746999
 31
0.0
  0
LINE
  5
C7
330
2
100
AcDbEntity
  8
0
 62
     3
100
AcDbLine
 10
121.618490594
 20
202.6446632712
 30
0.0
 11
121.618490594
 21
192.7446693746999
 31
0.0
  0
LINE
  5
C8
330
2
100
AcDbEntity
  8
0
 62
     3
100
AcDbLine
 10
121.6185363703999
 20
211.8446602193999
 30
0.0
 11
117.3185485774
 21
211.8446602193999
 31
0.0
  0
ARC
  5
C9
330
2
100
AcDbEntity
  8
0
 62
     3
100
AcDbCircle
 10
117.1185211115999
 20
212.7446998922999
 30
0.0
 40
1.0
100
AcDbArc
 50
89.99998201389999
 51
179.9999640277999
  0
LINE
  5
CA
330
2
100
AcDbEntity
  8
0
 62
     3
100
AcDbLine
 10
127.1184905939998
 20
210.6446022359999
 30
0.0
 11
127.1184905939998
 21
195.8446602194
 31
0.0
  0
LINE
  5
CB
330
2
100
AcDbEntity
  8
0
 62
     3
100
AcDbLine
 10
127.4184783869999
 20
211.2445778219999
 30
0.0
 11
127.4184783869999
 21
195.2446693746999
 31
0.0
  0
LINE
  5
CC
330
2
100
AcDbEntity
  8
0
 62
     3
100
AcDbLine
 10
126.6184905939998
 20
213.7446541159
 30
0.0
 11
126.6184905939998
 21
192.7446693746999
 31
0.0
  0
LINE
  5
CD
330
2
100
AcDbEntity
  8
0
 62
     3
100
AcDbLine
 10
127.4184879434999
 20
195.2445392483999
 30
0.0
 11
127.1184873642999
 21
195.8445409265999
 31
0.0
  0
LINE
  5
CE
330
2
100
AcDbEntity
  8
0
 62
     3
100
AcDbLine
 10
127.1184905939998
 20
195.8946632712
 30
0.0
 11
126.6185058527999
 21
195.8946632712
 31
0.0
  0
LINE
  5
CF
330
2
100
AcDbEntity
  8
0
 62
     3
100
AcDbLine
 10
126.6185211115999
 20
213.7446541159
 30
0.0
 11
123.8185028010999
 21
213.7446541159
 31
0.0
  0
LINE
  5
D0
330
2
100
AcDbEntity
  8
0
 62
     3
100
AcDbLine
 10
122.8185028010999
 20
206.4729256002999
 30
0.0
 11
126.6184905939998
 21
206.4729256002999
 31
0.0
  0
LINE
  5
D1
330
2
100
AcDbEntity
  8
0
 62
     3
100
AcDbLine
 10
124.8685058527999
 20
213.7446541159
 30
0.0
 11
124.8685058527999
 21
206.4729256002999
 31
0.0
  0
LINE
  5
D2
330
2
100
AcDbEntity
  8
0
 62
     3
100
AcDbLine
 10
122.8185028010999
 20
207.2463478415
 30
0.0
 11
123.8185028010999
 21
207.2463478415
 31
0.0
  0
LINE
  5
D3
330
2
100
AcDbEntity
  8
0
 62
     3
100
AcDbLine
 10
123.6185058527999
 20
208.2414802878
 30
0.0
 11
123.8185028010999
 21
208.2414802878
 31
0.0
  0
LINE
  5
D4
330
2
100
AcDbEntity
  8
0
 62
     3
100
AcDbLine
 10
123.6185058527999
 20
208.2414497702
 30
0.0
 11
123.6185058527999
 21
207.2463173239
 31
0.0
  0
LINE
  5
D5
330
2
100
AcDbEntity
  8
0
 62
     3
100
AcDbLine
 10
125.8685058527999
 20
213.7446541159
 30
0.0
 11
125.8685058527999
 21
206.4729256002999
 31
0.0
  0
LINE
  5
D6
330
2
100
AcDbEntity
  8
0
 62
     3
100
AcDbLine
 10
127.1183905193
 20
210.644328408
 30
0.0
 11
127.4184252181999
 21
211.2443983257
 31
0.0
  0
LINE
  5
D7
330
2
100
AcDbEntity
  8
0
 62
     3
100
AcDbLine
 10
127.1184905939998
 20
210.5945534078999
 30
0.0
 11
126.6185058527999
 21
210.5945534078999
 31
0.0
  0
LINE
  5
D8
330
2
100
AcDbEntity
  8
0
 62
     3
100
AcDbLine
 10
140.1184753352
 20
215.1446022359999
 30
0.0
 11
140.1184753352
 21
191.3446602193999
 31
0.0
  0
LINE
  5
D9
330
2
100
AcDbEntity
  8
0
 62
     3
100
AcDbLine
 10
132.5184234553999
 20
212.1446022359999
 30
0.0
 11
136.3184112482999
 21
212.1446022359999
 31
0.0
  0
LINE
  5
DA
330
2
100
AcDbEntity
  8
0
 62
     3
100
AcDbLine
 10
133.3184112482999
 20
211.6578163474
 30
0.0
 11
136.3184112482999
 21
211.6578163474
 31
0.0
  0
LINE
  5
DB
330
2
100
AcDbEntity
  8
0
 62
     3
100
AcDbLine
 10
133.3184112482999
 20
211.2346901266
 30
0.0
 11
136.3184112482999
 21
211.2346901266
 31
0.0
  0
LINE
  5
DC
330
2
100
AcDbEntity
  8
0
 62
     3
100
AcDbLine
 10
133.3184112482999
 20
210.6346992819
 30
0.0
 11
136.3184112482999
 21
210.6346992819
 31
0.0
  0
LINE
  5
DD
330
2
100
AcDbEntity
  8
0
 62
     3
100
AcDbLine
 10
133.3184112482999
 20
209.9478096334999
 30
0.0
 11
136.3184112482999
 21
209.9478096334999
 31
0.0
  0
LINE
  5
DE
330
2
100
AcDbEntity
  8
0
 62
     3
100
AcDbLine
 10
136.3183959894999
 20
194.3445991843
 30
0.0
 11
132.5184081965999
 21
194.3445991843
 31
0.0
  0
LINE
  5
DF
330
2
100
AcDbEntity
  8
0
 62
     3
100
AcDbLine
 10
136.3184112482999
 20
194.8313850728999
 30
0.0
 11
133.3184112482999
 21
194.8313850728999
 31
0.0
  0
LINE
  5
E0
330
2
100
AcDbEntity
  8
0
 62
     3
100
AcDbLine
 10
136.3184112482999
 20
195.2545112935999
 30
0.0
 11
133.3184112482999
 21
195.2545112935999
 31
0.0
  0
LINE
  5
E1
330
2
100
AcDbEntity
  8
0
 62
     3
100
AcDbLine
 10
136.3184112482999
 20
195.8545021383999
 30
0.0
 11
133.3184112482999
 21
195.8545021383999
 31
0.0
  0
LINE
  5
E2
330
2
100
AcDbEntity
  8
0
 62
     3
100
AcDbLine
 10
136.3184112482999
 20
196.5413917867999
 30
0.0
 11
133.3184112482999
 21
196.5413917867999
 31
0.0
  0
LINE
  5
E3
330
2
100
AcDbEntity
  8
0
 62
     3
100
AcDbLine
 10
136.3184112482999
 20
197.4100899069
 30
0.0
 11
133.3184112482999
 21
197.4100899069
 31
0.0
  0
LINE
  5
E4
330
2
100
AcDbEntity
  8
0
 62
     3
100
AcDbLine
 10
136.3184112482999
 20
198.2851051656999
 30
0.0
 11
133.3184112482999
 21
198.2851051656999
 31
0.0
  0
LINE
  5
E5
330
2
100
AcDbEntity
  8
0
 62
     3
100
AcDbLine
 10
136.3184112482999
 20
199.3243202535999
 30
0.0
 11
133.3184112482999
 21
199.3243202535999
 31
0.0
  0
LINE
  5
E6
330
2
100
AcDbEntity
  8
0
 62
     3
100
AcDbLine
 10
136.3184112482999
 20
200.3667702047999
 30
0.0
 11
133.3184112482999
 21
200.3667702047999
 31
0.0
  0
LINE
  5
E7
330
2
100
AcDbEntity
  8
0
 62
     3
100
AcDbLine
 10
136.3184112482999
 20
202.6445869772
 30
0.0
 11
133.3184112482999
 21
202.6445869772
 31
0.0
  0
LINE
  5
E8
330
2
100
AcDbEntity
  8
0
 62
     3
100
AcDbLine
 10
136.3184112482999
 20
201.5521339742999
 30
0.0
 11
133.3184112482999
 21
201.5521339742999
 31
0.0
  0
LINE
  5
E9
330
2
100
AcDbEntity
  8
0
 62
     3
100
AcDbLine
 10
133.3184112482999
 20
209.0791115133999
 30
0.0
 11
136.3184112482999
 21
209.0791115133999
 31
0.0
  0
LINE
  5
EA
330
2
100
AcDbEntity
  8
0
 62
     3
100
AcDbLine
 10
133.3184112482999
 20
208.2040962545999
 30
0.0
 11
136.3184112482999
 21
208.2040962545999
 31
0.0
  0
LINE
  5
EB
330
2
100
AcDbEntity
  8
0
 62
     3
100
AcDbLine
 10
133.3184112482999
 20
207.1648811666999
 30
0.0
 11
136.3184112482999
 21
207.1648811666999
 31
0.0
  0
LINE
  5
EC
330
2
100
AcDbEntity
  8
0
 62
     3
100
AcDbLine
 10
133.3184112482999
 20
206.1224312154999
 30
0.0
 11
136.3184112482999
 21
206.1224312154999
 31
0.0
  0
LINE
  5
ED
330
2
100
AcDbEntity
  8
0
 62
     3
100
AcDbLine
 10
133.3184112482999
 20
203.8446144431
 30
0.0
 11
136.3184112482999
 21
203.8446144431
 31
0.0
  0
LINE
  5
EE
330
2
100
AcDbEntity
  8
0
 62
     3
100
AcDbLine
 10
133.3184112482999
 20
204.9370674459999
 30
0.0
 11
136.3184112482999
 21
204.9370674459999
 31
0.0
  0
LINE
  5
EF
330
2
100
AcDbEntity
  8
0
 62
     3
100
AcDbLine
 10
132.5184234553999
 20
206.2446083394999
 30
0.0
 11
132.5184234553999
 21
200.2446083394999
 31
0.0
  0
LINE
  5
F0
330
2
100
AcDbEntity
  8
0
 62
     3
100
AcDbLine
 10
133.3184112482999
 20
204.9370674459999
 30
0.0
 11
133.3184112482999
 21
203.8446144431
 31
0.0
  0
LINE
  5
F1
330
2
100
AcDbEntity
  8
0
 62
     3
100
AcDbLine
 10
131.3184265070999
 20
200.2446083394999
 30
0.0
 11
131.3184265070999
 21
194.8654884664999
 31
0.0
  0
LINE
  5
F2
330
2
100
AcDbEntity
  8
0
 62
     3
100
AcDbLine
 10
132.5184060034999
 20
194.3445887952
 30
0.0
 11
132.5184212623
 21
194.8654780773999
 31
0.0
  0
LINE
  5
F3
330
2
100
AcDbEntity
  8
0
 62
     3
100
AcDbLine
 10
131.3184265070999
 20
194.8654884664999
 30
0.0
 11
132.5184234553999
 21
194.8654884664999
 31
0.0
  0
LINE
  5
F4
330
2
100
AcDbEntity
  8
0
 62
     3
100
AcDbLine
 10
132.5184234553999
 20
200.2446083394999
 30
0.0
 11
131.3184265070999
 21
200.2446083394999
 31
0.0
  0
LINE
  5
F5
330
2
100
AcDbEntity
  8
0
 62
     3
100
AcDbLine
 10
133.3183807306999
 20
195.2544655172999
 30
0.0
 11
133.3183807306999
 21
194.8313545554
 31
0.0
  0
LINE
  5
F6
330
2
100
AcDbEntity
  8
0
 62
     3
100
AcDbLine
 10
133.3184112482999
 20
195.8545021383999
 30
0.0
 11
133.3184112482999
 21
196.5413917867999
 31
0.0
  0
LINE
  5
F7
330
2
100
AcDbEntity
  8
0
 62
     3
100
AcDbLine
 10
133.3184112482999
 20
197.4100899069
 30
0.0
 11
133.3184112482999
 21
198.2851051656999
 31
0.0
  0
LINE
  5
F8
330
2
100
AcDbEntity
  8
0
 62
     3
100
AcDbLine
 10
133.3184112482999
 20
200.3667702047999
 30
0.0
 11
133.3184112482999
 21
199.3243202535999
 31
0.0
  0
LINE
  5
F9
330
2
100
AcDbEntity
  8
0
 62
     3
100
AcDbLine
 10
133.3184112482999
 20
202.6445869772
 30
0.0
 11
133.3184112482999
 21
201.5521339742999
 31
0.0
  0
LINE
  5
FA
330
2
100
AcDbEntity
  8
0
 62
     3
100
AcDbLine
 10
131.3184265070999
 20
211.6237739889999
 30
0.0
 11
131.3184265070999
 21
206.2446083394999
 31
0.0
  0
LINE
  5
FB
330
2
100
AcDbEntity
  8
0
 62
     3
100
AcDbLine
 10
131.3184265070999
 20
206.2446083394999
 30
0.0
 11
132.5184234553999
 21
206.2446083394999
 31
0.0
  0
LINE
  5
FC
330
2
100
AcDbEntity
  8
0
 62
     3
100
AcDbLine
 10
132.5184234553999
 20
212.1446022359999
 30
0.0
 11
132.5184234553999
 21
211.6237739889999
 31
0.0
  0
LINE
  5
FD
330
2
100
AcDbEntity
  8
0
 62
     3
100
AcDbLine
 10
132.5184234553999
 20
211.6237739889999
 30
0.0
 11
131.3184265070999
 21
211.6237739889999
 31
0.0
  0
LINE
  5
FE
330
2
100
AcDbEntity
  8
0
 62
     3
100
AcDbLine
 10
133.3184112482999
 20
208.2040962545999
 30
0.0
 11
133.3184112482999
 21
209.0791115133999
 31
0.0
  0
LINE
  5
FF
330
2
100
AcDbEntity
  8
0
 62
     3
100
AcDbLine
 10
133.3184112482999
 20
207.1648811666999
 30
0.0
 11
133.3184112482999
 21
206.1224312154999
 31
0.0
  0
LINE
  5
100
330
2
100
AcDbEntity
  8
0
 62
     3
100
AcDbLine
 10
133.3184570246999
 20
211.6577858298
 30
0.0
 11
133.3184570246999
 21
211.2346748679
 31
0.0
  0
LINE
  5
101
330
2
100
AcDbEntity
  8
0
 62
     3
100
AcDbLine
 10
133.3184112482999
 20
209.9478096334999
 30
0.0
 11
133.3184112482999
 21
210.6346992819
 31
0.0
  0
LINE
  5
102
330
2
100
AcDbEntity
  8
0
 62
     3
100
AcDbLine
 10
137.3178619318997
 20
197.2446083394999
 30
0.0
 11
137.3178619318997
 21
209.244577822
 31
0.0
  0
LINE
  5
103
330
2
100
AcDbEntity
  8
0
 62
     3
100
AcDbLine
 10
136.3178619318997
 20
194.3445991843
 30
0.0
 11
136.3178619318997
 21
212.1441292135999
 31
0.0
  0
LINE
  5
104
330
2
100
AcDbEntity
  8
0
 62
     3
100
AcDbLine
 10
139.5184844904999
 20
193.2446541159
 30
0.0
 11
139.5184844904999
 21
213.2446541158999
 31
0.0
  0
LINE
  5
105
330
2
100
AcDbEntity
  8
0
 62
     3
100
AcDbLine
 10
139.1184753352
 20
210.6446022359999
 30
0.0
 11
139.1184753352
 21
195.8446602194
 31
0.0
  0
LINE
  5
106
330
2
100
AcDbEntity
  8
0
 62
     3
100
AcDbLine
 10
136.3183807306999
 20
212.1445564596999
 30
0.0
 11
136.3183807306999
 21
194.3445686666999
 31
0.0
  0
LINE
  5
107
330
2
100
AcDbEntity
  8
0
 62
     3
100
AcDbLine
 10
139.5184844904999
 20
193.2446541159
 30
0.0
 11
140.1184753352
 21
193.2446541159
 31
0.0
  0
LINE
  5
108
330
2
100
AcDbEntity
  8
0
 62
     3
100
AcDbLine
 10
137.7925018245
 20
195.8446602194
 30
0.0
 11
139.1184905939998
 21
195.8446602194
 31
0.0
  0
LINE
  5
109
330
2
100
AcDbEntity
  8
0
 62
     3
100
AcDbLine
 10
137.3179412028
 20
197.2445242531999
 30
0.0
 11
138.2091023827999
 21
194.6155501608999
 31
0.0
  0
LINE
  5
10A
330
2
100
AcDbEntity
  8
0
 62
     3
100
AcDbLine
 10
137.2619834480999
 20
194.2944957757999
 30
0.0
 11
138.2090523777999
 21
194.6155259753999
 31
0.0
  0
LINE
  5
10B
330
2
100
AcDbEntity
  8
0
 62
     3
100
AcDbLine
 10
137.9958862238999
 20
195.2446693746999
 30
0.0
 11
139.5184844904999
 21
195.2446693746999
 31
0.0
  0
LINE
  5
10C
330
2
100
AcDbEntity
  8
0
 62
     3
100
AcDbLine
 10
136.3179491649999
 20
197.0796200469999
 30
0.0
 11
137.2620347048997
 21
194.2945162062999
 31
0.0
  0
LINE
  5
10D
330
2
100
AcDbEntity
  8
0
 62
     3
100
AcDbLine
 10
136.3179382258999
 20
194.2946571677
 30
0.0
 11
137.2620300227
 21
194.2946571677
 31
0.0
  0
LINE
  5
10E
330
2
100
AcDbEntity
  8
0
 62
     3
100
AcDbLine
 10
139.4184784864999
 20
195.2445487378999
 30
0.0
 11
139.1184779071998
 21
195.8445504162
 31
0.0
  0
LINE
  5
10F
330
2
100
AcDbEntity
  8
0
 62
     3
100
AcDbLine
 10
139.5184844904999
 20
213.2446541158999
 30
0.0
 11
140.1184753352
 21
213.2446541158999
 31
0.0
  0
LINE
  5
110
330
2
100
AcDbEntity
  8
0
 62
     3
100
AcDbLine
 10
137.3179340471998
 20
209.2445586105999
 30
0.0
 11
138.2090895663999
 21
211.8735024770999
 31
0.0
  0
LINE
  5
111
330
2
100
AcDbEntity
  8
0
 62
     3
100
AcDbLine
 10
136.3179226460997
 20
209.4094065810999
 30
0.0
 11
137.2620272638999
 21
212.1945523728999
 31
0.0
  0
LINE
  5
112
330
2
100
AcDbEntity
  8
0
 62
     3
100
AcDbLine
 10
139.1184905939998
 20
210.6446022359999
 30
0.0
 11
137.7925170832999
 21
210.6446022359999
 31
0.0
  0
LINE
  5
113
330
2
100
AcDbEntity
  8
0
 62
     3
100
AcDbLine
 10
137.2620516020999
 20
212.1945398464
 30
0.0
 11
138.2091158825999
 21
211.8734959378
 31
0.0
  0
LINE
  5
114
330
2
100
AcDbEntity
  8
0
 62
     3
100
AcDbLine
 10
139.5184844904999
 20
211.2445778219999
 30
0.0
 11
137.9959014827
 21
211.2445778219999
 31
0.0
  0
LINE
  5
115
330
2
100
AcDbEntity
  8
0
 62
     3
100
AcDbLine
 10
136.3179382258999
 20
212.1946663229
 30
0.0
 11
137.2620452814999
 21
212.1946663229
 31
0.0
  0
LINE
  5
116
330
2
100
AcDbEntity
  8
0
 62
     3
100
AcDbLine
 10
139.1183469425999
 20
210.6443530382
 30
0.0
 11
139.4183816414999
 21
211.2444229558
 31
0.0
  0
LINE
  5
117
330
2
100
AcDbEntity
  8
0
 62
     3
100
AcDbLine
 10
131.3184722834999
 20
256.1444801656999
 30
0.0
 11
128.0558990412999
 21
256.1444801656999
 31
0.0
  0
LINE
  5
118
330
2
100
AcDbEntity
  8
0
 62
     3
100
AcDbLine
 10
128.6533675102999
 20
247.2437512883999
 30
0.0
 11
129.1195541056
 21
240.3441842376
 31
0.0
  0
LINE
  5
119
330
2
100
AcDbEntity
  8
0
 62
     3
100
AcDbLine
 10
127.3684448176999
 20
240.3445534078997
 30
0.0
 11
131.3184722834999
 21
240.3445534078997
 31
0.0
  0
LINE
  5
11A
330
2
100
AcDbEntity
  8
0
 62
     3
100
AcDbLine
 10
132.5184692316997
 20
247.2444557515999
 30
0.0
 11
127.6184753351997
 21
247.2444557515999
 31
0.0
  0
LINE
  5
11B
330
2
100
AcDbEntity
  8
0
 62
     3
100
AcDbLine
 10
132.5184692316997
 20
249.2444557515999
 30
0.0
 11
128.0846923762999
 21
249.2444557515999
 31
0.0
  0
LINE
  5
11C
330
2
100
AcDbEntity
  8
0
 62
     3
100
AcDbLine
 10
128.6184069176999
 20
256.1440883538999
 30
0.0
 11
129.0846171719999
 21
249.2441711492
 31
0.0
  0
LINE
  5
11D
330
2
100
AcDbEntity
  8
0
 62
     3
100
AcDbLine
 10
122.8185028010999
 20
244.6312355367997
 30
0.0
 11
122.8185028010999
 21
235.2826637594997
 31
0.0
  0
LINE
  5
11E
330
2
100
AcDbEntity
  8
0
 62
     3
100
AcDbLine
 10
123.8185028010999
 20
244.6312355367997
 30
0.0
 11
123.8185028010999
 21
235.2826637594997
 31
0.0
  0
LINE
  5
11F
330
2
100
AcDbEntity
  8
0
 62
     3
100
AcDbLine
 10
121.6185058527999
 20
247.6446937887999
 30
0.0
 11
121.6185058527999
 21
237.7446846334998
 31
0.0
  0
LINE
  5
120
330
2
100
AcDbEntity
  8
0
 62
     3
100
AcDbLine
 10
124.8685058527999
 20
244.6312813131999
 30
0.0
 11
124.8685058527999
 21
237.7446846334998
 31
0.0
  0
LINE
  5
121
330
2
100
AcDbEntity
  8
0
 62
     3
100
AcDbLine
 10
125.8685058527999
 20
244.6312813131999
 30
0.0
 11
125.8685058527999
 21
237.7446846334998
 31
0.0
  0
LINE
  5
122
330
2
100
AcDbEntity
  8
0
 62
     3
100
AcDbLine
 10
126.6184905939998
 20
258.7446693746997
 30
0.0
 11
126.6184905939998
 21
237.7446846334998
 31
0.0
  0
ARC
  5
123
330
2
100
AcDbEntity
  8
0
 62
     3
100
AcDbCircle
 10
117.1184905939999
 20
238.7446846334999
 30
0.0
 40
1.0
100
AcDbArc
 50
179.9999640277999
 51
269.9999460416999
  0
LINE
  5
124
330
2
100
AcDbEntity
  8
0
 62
     3
100
AcDbLine
 10
117.3185180597998
 20
247.6446937887999
 30
0.0
 11
117.3185180597998
 21
237.7446846334998
 31
0.0
  0
LINE
  5
125
330
2
100
AcDbEntity
  8
0
 62
     3
100
AcDbLine
 10
117.1185058527999
 20
237.7446846334998
 30
0.0
 11
122.8185028010999
 21
237.7446846334998
 31
0.0
  0
LINE
  5
126
330
2
100
AcDbEntity
  8
0
 62
     3
100
AcDbLine
 10
122.8185028010999
 20
215.7189583151
 30
0.0
 11
123.8185028010999
 21
215.7189583151
 31
0.0
  0
LINE
  5
127
330
2
100
AcDbEntity
  8
0
 62
     3
100
AcDbLine
 10
122.8185028010999
 20
217.1674904195999
 30
0.0
 11
123.8185028010999
 21
217.1674904195999
 31
0.0
  0
LINE
  5
128
330
2
100
AcDbEntity
  8
0
 62
     3
100
AcDbLine
 10
123.8185028010999
 20
237.7446846334998
 30
0.0
 11
126.6184905939998
 21
237.7446846334998
 31
0.0
  0
LINE
  5
129
330
2
100
AcDbEntity
  8
0
 62
     3
100
AcDbLine
 10
122.8185028010999
 20
235.2827095358
 30
0.0
 11
123.8185028010999
 21
235.2827095358
 31
0.0
  0
LINE
  5
12A
330
2
100
AcDbEntity
  8
0
 62
     3
100
AcDbLine
 10
122.8185028010999
 20
237.0815834371999
 30
0.0
 11
123.8185028010999
 21
237.0815834371999
 31
0.0
  0
LINE
  5
12B
330
2
100
AcDbEntity
  8
0
 62
     3
100
AcDbLine
 10
117.1185058527999
 20
258.7446693746997
 30
0.0
 11
126.6184905939998
 21
258.7446693746997
 31
0.0
  0
LINE
  5
12C
330
2
100
AcDbEntity
  8
0
 62
     3
100
AcDbLine
 10
121.6185058527999
 20
258.7446693746997
 30
0.0
 11
121.6185058527999
 21
248.8447670308999
 31
0.0
  0
LINE
  5
12D
330
2
100
AcDbEntity
  8
0
 62
     3
100
AcDbLine
 10
115.1185058527999
 20
251.7446693746999
 30
0.0
 11
115.1185058527999
 21
244.7446846334999
 31
0.0
  0
LINE
  5
12E
330
2
100
AcDbEntity
  8
0
 62
     3
100
AcDbLine
 10
116.1185058527999
 20
257.7446693746999
 30
0.0
 11
116.1185058527999
 21
238.7446846334999
 31
0.0
  0
LINE
  5
12F
330
2
100
AcDbEntity
  8
0
 62
     3
100
AcDbLine
 10
117.3185180597998
 20
258.7446693746997
 30
0.0
 11
117.3185180597998
 21
248.8447670308999
 31
0.0
  0
LINE
  5
130
330
2
100
AcDbEntity
  8
0
 62
     3
100
AcDbLine
 10
117.3185180597998
 20
247.6446937887999
 30
0.0
 11
121.6185058527999
 21
247.6446937887999
 31
0.0
  0
LINE
  5
131
330
2
100
AcDbEntity
  8
0
 62
     3
100
AcDbLine
 10
117.3185180597998
 20
248.8447670308999
 30
0.0
 11
121.6185058527999
 21
248.8447670308999
 31
0.0
  0
LINE
  5
132
330
2
100
AcDbEntity
  8
0
 62
     3
100
AcDbLine
 10
117.3185180597998
 20
239.6447090474999
 30
0.0
 11
121.6185058527999
 21
239.6447090474999
 31
0.0
  0
LINE
  5
133
330
2
100
AcDbEntity
  8
0
 62
     3
100
AcDbLine
 10
117.3185180597998
 20
256.8447670308998
 30
0.0
 11
121.6185058527999
 21
256.8447670308998
 31
0.0
  0
ARC
  5
134
330
2
100
AcDbEntity
  8
0
 62
     3
100
AcDbCircle
 10
117.1184905939999
 20
257.7446693746999
 30
0.0
 40
1.0
100
AcDbArc
 50
89.99998201389999
 51
179.9999640277999
  0
LINE
  5
135
330
2
100
AcDbEntity
  8
0
 62
     3
100
AcDbLine
 10
125.5129760676999
 20
253.3549904195997
 30
0.0
 11
125.5129760676999
 21
248.8549904196
 31
0.0
  0
LINE
  5
136
330
2
100
AcDbEntity
  8
0
 62
     3
100
AcDbLine
 10
127.6555625926999
 20
255.5941636698999
 30
0.0
 11
128.0846178984999
 21
249.2441401369
 31
0.0
  0
LINE
  5
137
330
2
100
AcDbEntity
  8
0
 62
     3
100
AcDbLine
 10
124.7129730158997
 20
253.3549904195997
 30
0.0
 11
124.7129730158997
 21
248.8549904196
 31
0.0
  0
LINE
  5
138
330
2
100
AcDbEntity
  8
0
 62
     3
100
AcDbLine
 10
127.1184905939998
 20
255.5945534078999
 30
0.0
 11
127.1184905939998
 21
240.8445534078999
 31
0.0
  0
LINE
  5
139
330
2
100
AcDbEntity
  8
0
 62
     3
100
AcDbLine
 10
128.1184148929999
 20
256.1440733619999
 30
0.0
 11
128.5846333764999
 21
249.2440343648
 31
0.0
  0
LINE
  5
13A
330
2
100
AcDbEntity
  8
0
 62
     3
100
AcDbLine
 10
125.1129767549999
 20
246.3548821649
 30
0.0
 11
126.0129730536999
 21
248.8548756843999
 31
0.0
  0
LINE
  5
13B
330
2
100
AcDbEntity
  8
0
 62
     3
100
AcDbLine
 10
122.8185180597999
 20
244.6312813131999
 30
0.0
 11
126.6184905939998
 21
244.6312813131999
 31
0.0
  0
LINE
  5
13C
330
2
100
AcDbEntity
  8
0
 62
     3
100
AcDbLine
 10
122.8185028010999
 20
242.5298408834998
 30
0.0
 11
123.8185028010999
 21
242.5298408834998
 31
0.0
  0
LINE
  5
13D
330
2
100
AcDbEntity
  8
0
 62
     3
100
AcDbLine
 10
123.6185058527999
 20
241.0375465719998
 30
0.0
 11
123.8185028010999
 21
241.0375465719998
 31
0.0
  0
LINE
  5
13E
330
2
100
AcDbEntity
  8
0
 62
     3
100
AcDbLine
 10
123.6185058527999
 20
242.5297951070999
 30
0.0
 11
123.6185058527999
 21
241.0375007955999
 31
0.0
  0
LINE
  5
13F
330
2
100
AcDbEntity
  8
0
 62
     3
100
AcDbLine
 10
124.2129730158999
 20
248.8549904196
 30
0.0
 11
124.7129730158997
 21
248.8549904196
 31
0.0
  0
LINE
  5
140
330
2
100
AcDbEntity
  8
0
 62
     3
100
AcDbLine
 10
124.2129559608999
 20
248.854949653
 30
0.0
 11
125.1129585365999
 21
246.3549420933999
 31
0.0
  0
LINE
  5
141
330
2
100
AcDbEntity
  8
0
 62
     3
100
AcDbLine
 10
128.1184200210999
 20
240.3441988976
 30
0.0
 11
127.7813993332999
 21
245.3321090115999
 31
0.0
  0
LINE
  5
142
330
2
100
AcDbEntity
  8
0
 62
     3
100
AcDbLine
 10
127.6172779613998
 20
240.3442285493998
 30
0.0
 11
127.2000305640997
 21
246.5194948991999
 31
0.0
  0
LINE
  5
143
330
2
100
AcDbEntity
  8
0
 62
     3
100
AcDbLine
 10
128.6195620808999
 20
240.3441692456999
 30
0.0
 11
128.1533754855999
 21
247.2437362966
 31
0.0
  0
LINE
  5
144
330
2
100
AcDbEntity
  8
0
 62
     3
100
AcDbLine
 10
127.3684196785999
 20
240.3444066841
 30
0.0
 11
127.1184658260999
 21
240.8443148220998
 31
0.0
  0
LINE
  5
145
330
2
100
AcDbEntity
  8
0
 62
     3
100
AcDbLine
 10
127.1184905939998
 20
240.8946022359998
 30
0.0
 11
126.6184905939998
 21
240.8946022359998
 31
0.0
  0
LINE
  5
146
330
2
100
AcDbEntity
  8
0
 62
     3
100
AcDbLine
 10
125.5129760676999
 20
248.8549904196
 30
0.0
 11
126.0129760676999
 21
248.8549904196
 31
0.0
  0
LINE
  5
147
330
2
100
AcDbEntity
  8
0
 62
     3
100
AcDbLine
 10
127.6182398815999
 20
247.2442485108
 30
0.0
 11
128.2241129172998
 21
246.1948454515999
 31
0.0
  0
LINE
  5
148
330
2
100
AcDbEntity
  8
0
 62
     3
100
AcDbLine
 10
127.6183387881999
 20
247.2440273638999
 30
0.0
 11
127.1998818067999
 21
246.5192384881
 31
0.0
  0
LINE
  5
149
330
2
100
AcDbEntity
  8
0
 62
     3
100
AcDbLine
 10
127.1998077936999
 20
246.5195205835
 30
0.0
 11
127.7811764905999
 21
245.3321401951999
 31
0.0
  0
LINE
  5
14A
330
2
100
AcDbEntity
  8
0
 62
     3
100
AcDbLine
 10
127.7814154440999
 20
245.3321193829999
 30
0.0
 11
128.2242266176999
 21
246.1947033872999
 31
0.0
  0
LINE
  5
14B
330
2
100
AcDbEntity
  8
0
 62
     3
100
AcDbLine
 10
124.7129730158997
 20
253.3549904195997
 30
0.0
 11
125.5129760676999
 21
253.3549904195997
 31
0.0
  0
LINE
  5
14C
330
2
100
AcDbEntity
  8
0
 62
     3
100
AcDbLine
 10
127.7809686888998
 20
255.5943287292
 30
0.0
 11
128.0558913132999
 21
256.1441744542999
 31
0.0
  0
LINE
  5
14D
330
2
100
AcDbEntity
  8
0
 62
     3
100
AcDbLine
 10
127.7809356623997
 20
255.5945534078999
 30
0.0
 11
126.6184905939998
 21
255.5945534078999
 31
0.0
  0
LINE
  5
14E
330
2
100
AcDbEntity
  8
0
 62
     3
100
AcDbLine
 10
139.5184844904999
 20
238.2445625632
 30
0.0
 11
139.5184844904999
 21
258.2445625631998
 31
0.0
  0
LINE
  5
14F
330
2
100
AcDbEntity
  8
0
 62
     3
100
AcDbLine
 10
140.1184600763999
 20
260.1446022359999
 30
0.0
 11
140.1184600763999
 21
236.3445534078999
 31
0.0
  0
LINE
  5
150
330
2
100
AcDbEntity
  8
0
 62
     3
100
AcDbLine
 10
139.5184844904999
 20
238.2445625632
 30
0.0
 11
140.1184600763999
 21
238.2445625632
 31
0.0
  0
LINE
  5
151
330
2
100
AcDbEntity
  8
0
 62
     3
100
AcDbLine
 10
132.5184081965999
 20
257.1444954244998
 30
0.0
 11
136.3183959894999
 21
257.1444954244998
 31
0.0
  0
LINE
  5
152
330
2
100
AcDbEntity
  8
0
 62
     3
100
AcDbLine
 10
133.3183959894999
 20
256.6577095357999
 30
0.0
 11
136.3183959894999
 21
256.6577095357999
 31
0.0
  0
LINE
  5
153
330
2
100
AcDbEntity
  8
0
 62
     3
100
AcDbLine
 10
133.3183959894999
 20
256.2345833150999
 30
0.0
 11
136.3183959894999
 21
256.2345833150999
 31
0.0
  0
LINE
  5
154
330
2
100
AcDbEntity
  8
0
 62
     3
100
AcDbLine
 10
136.3183807306999
 20
239.3444923726999
 30
0.0
 11
132.5183929378
 21
239.3444923726999
 31
0.0
  0
LINE
  5
155
330
2
100
AcDbEntity
  8
0
 62
     3
100
AcDbLine
 10
136.3183959894999
 20
239.8312782614
 30
0.0
 11
133.3183959894999
 21
239.8312782614
 31
0.0
  0
LINE
  5
156
330
2
100
AcDbEntity
  8
0
 62
     3
100
AcDbLine
 10
136.3183959894999
 20
240.2544044820999
 30
0.0
 11
133.3183959894999
 21
240.2544044820999
 31
0.0
  0
LINE
  5
157
330
2
100
AcDbEntity
  8
0
 62
     3
100
AcDbLine
 10
136.3183959894999
 20
240.8543953267999
 30
0.0
 11
133.3183959894999
 21
240.8543953267999
 31
0.0
  0
LINE
  5
158
330
2
100
AcDbEntity
  8
0
 62
     3
100
AcDbLine
 10
136.3183959894999
 20
241.5412849752998
 30
0.0
 11
133.3183959894999
 21
241.5412849752998
 31
0.0
  0
LINE
  5
159
330
2
100
AcDbEntity
  8
0
 62
     3
100
AcDbLine
 10
136.3183959894999
 20
242.4099830953998
 30
0.0
 11
133.3183959894999
 21
242.4099830953998
 31
0.0
  0
LINE
  5
15A
330
2
100
AcDbEntity
  8
0
 62
     3
100
AcDbLine
 10
136.3183959894999
 20
243.2849983542
 30
0.0
 11
133.3183959894999
 21
243.2849983542
 31
0.0
  0
LINE
  5
15B
330
2
100
AcDbEntity
  8
0
 62
     3
100
AcDbLine
 10
136.3183959894999
 20
244.3242134420998
 30
0.0
 11
133.3183959894999
 21
244.3242134420998
 31
0.0
  0
LINE
  5
15C
330
2
100
AcDbEntity
  8
0
 62
     3
100
AcDbLine
 10
136.3183959894999
 20
245.3666633932999
 30
0.0
 11
133.3183959894999
 21
245.3666633932999
 31
0.0
  0
LINE
  5
15D
330
2
100
AcDbEntity
  8
0
 62
     3
100
AcDbLine
 10
136.3183959894999
 20
247.6444801657
 30
0.0
 11
133.3183959894999
 21
247.6444801657
 31
0.0
  0
LINE
  5
15E
330
2
100
AcDbEntity
  8
0
 62
     3
100
AcDbLine
 10
136.3183959894999
 20
246.5520271627998
 30
0.0
 11
133.3183959894999
 21
246.5520271627998
 31
0.0
  0
LINE
  5
15F
330
2
100
AcDbEntity
  8
0
 62
     3
100
AcDbLine
 10
133.3183959894999
 20
255.6345924703999
 30
0.0
 11
136.3183959894999
 21
255.6345924703999
 31
0.0
  0
LINE
  5
160
330
2
100
AcDbEntity
  8
0
 62
     3
100
AcDbLine
 10
133.3183959894999
 20
254.9477028219997
 30
0.0
 11
136.3183959894999
 21
254.9477028219997
 31
0.0
  0
LINE
  5
161
330
2
100
AcDbEntity
  8
0
 62
     3
100
AcDbLine
 10
133.3183959894999
 20
254.0790047017999
 30
0.0
 11
136.3183959894999
 21
254.0790047017999
 31
0.0
  0
LINE
  5
162
330
2
100
AcDbEntity
  8
0
 62
     3
100
AcDbLine
 10
133.3183959894999
 20
253.2039894431
 30
0.0
 11
136.3183959894999
 21
253.2039894431
 31
0.0
  0
LINE
  5
163
330
2
100
AcDbEntity
  8
0
 62
     3
100
AcDbLine
 10
133.3183959894999
 20
252.1647743552
 30
0.0
 11
136.3183959894999
 21
252.1647743552
 31
0.0
  0
LINE
  5
164
330
2
100
AcDbEntity
  8
0
 62
     3
100
AcDbLine
 10
133.3183959894999
 20
251.1223244039999
 30
0.0
 11
136.3183959894999
 21
251.1223244039999
 31
0.0
  0
LINE
  5
165
330
2
100
AcDbEntity
  8
0
 62
     3
100
AcDbLine
 10
133.3183959894999
 20
248.8445076314999
 30
0.0
 11
136.3183959894999
 21
248.8445076314999
 31
0.0
  0
LINE
  5
166
330
2
100
AcDbEntity
  8
0
 62
     3
100
AcDbLine
 10
133.3183959894999
 20
249.9369606345
 30
0.0
 11
136.3183959894999
 21
249.9369606345
 31
0.0
  0
LINE
  5
167
330
2
100
AcDbEntity
  8
0
 62
     3
100
AcDbLine
 10
132.5184081965999
 20
251.2445015279999
 30
0.0
 11
132.5184081965999
 21
245.2444862691999
 31
0.0
  0
LINE
  5
168
330
2
100
AcDbEntity
  8
0
 62
     3
100
AcDbLine
 10
129.1184141664998
 20
256.1441043743998
 30
0.0
 11
129.5846244207999
 21
249.2441871696998
 31
0.0
  0
LINE
  5
169
330
2
100
AcDbEntity
  8
0
 62
     3
100
AcDbLine
 10
129.1486388367
 20
247.2436920117
 30
0.0
 11
129.6148172027999
 21
240.3442467535
 31
0.0
  0
LINE
  5
16A
330
2
100
AcDbEntity
  8
0
 62
     3
100
AcDbLine
 10
131.3184112482999
 20
245.2445015279999
 30
0.0
 11
131.3184112482999
 21
239.865381655
 31
0.0
  0
LINE
  5
16B
330
2
100
AcDbEntity
  8
0
 62
     3
100
AcDbLine
 10
132.5183832433999
 20
239.3444667735999
 30
0.0
 11
132.5183985021997
 21
239.8653560558
 31
0.0
  0
LINE
  5
16C
330
2
100
AcDbEntity
  8
0
 62
     3
100
AcDbLine
 10
131.3184112482999
 20
239.865381655
 30
0.0
 11
132.5184081965999
 21
239.865381655
 31
0.0
  0
LINE
  5
16D
330
2
100
AcDbEntity
  8
0
 62
     3
100
AcDbLine
 10
132.5184081965999
 20
245.2445015279999
 30
0.0
 11
131.3184112482999
 21
245.2445015279999
 31
0.0
  0
LINE
  5
16E
330
2
100
AcDbEntity
  8
0
 62
     3
100
AcDbLine
 10
133.3183959894999
 20
245.3666633932999
 30
0.0
 11
133.3183959894999
 21
244.3242134420998
 31
0.0
  0
LINE
  5
16F
330
2
100
AcDbEntity
  8
0
 62
     3
100
AcDbLine
 10
133.3183196955999
 20
240.2543587058
 30
0.0
 11
133.3183196955999
 21
239.8312477438
 31
0.0
  0
LINE
  5
170
330
2
100
AcDbEntity
  8
0
 62
     3
100
AcDbLine
 10
133.3183959894999
 20
240.8543953267999
 30
0.0
 11
133.3183959894999
 21
241.5412849752998
 31
0.0
  0
LINE
  5
171
330
2
100
AcDbEntity
  8
0
 62
     3
100
AcDbLine
 10
133.3183959894999
 20
242.4099830953998
 30
0.0
 11
133.3183959894999
 21
243.2849983542
 31
0.0
  0
LINE
  5
172
330
2
100
AcDbEntity
  8
0
 62
     3
100
AcDbLine
 10
133.3183959894999
 20
247.6444801657
 30
0.0
 11
133.3183959894999
 21
246.5520271627998
 31
0.0
  0
LINE
  5
173
330
2
100
AcDbEntity
  8
0
 62
     3
100
AcDbLine
 10
133.3183959894999
 20
249.9369606345
 30
0.0
 11
133.3183959894999
 21
248.8445076314999
 31
0.0
  0
LINE
  5
174
330
2
100
AcDbEntity
  8
0
 62
     3
100
AcDbLine
 10
131.3184112482999
 20
256.6236671773999
 30
0.0
 11
131.3184112482999
 21
251.2445015279999
 31
0.0
  0
LINE
  5
175
330
2
100
AcDbEntity
  8
0
 62
     3
100
AcDbLine
 10
131.3184112482999
 20
251.2445015279999
 30
0.0
 11
132.5184081965999
 21
251.2445015279999
 31
0.0
  0
LINE
  5
176
330
2
100
AcDbEntity
  8
0
 62
     3
100
AcDbLine
 10
132.5184081965999
 20
257.1444954244998
 30
0.0
 11
132.5184081965999
 21
256.6236671773999
 31
0.0
  0
LINE
  5
177
330
2
100
AcDbEntity
  8
0
 62
     3
100
AcDbLine
 10
132.5184081965999
 20
256.6236671773999
 30
0.0
 11
131.3184112482999
 21
256.6236671773999
 31
0.0
  0
LINE
  5
178
330
2
100
AcDbEntity
  8
0
 62
     3
100
AcDbLine
 10
133.3183959894999
 20
254.9477028219997
 30
0.0
 11
133.3183959894999
 21
255.6345924703999
 31
0.0
  0
LINE
  5
179
330
2
100
AcDbEntity
  8
0
 62
     3
100
AcDbLine
 10
133.3183959894999
 20
253.2039894431
 30
0.0
 11
133.3183959894999
 21
254.0790047017999
 31
0.0
  0
LINE
  5
17A
330
2
100
AcDbEntity
  8
0
 62
     3
100
AcDbLine
 10
133.3183959894999
 20
252.1647743552
 30
0.0
 11
133.3183959894999
 21
251.1223244039999
 31
0.0
  0
LINE
  5
17B
330
2
100
AcDbEntity
  8
0
 62
     3
100
AcDbLine
 10
133.3184722835
 20
256.6576637594997
 30
0.0
 11
133.3184722835
 21
256.2345527974998
 31
0.0
  0
LINE
  5
17C
330
2
100
AcDbEntity
  8
0
 62
     3
100
AcDbLine
 10
137.3178466731
 20
242.2445167867998
 30
0.0
 11
137.3178466731
 21
254.2444862692
 31
0.0
  0
LINE
  5
17D
330
2
100
AcDbEntity
  8
0
 62
     3
100
AcDbLine
 10
136.3178466731
 20
239.3445076314999
 30
0.0
 11
136.3178466731
 21
257.1440376607999
 31
0.0
  0
LINE
  5
17E
330
2
100
AcDbEntity
  8
0
 62
     3
100
AcDbLine
 10
136.3183196955999
 20
257.1444496481
 30
0.0
 11
136.3183196955999
 21
239.3444465963999
 31
0.0
  0
LINE
  5
17F
330
2
100
AcDbEntity
  8
0
 62
     3
100
AcDbLine
 10
137.3179045539999
 20
242.2444058553999
 30
0.0
 11
138.2090657339998
 21
239.6154317630998
 31
0.0
  0
LINE
  5
180
330
2
100
AcDbEntity
  8
0
 62
     3
100
AcDbLine
 10
137.2619705497999
 20
239.2943897274999
 30
0.0
 11
138.2090394794999
 21
239.6154199269997
 31
0.0
  0
LINE
  5
181
330
2
100
AcDbEntity
  8
0
 62
     3
100
AcDbLine
 10
137.9619811945999
 20
240.3445534078997
 30
0.0
 11
139.5184844904999
 21
240.3445534078997
 31
0.0
  0
LINE
  5
182
330
2
100
AcDbEntity
  8
0
 62
     3
100
AcDbLine
 10
136.3179125161999
 20
242.0795016491999
 30
0.0
 11
137.2619980559999
 21
239.2943978084999
 31
0.0
  0
LINE
  5
183
330
2
100
AcDbEntity
  8
0
 62
     3
100
AcDbLine
 10
136.3179382258999
 20
239.2945656148999
 30
0.0
 11
137.2620300227
 21
239.2945656148999
 31
0.0
  0
LINE
  5
184
330
2
100
AcDbEntity
  8
0
 62
     3
100
AcDbLine
 10
139.4184783869999
 20
249.2444557515999
 30
0.0
 11
137.3179077082999
 21
249.2444557515999
 31
0.0
  0
LINE
  5
185
330
2
100
AcDbEntity
  8
0
 62
     3
100
AcDbLine
 10
139.4184783869999
 20
247.2444557515999
 30
0.0
 11
137.3179077082999
 21
247.2444557515999
 31
0.0
  0
LINE
  5
186
330
2
100
AcDbEntity
  8
0
 62
     3
100
AcDbLine
 10
139.5184844904999
 20
258.2445625631998
 30
0.0
 11
140.1184600763999
 21
258.2445625631998
 31
0.0
  0
LINE
  5
187
330
2
100
AcDbEntity
  8
0
 62
     3
100
AcDbLine
 10
137.3179473429999
 20
254.2444471005999
 30
0.0
 11
138.2091028621998
 21
256.8733909669998
 31
0.0
  0
LINE
  5
188
330
2
100
AcDbEntity
  8
0
 62
     3
100
AcDbLine
 10
136.3179359418999
 20
254.4092950711
 30
0.0
 11
137.2620405596
 21
257.1944408627998
 31
0.0
  0
LINE
  5
189
330
2
100
AcDbEntity
  8
0
 62
     3
100
AcDbLine
 10
137.2620548698999
 20
257.1944378507999
 30
0.0
 11
138.2091191504999
 21
256.8733939421999
 31
0.0
  0
LINE
  5
18A
330
2
100
AcDbEntity
  8
0
 62
     3
100
AcDbLine
 10
139.5184844904999
 20
256.1444801656999
 30
0.0
 11
137.9619964533999
 21
256.1444801656999
 31
0.0
  0
LINE
  5
18B
330
2
100
AcDbEntity
  8
0
 62
     3
100
AcDbLine
 10
136.3179382258999
 20
257.1945747701998
 30
0.0
 11
137.2620452814999
 21
257.1945747701998
 31
0.0
  0
LINE
  5
18C
330
2
100
AcDbEntity
  8
0
  6
CENTER
 62
     3
100
AcDbLine
 10
180.8212208558
 20
153.5999755859999
 30
0.0
 11
180.8212208558
 21
183.3998107911
 31
0.0
  0
CIRCLE
  5
18D
330
2
100
AcDbEntity
  8
0
 62
     3
100
AcDbCircle
 10
180.8212208558
 20
168.4999847412999
 30
0.0
 40
11.89999961849999
  0
CIRCLE
  5
18E
330
2
100
AcDbEntity
  8
0
 62
     3
100
AcDbCircle
 10
180.8212208558
 20
168.4999847412999
 30
0.0
 40
11.40000915529999
  0
CIRCLE
  5
18F
330
2
100
AcDbEntity
  8
0
 62
     3
100
AcDbCircle
 10
180.8212208558
 20
168.4999847412999
 30
0.0
 40
10.30000305179999
  0
CIRCLE
  5
190
330
2
100
AcDbEntity
  8
0
 62
     3
100
AcDbCircle
 10
180.8212208558
 20
168.4999847412999
 30
0.0
 40
10.0999908447
  0
CIRCLE
  5
191
330
2
100
AcDbEntity
  8
0
 62
     3
100
AcDbCircle
 10
180.8212208558
 20
168.4999847412999
 30
0.0
 40
9.799987792999999
  0
LINE
  5
192
330
2
100
AcDbEntity
  8
0
  6
CENTER
 62
     3
100
AcDbLine
 10
165.9212269592998
 20
168.5
 30
0.0
 11
195.7211689758999
 21
168.5
 31
0.0
  0
TEXT
  5
193
330
2
100
AcDbEntity
  8
0
 62
     5
100
AcDbText
 10
145.0
 20
10.0
 30
0.0
 40
5.0
  1
ＭＡ４－Ｈ０１３４４Ｂ
 41
0.8443967743953097
 72
     5
 11
199.0413935612998
 21
10.0
 31
0.0
100
AcDbText
  0
ARC
  5
194
330
2
100
AcDbEntity
  8
0
 62
     3
100
AcDbCircle
 10
180.8212208558
 20
168.4999847412999
 30
0.0
 40
10.59988403319999
100
AcDbArc
 50
258.5732207877
 51
281.4267059015
  0
LINE
  5
195
330
2
100
AcDbEntity
  8
0
 62
     3
100
AcDbLine
 10
178.7212147523
 20
157.2950592041
 30
0.0
 11
178.7212147523
 21
158.4163208007999
 31
0.0
  0
LINE
  5
196
330
2
100
AcDbEntity
  8
0
 62
     3
100
AcDbLine
 10
182.9212117004999
 20
157.2950592041
 30
0.0
 11
182.9212117004999
 21
158.4163208007999
 31
0.0
  0
LINE
  5
197
330
2
100
AcDbEntity
  8
0
 62
     3
100
AcDbLine
 10
172.2950052823998
 20
216.2144564445
 30
0.0
 11
173.7076930745999
 21
217.0399645255
 31
0.0
  0
LINE
  5
198
330
2
100
AcDbEntity
  8
0
 62
     3
100
AcDbLine
 10
173.3322783043
 20
212.4926489503
 30
0.0
 11
171.9515250042999
 21
214.8555250698
 31
0.0
  0
LINE
  5
199
330
2
100
AcDbEntity
  8
0
 62
     3
100
AcDbLine
 10
172.2949837202999
 20
181.4697886539
 30
0.0
 11
173.7076715124999
 21
182.2952967347999
 31
0.0
  0
LINE
  5
19A
330
2
100
AcDbEntity
  8
0
 62
     3
100
AcDbLine
 10
173.3322567422
 20
177.7479811595999
 30
0.0
 11
171.9515034421999
 21
180.1108572791
 31
0.0
  0
CIRCLE
  5
19B
330
2
100
AcDbEntity
  8
0
 62
     3
100
AcDbCircle
 10
180.8212208558
 20
203.2446388570999
 30
0.0
 40
8.199999809299999
  0
CIRCLE
  5
19C
330
2
100
AcDbEntity
  8
0
 62
     3
100
AcDbCircle
 10
180.8212208558
 20
203.2446388570999
 30
0.0
 40
8.799999237099997
  0
CIRCLE
  5
19D
330
2
100
AcDbEntity
  8
0
 62
     3
100
AcDbCircle
 10
180.8212208558
 20
203.2446388570999
 30
0.0
 40
8.5
  0
CIRCLE
  5
19E
330
2
100
AcDbEntity
  8
0
 62
     3
100
AcDbCircle
 10
180.8212208558
 20
203.2446388570999
 30
0.0
 40
9.799987792999999
  0
CIRCLE
  5
19F
330
2
100
AcDbEntity
  8
0
 62
     3
100
AcDbCircle
 10
180.8212208558
 20
203.2446388570999
 30
0.0
 40
10.0999908447
  0
CIRCLE
  5
1A0
330
2
100
AcDbEntity
  8
0
 62
     3
100
AcDbCircle
 10
180.8212208558
 20
203.2446388570999
 30
0.0
 40
10.30000305179999
  0
CIRCLE
  5
1A1
330
2
100
AcDbEntity
  8
0
 62
     3
100
AcDbCircle
 10
180.8212208558
 20
203.2446388570999
 30
0.0
 40
11.40000915529999
  0
CIRCLE
  5
1A2
330
2
100
AcDbEntity
  8
0
 62
     3
100
AcDbCircle
 10
180.8212208558
 20
203.2446388570999
 30
0.0
 40
11.89999961849999
  0
LINE
  5
1A3
330
2
100
AcDbEntity
  8
0
  6
CENTER
 62
     3
100
AcDbLine
 10
165.9212269592998
 20
203.2446541158999
 30
0.0
 11
195.7211689758999
 21
203.2446541158999
 31
0.0
  0
ARC
  5
1A4
330
2
100
AcDbEntity
  8
0
 62
     3
100
AcDbCircle
 10
172.8148426819998
 20
215.3602089255
 30
0.0
 40
0.9999999404
100
AcDbArc
 50
120.2998486438998
 51
210.2999945822999
  0
LINE
  5
1A5
330
2
100
AcDbEntity
  8
0
 62
     3
100
AcDbLine
 10
150.8133148127999
 20
214.6495308249
 30
0.0
 11
150.8133148127999
 21
191.8390907614
 31
0.0
  0
LINE
  5
1A6
330
2
100
AcDbEntity
  8
0
 62
     3
100
AcDbLine
 10
151.1184753351999
 20
214.3393043845
 30
0.0
 11
151.1184753351999
 21
192.1499428122
 31
0.0
  0
LINE
  5
1A7
330
2
100
AcDbEntity
  8
0
 62
     3
100
AcDbLine
 10
145.3184875422999
 20
215.0499977437999
 30
0.0
 11
145.3184875422999
 21
191.4392036765
 31
0.0
  0
LINE
  5
1A8
330
2
100
AcDbEntity
  8
0
 62
     3
100
AcDbLine
 10
145.6184753351999
 20
214.7389625875999
 30
0.0
 11
145.6184753351999
 21
191.7502693502999
 31
0.0
  0
LINE
  5
1A9
330
2
100
AcDbEntity
  8
0
 62
     3
100
AcDbLine
 10
151.1183108578999
 20
192.1444825347999
 30
0.0
 11
150.8127492997997
 21
191.8389215176
 31
0.0
  0
LINE
  5
1AA
330
2
100
AcDbEntity
  8
0
 62
     3
100
AcDbLine
 10
150.8128856134
 20
191.8390735118
 30
0.0
 11
145.6184620165998
 21
191.7446299931999
 31
0.0
  0
LINE
  5
1AB
330
2
100
AcDbEntity
  8
0
 62
     3
100
AcDbLine
 10
145.6183729801999
 20
191.7445346533
 30
0.0
 11
145.3128112417999
 21
191.4389738164
 31
0.0
  0
LINE
  5
1AC
330
2
100
AcDbEntity
  8
0
 62
     3
100
AcDbLine
 10
150.8182677854998
 20
214.6494881278
 30
0.0
 11
151.1182229815998
 21
214.3390579977999
 31
0.0
  0
LINE
  5
1AD
330
2
100
AcDbEntity
  8
0
 62
     3
100
AcDbLine
 10
145.6184421264999
 20
214.7386911727
 30
0.0
 11
150.8184821098998
 21
214.6494464213
 31
0.0
  0
LINE
  5
1AE
330
2
100
AcDbEntity
  8
0
 62
     3
100
AcDbLine
 10
145.3182689884999
 20
215.0497881708
 30
0.0
 11
145.6182140965998
 21
214.738733272
 31
0.0
  0
ARC
  5
1AF
330
2
100
AcDbEntity
  8
0
 62
     3
100
AcDbCircle
 10
172.8148426819998
 20
180.6155548095999
 30
0.0
 40
0.9999999404
100
AcDbArc
 50
120.2998486438998
 51
210.2999945822999
  0
LINE
  5
1B0
330
2
100
AcDbEntity
  8
0
 62
     3
100
AcDbLine
 10
150.8184570246999
 20
259.6492256491
 30
0.0
 11
150.8184570246999
 21
237.1446022359998
 31
0.0
  0
LINE
  5
1B1
330
2
100
AcDbEntity
  8
0
 62
     3
100
AcDbLine
 10
145.3184722835
 20
260.0499977437999
 30
0.0
 11
145.3184722835
 21
236.4391579000999
 31
0.0
  0
LINE
  5
1B2
330
2
100
AcDbEntity
  8
0
 62
     3
100
AcDbLine
 10
145.6184600763998
 20
259.7389625876
 30
0.0
 11
145.6184600763998
 21
236.7501930562998
 31
0.0
  0
LINE
  5
1B3
330
2
100
AcDbEntity
  8
0
 62
     3
100
AcDbLine
 10
151.1184448176997
 20
259.3384804099
 30
0.0
 11
151.1184448176997
 21
237.1446022359998
 31
0.0
  0
LINE
  5
1B4
330
2
100
AcDbEntity
  8
0
 62
     3
100
AcDbLine
 10
151.1182037243998
 20
237.1495073600998
 30
0.0
 11
150.8182697340999
 21
236.8390991764
 31
0.0
  0
LINE
  5
1B5
330
2
100
AcDbEntity
  8
0
 62
     3
100
AcDbLine
 10
151.1182952633999
 20
237.1443479607
 30
0.0
 11
150.8127337053999
 21
236.8387869434998
 31
0.0
  0
LINE
  5
1B6
330
2
100
AcDbEntity
  8
0
 62
     3
100
AcDbLine
 10
150.8128873361999
 20
236.8387513811998
 30
0.0
 11
145.6184484831998
 21
236.7443075852999
 31
0.0
  0
LINE
  5
1B7
330
2
100
AcDbEntity
  8
0
 62
     3
100
AcDbLine
 10
145.6183419599998
 20
236.7444426475998
 30
0.0
 11
145.3127802215998
 21
236.4388818108
 31
0.0
  0
LINE
  5
1B8
330
2
100
AcDbEntity
  8
0
 62
     3
100
AcDbLine
 10
150.8181259656999
 20
259.6492833680998
 30
0.0
 11
151.1180811617999
 21
259.3388532381
 31
0.0
  0
LINE
  5
1B9
330
2
100
AcDbEntity
  8
0
 62
     3
100
AcDbLine
 10
145.6184236306999
 20
259.7384660778999
 30
0.0
 11
150.8184636140998
 21
259.6492213264999
 31
0.0
  0
LINE
  5
1BA
330
2
100
AcDbEntity
  8
0
 62
     3
100
AcDbLine
 10
145.3182016380999
 20
260.0496856448998
 30
0.0
 11
145.6181467461999
 21
259.7386307461997
 31
0.0
  0
LINE
  5
1BB
330
2
100
AcDbEntity
  8
0
  6
CENTER
 62
     3
100
AcDbLine
 10
180.8212208558
 20
188.3446297017999
 30
0.0
 11
180.8212208558
 21
218.1444649068998
 31
0.0
  0
LINE
  5
1BC
330
2
100
AcDbEntity
  8
0
 62
     3
100
AcDbLine
 10
175.2543033659
 20
213.7621928255
 30
0.0
 11
174.0382282656999
 21
215.8432559768999
 31
0.0
  0
LINE
  5
1BD
330
2
100
AcDbEntity
  8
0
 62
     3
100
AcDbLine
 10
173.1748326939998
 20
215.3387283484999
 30
0.0
 11
174.0382282656999
 21
215.8432559768999
 31
0.0
  0
LINE
  5
1BE
330
2
100
AcDbEntity
  8
0
 62
     3
100
AcDbLine
 10
176.4404944577997
 20
214.3089437935
 30
0.0
 11
175.0597411577999
 21
216.6718199129999
 31
0.0
  0
LINE
  5
1BF
330
2
100
AcDbEntity
  8
0
 62
     3
100
AcDbLine
 10
182.9212117004999
 20
192.0397133199999
 30
0.0
 11
182.9212117004999
 21
193.1609749166999
 31
0.0
  0
LINE
  5
1C0
330
2
100
AcDbEntity
  8
0
 62
     3
100
AcDbLine
 10
178.7212147523
 20
192.0397133199999
 30
0.0
 11
178.7212147523
 21
193.1609749166999
 31
0.0
  0
LINE
  5
1C1
330
2
100
AcDbEntity
  8
0
 62
     3
100
AcDbLine
 10
176.4404728956999
 20
179.5642760028
 30
0.0
 11
175.0597195956999
 21
181.9271521223999
 31
0.0
  0
LINE
  5
1C2
330
2
100
AcDbEntity
  8
0
 62
     3
100
AcDbLine
 10
175.2542818037998
 20
179.0175250347999
 30
0.0
 11
174.0382067036
 21
181.0985881862
 31
0.0
  0
LINE
  5
1C3
330
2
100
AcDbEntity
  8
0
 62
     3
100
AcDbLine
 10
174.3908862320999
 20
178.5129974063999
 30
0.0
 11
173.1748111318997
 21
180.5940605577999
 31
0.0
  0
LINE
  5
1C4
330
2
100
AcDbEntity
  8
0
 62
     3
100
AcDbLine
 10
173.1748111318997
 20
180.5940605577999
 30
0.0
 11
174.0382067036
 21
181.0985881862
 31
0.0
  0
ARC
  5
1C5
330
2
100
AcDbEntity
  8
0
 62
     3
100
AcDbCircle
 10
174.1962666321998
 20
181.4228210449999
 30
0.0
 40
0.9999999404
100
AcDbArc
 50
30.3000100639
 51
120.2997393607999
  0
ARC
  5
1C6
330
2
100
AcDbEntity
  8
0
 62
     3
100
AcDbCircle
 10
180.8212208558
 20
203.2446388570999
 30
0.0
 40
10.59988403319999
100
AcDbArc
 50
258.5732207877
 51
281.4267059015
  0
LINE
  5
1C7
330
2
100
AcDbEntity
  8
0
 62
     3
100
AcDbLine
 10
174.3909077941999
 20
213.2576651970999
 30
0.0
 11
173.1748326939998
 21
215.3387283484999
 31
0.0
  0
ARC
  5
1C8
330
2
100
AcDbEntity
  8
0
 62
     3
100
AcDbCircle
 10
174.1962666321998
 20
216.1674751607999
 30
0.0
 40
0.9999999404
100
AcDbArc
 50
30.3000100639
 51
120.2997393607999
  0
LINE
  5
1CD
330
2
100
AcDbEntity
  8
0
100
AcDbLine
 10
210.0
 20
297.0
 30
0.0
 11
0.0
 21
297.0
 31
0.0
  0
TEXT
  5
1F4
330
2
100
AcDbEntity
  8
0
 62
     7
100
AcDbText
 10
108.0
 20
115.0000029552499
 30
0.0
 40
2.999994089499998
  1
HA1B-M1C1V*
 11
108.0
 21
116.5
 31
0.0
100
AcDbText
 73
     2
  0
TEXT
  5
1F5
330
2
100
AcDbEntity
  8
0
 62
     7
100
AcDbText
 10
108.0
 20
110.0000029552498
 30
0.0
 40
2.999994089499998
  1
HA1B-M1C2V*
 11
108.0
 21
111.4999999999999
 31
0.0
100
AcDbText
 73
     2
  0
TEXT
  5
1F6
330
2
100
AcDbEntity
  8
0
 62
     7
100
AcDbText
 10
146.0
 20
110.0000029552498
 30
0.0
 40
2.999994089499998
  1
HA1B-A1C2V*
 11
146.0
 21
111.4999999999999
 31
0.0
100
AcDbText
 73
     2
  0
TEXT
  5
1F7
330
2
100
AcDbEntity
  8
0
 62
     7
100
AcDbText
 10
146.0
 20
115.0000029552499
 30
0.0
 40
2.999994089499998
  1
HA1B-A1C1V*
 11
146.0
 21
116.5
 31
0.0
100
AcDbText
 73
     2
  0
ENDSEC
  0
SECTION
  2
OBJECTS
  0
DICTIONARY
  5
7
330
0
100
AcDbDictionary
281
     1
  3
ACAD_GROUP
350
1F
  3
ACAD_LAYOUT
350
B
  3
ACAD_MLINESTYLE
350
20
  3
ACAD_PLOTSETTINGS
350
21
  3
ACAD_PLOTSTYLENAME
350
6
  3
AcDbVariableDictionary
350
1F8
  0
DICTIONARY
  5
1F
102
{ACAD_REACTORS
330
7
102
}
330
7
100
AcDbDictionary
281
     1
  0
DICTIONARY
  5
B
102
{ACAD_REACTORS
330
7
102
}
330
7
100
AcDbDictionary
281
     1
  3
Model
350
A
  3
ﾚｲｱｳﾄ1
350
F
  0
DICTIONARY
  5
20
102
{ACAD_REACTORS
330
7
102
}
330
7
100
AcDbDictionary
281
     1
  3
Standard
350
22
  0
DICTIONARY
  5
21
102
{ACAD_REACTORS
330
7
102
}
330
7
100
AcDbDictionary
281
     1
  0
ACDBDICTIONARYWDFLT
  5
6
102
{ACAD_REACTORS
330
7
102
}
330
7
100
AcDbDictionary
281
     1
  3
Normal
350
5
100
AcDbDictionaryWithDefault
340
5
  0
DICTIONARY
  5
1F8
102
{ACAD_REACTORS
330
7
102
}
330
7
100
AcDbDictionary
281
     1
  3
DIMASSOC
350
1F9
  0
LAYOUT
  5
A
102
{ACAD_REACTORS
330
B
102
}
330
B
100
AcDbPlotSettings
  1

  2
C:\Program Files\AutoCAD 2000i\plotters\DWF Classic.pc3
  4

  6

 40
0.0
 41
0.0
 42
0.0
 43
0.0
 44
0.0
 45
0.0
 46
0.0
 47
0.0
 48
0.0
 49
0.0
140
0.0
141
0.0
142
1.0
143
1.0
 70
  1712
 72
     0
 73
     0
 74
     0
  7

 75
     0
147
1.0
148
0.0
149
0.0
100
AcDbLayout
  1
Model
 70
     1
 71
     0
 10
0.0
 20
0.0
 11
12.0
 21
9.0
 12
0.0
 22
0.0
 32
0.0
 14
0.0
 24
0.0
 34
0.0
 15
0.0
 25
0.0
 35
0.0
146
0.0
 13
0.0
 23
0.0
 33
0.0
 16
1.0
 26
0.0
 36
0.0
 17
0.0
 27
1.0
 37
0.0
 76
     0
330
2
  0
LAYOUT
  5
F
102
{ACAD_REACTORS
330
B
102
}
330
B
100
AcDbPlotSettings
  1

  2
C:\Program Files\AutoCAD 2000i\plotters\DWF Classic.pc3
  4

  6

 40
0.0
 41
0.0
 42
0.0
 43
0.0
 44
0.0
 45
0.0
 46
0.0
 47
0.0
 48
0.0
 49
0.0
140
0.0
141
0.0
142
1.0
143
1.0
 70
   688
 72
     0
 73
     0
 74
     5
  7

 75
    16
147
1.0
148
0.0
149
0.0
100
AcDbLayout
  1
ﾚｲｱｳﾄ1
 70
     1
 71
     1
 10
0.0
 20
0.0
 11
12.0
 21
9.0
 12
0.0
 22
0.0
 32
0.0
 14
1.000000000000000E+20
 24
1.000000000000000E+20
 34
1.000000000000000E+20
 15
-1.000000000000000E+20
 25
-1.000000000000000E+20
 35
-1.000000000000000E+20
146
0.0
 13
0.0
 23
0.0
 33
0.0
 16
1.0
 26
0.0
 36
0.0
 17
0.0
 27
1.0
 37
0.0
 76
     0
330
C
  0
MLINESTYLE
  5
22
102
{ACAD_REACTORS
330
20
102
}
330
20
100
AcDbMlineStyle
  2
STANDARD
 70
     0
  3

 62
   256
 51
90.0
 52
90.0
 71
     2
 49
0.5
 62
   256
  6
BYLAYER
 49
-0.5
 62
   256
  6
BYLAYER
  0
ACDBPLACEHOLDER
  5
5
102
{ACAD_REACTORS
330
6
102
}
330
6
  0
DICTIONARYVAR
  5
1F9
102
{ACAD_REACTORS
330
1F8
102
}
330
1F8
100
DictionaryVariables
280
     0
  1
1
  0
ENDSEC
  0
EOF
