  0
SECTION
  2
HEADER
  9
$ACADVER
  1
AC1015
  9
$ACADMAINTVER
 70
    13
  9
$DWGCODEPAGE
  3
ANSI_932
  9
$INSBASE
 10
0.0
 20
0.0
 30
0.0
  9
$EXTMIN
 10
0.0
 20
0.0
 30
0.0
  9
$EXTMAX
 10
210.0
 20
297.0
 30
0.0
  9
$LIMMIN
 10
-205.2049987793
 20
-3.174999999999998
  9
$LIMMAX
 10
3.174999999999998
 20
297.2049987792999
  9
$ORTHOMODE
 70
     0
  9
$REGENMODE
 70
     1
  9
$FILLMODE
 70
     1
  9
$QTEXTMODE
 70
     0
  9
$MIRRTEXT
 70
     0
  9
$LTSCALE
 40
1.0
  9
$ATTMODE
 70
     1
  9
$TEXTSIZE
 40
3.199999809299998
  9
$TRACEWID
 40
0.05
  9
$TEXTSTYLE
  7
STANDARD
  9
$CLAYER
  8
0
  9
$CELTYPE
  6
ByLayer
  9
$CECOLOR
 62
   256
  9
$CELTSCALE
 40
1.0
  9
$DISPSILH
 70
     0
  9
$DIMSCALE
 40
1.0
  9
$DIMASZ
 40
1.9727878465
  9
$DIMEXO
 40
2.539999961899999
  9
$DIMDLI
 40
0.38
  9
$DIMRND
 40
0.0
  9
$DIMDLE
 40
0.0
  9
$DIMEXE
 40
3.809999942799997
  9
$DIMTP
 40
0.0
  9
$DIMTM
 40
0.0
  9
$DIMTXT
 40
3.199999809299998
  9
$DIMCEN
 40
0.09
  9
$DIMTSZ
 40
0.0
  9
$DIMTOL
 70
     0
  9
$DIMLIM
 70
     0
  9
$DIMTIH
 70
     0
  9
$DIMTOH
 70
     1
  9
$DIMSE1
 70
     0
  9
$DIMSE2
 70
     0
  9
$DIMTAD
 70
     0
  9
$DIMZIN
 70
     0
  9
$DIMBLK
  1

  9
$DIMASO
 70
     1
  9
$DIMSHO
 70
     0
  9
$DIMPOST
  1

  9
$DIMAPOST
  1

  9
$DIMALT
 70
     0
  9
$DIMALTD
 70
     2
  9
$DIMALTF
 40
25.4
  9
$DIMLFAC
 40
1.0
  9
$DIMTOFL
 70
     0
  9
$DIMTVP
 40
0.0
  9
$DIMTIX
 70
     0
  9
$DIMSOXD
 70
     0
  9
$DIMSAH
 70
     0
  9
$DIMBLK1
  1

  9
$DIMBLK2
  1

  9
$DIMSTYLE
  2
Standard
  9
$DIMCLRD
 70
     0
  9
$DIMCLRE
 70
     0
  9
$DIMCLRT
 70
     0
  9
$DIMTFAC
 40
1.0
  9
$DIMGAP
 40
0.09
  9
$DIMJUST
 70
     0
  9
$DIMSD1
 70
     0
  9
$DIMSD2
 70
     0
  9
$DIMTOLJ
 70
     1
  9
$DIMTZIN
 70
     0
  9
$DIMALTZ
 70
     0
  9
$DIMALTTZ
 70
     0
  9
$DIMUPT
 70
     0
  9
$DIMDEC
 70
     4
  9
$DIMTDEC
 70
     4
  9
$DIMALTU
 70
     2
  9
$DIMALTTD
 70
     2
  9
$DIMTXSTY
  7
STANDARD
  9
$DIMAUNIT
 70
     0
  9
$DIMADEC
 70
     0
  9
$DIMALTRND
 40
0.0
  9
$DIMAZIN
 70
     0
  9
$DIMDSEP
 70
    46
  9
$DIMATFIT
 70
     3
  9
$DIMFRAC
 70
     0
  9
$DIMLDRBLK
  1

  9
$DIMLUNIT
 70
     2
  9
$DIMLWD
 70
    -2
  9
$DIMLWE
 70
    -2
  9
$DIMTMOVE
 70
     0
  9
$LUNITS
 70
     2
  9
$LUPREC
 70
     3
  9
$SKETCHINC
 40
0.1
  9
$FILLETRAD
 40
0.0625
  9
$AUNITS
 70
     0
  9
$AUPREC
 70
     0
  9
$MENU
  1
ACAD
  9
$ELEVATION
 40
0.0
  9
$PELEVATION
 40
0.0
  9
$THICKNESS
 40
0.0
  9
$LIMCHECK
 70
     0
  9
$CHAMFERA
 40
0.0
  9
$CHAMFERB
 40
0.0
  9
$CHAMFERC
 40
0.0
  9
$CHAMFERD
 40
0.0
  9
$SKPOLY
 70
     0
  9
$TDCREATE
 40
2453389.627708333
  9
$TDUCREATE
 40
2453389.252708333
  9
$TDUPDATE
 40
2453395.594546435
  9
$TDUUPDATE
 40
2453395.219546435
  9
$TDINDWG
 40
0.0024518866
  9
$TDUSRTIMER
 40
0.0024518866
  9
$USRTIMER
 70
     1
  9
$ANGBASE
 50
0.0
  9
$ANGDIR
 70
     0
  9
$PDMODE
 70
     0
  9
$PDSIZE
 40
0.0
  9
$PLINEWID
 40
0.0
  9
$SPLFRAME
 70
     0
  9
$SPLINETYPE
 70
     6
  9
$SPLINESEGS
 70
     8
  9
$HANDSEED
  5
1FD
  9
$SURFTAB1
 70
     6
  9
$SURFTAB2
 70
     6
  9
$SURFTYPE
 70
     6
  9
$SURFU
 70
     6
  9
$SURFV
 70
     6
  9
$UCSBASE
  2

  9
$UCSNAME
  2

  9
$UCSORG
 10
0.0
 20
0.0
 30
0.0
  9
$UCSXDIR
 10
1.0
 20
0.0
 30
0.0
  9
$UCSYDIR
 10
0.0
 20
1.0
 30
0.0
  9
$UCSORTHOREF
  2

  9
$UCSORTHOVIEW
 70
     0
  9
$UCSORGTOP
 10
0.0
 20
0.0
 30
0.0
  9
$UCSORGBOTTOM
 10
0.0
 20
0.0
 30
0.0
  9
$UCSORGLEFT
 10
0.0
 20
0.0
 30
0.0
  9
$UCSORGRIGHT
 10
0.0
 20
0.0
 30
0.0
  9
$UCSORGFRONT
 10
0.0
 20
0.0
 30
0.0
  9
$UCSORGBACK
 10
0.0
 20
0.0
 30
0.0
  9
$PUCSBASE
  2

  9
$PUCSNAME
  2

  9
$PUCSORG
 10
0.0
 20
0.0
 30
0.0
  9
$PUCSXDIR
 10
1.0
 20
0.0
 30
0.0
  9
$PUCSYDIR
 10
0.0
 20
1.0
 30
0.0
  9
$PUCSORTHOREF
  2

  9
$PUCSORTHOVIEW
 70
     0
  9
$PUCSORGTOP
 10
0.0
 20
0.0
 30
0.0
  9
$PUCSORGBOTTOM
 10
0.0
 20
0.0
 30
0.0
  9
$PUCSORGLEFT
 10
0.0
 20
0.0
 30
0.0
  9
$PUCSORGRIGHT
 10
0.0
 20
0.0
 30
0.0
  9
$PUCSORGFRONT
 10
0.0
 20
0.0
 30
0.0
  9
$PUCSORGBACK
 10
0.0
 20
0.0
 30
0.0
  9
$USERI1
 70
    24
  9
$USERI2
 70
     0
  9
$USERI3
 70
     0
  9
$USERI4
 70
     0
  9
$USERI5
 70
     0
  9
$USERR1
 40
0.0
  9
$USERR2
 40
0.0
  9
$USERR3
 40
0.0
  9
$USERR4
 40
0.0
  9
$USERR5
 40
0.0
  9
$WORLDVIEW
 70
     1
  9
$SHADEDGE
 70
     3
  9
$SHADEDIF
 70
    70
  9
$TILEMODE
 70
     1
  9
$MAXACTVP
 70
    64
  9
$PINSBASE
 10
0.0
 20
0.0
 30
0.0
  9
$PLIMCHECK
 70
     0
  9
$PEXTMIN
 10
1.000000000000000E+20
 20
1.000000000000000E+20
 30
1.000000000000000E+20
  9
$PEXTMAX
 10
-1.000000000000000E+20
 20
-1.000000000000000E+20
 30
-1.000000000000000E+20
  9
$PLIMMIN
 10
0.0
 20
0.0
  9
$PLIMMAX
 10
12.0
 20
9.0
  9
$UNITMODE
 70
     0
  9
$VISRETAIN
 70
     1
  9
$PLINEGEN
 70
     0
  9
$PSLTSCALE
 70
     1
  9
$TREEDEPTH
 70
  3020
  9
$CMLSTYLE
  2
Standard
  9
$CMLJUST
 70
     0
  9
$CMLSCALE
 40
1.0
  9
$PROXYGRAPHICS
 70
     1
  9
$MEASUREMENT
 70
     0
  9
$CELWEIGHT
370
    -1
  9
$ENDCAPS
280
     0
  9
$JOINSTYLE
280
     0
  9
$LWDISPLAY
290
     0
  9
$INSUNITS
 70
     0
  9
$HYPERLINKBASE
  1

  9
$STYLESHEET
  1

  9
$XEDIT
290
     1
  9
$CEPSNTYPE
380
     0
  9
$PSTYLEMODE
290
     1
  9
$FINGERPRINTGUID
  2
{A19B7E3D-C936-4115-BAB1-F586517FB613}
  9
$VERSIONGUID
  2
{D9FC98FE-E889-4928-AFF8-011CE0E62FA7}
  9
$EXTNAMES
290
     1
  9
$PSVPSCALE
 40
0.0
  9
$OLESTARTUP
290
     0
  0
ENDSEC
  0
SECTION
  2
CLASSES
  0
CLASS
  1
ACDBDICTIONARYWDFLT
  2
AcDbDictionaryWithDefault
  3
AutoCAD 2000
 90
        0
280
     0
281
     0
  0
CLASS
  1
ACDBPLACEHOLDER
  2
AcDbPlaceHolder
  3
AutoCAD 2000
 90
        0
280
     0
281
     0
  0
CLASS
  1
LAYOUT
  2
AcDbLayout
  3
AutoCAD 2000
 90
        0
280
     0
281
     0
  0
CLASS
  1
DICTIONARYVAR
  2
AcDbDictionaryVar
  3
AutoCAD 2000
 90
        0
280
     0
281
     0
  0
ENDSEC
  0
SECTION
  2
TABLES
  0
TABLE
  2
VPORT
  5
19
330
0
100
AcDbSymbolTable
 70
     2
  0
VPORT
  5
1FC
330
19
100
AcDbSymbolTableRecord
100
AcDbViewportTableRecord
  2
*Active
 70
     0
 10
0.0
 20
0.0
 11
1.0
 21
1.0
 12
165.2956546822665
 22
148.4964744371888
 13
0.0
 23
0.0
 14
1.0
 24
1.0
 15
0.0
 25
0.0
 16
0.0
 26
0.0
 36
1.0
 17
0.0
 27
0.0
 37
0.0
 40
301.0072285450853
 41
2.407317073170731
 42
50.0
 43
0.0
 44
0.0
 50
0.0
 51
0.0
 71
     0
 72
   100
 73
     1
 74
     1
 75
     0
 76
     0
 77
     0
 78
     0
281
     0
 65
     1
110
0.0
120
0.0
130
0.0
111
1.0
121
0.0
131
0.0
112
0.0
122
1.0
132
0.0
 79
     0
146
0.0
  0
ENDTAB
  0
TABLE
  2
LTYPE
  5
14
330
0
100
AcDbSymbolTable
 70
     2
  0
LTYPE
  5
15
330
14
100
AcDbSymbolTableRecord
100
AcDbLinetypeTableRecord
  2
ByBlock
 70
     0
  3

 72
    65
 73
     0
 40
0.0
  0
LTYPE
  5
16
330
14
100
AcDbSymbolTableRecord
100
AcDbLinetypeTableRecord
  2
ByLayer
 70
     0
  3

 72
    65
 73
     0
 40
0.0
  0
LTYPE
  5
8
330
14
100
AcDbSymbolTableRecord
100
AcDbLinetypeTableRecord
  2
Continuous
 70
     0
  3
Solid line
 72
    65
 73
     0
 40
0.0
  0
LTYPE
  5
2A
330
14
100
AcDbSymbolTableRecord
100
AcDbLinetypeTableRecord
  2
CENTERLINE
 70
     0
  3
Centerline
 72
    65
 73
     4
 40
25.4
 49
19.05
 74
     0
 49
-1.587499999999999
 74
     0
 49
3.174999999999998
 74
     0
 49
-1.587499999999999
 74
     0
  0
ENDTAB
  0
TABLE
  2
LAYER
  5
10
330
0
100
AcDbSymbolTable
 70
     1
  0
LAYER
  5
4
330
10
100
AcDbSymbolTableRecord
100
AcDbLayerTableRecord
  2
0
 70
     0
 62
     7
  6
Continuous
370
    -3
390
5
  0
ENDTAB
  0
TABLE
  2
STYLE
  5
11
330
0
100
AcDbSymbolTable
 70
     1
  0
STYLE
  5
12
330
11
100
AcDbSymbolTableRecord
100
AcDbTextStyleTableRecord
  2
STANDARD
 70
     0
 40
0.0
 41
1.0
 50
0.0
 71
     0
 42
3.199999809299998
  3
romans.shx
  4
bigfont.shx
  0
ENDTAB
  0
TABLE
  2
VIEW
  5
17
330
0
100
AcDbSymbolTable
 70
     0
  0
ENDTAB
  0
TABLE
  2
UCS
  5
18
330
0
100
AcDbSymbolTable
 70
     0
  0
ENDTAB
  0
TABLE
  2
APPID
  5
1B
330
0
100
AcDbSymbolTable
 70
     1
  0
APPID
  5
1C
330
1B
100
AcDbSymbolTableRecord
100
AcDbRegAppTableRecord
  2
ACAD
 70
     0
  0
ENDTAB
  0
TABLE
  2
DIMSTYLE
  5
1D
330
0
100
AcDbSymbolTable
 70
     1
100
AcDbDimStyleTable
 71
     0
  0
DIMSTYLE
105
23
330
1D
100
AcDbSymbolTableRecord
100
AcDbDimStyleTableRecord
  2
Standard
 70
     0
340
12
  0
ENDTAB
  0
TABLE
  2
BLOCK_RECORD
  5
1
330
0
100
AcDbSymbolTable
 70
     1
  0
BLOCK_RECORD
  5
2
330
1
100
AcDbSymbolTableRecord
100
AcDbBlockTableRecord
  2
*Model_Space
340
A
  0
BLOCK_RECORD
  5
C
330
1
100
AcDbSymbolTableRecord
100
AcDbBlockTableRecord
  2
*Paper_Space
340
F
  0
ENDTAB
  0
ENDSEC
  0
SECTION
  2
BLOCKS
  0
BLOCK
  5
3
330
2
100
AcDbEntity
  8
0
100
AcDbBlockBegin
  2
*Model_Space
 70
     0
 10
0.0
 20
0.0
 30
0.0
  3
*Model_Space
  1

  0
ENDBLK
  5
9
330
2
100
AcDbEntity
  8
0
100
AcDbBlockEnd
  0
BLOCK
  5
D
330
C
100
AcDbEntity
 67
     1
  8
0
100
AcDbBlockBegin
  2
*Paper_Space
 70
     0
 10
0.0
 20
0.0
 30
0.0
  3
*Paper_Space
  1

  0
ENDBLK
  5
E
330
C
100
AcDbEntity
 67
     1
  8
0
100
AcDbBlockEnd
  0
ENDSEC
  0
SECTION
  2
ENTITIES
  0
LINE
  5
24
330
2
100
AcDbEntity
  8
0
100
AcDbLine
 10
210.0
 20
0.0
 30
0.0
 11
210.0
 21
297.0
 31
0.0
  0
LINE
  5
25
330
2
100
AcDbEntity
  8
0
100
AcDbLine
 10
0.0
 20
297.0
 30
0.0
 11
0.0
 21
0.0
 31
0.0
  0
TEXT
  5
26
330
2
100
AcDbEntity
  8
0
 62
     5
100
AcDbText
 10
145.0
 20
10.0
 30
0.0
 40
5.0
  1
MA4-L00155
 41
1.025742787512772
 72
     5
 11
194.3333435899
 21
10.0
 31
0.0
100
AcDbText
  0
LINE
  5
27
330
2
100
AcDbEntity
  8
0
100
AcDbLine
 10
0.0
 20
0.0
 30
0.0
 11
210.0
 21
0.0
 31
0.0
  0
LINE
  5
29
330
2
100
AcDbEntity
  8
0
  6
CENTERLINE
 62
     3
100
AcDbLine
 10
150.6123757972
 20
197.4633636474999
 30
0.0
 11
171.8895059242
 21
197.4633636474999
 31
0.0
  0
LINE
  5
2B
330
2
100
AcDbEntity
  8
0
  6
CENTERLINE
 62
     3
100
AcDbLine
 10
150.6123757972
 20
193.4633636474999
 30
0.0
 11
171.8895059242
 21
193.4633636474999
 31
0.0
  0
LINE
  5
2C
330
2
100
AcDbEntity
  8
0
  6
CENTERLINE
 62
     3
100
AcDbLine
 10
150.6899362219999
 20
185.4633636475
 30
0.0
 11
171.8895059242
 21
185.4633636475
 31
0.0
  0
LINE
  5
2D
330
2
100
AcDbEntity
  8
0
  6
CENTERLINE
 62
     3
100
AcDbLine
 10
150.5735879554
 20
181.4633636474999
 30
0.0
 11
171.8895059242
 21
181.4633636474999
 31
0.0
  0
LINE
  5
2E
330
2
100
AcDbEntity
  8
0
 62
     3
100
AcDbLine
 10
140.3895059241999
 20
180.4633636474999
 30
0.0
 11
168.3895059241999
 21
180.4633636474999
 31
0.0
  0
LINE
  5
2F
330
2
100
AcDbEntity
  8
0
 62
     3
100
AcDbLine
 10
140.3895059241999
 20
202.4633636474999
 30
0.0
 11
168.3895059241999
 21
202.4633636474999
 31
0.0
  0
LINE
  5
30
330
2
100
AcDbEntity
  8
0
  6
CENTERLINE
 62
     3
100
AcDbLine
 10
117.900080265
 20
191.4633636474999
 30
0.0
 11
171.8895059242
 21
191.4633636474999
 31
0.0
  0
LINE
  5
35
330
2
100
AcDbEntity
  8
0
100
AcDbLine
 10
210.0
 20
297.0
 30
0.0
 11
0.0
 21
297.0
 31
0.0
  0
LINE
  5
36
330
2
100
AcDbEntity
  8
0
 62
     3
100
AcDbLine
 10
57.54719025030002
 20
189.6133575438999
 30
0.0
 11
61.9471994056
 21
189.6133575438999
 31
0.0
  0
LINE
  5
37
330
2
100
AcDbEntity
  8
0
 62
     3
100
AcDbLine
 10
57.54719025030002
 20
193.3133697509999
 30
0.0
 11
61.9471994056
 21
193.3133697509999
 31
0.0
  0
LINE
  5
38
330
2
100
AcDbEntity
  8
0
 62
     3
100
AcDbLine
 10
61.74718719860003
 20
199.4633636474999
 30
0.0
 11
63.74718719860002
 21
199.4633636474999
 31
0.0
  0
LINE
  5
39
330
2
100
AcDbEntity
  8
0
 62
     3
100
AcDbLine
 10
55.74718719860001
 20
196.2633666991998
 30
0.0
 11
63.74718719860002
 21
196.2633666991998
 31
0.0
  0
LINE
  5
3A
330
2
100
AcDbEntity
  8
0
 62
     3
100
AcDbLine
 10
55.74718719860001
 20
196.9633636474999
 30
0.0
 11
63.74718719860002
 21
196.9633636474999
 31
0.0
  0
LINE
  5
3B
330
2
100
AcDbEntity
  8
0
 62
     3
100
AcDbLine
 10
57.54719025030002
 20
194.4633636474999
 30
0.0
 11
61.9471994056
 21
194.4633636474999
 31
0.0
  0
LINE
  5
3C
330
2
100
AcDbEntity
  8
0
 62
     3
100
AcDbLine
 10
57.04719025030001
 20
195.4633636474999
 30
0.0
 11
62.4471994056
 21
195.4633636474999
 31
0.0
  0
LINE
  5
3D
330
2
100
AcDbEntity
  8
0
 62
     3
100
AcDbLine
 10
57.54719025030002
 20
188.4633636474999
 30
0.0
 11
61.9471994056
 21
188.4633636474999
 31
0.0
  0
LINE
  5
3E
330
2
100
AcDbEntity
  8
0
 62
     3
100
AcDbLine
 10
57.54719025030002
 20
187.9633636474999
 30
0.0
 11
61.9471994056
 21
187.9633636474999
 31
0.0
  0
LINE
  5
3F
330
2
100
AcDbEntity
  8
0
 62
     3
100
AcDbLine
 10
57.54719025030002
 20
194.9633636475
 30
0.0
 11
61.9471994056
 21
194.9633636475
 31
0.0
  0
LINE
  5
40
330
2
100
AcDbEntity
  8
0
 62
     3
100
AcDbLine
 10
55.74718719860001
 20
203.4633636474999
 30
0.0
 11
63.74718719860002
 21
203.4633636474999
 31
0.0
  0
LINE
  5
41
330
2
100
AcDbEntity
  8
0
 62
     3
100
AcDbLine
 10
61.74718719860003
 20
183.4633636474999
 30
0.0
 11
63.74718719860002
 21
183.4633636474999
 31
0.0
  0
LINE
  5
42
330
2
100
AcDbEntity
  8
0
 62
     3
100
AcDbLine
 10
55.93718964
 20
185.9633636474999
 30
0.0
 11
63.74718719860002
 21
185.9633636474999
 31
0.0
  0
LINE
  5
43
330
2
100
AcDbEntity
  8
0
 62
     3
100
AcDbLine
 10
55.93718964
 20
186.6633605957
 30
0.0
 11
63.74718719860002
 21
186.6633605957
 31
0.0
  0
LINE
  5
44
330
2
100
AcDbEntity
  8
0
 62
     3
100
AcDbLine
 10
57.04719025030001
 20
187.4633636475
 30
0.0
 11
62.4471994056
 21
187.4633636475
 31
0.0
  0
LINE
  5
45
330
2
100
AcDbEntity
  8
0
 62
     3
100
AcDbLine
 10
55.74718719860001
 20
179.4633636474999
 30
0.0
 11
63.74718719860002
 21
179.4633636474999
 31
0.0
  0
LINE
  5
46
330
2
100
AcDbEntity
  8
0
 62
     3
100
AcDbLine
 10
54.4471841468
 20
186.6633605957
 30
0.0
 11
89.04719025030001
 21
186.6633605957
 31
0.0
  0
LINE
  5
47
330
2
100
AcDbEntity
  8
0
 62
     3
100
AcDbLine
 10
53.74718719860002
 20
185.9633636474999
 30
0.0
 11
89.7471871986
 21
185.9633636474999
 31
0.0
  0
LINE
  5
48
330
2
100
AcDbEntity
  8
0
 62
     3
100
AcDbLine
 10
53.74718719860002
 20
196.9633636474999
 30
0.0
 11
89.7471871986
 21
196.9633636474999
 31
0.0
  0
LINE
  5
49
330
2
100
AcDbEntity
  8
0
 62
     3
100
AcDbLine
 10
54.4471841468
 20
196.2633666991998
 30
0.0
 11
89.04719025030001
 21
196.2633666991998
 31
0.0
  0
LINE
  5
4A
330
2
100
AcDbEntity
  8
0
 62
     3
100
AcDbLine
 10
57.54719025030002
 20
194.9633636475
 30
0.0
 11
57.54719025030002
 21
187.9633636474999
 31
0.0
  0
LINE
  5
4B
330
2
100
AcDbEntity
  8
0
 62
     3
100
AcDbLine
 10
57.04719025030001
 20
195.4633636474999
 30
0.0
 11
57.04719025030001
 21
187.4633636475
 31
0.0
  0
LINE
  5
4C
330
2
100
AcDbEntity
  8
0
 62
     3
100
AcDbLine
 10
55.74718719860001
 20
203.4633636474999
 30
0.0
 11
55.74718719860001
 21
179.4633636474999
 31
0.0
  0
LINE
  5
4D
330
2
100
AcDbEntity
  8
0
 62
     3
100
AcDbLine
 10
53.74718719860002
 20
196.9633636474999
 30
0.0
 11
53.74718719860002
 21
185.9633636474999
 31
0.0
  0
LINE
  5
4E
330
2
100
AcDbEntity
  8
0
 62
     3
100
AcDbLine
 10
54.4471841468
 20
196.2633666991998
 30
0.0
 11
54.4471841468
 21
186.6633605957
 31
0.0
  0
LINE
  5
4F
330
2
100
AcDbEntity
  8
0
 62
     3
100
AcDbLine
 10
51.74718719860003
 20
202.4633636474999
 30
0.0
 11
51.74718719860003
 21
180.4633636474999
 31
0.0
  0
LINE
  5
50
330
2
100
AcDbEntity
  8
0
 62
     3
100
AcDbLine
 10
55.74718719860001
 20
205.4633636474999
 30
0.0
 11
55.74718719860001
 21
177.4633636474999
 31
0.0
  0
LINE
  5
51
330
2
100
AcDbEntity
  8
0
 62
     3
100
AcDbLine
 10
51.74718719860003
 20
183.4633636474999
 30
0.0
 11
55.74718719860001
 21
183.4633636474999
 31
0.0
  0
LINE
  5
52
330
2
100
AcDbEntity
  8
0
 62
     3
100
AcDbLine
 10
52.7471871986
 20
179.4633636474999
 30
0.0
 11
55.74718719860001
 21
179.4633636474999
 31
0.0
  0
ARC
  5
53
330
2
100
AcDbEntity
  8
0
 62
     3
100
AcDbCircle
 10
52.7471871986
 20
180.4633636474999
 30
0.0
 40
1.0
100
AcDbArc
 50
179.9999640277999
 51
270.0000006831999
  0
LINE
  5
54
330
2
100
AcDbEntity
  8
0
 62
     3
100
AcDbLine
 10
55.74718719860001
 20
177.4633636474999
 30
0.0
 11
54.24718719860003
 21
177.4633636474999
 31
0.0
  0
LINE
  5
55
330
2
100
AcDbEntity
  8
0
 62
     3
100
AcDbLine
 10
55.74718719860001
 20
177.9633636474999
 30
0.0
 11
54.24718719860003
 21
177.9633636474999
 31
0.0
  0
LINE
  5
56
330
2
100
AcDbEntity
  8
0
 62
     3
100
AcDbLine
 10
55.74718719860001
 20
177.7133636474999
 30
0.0
 11
54.24718719860003
 21
177.7133636474999
 31
0.0
  0
LINE
  5
57
330
2
100
AcDbEntity
  8
0
 62
     3
100
AcDbLine
 10
55.74718719860001
 20
178.9633636474999
 30
0.0
 11
54.24718719860003
 21
178.9633636474999
 31
0.0
  0
LINE
  5
58
330
2
100
AcDbEntity
  8
0
 62
     3
100
AcDbLine
 10
55.74718719860001
 20
178.2133636474999
 30
0.0
 11
54.24718719860003
 21
178.2133636474999
 31
0.0
  0
LINE
  5
59
330
2
100
AcDbEntity
  8
0
 62
     3
100
AcDbLine
 10
55.74718719860001
 20
178.4633636474999
 30
0.0
 11
54.24718719860003
 21
178.4633636474999
 31
0.0
  0
LINE
  5
5A
330
2
100
AcDbEntity
  8
0
 62
     3
100
AcDbLine
 10
54.24718719860003
 20
179.4633636474999
 30
0.0
 11
54.24718719860003
 21
177.4633636474999
 31
0.0
  0
LINE
  5
5B
330
2
100
AcDbEntity
  8
0
 62
     3
100
AcDbLine
 10
55.74718719860001
 20
183.4633636474999
 30
0.0
 11
57.7471871986
 21
183.4633636474999
 31
0.0
  0
LINE
  5
5C
330
2
100
AcDbEntity
  8
0
 62
     3
100
AcDbLine
 10
54.44719063109999
 20
186.6633537922
 30
0.0
 11
53.7471834143
 21
185.9633465754
 31
0.0
  0
LINE
  5
5D
330
2
100
AcDbEntity
  8
0
 62
     3
100
AcDbLine
 10
57.54718097460003
 20
187.9633594881999
 30
0.0
 11
57.04718044380001
 21
187.4633589573998
 31
0.0
  0
ARC
  5
5E
330
2
100
AcDbEntity
  8
0
 62
     3
100
AcDbCircle
 10
59.74718719860002
 20
184.9633636474999
 30
0.0
 40
0.1999969482
100
AcDbArc
 50
0.0
 51
179.9999093863
  0
ARC
  5
5F
330
2
100
AcDbEntity
  8
0
 62
     3
100
AcDbCircle
 10
59.74718719860002
 20
183.9633636474999
 30
0.0
 40
0.1999969482
100
AcDbArc
 50
179.9999093863
 51
359.9999826972
  0
LINE
  5
60
330
2
100
AcDbEntity
  8
0
 62
     3
100
AcDbLine
 10
57.7471871986
 20
183.3633728027
 30
0.0
 11
61.74718719860003
 21
183.3633728027
 31
0.0
  0
LINE
  5
61
330
2
100
AcDbEntity
  8
0
 62
     3
100
AcDbLine
 10
57.7471871986
 20
185.5633544922
 30
0.0
 11
61.74718719860003
 21
185.5633544922
 31
0.0
  0
ARC
  5
62
330
2
100
AcDbEntity
  8
0
 62
     3
100
AcDbCircle
 10
59.24718719860003
 20
184.4633636474999
 30
0.0
 40
0.1999969482
100
AcDbArc
 50
89.99992737239997
 51
269.9999460416999
  0
LINE
  5
63
330
2
100
AcDbEntity
  8
0
 62
     3
100
AcDbLine
 10
59.54719025030001
 20
184.6633605957
 30
0.0
 11
59.54719025030001
 21
184.9633636474999
 31
0.0
  0
LINE
  5
64
330
2
100
AcDbEntity
  8
0
 62
     3
100
AcDbLine
 10
59.24718719860003
 20
184.2633666992
 30
0.0
 11
59.54719025030001
 21
184.2633666992
 31
0.0
  0
LINE
  5
65
330
2
100
AcDbEntity
  8
0
 62
     3
100
AcDbLine
 10
59.24718719860003
 20
184.6633605957
 30
0.0
 11
59.54719025030001
 21
184.6633605957
 31
0.0
  0
LINE
  5
66
330
2
100
AcDbEntity
  8
0
 62
     3
100
AcDbLine
 10
59.54719025030001
 20
183.9633483886999
 30
0.0
 11
59.54719025030001
 21
184.2633666992
 31
0.0
  0
LINE
  5
67
330
2
100
AcDbEntity
  8
0
 62
     3
100
AcDbLine
 10
57.7471871986
 20
183.3633728027
 30
0.0
 11
57.7471871986
 21
185.5633544922
 31
0.0
  0
ARC
  5
68
330
2
100
AcDbEntity
  8
0
 62
     3
100
AcDbCircle
 10
60.24720245740002
 20
184.4633636474999
 30
0.0
 40
0.1999969482
100
AcDbArc
 50
269.9999633446
 51
89.9999273723999
  0
LINE
  5
69
330
2
100
AcDbEntity
  8
0
 62
     3
100
AcDbLine
 10
59.94718414680001
 20
184.6633605957
 30
0.0
 11
59.94718414680001
 21
184.9633636474999
 31
0.0
  0
LINE
  5
6A
330
2
100
AcDbEntity
  8
0
 62
     3
100
AcDbLine
 10
59.94718414680001
 20
184.2633666992
 30
0.0
 11
60.24720245740002
 21
184.2633666992
 31
0.0
  0
LINE
  5
6B
330
2
100
AcDbEntity
  8
0
 62
     3
100
AcDbLine
 10
59.94718414680001
 20
184.6633605957
 30
0.0
 11
60.24720245740002
 21
184.6633605957
 31
0.0
  0
LINE
  5
6C
330
2
100
AcDbEntity
  8
0
 62
     3
100
AcDbLine
 10
59.94718414680001
 20
183.9633483886999
 30
0.0
 11
59.94718414680001
 21
184.2633666992
 31
0.0
  0
LINE
  5
6D
330
2
100
AcDbEntity
  8
0
 62
     3
100
AcDbLine
 10
61.74718719860003
 20
183.3633728027
 30
0.0
 11
61.74718719860003
 21
185.5633544922
 31
0.0
  0
ARC
  5
6E
330
2
100
AcDbEntity
  8
0
 62
     3
100
AcDbCircle
 10
59.74718719860002
 20
190.9633636474999
 30
0.0
 40
0.8000000715
100
AcDbArc
 50
179.9999640277999
 51
359.9999826972
  0
ARC
  5
6F
330
2
100
AcDbEntity
  8
0
 62
     3
100
AcDbCircle
 10
59.74718719860002
 20
190.9633636474999
 30
0.0
 40
0.7000000476999999
100
AcDbArc
 50
179.9999640277999
 51
359.9999826972
  0
ARC
  5
70
330
2
100
AcDbEntity
  8
0
 62
     3
100
AcDbCircle
 10
59.74718719860002
 20
190.9633636474999
 30
0.0
 40
0.6000000238000001
100
AcDbArc
 50
179.9999640277999
 51
359.9999826972
  0
ARC
  5
71
330
2
100
AcDbEntity
  8
0
 62
     3
100
AcDbCircle
 10
59.74718719860002
 20
191.9633636474999
 30
0.0
 40
0.5999999642000003
100
AcDbArc
 50
0.0
 51
179.9999640277999
  0
ARC
  5
72
330
2
100
AcDbEntity
  8
0
 62
     3
100
AcDbCircle
 10
59.74718719860002
 20
191.9633636474999
 30
0.0
 40
0.6999999881
100
AcDbArc
 50
0.0
 51
179.9999640277999
  0
ARC
  5
73
330
2
100
AcDbEntity
  8
0
 62
     3
100
AcDbCircle
 10
59.74718719860002
 20
191.9633636474999
 30
0.0
 40
0.8000000119
100
AcDbArc
 50
0.0
 51
179.9999640277999
  0
ARC
  5
74
330
2
100
AcDbEntity
  8
0
 62
     3
100
AcDbCircle
 10
59.74718719860002
 20
190.9633636474999
 30
0.0
 40
0.5
100
AcDbArc
 50
179.9999640277999
 51
359.9999826972
  0
ARC
  5
75
330
2
100
AcDbEntity
  8
0
 62
     3
100
AcDbCircle
 10
59.74718719860002
 20
190.9633636474999
 30
0.0
 40
0.9000000357999999
100
AcDbArc
 50
179.9999640277999
 51
359.9999826972
  0
ARC
  5
76
330
2
100
AcDbEntity
  8
0
 62
     3
100
AcDbCircle
 10
59.74718719860002
 20
191.9633636474999
 30
0.0
 40
0.5
100
AcDbArc
 50
0.0
 51
179.9999640277999
  0
ARC
  5
77
330
2
100
AcDbEntity
  8
0
 62
     3
100
AcDbCircle
 10
59.74718719860002
 20
191.9633636474999
 30
0.0
 40
0.9000000357999999
100
AcDbArc
 50
0.0
 51
179.9999640277999
  0
LINE
  5
78
330
2
100
AcDbEntity
  8
0
 62
     3
100
AcDbLine
 10
59.14721161260001
 20
191.9633636474999
 30
0.0
 11
59.14721161260001
 21
190.9633636474999
 31
0.0
  0
LINE
  5
79
330
2
100
AcDbEntity
  8
0
 62
     3
100
AcDbLine
 10
59.04720550910003
 20
191.9633636474999
 30
0.0
 11
59.04720550910003
 21
190.9633636474999
 31
0.0
  0
LINE
  5
7A
330
2
100
AcDbEntity
  8
0
 62
     3
100
AcDbLine
 10
58.9471994056
 20
191.9633636474999
 30
0.0
 11
58.9471994056
 21
190.9633636474999
 31
0.0
  0
LINE
  5
7B
330
2
100
AcDbEntity
  8
0
 62
     3
100
AcDbLine
 10
59.24718719860003
 20
191.9633636474999
 30
0.0
 11
59.24718719860003
 21
190.9633636474999
 31
0.0
  0
LINE
  5
7C
330
2
100
AcDbEntity
  8
0
 62
     3
100
AcDbLine
 10
58.84719330210001
 20
191.9633636474999
 30
0.0
 11
58.84719330210001
 21
190.9633636474999
 31
0.0
  0
LINE
  5
7D
330
2
100
AcDbEntity
  8
0
 62
     3
100
AcDbLine
 10
60.54720550910002
 20
191.9633636474999
 30
0.0
 11
60.54720550910002
 21
190.9633636474999
 31
0.0
  0
LINE
  5
7E
330
2
100
AcDbEntity
  8
0
 62
     3
100
AcDbLine
 10
60.4471994056
 20
191.9633636474999
 30
0.0
 11
60.4471994056
 21
190.9633636474999
 31
0.0
  0
LINE
  5
7F
330
2
100
AcDbEntity
  8
0
 62
     3
100
AcDbLine
 10
60.34719330210001
 20
191.9633636474999
 30
0.0
 11
60.34719330210001
 21
190.9633636474999
 31
0.0
  0
LINE
  5
80
330
2
100
AcDbEntity
  8
0
 62
     3
100
AcDbLine
 10
60.2471871986
 20
191.9633636474999
 30
0.0
 11
60.2471871986
 21
190.9633636474999
 31
0.0
  0
LINE
  5
81
330
2
100
AcDbEntity
  8
0
 62
     3
100
AcDbLine
 10
60.6471810951
 20
191.9633636474999
 30
0.0
 11
60.6471810951
 21
190.9633636474999
 31
0.0
  0
LINE
  5
82
330
2
100
AcDbEntity
  8
0
 62
     3
100
AcDbLine
 10
51.74718719860003
 20
199.4633636474999
 30
0.0
 11
55.74718719860001
 21
199.4633636474999
 31
0.0
  0
LINE
  5
83
330
2
100
AcDbEntity
  8
0
 62
     3
100
AcDbLine
 10
52.7471871986
 20
203.4633636474999
 30
0.0
 11
55.74718719860001
 21
203.4633636474999
 31
0.0
  0
ARC
  5
84
330
2
100
AcDbEntity
  8
0
 62
     3
100
AcDbCircle
 10
52.7471871986
 20
202.4633636474999
 30
0.0
 40
1.0
100
AcDbArc
 50
89.99998201389999
 51
179.9999640277999
  0
LINE
  5
85
330
2
100
AcDbEntity
  8
0
 62
     3
100
AcDbLine
 10
55.74718719860001
 20
199.4633636474999
 30
0.0
 11
57.7471871986
 21
199.4633636474999
 31
0.0
  0
LINE
  5
86
330
2
100
AcDbEntity
  8
0
 62
     3
100
AcDbLine
 10
53.74717262469999
 20
196.9633690424999
 30
0.0
 11
54.44717984149999
 21
196.2633618256
 31
0.0
  0
LINE
  5
87
330
2
100
AcDbEntity
  8
0
 62
     3
100
AcDbLine
 10
57.04718044380001
 20
195.4633458709
 30
0.0
 11
57.54718097460003
 21
194.9633453400999
 31
0.0
  0
LINE
  5
88
330
2
100
AcDbEntity
  8
0
 62
     3
100
AcDbLine
 10
55.74718719860001
 20
203.9633636475
 30
0.0
 11
54.24718719860003
 21
203.9633636475
 31
0.0
  0
LINE
  5
89
330
2
100
AcDbEntity
  8
0
 62
     3
100
AcDbLine
 10
55.74718719860001
 20
204.4633636474999
 30
0.0
 11
54.24718719860003
 21
204.4633636474999
 31
0.0
  0
LINE
  5
8A
330
2
100
AcDbEntity
  8
0
 62
     3
100
AcDbLine
 10
55.74718719860001
 20
204.9633636474999
 30
0.0
 11
54.24718719860003
 21
204.9633636474999
 31
0.0
  0
LINE
  5
8B
330
2
100
AcDbEntity
  8
0
 62
     3
100
AcDbLine
 10
55.74718719860001
 20
204.7133636474999
 30
0.0
 11
54.24718719860003
 21
204.7133636474999
 31
0.0
  0
LINE
  5
8C
330
2
100
AcDbEntity
  8
0
 62
     3
100
AcDbLine
 10
55.74718719860001
 20
205.2133636474999
 30
0.0
 11
54.24718719860003
 21
205.2133636474999
 31
0.0
  0
LINE
  5
8D
330
2
100
AcDbEntity
  8
0
 62
     3
100
AcDbLine
 10
55.74718719860001
 20
205.4633636474999
 30
0.0
 11
54.24718719860003
 21
205.4633636474999
 31
0.0
  0
LINE
  5
8E
330
2
100
AcDbEntity
  8
0
 62
     3
100
AcDbLine
 10
54.24718719860003
 20
205.4633636474999
 30
0.0
 11
54.24718719860003
 21
203.4633636474999
 31
0.0
  0
LINE
  5
8F
330
2
100
AcDbEntity
  8
0
 62
     3
100
AcDbLine
 10
59.24718719860003
 20
198.2633666991999
 30
0.0
 11
60.24720245740002
 21
198.2633666991999
 31
0.0
  0
LINE
  5
90
330
2
100
AcDbEntity
  8
0
 62
     3
100
AcDbLine
 10
59.24718719860003
 20
198.6633605956999
 30
0.0
 11
60.24720245740002
 21
198.6633605956999
 31
0.0
  0
LINE
  5
91
330
2
100
AcDbEntity
  8
0
 62
     3
100
AcDbLine
 10
57.7471871986
 20
197.3633728027
 30
0.0
 11
61.74718719860003
 21
197.3633728027
 31
0.0
  0
LINE
  5
92
330
2
100
AcDbEntity
  8
0
 62
     3
100
AcDbLine
 10
57.7471871986
 20
199.5633544922
 30
0.0
 11
61.74718719860003
 21
199.5633544922
 31
0.0
  0
ARC
  5
93
330
2
100
AcDbEntity
  8
0
 62
     3
100
AcDbCircle
 10
59.24718719860003
 20
198.4633636474999
 30
0.0
 40
0.1999969482
100
AcDbArc
 50
89.99998201389999
 51
270.0000006831999
  0
LINE
  5
94
330
2
100
AcDbEntity
  8
0
 62
     3
100
AcDbLine
 10
57.7471871986
 20
199.5633544922
 30
0.0
 11
57.7471871986
 21
197.3633728027
 31
0.0
  0
ARC
  5
95
330
2
100
AcDbEntity
  8
0
 62
     3
100
AcDbCircle
 10
60.24720245740002
 20
198.4633636474999
 30
0.0
 40
0.1999969482
100
AcDbArc
 50
270.0000179861
 51
89.99998201389994
  0
LINE
  5
96
330
2
100
AcDbEntity
  8
0
 62
     3
100
AcDbLine
 10
61.74718719860003
 20
199.5633544922
 30
0.0
 11
61.74718719860003
 21
197.3633728027
 31
0.0
  0
LINE
  5
97
330
2
100
AcDbEntity
  8
0
 62
     3
100
AcDbLine
 10
87.7471871986
 20
205.4633636474999
 30
0.0
 11
87.7471871986
 21
191.4633636474999
 31
0.0
  0
LINE
  5
98
330
2
100
AcDbEntity
  8
0
 62
     3
100
AcDbLine
 10
85.94719940560002
 20
194.9633636475
 30
0.0
 11
85.94719940560002
 21
187.9633636474999
 31
0.0
  0
LINE
  5
99
330
2
100
AcDbEntity
  8
0
 62
     3
100
AcDbLine
 10
81.54719025030003
 20
194.9633636475
 30
0.0
 11
81.54719025030003
 21
187.9633636474999
 31
0.0
  0
LINE
  5
9A
330
2
100
AcDbEntity
  8
0
 62
     3
100
AcDbLine
 10
78.4471994056
 20
195.4633636474999
 30
0.0
 11
78.4471994056
 21
187.4633636475
 31
0.0
  0
LINE
  5
9B
330
2
100
AcDbEntity
  8
0
 62
     3
100
AcDbLine
 10
79.74718719860002
 20
203.4633636474999
 30
0.0
 11
79.74718719860002
 21
179.4633636474999
 31
0.0
  0
LINE
  5
9C
330
2
100
AcDbEntity
  8
0
 62
     3
100
AcDbLine
 10
86.44719940560001
 20
195.4633636474999
 30
0.0
 11
86.44719940560001
 21
187.4633636475
 31
0.0
  0
LINE
  5
9D
330
2
100
AcDbEntity
  8
0
 62
     3
100
AcDbLine
 10
81.04719025030002
 20
195.4633636474999
 30
0.0
 11
81.04719025030002
 21
187.4633636475
 31
0.0
  0
LINE
  5
9E
330
2
100
AcDbEntity
  8
0
 62
     3
100
AcDbLine
 10
91.74718719860001
 20
202.4633636474999
 30
0.0
 11
91.74718719860001
 21
180.4633636474999
 31
0.0
  0
LINE
  5
9F
330
2
100
AcDbEntity
  8
0
 62
     3
100
AcDbLine
 10
89.7471871986
 20
196.9633636474999
 30
0.0
 11
89.7471871986
 21
185.9633636474999
 31
0.0
  0
LINE
  5
A0
330
2
100
AcDbEntity
  8
0
 62
     3
100
AcDbLine
 10
89.04719025030001
 20
196.2633666991998
 30
0.0
 11
89.04719025030001
 21
186.6633605957
 31
0.0
  0
LINE
  5
A1
330
2
100
AcDbEntity
  8
0
 62
     3
100
AcDbLine
 10
77.9471994056
 20
194.9633636475
 30
0.0
 11
77.9471994056
 21
187.9633636474999
 31
0.0
  0
LINE
  5
A2
330
2
100
AcDbEntity
  8
0
 62
     3
100
AcDbLine
 10
73.54719025030002
 20
194.9633636475
 30
0.0
 11
73.54719025030002
 21
187.9633636474999
 31
0.0
  0
LINE
  5
A3
330
2
100
AcDbEntity
  8
0
 62
     3
100
AcDbLine
 10
69.9471994056
 20
194.9633636475
 30
0.0
 11
69.9471994056
 21
187.9633636474999
 31
0.0
  0
LINE
  5
A4
330
2
100
AcDbEntity
  8
0
 62
     3
100
AcDbLine
 10
65.54719025030002
 20
194.9633636475
 30
0.0
 11
65.54719025030002
 21
187.9633636474999
 31
0.0
  0
LINE
  5
A5
330
2
100
AcDbEntity
  8
0
 62
     3
100
AcDbLine
 10
61.9471994056
 20
194.9633636475
 30
0.0
 11
61.9471994056
 21
187.9633636474999
 31
0.0
  0
LINE
  5
A6
330
2
100
AcDbEntity
  8
0
 62
     3
100
AcDbLine
 10
71.74718719860002
 20
203.4633636474999
 30
0.0
 11
71.74718719860002
 21
179.4633636474999
 31
0.0
  0
LINE
  5
A7
330
2
100
AcDbEntity
  8
0
 62
     3
100
AcDbLine
 10
73.04719025030002
 20
195.4633636474999
 30
0.0
 11
73.04719025030002
 21
187.4633636475
 31
0.0
  0
LINE
  5
A8
330
2
100
AcDbEntity
  8
0
 62
     3
100
AcDbLine
 10
63.74718719860002
 20
203.4633636474999
 30
0.0
 11
63.74718719860002
 21
179.4633636474999
 31
0.0
  0
LINE
  5
A9
330
2
100
AcDbEntity
  8
0
 62
     3
100
AcDbLine
 10
70.4471994056
 20
195.4633636474999
 30
0.0
 11
70.4471994056
 21
187.4633636475
 31
0.0
  0
LINE
  5
AA
330
2
100
AcDbEntity
  8
0
 62
     3
100
AcDbLine
 10
65.04719025030002
 20
195.4633636474999
 30
0.0
 11
65.04719025030002
 21
187.4633636475
 31
0.0
  0
LINE
  5
AB
330
2
100
AcDbEntity
  8
0
 62
     3
100
AcDbLine
 10
62.4471994056
 20
195.4633636474999
 30
0.0
 11
62.4471994056
 21
187.4633636475
 31
0.0
  0
LINE
  5
AC
330
2
100
AcDbEntity
  8
0
 62
     3
100
AcDbLine
 10
77.74718719860001
 20
183.4633636474999
 30
0.0
 11
79.74718719860002
 21
183.4633636474999
 31
0.0
  0
LINE
  5
AD
330
2
100
AcDbEntity
  8
0
 62
     3
100
AcDbLine
 10
71.93718964000002
 20
185.9633636474999
 30
0.0
 11
79.74718719860002
 21
185.9633636474999
 31
0.0
  0
LINE
  5
AE
330
2
100
AcDbEntity
  8
0
 62
     3
100
AcDbLine
 10
71.93718964000002
 20
186.6633605957
 30
0.0
 11
79.74718719860002
 21
186.6633605957
 31
0.0
  0
LINE
  5
AF
330
2
100
AcDbEntity
  8
0
 62
     3
100
AcDbLine
 10
77.9471832097
 20
187.9633271193999
 30
0.0
 11
78.44718374050001
 21
187.4633265886
 31
0.0
  0
LINE
  5
B0
330
2
100
AcDbEntity
  8
0
 62
     3
100
AcDbLine
 10
73.04719025030002
 20
187.4633636475
 30
0.0
 11
78.4471994056
 21
187.4633636475
 31
0.0
  0
LINE
  5
B1
330
2
100
AcDbEntity
  8
0
 62
     3
100
AcDbLine
 10
71.74718719860002
 20
179.4633636474999
 30
0.0
 11
79.74718719860002
 21
179.4633636474999
 31
0.0
  0
LINE
  5
B2
330
2
100
AcDbEntity
  8
0
 62
     3
100
AcDbLine
 10
65.54719025030002
 20
189.6133575438999
 30
0.0
 11
69.9471994056
 21
189.6133575438999
 31
0.0
  0
LINE
  5
B3
330
2
100
AcDbEntity
  8
0
 62
     3
100
AcDbLine
 10
65.54719025030002
 20
193.3133697509999
 30
0.0
 11
69.9471994056
 21
193.3133697509999
 31
0.0
  0
LINE
  5
B4
330
2
100
AcDbEntity
  8
0
 62
     3
100
AcDbLine
 10
65.54719025030002
 20
188.4633636474999
 30
0.0
 11
69.9471994056
 21
188.4633636474999
 31
0.0
  0
LINE
  5
B5
330
2
100
AcDbEntity
  8
0
 62
     3
100
AcDbLine
 10
65.54719025030002
 20
187.9633636474999
 30
0.0
 11
69.9471994056
 21
187.9633636474999
 31
0.0
  0
LINE
  5
B6
330
2
100
AcDbEntity
  8
0
 62
     3
100
AcDbLine
 10
69.74718719860003
 20
183.4633636474999
 30
0.0
 11
71.74718719860002
 21
183.4633636474999
 31
0.0
  0
LINE
  5
B7
330
2
100
AcDbEntity
  8
0
 62
     3
100
AcDbLine
 10
63.93718964000001
 20
185.9633636474999
 30
0.0
 11
71.74718719860002
 21
185.9633636474999
 31
0.0
  0
LINE
  5
B8
330
2
100
AcDbEntity
  8
0
 62
     3
100
AcDbLine
 10
63.93718964000001
 20
186.6633605957
 30
0.0
 11
71.74718719860002
 21
186.6633605957
 31
0.0
  0
LINE
  5
B9
330
2
100
AcDbEntity
  8
0
 62
     3
100
AcDbLine
 10
65.04719025030002
 20
187.4633636475
 30
0.0
 11
70.4471994056
 21
187.4633636475
 31
0.0
  0
LINE
  5
BA
330
2
100
AcDbEntity
  8
0
 62
     3
100
AcDbLine
 10
63.74718719860002
 20
179.4633636474999
 30
0.0
 11
71.74718719860002
 21
179.4633636474999
 31
0.0
  0
LINE
  5
BB
330
2
100
AcDbEntity
  8
0
 62
     3
100
AcDbLine
 10
65.7471871986
 20
183.3633728027
 30
0.0
 11
69.74718719860003
 21
183.3633728027
 31
0.0
  0
LINE
  5
BC
330
2
100
AcDbEntity
  8
0
 62
     3
100
AcDbLine
 10
65.7471871986
 20
185.5633544922
 30
0.0
 11
69.74718719860003
 21
185.5633544922
 31
0.0
  0
LINE
  5
BD
330
2
100
AcDbEntity
  8
0
 62
     3
100
AcDbLine
 10
63.74718719860002
 20
183.4633636474999
 30
0.0
 11
65.7471871986
 21
183.4633636474999
 31
0.0
  0
LINE
  5
BE
330
2
100
AcDbEntity
  8
0
 62
     3
100
AcDbLine
 10
61.9471770139
 20
187.963337909
 30
0.0
 11
62.44717754470002
 21
187.4633373782
 31
0.0
  0
LINE
  5
BF
330
2
100
AcDbEntity
  8
0
 62
     3
100
AcDbLine
 10
65.7471871986
 20
183.3633728027
 30
0.0
 11
65.7471871986
 21
185.5633544922
 31
0.0
  0
LINE
  5
C0
330
2
100
AcDbEntity
  8
0
 62
     3
100
AcDbLine
 10
65.5471786777
 20
187.9633486986
 30
0.0
 11
65.0471781469
 21
187.4633481677999
 31
0.0
  0
ARC
  5
C1
330
2
100
AcDbEntity
  8
0
 62
     3
100
AcDbCircle
 10
67.7471871986
 20
184.9633636474999
 30
0.0
 40
0.1999969482
100
AcDbArc
 50
0.0
 51
179.9999093863
  0
ARC
  5
C2
330
2
100
AcDbEntity
  8
0
 62
     3
100
AcDbCircle
 10
67.7471871986
 20
183.9633636474999
 30
0.0
 40
0.1999969482
100
AcDbArc
 50
179.9999093863
 51
359.9999826972
  0
ARC
  5
C3
330
2
100
AcDbEntity
  8
0
 62
     3
100
AcDbCircle
 10
67.24718719860003
 20
184.4633636474999
 30
0.0
 40
0.1999969482
100
AcDbArc
 50
89.99992737239997
 51
269.9999460416999
  0
LINE
  5
C4
330
2
100
AcDbEntity
  8
0
 62
     3
100
AcDbLine
 10
67.54719025030002
 20
184.6633605957
 30
0.0
 11
67.54719025030002
 21
184.9633636474999
 31
0.0
  0
LINE
  5
C5
330
2
100
AcDbEntity
  8
0
 62
     3
100
AcDbLine
 10
67.24718719860003
 20
184.2633666992
 30
0.0
 11
67.54719025030002
 21
184.2633666992
 31
0.0
  0
LINE
  5
C6
330
2
100
AcDbEntity
  8
0
 62
     3
100
AcDbLine
 10
67.24718719860003
 20
184.6633605957
 30
0.0
 11
67.54719025030002
 21
184.6633605957
 31
0.0
  0
LINE
  5
C7
330
2
100
AcDbEntity
  8
0
 62
     3
100
AcDbLine
 10
67.54719025030002
 20
183.9633483886999
 30
0.0
 11
67.54719025030002
 21
184.2633666992
 31
0.0
  0
ARC
  5
C8
330
2
100
AcDbEntity
  8
0
 62
     3
100
AcDbCircle
 10
68.24720245740002
 20
184.4633636474999
 30
0.0
 40
0.1999969482
100
AcDbArc
 50
269.9999633446
 51
89.9999273723999
  0
LINE
  5
C9
330
2
100
AcDbEntity
  8
0
 62
     3
100
AcDbLine
 10
67.9471841468
 20
184.6633605957
 30
0.0
 11
67.9471841468
 21
184.9633636474999
 31
0.0
  0
LINE
  5
CA
330
2
100
AcDbEntity
  8
0
 62
     3
100
AcDbLine
 10
67.9471841468
 20
184.2633666992
 30
0.0
 11
68.24720245740002
 21
184.2633666992
 31
0.0
  0
LINE
  5
CB
330
2
100
AcDbEntity
  8
0
 62
     3
100
AcDbLine
 10
67.9471841468
 20
184.6633605957
 30
0.0
 11
68.24720245740002
 21
184.6633605957
 31
0.0
  0
LINE
  5
CC
330
2
100
AcDbEntity
  8
0
 62
     3
100
AcDbLine
 10
67.9471841468
 20
183.9633483886999
 30
0.0
 11
67.9471841468
 21
184.2633666992
 31
0.0
  0
LINE
  5
CD
330
2
100
AcDbEntity
  8
0
 62
     3
100
AcDbLine
 10
69.74718719860003
 20
183.3633728027
 30
0.0
 11
69.74718719860003
 21
185.5633544922
 31
0.0
  0
LINE
  5
CE
330
2
100
AcDbEntity
  8
0
 62
     3
100
AcDbLine
 10
67.54719025030002
 20
190.0633697509999
 30
0.0
 11
67.9471841468
 21
190.0633697509999
 31
0.0
  0
LINE
  5
CF
330
2
100
AcDbEntity
  8
0
 62
     3
100
AcDbLine
 10
67.7471871986
 20
192.8633575438999
 30
0.0
 11
67.9471841468
 21
192.8633575438999
 31
0.0
  0
LINE
  5
D0
330
2
100
AcDbEntity
  8
0
 62
     3
100
AcDbLine
 10
67.6471789468
 20
192.4083608236
 30
0.0
 11
67.299355417
 21
192.2924196616
 31
0.0
  0
LINE
  5
D1
330
2
100
AcDbEntity
  8
0
 62
     3
100
AcDbLine
 10
67.64718377599999
 20
192.5137781223
 30
0.0
 11
67.14719107089999
 21
192.3471139081999
 31
0.0
  0
LINE
  5
D2
330
2
100
AcDbEntity
  8
0
 62
     3
100
AcDbLine
 10
67.6471741295
 20
192.6191905958
 30
0.0
 11
67.1471959001
 21
192.4525312068999
 31
0.0
  0
LINE
  5
D3
330
2
100
AcDbEntity
  8
0
 62
     3
100
AcDbLine
 10
67.64717895870001
 20
192.7246078945
 30
0.0
 11
67.14720072929999
 21
192.5579485056
 31
0.0
  0
LINE
  5
D4
330
2
100
AcDbEntity
  8
0
 62
     3
100
AcDbLine
 10
67.64716583630002
 20
192.8300170898
 30
0.0
 11
67.64716583630002
 21
190.0633697509999
 31
0.0
  0
LINE
  5
D5
330
2
100
AcDbEntity
  8
0
 62
     3
100
AcDbLine
 10
67.74717193980001
 20
192.8633575438999
 30
0.0
 11
67.74717193980001
 21
190.0633697509999
 31
0.0
  0
LINE
  5
D6
330
2
100
AcDbEntity
  8
0
 62
     3
100
AcDbLine
 10
67.8471780433
 20
192.8633575438999
 30
0.0
 11
67.8471780433
 21
190.0633697509999
 31
0.0
  0
LINE
  5
D7
330
2
100
AcDbEntity
  8
0
 62
     3
100
AcDbLine
 10
67.54721245339999
 20
192.3397581027999
 30
0.0
 11
67.14720095650003
 21
192.2633597488
 31
0.0
  0
LINE
  5
D8
330
2
100
AcDbEntity
  8
0
 62
     3
100
AcDbLine
 10
67.74721128050001
 20
192.8633676865
 30
0.0
 11
67.14720555860001
 21
192.6633658043999
 31
0.0
  0
LINE
  5
D9
330
2
100
AcDbEntity
  8
0
 62
     3
100
AcDbLine
 10
67.14718109509999
 20
192.6633605956999
 30
0.0
 11
67.14718109509999
 21
192.2633666991998
 31
0.0
  0
LINE
  5
DA
330
2
100
AcDbEntity
  8
0
 62
     3
100
AcDbLine
 10
67.54719025030002
 20
192.3397521972999
 30
0.0
 11
67.54719025030002
 21
190.0633697509999
 31
0.0
  0
LINE
  5
DB
330
2
100
AcDbEntity
  8
0
 62
     3
100
AcDbLine
 10
67.9471841468
 20
192.8633575438999
 30
0.0
 11
67.9471841468
 21
190.0633697509999
 31
0.0
  0
LINE
  5
DC
330
2
100
AcDbEntity
  8
0
 62
     3
100
AcDbLine
 10
73.54719025030002
 20
189.6133575438999
 30
0.0
 11
77.9471994056
 21
189.6133575438999
 31
0.0
  0
LINE
  5
DD
330
2
100
AcDbEntity
  8
0
 62
     3
100
AcDbLine
 10
73.54719025030002
 20
193.3133697509999
 30
0.0
 11
77.9471994056
 21
193.3133697509999
 31
0.0
  0
LINE
  5
DE
330
2
100
AcDbEntity
  8
0
 62
     3
100
AcDbLine
 10
73.54719025030002
 20
188.4633636474999
 30
0.0
 11
77.9471994056
 21
188.4633636474999
 31
0.0
  0
LINE
  5
DF
330
2
100
AcDbEntity
  8
0
 62
     3
100
AcDbLine
 10
73.54719025030002
 20
187.9633636474999
 30
0.0
 11
77.9471994056
 21
187.9633636474999
 31
0.0
  0
LINE
  5
E0
330
2
100
AcDbEntity
  8
0
 62
     3
100
AcDbLine
 10
73.74718719860002
 20
183.3633728027
 30
0.0
 11
77.74718719860001
 21
183.3633728027
 31
0.0
  0
LINE
  5
E1
330
2
100
AcDbEntity
  8
0
 62
     3
100
AcDbLine
 10
73.74718719860002
 20
185.5633544922
 30
0.0
 11
77.74718719860001
 21
185.5633544922
 31
0.0
  0
LINE
  5
E2
330
2
100
AcDbEntity
  8
0
 62
     3
100
AcDbLine
 10
71.74718719860002
 20
183.4633636474999
 30
0.0
 11
73.74718719860002
 21
183.4633636474999
 31
0.0
  0
LINE
  5
E3
330
2
100
AcDbEntity
  8
0
 62
     3
100
AcDbLine
 10
69.94718550660002
 20
187.963337909
 30
0.0
 11
70.44718603740003
 21
187.4633373782
 31
0.0
  0
LINE
  5
E4
330
2
100
AcDbEntity
  8
0
 62
     3
100
AcDbLine
 10
73.74718719860002
 20
183.3633728027
 30
0.0
 11
73.74718719860002
 21
185.5633544922
 31
0.0
  0
LINE
  5
E5
330
2
100
AcDbEntity
  8
0
 62
     3
100
AcDbLine
 10
73.54718717039998
 20
187.9633486986
 30
0.0
 11
73.0471866396
 21
187.4633481677999
 31
0.0
  0
LINE
  5
E6
330
2
100
AcDbEntity
  8
0
 62
     3
100
AcDbLine
 10
75.94718414679999
 20
184.2633666992
 30
0.0
 11
76.24720245740002
 21
184.2633666992
 31
0.0
  0
LINE
  5
E7
330
2
100
AcDbEntity
  8
0
 62
     3
100
AcDbLine
 10
75.94718414679999
 20
184.6633605957
 30
0.0
 11
76.24720245740002
 21
184.6633605957
 31
0.0
  0
ARC
  5
E8
330
2
100
AcDbEntity
  8
0
 62
     3
100
AcDbCircle
 10
75.74718719860001
 20
184.9633636474999
 30
0.0
 40
0.1999969482
100
AcDbArc
 50
0.0
 51
179.9999093863
  0
ARC
  5
E9
330
2
100
AcDbEntity
  8
0
 62
     3
100
AcDbCircle
 10
75.74718719860001
 20
183.9633636474999
 30
0.0
 40
0.1999969482
100
AcDbArc
 50
179.9999093863
 51
359.9999826972
  0
ARC
  5
EA
330
2
100
AcDbEntity
  8
0
 62
     3
100
AcDbCircle
 10
75.24718719860001
 20
184.4633636474999
 30
0.0
 40
0.1999969482
100
AcDbArc
 50
89.99992737239997
 51
269.9999460416999
  0
LINE
  5
EB
330
2
100
AcDbEntity
  8
0
 62
     3
100
AcDbLine
 10
75.94718414679999
 20
184.6633605957
 30
0.0
 11
75.94718414679999
 21
184.9633636474999
 31
0.0
  0
LINE
  5
EC
330
2
100
AcDbEntity
  8
0
 62
     3
100
AcDbLine
 10
75.54719025030002
 20
184.6633605957
 30
0.0
 11
75.54719025030002
 21
184.9633636474999
 31
0.0
  0
LINE
  5
ED
330
2
100
AcDbEntity
  8
0
 62
     3
100
AcDbLine
 10
75.24718719860001
 20
184.2633666992
 30
0.0
 11
75.54719025030002
 21
184.2633666992
 31
0.0
  0
LINE
  5
EE
330
2
100
AcDbEntity
  8
0
 62
     3
100
AcDbLine
 10
75.24718719860001
 20
184.6633605957
 30
0.0
 11
75.54719025030002
 21
184.6633605957
 31
0.0
  0
LINE
  5
EF
330
2
100
AcDbEntity
  8
0
 62
     3
100
AcDbLine
 10
75.54719025030002
 20
183.9633483886999
 30
0.0
 11
75.54719025030002
 21
184.2633666992
 31
0.0
  0
LINE
  5
F0
330
2
100
AcDbEntity
  8
0
 62
     3
100
AcDbLine
 10
75.94718414679999
 20
183.9633483886999
 30
0.0
 11
75.94718414679999
 21
184.2633666992
 31
0.0
  0
ARC
  5
F1
330
2
100
AcDbEntity
  8
0
 62
     3
100
AcDbCircle
 10
76.24720245740002
 20
184.4633636474999
 30
0.0
 40
0.1999969482
100
AcDbArc
 50
269.9999633446
 51
89.9999273723999
  0
LINE
  5
F2
330
2
100
AcDbEntity
  8
0
 62
     3
100
AcDbLine
 10
77.74718719860001
 20
183.3633728027
 30
0.0
 11
77.74718719860001
 21
185.5633544922
 31
0.0
  0
ARC
  5
F3
330
2
100
AcDbEntity
  8
0
 62
     3
100
AcDbCircle
 10
75.74718719860001
 20
192.0633697509997
 30
0.0
 40
0.4999999404000003
100
AcDbArc
 50
316.9466163216
 51
180.3336051084
  0
ARC
  5
F4
330
2
100
AcDbEntity
  8
0
 62
     3
100
AcDbCircle
 10
75.74718719860001
 20
192.0633697509997
 30
0.0
 40
0.5999999642000003
100
AcDbArc
 50
316.9466163216
 51
180.3336051084
  0
ARC
  5
F5
330
2
100
AcDbEntity
  8
0
 62
     3
100
AcDbCircle
 10
75.74718719860001
 20
192.0633697509997
 30
0.0
 40
0.6999999881
100
AcDbArc
 50
316.9466163216
 51
180.3336051084
  0
ARC
  5
F6
330
2
100
AcDbEntity
  8
0
 62
     3
100
AcDbCircle
 10
75.74718719860001
 20
192.0633697509997
 30
0.0
 40
0.3999999762
100
AcDbArc
 50
316.9466163216
 51
180.667246189
  0
ARC
  5
F7
330
2
100
AcDbEntity
  8
0
 62
     3
100
AcDbCircle
 10
75.74718719860001
 20
192.0633697509997
 30
0.0
 40
0.8000000119
100
AcDbArc
 50
316.9466163216
 51
180.3336051084
  0
LINE
  5
F8
330
2
100
AcDbEntity
  8
0
 62
     3
100
AcDbLine
 10
74.84719330210002
 20
190.3633880615
 30
0.0
 11
76.6471963539
 21
190.3633880615
 31
0.0
  0
LINE
  5
F9
330
2
100
AcDbEntity
  8
0
 62
     3
100
AcDbLine
 10
74.84719330210002
 20
190.263381958
 30
0.0
 11
76.6471963539
 21
190.263381958
 31
0.0
  0
LINE
  5
FA
330
2
100
AcDbEntity
  8
0
 62
     3
100
AcDbLine
 10
74.84719330210002
 20
190.1633758544998
 30
0.0
 11
76.6471963539
 21
190.1633758544998
 31
0.0
  0
LINE
  5
FB
330
2
100
AcDbEntity
  8
0
 62
     3
100
AcDbLine
 10
75.17755165860001
 20
190.5351108395
 30
0.0
 11
76.23469454570003
 21
191.5610098948
 31
0.0
  0
LINE
  5
FC
330
2
100
AcDbEntity
  8
0
 62
     3
100
AcDbLine
 10
75.10790516220001
 20
190.6068784250998
 30
0.0
 11
76.16504804929999
 21
191.6327774804
 31
0.0
  0
LINE
  5
FD
330
2
100
AcDbEntity
  8
0
 62
     3
100
AcDbLine
 10
75.03825866579998
 20
190.6786460106999
 30
0.0
 11
76.0954015529
 21
191.7045450659997
 31
0.0
  0
LINE
  5
FE
330
2
100
AcDbEntity
  8
0
 62
     3
100
AcDbLine
 10
75.24719847860001
 20
190.4633648306999
 30
0.0
 11
76.3043304155
 21
191.4892532593999
 31
0.0
  0
LINE
  5
FF
330
2
100
AcDbEntity
  8
0
 62
     3
100
AcDbLine
 10
74.84719330210002
 20
190.4633636474999
 30
0.0
 11
76.6471963539
 21
190.4633636474999
 31
0.0
  0
LINE
  5
100
330
2
100
AcDbEntity
  8
0
 62
     3
100
AcDbLine
 10
74.84719330210002
 20
190.0633697509999
 30
0.0
 11
76.6471963539
 21
190.0633697509999
 31
0.0
  0
ARC
  5
101
330
2
100
AcDbEntity
  8
0
 62
     3
100
AcDbCircle
 10
75.24718719860001
 20
190.4633636474999
 30
0.0
 40
0.099999964237
100
AcDbArc
 50
134.140653261
 51
179.9999640277999
  0
ARC
  5
102
330
2
100
AcDbEntity
  8
0
 62
     3
100
AcDbCircle
 10
75.24718719860001
 20
190.4633636474999
 30
0.0
 40
0.1999999881
100
AcDbArc
 50
134.140653261
 51
179.9999640277999
  0
ARC
  5
103
330
2
100
AcDbEntity
  8
0
 62
     3
100
AcDbCircle
 10
75.24718719860001
 20
190.4633636474999
 30
0.0
 40
0.3000000119
100
AcDbArc
 50
134.140653261
 51
179.9999640277999
  0
ARC
  5
104
330
2
100
AcDbEntity
  8
0
 62
     3
100
AcDbCircle
 10
75.24718719860001
 20
190.4633636474999
 30
0.0
 40
0.3999999762
100
AcDbArc
 50
134.140653261
 51
179.9999640277999
  0
LINE
  5
105
330
2
100
AcDbEntity
  8
0
 62
     3
100
AcDbLine
 10
74.9471994056
 20
192.0587005615
 30
0.0
 11
75.34720856090001
 21
192.0587005615
 31
0.0
  0
LINE
  5
106
330
2
100
AcDbEntity
  8
0
 62
     3
100
AcDbLine
 10
74.84719330210002
 20
190.4633636474999
 30
0.0
 11
74.84719330210002
 21
190.0633697509999
 31
0.0
  0
LINE
  5
107
330
2
100
AcDbEntity
  8
0
 62
     3
100
AcDbLine
 10
74.96861216940001
 20
190.7504135963
 30
0.0
 11
76.0257550565
 21
191.7763126516
 31
0.0
  0
LINE
  5
108
330
2
100
AcDbEntity
  8
0
 62
     3
100
AcDbLine
 10
76.64718109509998
 20
190.4633636474999
 30
0.0
 11
76.64718109509998
 21
190.0633697509999
 31
0.0
  0
LINE
  5
109
330
2
100
AcDbEntity
  8
0
 62
     3
100
AcDbLine
 10
85.74718719859999
 20
183.4633636474999
 30
0.0
 11
87.7471871986
 21
183.4633636474999
 31
0.0
  0
LINE
  5
10A
330
2
100
AcDbEntity
  8
0
 62
     3
100
AcDbLine
 10
79.93718964000001
 20
185.9633636474999
 30
0.0
 11
87.7471871986
 21
185.9633636474999
 31
0.0
  0
LINE
  5
10B
330
2
100
AcDbEntity
  8
0
 62
     3
100
AcDbLine
 10
79.93718964000001
 20
186.6633605957
 30
0.0
 11
87.7471871986
 21
186.6633605957
 31
0.0
  0
LINE
  5
10C
330
2
100
AcDbEntity
  8
0
 62
     3
100
AcDbLine
 10
81.04719025030002
 20
187.4633636475
 30
0.0
 11
86.44719940560001
 21
187.4633636475
 31
0.0
  0
LINE
  5
10D
330
2
100
AcDbEntity
  8
0
 62
     3
100
AcDbLine
 10
79.74718719860002
 20
179.4633636474999
 30
0.0
 11
87.7471871986
 21
179.4633636474999
 31
0.0
  0
LINE
  5
10E
330
2
100
AcDbEntity
  8
0
 62
     3
100
AcDbLine
 10
85.94719170240002
 20
187.9633271193999
 30
0.0
 11
86.4471922332
 21
187.4633265886
 31
0.0
  0
LINE
  5
10F
330
2
100
AcDbEntity
  8
0
 62
     3
100
AcDbLine
 10
81.54719025030003
 20
189.6133575438999
 30
0.0
 11
85.94719940560002
 21
189.6133575438999
 31
0.0
  0
LINE
  5
110
330
2
100
AcDbEntity
  8
0
 62
     3
100
AcDbLine
 10
81.54719025030003
 20
193.3133697509999
 30
0.0
 11
85.94719940560002
 21
193.3133697509999
 31
0.0
  0
LINE
  5
111
330
2
100
AcDbEntity
  8
0
 62
     3
100
AcDbLine
 10
81.54719025030003
 20
188.4633636474999
 30
0.0
 11
85.94719940560002
 21
188.4633636474999
 31
0.0
  0
LINE
  5
112
330
2
100
AcDbEntity
  8
0
 62
     3
100
AcDbLine
 10
81.54719025030003
 20
187.9633636474999
 30
0.0
 11
85.94719940560002
 21
187.9633636474999
 31
0.0
  0
LINE
  5
113
330
2
100
AcDbEntity
  8
0
 62
     3
100
AcDbLine
 10
81.74718719860001
 20
183.3633728027
 30
0.0
 11
85.74718719859999
 21
183.3633728027
 31
0.0
  0
LINE
  5
114
330
2
100
AcDbEntity
  8
0
 62
     3
100
AcDbLine
 10
81.74718719860001
 20
185.5633544922
 30
0.0
 11
85.74718719859999
 21
185.5633544922
 31
0.0
  0
LINE
  5
115
330
2
100
AcDbEntity
  8
0
 62
     3
100
AcDbLine
 10
79.74718719860002
 20
183.4633636474999
 30
0.0
 11
81.74718719860001
 21
183.4633636474999
 31
0.0
  0
LINE
  5
116
330
2
100
AcDbEntity
  8
0
 62
     3
100
AcDbLine
 10
81.74718719860001
 20
183.3633728027
 30
0.0
 11
81.74718719860001
 21
185.5633544922
 31
0.0
  0
LINE
  5
117
330
2
100
AcDbEntity
  8
0
 62
     3
100
AcDbLine
 10
81.54720645270002
 20
187.963337909
 30
0.0
 11
81.0472059219
 21
187.4633373782
 31
0.0
  0
LINE
  5
118
330
2
100
AcDbEntity
  8
0
 62
     3
100
AcDbLine
 10
83.94718414679998
 20
184.2633666992
 30
0.0
 11
84.24720245740003
 21
184.2633666992
 31
0.0
  0
LINE
  5
119
330
2
100
AcDbEntity
  8
0
 62
     3
100
AcDbLine
 10
83.94718414679998
 20
184.6633605957
 30
0.0
 11
84.24720245740003
 21
184.6633605957
 31
0.0
  0
ARC
  5
11A
330
2
100
AcDbEntity
  8
0
 62
     3
100
AcDbCircle
 10
83.24718719860001
 20
184.4633636474999
 30
0.0
 40
0.1999969482
100
AcDbArc
 50
89.99992737239997
 51
269.9999460416999
  0
ARC
  5
11B
330
2
100
AcDbEntity
  8
0
 62
     3
100
AcDbCircle
 10
83.7471871986
 20
184.9633636474999
 30
0.0
 40
0.1999969482
100
AcDbArc
 50
0.0
 51
179.9999093863
  0
ARC
  5
11C
330
2
100
AcDbEntity
  8
0
 62
     3
100
AcDbCircle
 10
83.7471871986
 20
183.9633636474999
 30
0.0
 40
0.1999969482
100
AcDbArc
 50
179.9999093863
 51
359.9999826972
  0
LINE
  5
11D
330
2
100
AcDbEntity
  8
0
 62
     3
100
AcDbLine
 10
83.94718414679998
 20
184.6633605957
 30
0.0
 11
83.94718414679998
 21
184.9633636474999
 31
0.0
  0
LINE
  5
11E
330
2
100
AcDbEntity
  8
0
 62
     3
100
AcDbLine
 10
83.54719025030002
 20
184.6633605957
 30
0.0
 11
83.54719025030002
 21
184.9633636474999
 31
0.0
  0
LINE
  5
11F
330
2
100
AcDbEntity
  8
0
 62
     3
100
AcDbLine
 10
83.24718719860001
 20
184.2633666992
 30
0.0
 11
83.54719025030002
 21
184.2633666992
 31
0.0
  0
LINE
  5
120
330
2
100
AcDbEntity
  8
0
 62
     3
100
AcDbLine
 10
83.24718719860001
 20
184.6633605957
 30
0.0
 11
83.54719025030002
 21
184.6633605957
 31
0.0
  0
LINE
  5
121
330
2
100
AcDbEntity
  8
0
 62
     3
100
AcDbLine
 10
83.54719025030002
 20
183.9633483886999
 30
0.0
 11
83.54719025030002
 21
184.2633666992
 31
0.0
  0
LINE
  5
122
330
2
100
AcDbEntity
  8
0
 62
     3
100
AcDbLine
 10
83.94718414679998
 20
183.9633483886999
 30
0.0
 11
83.94718414679998
 21
184.2633666992
 31
0.0
  0
ARC
  5
123
330
2
100
AcDbEntity
  8
0
 62
     3
100
AcDbCircle
 10
84.24720245740003
 20
184.4633636474999
 30
0.0
 40
0.1999969482
100
AcDbArc
 50
269.9999633446
 51
89.9999273723999
  0
LINE
  5
124
330
2
100
AcDbEntity
  8
0
 62
     3
100
AcDbLine
 10
85.74718719859999
 20
183.3633728027
 30
0.0
 11
85.74718719859999
 21
185.5633544922
 31
0.0
  0
ARC
  5
125
330
2
100
AcDbEntity
  8
0
 62
     3
100
AcDbCircle
 10
83.7471871986
 20
190.9633636474999
 30
0.0
 40
0.5999999642000003
100
AcDbArc
 50
179.5509200709999
 51
89.99925437140001
  0
ARC
  5
126
330
2
100
AcDbEntity
  8
0
 62
     3
100
AcDbCircle
 10
83.7471871986
 20
190.9633636474999
 30
0.0
 40
0.6999999881
100
AcDbArc
 50
179.5509200709999
 51
69.69916717690002
  0
ARC
  5
127
330
2
100
AcDbEntity
  8
0
 62
     3
100
AcDbCircle
 10
83.7471871986
 20
190.9633636474999
 30
0.0
 40
0.8000000119
100
AcDbArc
 50
179.5509200709999
 51
56.8193974968
  0
ARC
  5
128
330
2
100
AcDbEntity
  8
0
 62
     3
100
AcDbCircle
 10
83.7471871986
 20
192.1133575438999
 30
0.0
 40
0.4499999285000003
100
AcDbArc
 50
270.0010015333
 51
180.2213167983999
  0
ARC
  5
129
330
2
100
AcDbEntity
  8
0
 62
     3
100
AcDbCircle
 10
83.7471871986
 20
192.1133575438999
 30
0.0
 40
0.5499999523
100
AcDbArc
 50
296.2046671142
 51
180.2213167983999
  0
ARC
  5
12A
330
2
100
AcDbEntity
  8
0
 62
     3
100
AcDbCircle
 10
83.7471871986
 20
192.1133575438999
 30
0.0
 40
0.6499999762
100
AcDbArc
 50
312.3427204814
 51
180.2213167983999
  0
ARC
  5
12B
330
2
100
AcDbEntity
  8
0
 62
     3
100
AcDbCircle
 10
83.7471871986
 20
192.1133575438999
 30
0.0
 40
0.75
100
AcDbArc
 50
321.4506547962
 51
180.2213167983999
  0
ARC
  5
12C
330
2
100
AcDbEntity
  8
0
 62
     3
100
AcDbCircle
 10
83.7471871986
 20
190.9633636474999
 30
0.0
 40
0.5
100
AcDbArc
 50
179.1916521206999
 51
89.99996471110005
  0
ARC
  5
12D
330
2
100
AcDbEntity
  8
0
 62
     3
100
AcDbCircle
 10
83.7471871986
 20
190.9633636474999
 30
0.0
 40
0.9000000357999999
100
AcDbArc
 50
179.5509200709999
 51
49.32810065660007
  0
ARC
  5
12E
330
2
100
AcDbEntity
  8
0
 62
     3
100
AcDbCircle
 10
83.7471871986
 20
192.1133575438999
 30
0.0
 40
0.3499999642
100
AcDbArc
 50
270.0000179861
 51
180.4743070052999
  0
LINE
  5
12F
330
2
100
AcDbEntity
  8
0
 62
     3
100
AcDbLine
 10
83.4471841468
 20
191.6133575438999
 30
0.0
 11
84.0070138587
 21
191.6133575438999
 31
0.0
  0
LINE
  5
130
330
2
100
AcDbEntity
  8
0
 62
     3
100
AcDbLine
 10
83.4471841468
 20
191.5633544922
 30
0.0
 11
83.7471871986
 21
191.5633544922
 31
0.0
  0
LINE
  5
131
330
2
100
AcDbEntity
  8
0
 62
     3
100
AcDbLine
 10
83.4471841468
 20
191.6633605956999
 30
0.0
 11
83.7471871986
 21
191.6633605956999
 31
0.0
  0
LINE
  5
132
330
2
100
AcDbEntity
  8
0
 62
     3
100
AcDbLine
 10
83.4471841468
 20
191.7633666991999
 30
0.0
 11
83.7471871986
 21
191.7633666991999
 31
0.0
  0
LINE
  5
133
330
2
100
AcDbEntity
  8
0
 62
     3
100
AcDbLine
 10
82.84720856090002
 20
190.9704132079999
 30
0.0
 11
83.24723297490001
 21
190.9704132079999
 31
0.0
  0
LINE
  5
134
330
2
100
AcDbEntity
  8
0
 62
     3
100
AcDbLine
 10
82.99718719860001
 20
192.1104736328
 30
0.0
 11
83.3971963539
 21
192.1104736328
 31
0.0
  0
LINE
  5
135
330
2
100
AcDbEntity
  8
0
 62
     3
100
AcDbLine
 10
83.4471841468
 20
191.7633666991999
 30
0.0
 11
83.4471841468
 21
191.4633636474999
 31
0.0
  0
LINE
  5
136
330
2
100
AcDbEntity
  8
0
 62
     3
100
AcDbLine
 10
83.4471841468
 20
191.4633636474999
 30
0.0
 11
83.7471871986
 21
191.4633636474999
 31
0.0
  0
LINE
  5
137
330
2
100
AcDbEntity
  8
0
 62
     3
100
AcDbLine
 10
87.7471871986
 20
191.4633636474999
 30
0.0
 11
87.7471871986
 21
177.4633636474999
 31
0.0
  0
LINE
  5
138
330
2
100
AcDbEntity
  8
0
 62
     3
100
AcDbLine
 10
87.7471871986
 20
179.4633636474999
 30
0.0
 11
90.74718719859999
 21
179.4633636474999
 31
0.0
  0
LINE
  5
139
330
2
100
AcDbEntity
  8
0
 62
     3
100
AcDbLine
 10
87.7471871986
 20
178.9633636474999
 30
0.0
 11
89.24718719860001
 21
178.9633636474999
 31
0.0
  0
LINE
  5
13A
330
2
100
AcDbEntity
  8
0
 62
     3
100
AcDbLine
 10
87.7471871986
 20
178.4633636474999
 30
0.0
 11
89.24718719860001
 21
178.4633636474999
 31
0.0
  0
LINE
  5
13B
330
2
100
AcDbEntity
  8
0
 62
     3
100
AcDbLine
 10
87.7471871986
 20
178.2133636474999
 30
0.0
 11
89.24718719860001
 21
178.2133636474999
 31
0.0
  0
LINE
  5
13C
330
2
100
AcDbEntity
  8
0
 62
     3
100
AcDbLine
 10
87.7471871986
 20
177.9633636474999
 30
0.0
 11
89.24718719860001
 21
177.9633636474999
 31
0.0
  0
LINE
  5
13D
330
2
100
AcDbEntity
  8
0
 62
     3
100
AcDbLine
 10
87.7471871986
 20
177.7133636474999
 30
0.0
 11
89.24718719860001
 21
177.7133636474999
 31
0.0
  0
LINE
  5
13E
330
2
100
AcDbEntity
  8
0
 62
     3
100
AcDbLine
 10
87.7471871986
 20
177.4633636474999
 30
0.0
 11
89.24718719860001
 21
177.4633636474999
 31
0.0
  0
LINE
  5
13F
330
2
100
AcDbEntity
  8
0
 62
     3
100
AcDbLine
 10
89.24718719860001
 20
179.4633636474999
 30
0.0
 11
89.24718719860001
 21
177.4633636474999
 31
0.0
  0
ARC
  5
140
330
2
100
AcDbEntity
  8
0
 62
     3
100
AcDbCircle
 10
90.74718719859999
 20
180.4633636474999
 30
0.0
 40
1.0
100
AcDbArc
 50
270.0000179861
 51
0.0
  0
LINE
  5
141
330
2
100
AcDbEntity
  8
0
 62
     3
100
AcDbLine
 10
87.7471871986
 20
183.4633636474999
 30
0.0
 11
91.74718719860001
 21
183.4633636474999
 31
0.0
  0
LINE
  5
142
330
2
100
AcDbEntity
  8
0
 62
     3
100
AcDbLine
 10
89.04719283540002
 20
186.6633537922
 30
0.0
 11
89.7471892627
 21
185.963357365
 31
0.0
  0
LINE
  5
143
330
2
100
AcDbEntity
  8
0
 62
     3
100
AcDbLine
 10
77.74718719860001
 20
199.4633636474999
 30
0.0
 11
79.74718719860002
 21
199.4633636474999
 31
0.0
  0
LINE
  5
144
330
2
100
AcDbEntity
  8
0
 62
     3
100
AcDbLine
 10
71.74718719860002
 20
196.2633666991998
 30
0.0
 11
79.74718719860002
 21
196.2633666991998
 31
0.0
  0
LINE
  5
145
330
2
100
AcDbEntity
  8
0
 62
     3
100
AcDbLine
 10
71.74718719860002
 20
196.9633636474999
 30
0.0
 11
79.74718719860002
 21
196.9633636474999
 31
0.0
  0
LINE
  5
146
330
2
100
AcDbEntity
  8
0
 62
     3
100
AcDbLine
 10
78.4472161093
 20
195.4633242916998
 30
0.0
 11
77.94721557849998
 21
194.9633237609
 31
0.0
  0
LINE
  5
147
330
2
100
AcDbEntity
  8
0
 62
     3
100
AcDbLine
 10
73.04719025030002
 20
195.4633636474999
 30
0.0
 11
78.4471994056
 21
195.4633636474999
 31
0.0
  0
LINE
  5
148
330
2
100
AcDbEntity
  8
0
 62
     3
100
AcDbLine
 10
71.74718719860002
 20
203.4633636474999
 30
0.0
 11
79.74718719860002
 21
203.4633636474999
 31
0.0
  0
LINE
  5
149
330
2
100
AcDbEntity
  8
0
 62
     3
100
AcDbLine
 10
65.54719025030002
 20
194.4633636474999
 30
0.0
 11
69.9471994056
 21
194.4633636474999
 31
0.0
  0
LINE
  5
14A
330
2
100
AcDbEntity
  8
0
 62
     3
100
AcDbLine
 10
65.54719025030002
 20
194.9633636475
 30
0.0
 11
69.9471994056
 21
194.9633636475
 31
0.0
  0
LINE
  5
14B
330
2
100
AcDbEntity
  8
0
 62
     3
100
AcDbLine
 10
69.74718719860003
 20
199.4633636474999
 30
0.0
 11
71.74718719860002
 21
199.4633636474999
 31
0.0
  0
LINE
  5
14C
330
2
100
AcDbEntity
  8
0
 62
     3
100
AcDbLine
 10
63.74718719860002
 20
196.2633666991998
 30
0.0
 11
71.74718719860002
 21
196.2633666991998
 31
0.0
  0
LINE
  5
14D
330
2
100
AcDbEntity
  8
0
 62
     3
100
AcDbLine
 10
63.74718719860002
 20
196.9633636474999
 30
0.0
 11
71.74718719860002
 21
196.9633636474999
 31
0.0
  0
LINE
  5
14E
330
2
100
AcDbEntity
  8
0
 62
     3
100
AcDbLine
 10
65.04719025030002
 20
195.4633636474999
 30
0.0
 11
70.4471994056
 21
195.4633636474999
 31
0.0
  0
LINE
  5
14F
330
2
100
AcDbEntity
  8
0
 62
     3
100
AcDbLine
 10
63.74718719860002
 20
203.4633636474999
 30
0.0
 11
71.74718719860002
 21
203.4633636474999
 31
0.0
  0
LINE
  5
150
330
2
100
AcDbEntity
  8
0
 62
     3
100
AcDbLine
 10
65.7471871986
 20
197.3633728027
 30
0.0
 11
69.74718719860003
 21
197.3633728027
 31
0.0
  0
LINE
  5
151
330
2
100
AcDbEntity
  8
0
 62
     3
100
AcDbLine
 10
65.7471871986
 20
199.5633544922
 30
0.0
 11
69.74718719860003
 21
199.5633544922
 31
0.0
  0
LINE
  5
152
330
2
100
AcDbEntity
  8
0
 62
     3
100
AcDbLine
 10
63.74718719860002
 20
199.4633636474999
 30
0.0
 11
65.7471871986
 21
199.4633636474999
 31
0.0
  0
LINE
  5
153
330
2
100
AcDbEntity
  8
0
 62
     3
100
AcDbLine
 10
62.4472099134
 20
195.4633350813
 30
0.0
 11
61.9472093827
 21
194.9633345504999
 31
0.0
  0
LINE
  5
154
330
2
100
AcDbEntity
  8
0
 62
     3
100
AcDbLine
 10
65.7471871986
 20
199.5633544922
 30
0.0
 11
65.7471871986
 21
197.3633728027
 31
0.0
  0
LINE
  5
155
330
2
100
AcDbEntity
  8
0
 62
     3
100
AcDbLine
 10
65.04718893650002
 20
195.4633458709
 30
0.0
 11
65.54718946730003
 21
194.9633453400999
 31
0.0
  0
LINE
  5
156
330
2
100
AcDbEntity
  8
0
 62
     3
100
AcDbLine
 10
67.24718719860003
 20
198.2633666991999
 30
0.0
 11
68.24720245740002
 21
198.2633666991999
 31
0.0
  0
LINE
  5
157
330
2
100
AcDbEntity
  8
0
 62
     3
100
AcDbLine
 10
67.24718719860003
 20
198.6633605956999
 30
0.0
 11
68.24720245740002
 21
198.6633605956999
 31
0.0
  0
ARC
  5
158
330
2
100
AcDbEntity
  8
0
 62
     3
100
AcDbCircle
 10
67.24718719860003
 20
198.4633636474999
 30
0.0
 40
0.1999969482
100
AcDbArc
 50
89.99998201389999
 51
270.0000006831999
  0
ARC
  5
159
330
2
100
AcDbEntity
  8
0
 62
     3
100
AcDbCircle
 10
68.24720245740002
 20
198.4633636474999
 30
0.0
 40
0.1999969482
100
AcDbArc
 50
270.0000179861
 51
89.99998201389994
  0
LINE
  5
15A
330
2
100
AcDbEntity
  8
0
 62
     3
100
AcDbLine
 10
69.74718719860003
 20
199.5633544922
 30
0.0
 11
69.74718719860003
 21
197.3633728027
 31
0.0
  0
LINE
  5
15B
330
2
100
AcDbEntity
  8
0
 62
     3
100
AcDbLine
 10
73.74718719860002
 20
197.3633728027
 30
0.0
 11
77.74718719860001
 21
197.3633728027
 31
0.0
  0
LINE
  5
15C
330
2
100
AcDbEntity
  8
0
 62
     3
100
AcDbLine
 10
73.74718719860002
 20
199.5633544922
 30
0.0
 11
77.74718719860001
 21
199.5633544922
 31
0.0
  0
LINE
  5
15D
330
2
100
AcDbEntity
  8
0
 62
     3
100
AcDbLine
 10
73.54719025030002
 20
194.4633636474999
 30
0.0
 11
77.9471994056
 21
194.4633636474999
 31
0.0
  0
LINE
  5
15E
330
2
100
AcDbEntity
  8
0
 62
     3
100
AcDbLine
 10
73.54719025030002
 20
194.9633636475
 30
0.0
 11
77.9471994056
 21
194.9633636475
 31
0.0
  0
LINE
  5
15F
330
2
100
AcDbEntity
  8
0
 62
     3
100
AcDbLine
 10
71.74718719860002
 20
199.4633636474999
 30
0.0
 11
73.74718719860002
 21
199.4633636474999
 31
0.0
  0
LINE
  5
160
330
2
100
AcDbEntity
  8
0
 62
     3
100
AcDbLine
 10
70.44720761660001
 20
195.4633242916998
 30
0.0
 11
69.94720708579999
 21
194.9633237609
 31
0.0
  0
LINE
  5
161
330
2
100
AcDbEntity
  8
0
 62
     3
100
AcDbLine
 10
73.74718719860002
 20
199.5633544922
 30
0.0
 11
73.74718719860002
 21
197.3633728027
 31
0.0
  0
LINE
  5
162
330
2
100
AcDbEntity
  8
0
 62
     3
100
AcDbLine
 10
73.0471866396
 20
195.4633350813
 30
0.0
 11
73.54718717039998
 21
194.9633345504999
 31
0.0
  0
LINE
  5
163
330
2
100
AcDbEntity
  8
0
 62
     3
100
AcDbLine
 10
75.24718719860001
 20
198.2633666991999
 30
0.0
 11
76.24720245740002
 21
198.2633666991999
 31
0.0
  0
LINE
  5
164
330
2
100
AcDbEntity
  8
0
 62
     3
100
AcDbLine
 10
75.24718719860001
 20
198.6633605956999
 30
0.0
 11
76.24720245740002
 21
198.6633605956999
 31
0.0
  0
ARC
  5
165
330
2
100
AcDbEntity
  8
0
 62
     3
100
AcDbCircle
 10
75.24718719860001
 20
198.4633636474999
 30
0.0
 40
0.1999969482
100
AcDbArc
 50
89.99998201389999
 51
270.0000006831999
  0
ARC
  5
166
330
2
100
AcDbEntity
  8
0
 62
     3
100
AcDbCircle
 10
76.24720245740002
 20
198.4633636474999
 30
0.0
 40
0.1999969482
100
AcDbArc
 50
270.0000179861
 51
89.99998201389994
  0
LINE
  5
167
330
2
100
AcDbEntity
  8
0
 62
     3
100
AcDbLine
 10
77.74718719860001
 20
199.5633544922
 30
0.0
 11
77.74718719860001
 21
197.3633728027
 31
0.0
  0
LINE
  5
168
330
2
100
AcDbEntity
  8
0
 62
     3
100
AcDbLine
 10
85.74718719859999
 20
199.4633636474999
 30
0.0
 11
87.7471871986
 21
199.4633636474999
 31
0.0
  0
LINE
  5
169
330
2
100
AcDbEntity
  8
0
 62
     3
100
AcDbLine
 10
79.74718719860002
 20
196.2633666991998
 30
0.0
 11
87.7471871986
 21
196.2633666991998
 31
0.0
  0
LINE
  5
16A
330
2
100
AcDbEntity
  8
0
 62
     3
100
AcDbLine
 10
79.74718719860002
 20
196.9633636474999
 30
0.0
 11
87.7471871986
 21
196.9633636474999
 31
0.0
  0
LINE
  5
16B
330
2
100
AcDbEntity
  8
0
 62
     3
100
AcDbLine
 10
86.447224602
 20
195.4633027125
 30
0.0
 11
85.9472240712
 21
194.9633021816999
 31
0.0
  0
LINE
  5
16C
330
2
100
AcDbEntity
  8
0
 62
     3
100
AcDbLine
 10
81.04719025030002
 20
195.4633636474999
 30
0.0
 11
86.44719940560001
 21
195.4633636474999
 31
0.0
  0
LINE
  5
16D
330
2
100
AcDbEntity
  8
0
 62
     3
100
AcDbLine
 10
79.74718719860002
 20
203.4633636474999
 30
0.0
 11
87.7471871986
 21
203.4633636474999
 31
0.0
  0
LINE
  5
16E
330
2
100
AcDbEntity
  8
0
 62
     3
100
AcDbLine
 10
81.74718719860001
 20
197.3633728027
 30
0.0
 11
85.74718719859999
 21
197.3633728027
 31
0.0
  0
LINE
  5
16F
330
2
100
AcDbEntity
  8
0
 62
     3
100
AcDbLine
 10
81.74718719860001
 20
199.5633544922
 30
0.0
 11
85.74718719859999
 21
199.5633544922
 31
0.0
  0
LINE
  5
170
330
2
100
AcDbEntity
  8
0
 62
     3
100
AcDbLine
 10
81.54719025030003
 20
194.4633636474999
 30
0.0
 11
85.94719940560002
 21
194.4633636474999
 31
0.0
  0
LINE
  5
171
330
2
100
AcDbEntity
  8
0
 62
     3
100
AcDbLine
 10
81.54719025030003
 20
194.9633636475
 30
0.0
 11
85.94719940560002
 21
194.9633636475
 31
0.0
  0
LINE
  5
172
330
2
100
AcDbEntity
  8
0
 62
     3
100
AcDbLine
 10
79.74718719860002
 20
199.4633636474999
 30
0.0
 11
81.74718719860001
 21
199.4633636474999
 31
0.0
  0
LINE
  5
173
330
2
100
AcDbEntity
  8
0
 62
     3
100
AcDbLine
 10
81.74718719860001
 20
199.5633544922
 30
0.0
 11
81.74718719860001
 21
197.3633728027
 31
0.0
  0
LINE
  5
174
330
2
100
AcDbEntity
  8
0
 62
     3
100
AcDbLine
 10
81.0471951323
 20
195.4633350813
 30
0.0
 11
81.54719566310001
 21
194.9633345504999
 31
0.0
  0
LINE
  5
175
330
2
100
AcDbEntity
  8
0
 62
     3
100
AcDbLine
 10
83.24718719860001
 20
198.2633666991999
 30
0.0
 11
84.24720245740003
 21
198.2633666991999
 31
0.0
  0
LINE
  5
176
330
2
100
AcDbEntity
  8
0
 62
     3
100
AcDbLine
 10
83.24718719860001
 20
198.6633605956999
 30
0.0
 11
84.24720245740003
 21
198.6633605956999
 31
0.0
  0
ARC
  5
177
330
2
100
AcDbEntity
  8
0
 62
     3
100
AcDbCircle
 10
83.24718719860001
 20
198.4633636474999
 30
0.0
 40
0.1999969482
100
AcDbArc
 50
89.99998201389999
 51
270.0000006831999
  0
ARC
  5
178
330
2
100
AcDbEntity
  8
0
 62
     3
100
AcDbCircle
 10
84.24720245740003
 20
198.4633636474999
 30
0.0
 40
0.1999969482
100
AcDbArc
 50
270.0000179861
 51
89.99998201389994
  0
LINE
  5
179
330
2
100
AcDbEntity
  8
0
 62
     3
100
AcDbLine
 10
85.74718719859999
 20
199.5633544922
 30
0.0
 11
85.74718719859999
 21
197.3633728027
 31
0.0
  0
LINE
  5
17A
330
2
100
AcDbEntity
  8
0
 62
     3
100
AcDbLine
 10
87.7471871986
 20
203.4633636474999
 30
0.0
 11
90.74718719859999
 21
203.4633636474999
 31
0.0
  0
LINE
  5
17B
330
2
100
AcDbEntity
  8
0
 62
     3
100
AcDbLine
 10
87.7471871986
 20
199.4633636474999
 30
0.0
 11
91.74718719860001
 21
199.4633636474999
 31
0.0
  0
LINE
  5
17C
330
2
100
AcDbEntity
  8
0
 62
     3
100
AcDbLine
 10
89.7471892627
 20
196.9633474633
 30
0.0
 11
89.04719283540002
 21
196.2633510359999
 31
0.0
  0
LINE
  5
17D
330
2
100
AcDbEntity
  8
0
 62
     3
100
AcDbLine
 10
87.7471871986
 20
203.9633636475
 30
0.0
 11
89.24718719860001
 21
203.9633636475
 31
0.0
  0
LINE
  5
17E
330
2
100
AcDbEntity
  8
0
 62
     3
100
AcDbLine
 10
87.7471871986
 20
204.4633636474999
 30
0.0
 11
89.24718719860001
 21
204.4633636474999
 31
0.0
  0
LINE
  5
17F
330
2
100
AcDbEntity
  8
0
 62
     3
100
AcDbLine
 10
87.7471871986
 20
204.7133636474999
 30
0.0
 11
89.24718719860001
 21
204.7133636474999
 31
0.0
  0
LINE
  5
180
330
2
100
AcDbEntity
  8
0
 62
     3
100
AcDbLine
 10
87.7471871986
 20
204.9633636474999
 30
0.0
 11
89.24718719860001
 21
204.9633636474999
 31
0.0
  0
LINE
  5
181
330
2
100
AcDbEntity
  8
0
 62
     3
100
AcDbLine
 10
87.7471871986
 20
205.2133636474999
 30
0.0
 11
89.24718719860001
 21
205.2133636474999
 31
0.0
  0
LINE
  5
182
330
2
100
AcDbEntity
  8
0
 62
     3
100
AcDbLine
 10
87.7471871986
 20
205.4633636474999
 30
0.0
 11
89.24718719860001
 21
205.4633636474999
 31
0.0
  0
LINE
  5
183
330
2
100
AcDbEntity
  8
0
 62
     3
100
AcDbLine
 10
89.24718719860001
 20
205.4633636474999
 30
0.0
 11
89.24718719860001
 21
203.4633636474999
 31
0.0
  0
ARC
  5
184
330
2
100
AcDbEntity
  8
0
 62
     3
100
AcDbCircle
 10
90.74718719859999
 20
202.4633636474999
 30
0.0
 40
1.0
100
AcDbArc
 50
0.0
 51
89.99998201389999
  0
LINE
  5
185
330
2
100
AcDbEntity
  8
0
 62
     3
100
AcDbLine
 10
125.3895059241999
 20
195.4633636474999
 30
0.0
 11
135.3895059242
 21
195.4633636474999
 31
0.0
  0
LINE
  5
186
330
2
100
AcDbEntity
  8
0
 62
     3
100
AcDbLine
 10
125.3895059241999
 20
196.4633636474999
 30
0.0
 11
135.3895059242
 21
196.4633636474999
 31
0.0
  0
LINE
  5
187
330
2
100
AcDbEntity
  8
0
 62
     3
100
AcDbLine
 10
126.8895059242
 20
204.7133636474999
 30
0.0
 11
127.8895059241999
 21
204.7133636474999
 31
0.0
  0
LINE
  5
188
330
2
100
AcDbEntity
  8
0
 62
     3
100
AcDbLine
 10
125.8894990537
 20
203.9633548943998
 30
0.0
 11
127.3895006460999
 21
202.463353302
 31
0.0
  0
LINE
  5
189
330
2
100
AcDbEntity
  8
0
 62
     3
100
AcDbLine
 10
125.3895059241999
 20
198.4633636474999
 30
0.0
 11
139.3895059242
 21
198.4633636474999
 31
0.0
  0
LINE
  5
18A
330
2
100
AcDbEntity
  8
0
 62
     3
100
AcDbLine
 10
125.3895059241999
 20
202.4633636474999
 30
0.0
 11
133.0853524818
 21
202.4633636474999
 31
0.0
  0
LINE
  5
18B
330
2
100
AcDbEntity
  8
0
 62
     3
100
AcDbLine
 10
125.3895059241999
 20
187.4633636475
 30
0.0
 11
135.3895059242
 21
187.4633636475
 31
0.0
  0
LINE
  5
18C
330
2
100
AcDbEntity
  8
0
 62
     3
100
AcDbLine
 10
125.3895059241999
 20
186.4633636475
 30
0.0
 11
135.3895059242
 21
186.4633636475
 31
0.0
  0
LINE
  5
18D
330
2
100
AcDbEntity
  8
0
 62
     3
100
AcDbLine
 10
126.8895059242
 20
178.2133636474999
 30
0.0
 11
127.8895059241999
 21
178.2133636474999
 31
0.0
  0
LINE
  5
18E
330
2
100
AcDbEntity
  8
0
 62
     3
100
AcDbLine
 10
125.8894990537
 20
178.9633499338
 30
0.0
 11
127.3895006460999
 21
180.4633515262
 31
0.0
  0
LINE
  5
18F
330
2
100
AcDbEntity
  8
0
 62
     3
100
AcDbLine
 10
125.3895059241999
 20
184.4633636474999
 30
0.0
 11
139.3895059242
 21
184.4633636474999
 31
0.0
  0
LINE
  5
190
330
2
100
AcDbEntity
  8
0
 62
     3
100
AcDbLine
 10
125.3895059241999
 20
180.4633636474999
 30
0.0
 11
133.0853524818
 21
180.4633636474999
 31
0.0
  0
LINE
  5
191
330
2
100
AcDbEntity
  8
0
 62
     3
100
AcDbLine
 10
122.6895089759
 20
183.4633178710998
 30
0.0
 11
122.6895089759
 21
199.4632415770999
 31
0.0
  0
LINE
  5
192
330
2
100
AcDbEntity
  8
0
 62
     3
100
AcDbLine
 10
125.3895059241999
 20
203.4633636474999
 30
0.0
 11
125.3895059241999
 21
179.4633636474999
 31
0.0
  0
LINE
  5
193
330
2
100
AcDbEntity
  8
0
 62
     3
100
AcDbLine
 10
123.5001373876
 20
180.2208144471
 30
0.0
 11
122.6895012712999
 21
183.4633668811
 31
0.0
  0
LINE
  5
194
330
2
100
AcDbEntity
  8
0
 62
     3
100
AcDbLine
 10
124.4702859535
 20
179.4633636474999
 30
0.0
 11
125.3895059241999
 21
179.4633636474999
 31
0.0
  0
ARC
  5
195
330
2
100
AcDbEntity
  8
0
 62
     3
100
AcDbCircle
 10
124.4702859535
 20
180.4633636474999
 30
0.0
 40
1.0
100
AcDbArc
 50
194.0363479240999
 51
269.9999633446
  0
LINE
  5
196
330
2
100
AcDbEntity
  8
0
 62
     3
100
AcDbLine
 10
126.8895059242
 20
178.2133636474999
 30
0.0
 11
126.8895059242
 21
178.4633636474999
 31
0.0
  0
LINE
  5
197
330
2
100
AcDbEntity
  8
0
 62
     3
100
AcDbLine
 10
125.8895059242
 20
178.4633636474999
 30
0.0
 11
125.8895059242
 21
178.9633636474999
 31
0.0
  0
LINE
  5
198
330
2
100
AcDbEntity
  8
0
 62
     3
100
AcDbLine
 10
125.8895059242
 20
178.4633636474999
 30
0.0
 11
126.8895059242
 21
178.4633636474999
 31
0.0
  0
LINE
  5
199
330
2
100
AcDbEntity
  8
0
 62
     3
100
AcDbLine
 10
119.3895211829999
 20
183.3633728027
 30
0.0
 11
122.7145181312
 21
183.3633728027
 31
0.0
  0
LINE
  5
19A
330
2
100
AcDbEntity
  8
0
 62
     3
100
AcDbLine
 10
119.3895211829999
 20
185.5633544922
 30
0.0
 11
122.6895089759
 21
185.5633544922
 31
0.0
  0
LINE
  5
19B
330
2
100
AcDbEntity
  8
0
 62
     3
100
AcDbLine
 10
119.3895211829999
 20
183.3633728027
 30
0.0
 11
119.3895211829999
 21
185.5633544922
 31
0.0
  0
LINE
  5
19C
330
2
100
AcDbEntity
  8
0
 62
     3
100
AcDbLine
 10
123.5001658021999
 20
202.7059041574
 30
0.0
 11
122.6895272953
 21
199.4633521217997
 31
0.0
  0
LINE
  5
19D
330
2
100
AcDbEntity
  8
0
 62
     3
100
AcDbLine
 10
119.3895211829999
 20
197.3633728027
 30
0.0
 11
122.6895089759
 21
197.3633728027
 31
0.0
  0
LINE
  5
19E
330
2
100
AcDbEntity
  8
0
 62
     3
100
AcDbLine
 10
119.3895211829999
 20
199.5633544922
 30
0.0
 11
122.71453339
 21
199.5633544922
 31
0.0
  0
LINE
  5
19F
330
2
100
AcDbEntity
  8
0
 62
     3
100
AcDbLine
 10
119.3895211829999
 20
199.5633544922
 30
0.0
 11
119.3895211829999
 21
197.3633728027
 31
0.0
  0
LINE
  5
1A0
330
2
100
AcDbEntity
  8
0
 62
     3
100
AcDbLine
 10
124.4702859535
 20
203.4633636474999
 30
0.0
 11
125.3895059241999
 21
203.4633636474999
 31
0.0
  0
ARC
  5
1A1
330
2
100
AcDbEntity
  8
0
 62
     3
100
AcDbCircle
 10
124.4702859535
 20
202.4633636474999
 30
0.0
 40
1.0
100
AcDbArc
 50
89.99998201389999
 51
165.9635974344
  0
LINE
  5
1A2
330
2
100
AcDbEntity
  8
0
 62
     3
100
AcDbLine
 10
126.8895059242
 20
204.7133636474999
 30
0.0
 11
126.8895059242
 21
204.4633636474999
 31
0.0
  0
LINE
  5
1A3
330
2
100
AcDbEntity
  8
0
 62
     3
100
AcDbLine
 10
125.8895059242
 20
204.4633636474999
 30
0.0
 11
125.8895059242
 21
203.9633636475
 31
0.0
  0
LINE
  5
1A4
330
2
100
AcDbEntity
  8
0
 62
     3
100
AcDbLine
 10
125.8895059242
 20
204.4633636474999
 30
0.0
 11
126.8895059242
 21
204.4633636474999
 31
0.0
  0
LINE
  5
1A5
330
2
100
AcDbEntity
  8
0
  6
CENTERLINE
 62
     3
100
AcDbLine
 10
151.3895059241999
 20
180.7173156738
 30
0.0
 11
151.3895059241999
 21
198.4024658202999
 31
0.0
  0
LINE
  5
1A6
330
2
100
AcDbEntity
  8
0
 62
     3
100
AcDbLine
 10
149.3895059241999
 20
201.4633636474999
 30
0.0
 11
149.3895059241999
 21
181.4633636474999
 31
0.0
  0
ARC
  5
1A7
330
2
100
AcDbEntity
  8
0
 62
     3
100
AcDbCircle
 10
140.3895059241999
 20
165.4633636474999
 30
0.0
 40
15.0
100
AcDbArc
 50
89.99998201389999
 51
126.8698895687999
  0
ARC
  5
1A8
330
2
100
AcDbEntity
  8
0
 62
     3
100
AcDbCircle
 10
140.3895059241999
 20
168.9633636474999
 30
0.0
 40
13.5
100
AcDbArc
 50
94.0203406424
 51
117.7316975158999
  0
ARC
  5
1A9
330
2
100
AcDbEntity
  8
0
 62
     3
100
AcDbCircle
 10
130.3848672522998
 20
187.9937896729
 30
0.0
 40
8.0
100
AcDbArc
 50
257.5107712019
 51
297.7317334881
  0
LINE
  5
1AA
330
2
100
AcDbEntity
  8
0
 62
     3
100
AcDbLine
 10
129.8895059241999
 20
177.4633636474999
 30
0.0
 11
131.3895059242
 21
177.4633636474999
 31
0.0
  0
LINE
  5
1AB
330
2
100
AcDbEntity
  8
0
 62
     3
100
AcDbLine
 10
128.8895059241999
 20
177.7133636474999
 30
0.0
 11
129.8895059241999
 21
177.7133636474999
 31
0.0
  0
LINE
  5
1AC
330
2
100
AcDbEntity
  8
0
 62
     3
100
AcDbLine
 10
127.8895059241999
 20
177.9633636474999
 30
0.0
 11
128.8895059241999
 21
177.9633636474999
 31
0.0
  0
LINE
  5
1AD
330
2
100
AcDbEntity
  8
0
 62
     3
100
AcDbLine
 10
128.8895059241999
 20
177.7133636474999
 30
0.0
 11
128.8895059241999
 21
177.9633636474999
 31
0.0
  0
LINE
  5
1AE
330
2
100
AcDbEntity
  8
0
 62
     3
100
AcDbLine
 10
127.8895059241999
 20
177.9633636474999
 30
0.0
 11
127.8895059241999
 21
178.2133636474999
 31
0.0
  0
LINE
  5
1AF
330
2
100
AcDbEntity
  8
0
 62
     3
100
AcDbLine
 10
128.6548080551999
 20
180.1830869718999
 30
0.0
 11
127.3895004943
 21
180.4633496986999
 31
0.0
  0
LINE
  5
1B0
330
2
100
AcDbEntity
  8
0
 62
     3
100
AcDbLine
 10
129.8895059241999
 20
177.4633636474999
 30
0.0
 11
129.8895059241999
 21
177.7133636474999
 31
0.0
  0
LINE
  5
1B1
330
2
100
AcDbEntity
  8
0
 62
     3
100
AcDbLine
 10
131.3895059242
 20
187.4633636475
 30
0.0
 11
131.3895059242
 21
186.4633636475
 31
0.0
  0
LINE
  5
1B2
330
2
100
AcDbEntity
  8
0
 62
     3
100
AcDbLine
 10
135.3895059242
 20
187.4633636475
 30
0.0
 11
135.3895059242
 21
186.4633636475
 31
0.0
  0
ARC
  5
1B3
330
2
100
AcDbEntity
  8
0
 62
     3
100
AcDbCircle
 10
139.3716378821999
 20
183.4454956054999
 30
0.0
 40
1.017862319899997
100
AcDbArc
 50
274.0203766145999
 51
89.99998201389994
  0
CIRCLE
  5
1B4
330
2
100
AcDbEntity
  8
0
 62
     3
100
AcDbCircle
 10
151.3895059241999
 20
193.4633636474999
 30
0.0
 40
0.3999999762
  0
CIRCLE
  5
1B5
330
2
100
AcDbEntity
  8
0
 62
     3
100
AcDbCircle
 10
151.3895059241999
 20
185.4633636475
 30
0.0
 40
0.3999999762
  0
CIRCLE
  5
1B6
330
2
100
AcDbEntity
  8
0
 62
     3
100
AcDbCircle
 10
151.3895059241999
 20
181.4633636474999
 30
0.0
 40
0.3999999762
  0
LINE
  5
1B7
330
2
100
AcDbEntity
  8
0
 62
     3
100
AcDbLine
 10
146.2894998207
 20
181.4633636474999
 30
0.0
 11
146.2894998207
 21
182.9633636474999
 31
0.0
  0
LINE
  5
1B8
330
2
100
AcDbEntity
  8
0
 62
     3
100
AcDbLine
 10
143.2894998207
 20
181.4633636474999
 30
0.0
 11
143.2894998207
 21
182.9633636474999
 31
0.0
  0
LINE
  5
1B9
330
2
100
AcDbEntity
  8
0
 62
     3
100
AcDbLine
 10
143.2894998207
 20
181.4633636474999
 30
0.0
 11
146.2894998207
 21
181.4633636474999
 31
0.0
  0
ARC
  5
1BA
330
2
100
AcDbEntity
  8
0
 62
     3
100
AcDbCircle
 10
148.3895059241999
 20
181.4633636474999
 30
0.0
 40
1.0
100
AcDbArc
 50
270.0000179861
 51
0.0
  0
CIRCLE
  5
1BB
330
2
100
AcDbEntity
  8
0
 62
     3
100
AcDbCircle
 10
147.1895089759
 20
191.4633636474999
 30
0.0
 40
1.5999994278
  0
LINE
  5
1BC
330
2
100
AcDbEntity
  8
0
 62
     3
100
AcDbLine
 10
143.2894998207
 20
182.9633636474999
 30
0.0
 11
146.2894998207
 21
182.9633636474999
 31
0.0
  0
ARC
  5
1BD
330
2
100
AcDbEntity
  8
0
 62
     3
100
AcDbCircle
 10
140.3895059241999
 20
217.4633636474999
 30
0.0
 40
15.0
100
AcDbArc
 50
233.1301104312
 51
270.0000179861
  0
ARC
  5
1BE
330
2
100
AcDbEntity
  8
0
 62
     3
100
AcDbCircle
 10
140.3895059241999
 20
213.9633636475
 30
0.0
 40
13.5
100
AcDbArc
 50
242.2683024841
 51
265.9796593575999
  0
ARC
  5
1BF
330
2
100
AcDbEntity
  8
0
 62
     3
100
AcDbCircle
 10
130.3848672522998
 20
194.9329376220999
 30
0.0
 40
8.0
100
AcDbArc
 50
62.26826651189999
 51
102.4892287981
  0
LINE
  5
1C0
330
2
100
AcDbEntity
  8
0
 62
     3
100
AcDbLine
 10
129.8895059241999
 20
205.4633636474999
 30
0.0
 11
131.3895059242
 21
205.4633636474999
 31
0.0
  0
LINE
  5
1C1
330
2
100
AcDbEntity
  8
0
 62
     3
100
AcDbLine
 10
128.8895059241999
 20
205.2133636474999
 30
0.0
 11
129.8895059241999
 21
205.2133636474999
 31
0.0
  0
LINE
  5
1C2
330
2
100
AcDbEntity
  8
0
 62
     3
100
AcDbLine
 10
127.8895059241999
 20
204.9633636474999
 30
0.0
 11
128.8895059241999
 21
204.9633636474999
 31
0.0
  0
LINE
  5
1C3
330
2
100
AcDbEntity
  8
0
 62
     3
100
AcDbLine
 10
128.8895059241999
 20
205.2133636474999
 30
0.0
 11
128.8895059241999
 21
204.9633636474999
 31
0.0
  0
LINE
  5
1C4
330
2
100
AcDbEntity
  8
0
 62
     3
100
AcDbLine
 10
127.8895059241999
 20
204.9633636474999
 30
0.0
 11
127.8895059241999
 21
204.7133636474999
 31
0.0
  0
LINE
  5
1C5
330
2
100
AcDbEntity
  8
0
 62
     3
100
AcDbLine
 10
128.6548318578
 20
202.7436290938999
 30
0.0
 11
127.3895093991999
 21
202.4633630672
 31
0.0
  0
LINE
  5
1C6
330
2
100
AcDbEntity
  8
0
 62
     3
100
AcDbLine
 10
129.8895059241999
 20
205.4633636474999
 30
0.0
 11
129.8895059241999
 21
205.2133636474999
 31
0.0
  0
LINE
  5
1C7
330
2
100
AcDbEntity
  8
0
 62
     3
100
AcDbLine
 10
131.3895059242
 20
196.4633636474999
 30
0.0
 11
131.3895059242
 21
195.4633636474999
 31
0.0
  0
LINE
  5
1C8
330
2
100
AcDbEntity
  8
0
 62
     3
100
AcDbLine
 10
135.3895059242
 20
196.4633636474999
 30
0.0
 11
135.3895059242
 21
195.4633636474999
 31
0.0
  0
ARC
  5
1C9
330
2
100
AcDbEntity
  8
0
 62
     3
100
AcDbCircle
 10
139.3716378821999
 20
199.4812316895
 30
0.0
 40
1.017862319899997
100
AcDbArc
 50
270.0000179861
 51
85.97962338540005
  0
CIRCLE
  5
1CA
330
2
100
AcDbEntity
  8
0
 62
     3
100
AcDbCircle
 10
151.3895059241999
 20
197.4633636474999
 30
0.0
 40
0.3999999762
  0
LINE
  5
1CB
330
2
100
AcDbEntity
  8
0
 62
     3
100
AcDbLine
 10
143.2894998207
 20
199.9633636475
 30
0.0
 11
146.2894998207
 21
199.9633636475
 31
0.0
  0
LINE
  5
1CC
330
2
100
AcDbEntity
  8
0
 62
     3
100
AcDbLine
 10
143.2894998207
 20
201.4633636474999
 30
0.0
 11
146.2894998207
 21
201.4633636474999
 31
0.0
  0
LINE
  5
1CD
330
2
100
AcDbEntity
  8
0
 62
     3
100
AcDbLine
 10
143.2894998207
 20
201.4633636474999
 30
0.0
 11
143.2894998207
 21
199.9633636475
 31
0.0
  0
LINE
  5
1CE
330
2
100
AcDbEntity
  8
0
 62
     3
100
AcDbLine
 10
146.2894998207
 20
201.4633636474999
 30
0.0
 11
146.2894998207
 21
199.9633636475
 31
0.0
  0
ARC
  5
1CF
330
2
100
AcDbEntity
  8
0
 62
     3
100
AcDbCircle
 10
148.3895059241999
 20
201.4633636474999
 30
0.0
 40
1.0
100
AcDbArc
 50
0.0
 51
89.99998201389999
  0
LINE
  5
1D2
330
2
100
AcDbEntity
  8
0
  6
CENTERLINE
 62
     3
100
AcDbLine
 10
163.3895059242
 20
180.7173156738
 30
0.0
 11
163.3895059242
 21
198.4024658202999
 31
0.0
  0
LINE
  5
1D3
330
2
100
AcDbEntity
  8
0
  6
CENTERLINE
 62
     3
100
AcDbLine
 10
159.8895059241999
 20
180.7173156738
 30
0.0
 11
159.8895059241999
 21
198.4024658202999
 31
0.0
  0
LINE
  5
1D4
330
2
100
AcDbEntity
  8
0
  6
CENTERLINE
 62
     3
100
AcDbLine
 10
166.3895059241999
 20
180.7173156738
 30
0.0
 11
166.3895059241999
 21
198.4412536620999
 31
0.0
  0
LINE
  5
1D5
330
2
100
AcDbEntity
  8
0
 62
     3
100
AcDbLine
 10
169.3895059241999
 20
181.4633636474999
 30
0.0
 11
169.3895059241999
 21
201.4633483886999
 31
0.0
  0
LINE
  5
1D6
330
2
100
AcDbEntity
  8
0
  6
CENTERLINE
 62
     3
100
AcDbLine
 10
162.4024758949
 20
189.4633636474999
 30
0.0
 11
171.8895059242
 21
189.4633636474999
 31
0.0
  0
CIRCLE
  5
1D7
330
2
100
AcDbEntity
  8
0
 62
     3
100
AcDbCircle
 10
163.3895059242
 20
181.4633636474999
 30
0.0
 40
0.3999999762
  0
CIRCLE
  5
1D8
330
2
100
AcDbEntity
  8
0
 62
     3
100
AcDbCircle
 10
159.8895059241999
 20
181.4633636474999
 30
0.0
 40
0.3999999762
  0
CIRCLE
  5
1D9
330
2
100
AcDbEntity
  8
0
 62
     3
100
AcDbCircle
 10
166.3895059241999
 20
181.4633636474999
 30
0.0
 40
0.3999999762
  0
CIRCLE
  5
1DA
330
2
100
AcDbEntity
  8
0
 62
     3
100
AcDbCircle
 10
163.3895059242
 20
189.4633636474999
 30
0.0
 40
0.3999999762
  0
CIRCLE
  5
1DB
330
2
100
AcDbEntity
  8
0
 62
     3
100
AcDbCircle
 10
163.3895059242
 20
193.4633636474999
 30
0.0
 40
0.3999999762
  0
CIRCLE
  5
1DC
330
2
100
AcDbEntity
  8
0
 62
     3
100
AcDbCircle
 10
163.3895059242
 20
185.4633636475
 30
0.0
 40
0.3999999762
  0
CIRCLE
  5
1DD
330
2
100
AcDbEntity
  8
0
 62
     3
100
AcDbCircle
 10
159.8895059241999
 20
185.4633636475
 30
0.0
 40
0.3999999762
  0
CIRCLE
  5
1DE
330
2
100
AcDbEntity
  8
0
 62
     3
100
AcDbCircle
 10
159.8895059241999
 20
193.4633636474999
 30
0.0
 40
0.3999999762
  0
CIRCLE
  5
1DF
330
2
100
AcDbEntity
  8
0
 62
     3
100
AcDbCircle
 10
166.3895059241999
 20
185.4633636475
 30
0.0
 40
0.3999999762
  0
CIRCLE
  5
1E0
330
2
100
AcDbEntity
  8
0
 62
     3
100
AcDbCircle
 10
166.3895059241999
 20
189.4633636474999
 30
0.0
 40
0.3999999762
  0
CIRCLE
  5
1E1
330
2
100
AcDbEntity
  8
0
 62
     3
100
AcDbCircle
 10
166.3895059241999
 20
193.4633636474999
 30
0.0
 40
0.3999999762
  0
LINE
  5
1E2
330
2
100
AcDbEntity
  8
0
 62
     3
100
AcDbLine
 10
169.3894792252999
 20
181.4633558334
 30
0.0
 11
168.3894800182
 21
180.4633528329999
 31
0.0
  0
CIRCLE
  5
1E3
330
2
100
AcDbEntity
  8
0
 62
     3
100
AcDbCircle
 10
163.3895059242
 20
197.4633636474999
 30
0.0
 40
0.3999999762
  0
CIRCLE
  5
1E4
330
2
100
AcDbEntity
  8
0
 62
     3
100
AcDbCircle
 10
159.8895059241999
 20
197.4633636474999
 30
0.0
 40
0.3999999762
  0
CIRCLE
  5
1E5
330
2
100
AcDbEntity
  8
0
 62
     3
100
AcDbCircle
 10
166.3895059241999
 20
197.4633636474999
 30
0.0
 40
0.3999999762
  0
LINE
  5
1E6
330
2
100
AcDbEntity
  8
0
 62
     3
100
AcDbLine
 10
168.3894926056999
 20
202.4633469766
 30
0.0
 11
169.3894860809
 21
201.4633382442998
 31
0.0
  0
TEXT
  5
1F9
330
2
100
AcDbEntity
  8
0
 62
     7
100
AcDbText
 10
146.0
 20
85.00000295524989
 30
0.0
 40
2.999994089499998
  1
DFBN-031D
 11
146.0
 21
86.49999999999989
 31
0.0
100
AcDbText
 73
     2
  0
ENDSEC
  0
SECTION
  2
OBJECTS
  0
DICTIONARY
  5
7
330
0
100
AcDbDictionary
281
     1
  3
ACAD_GROUP
350
1F
  3
ACAD_LAYOUT
350
B
  3
ACAD_MLINESTYLE
350
20
  3
ACAD_PLOTSETTINGS
350
21
  3
ACAD_PLOTSTYLENAME
350
6
  3
AcDbVariableDictionary
350
1FA
  0
DICTIONARY
  5
1F
102
{ACAD_REACTORS
330
7
102
}
330
7
100
AcDbDictionary
281
     1
  0
DICTIONARY
  5
B
102
{ACAD_REACTORS
330
7
102
}
330
7
100
AcDbDictionary
281
     1
  3
Model
350
A
  3
ﾚｲｱｳﾄ1
350
F
  0
DICTIONARY
  5
20
102
{ACAD_REACTORS
330
7
102
}
330
7
100
AcDbDictionary
281
     1
  3
Standard
350
22
  0
DICTIONARY
  5
21
102
{ACAD_REACTORS
330
7
102
}
330
7
100
AcDbDictionary
281
     1
  0
ACDBDICTIONARYWDFLT
  5
6
102
{ACAD_REACTORS
330
7
102
}
330
7
100
AcDbDictionary
281
     1
  3
Normal
350
5
100
AcDbDictionaryWithDefault
340
5
  0
DICTIONARY
  5
1FA
102
{ACAD_REACTORS
330
7
102
}
330
7
100
AcDbDictionary
281
     1
  3
DIMASSOC
350
1FB
  0
LAYOUT
  5
A
102
{ACAD_REACTORS
330
B
102
}
330
B
100
AcDbPlotSettings
  1

  2
C:\Program Files\AutoCAD 2000i\plotters\DWF Classic.pc3
  4

  6

 40
0.0
 41
0.0
 42
0.0
 43
0.0
 44
0.0
 45
0.0
 46
0.0
 47
0.0
 48
0.0
 49
0.0
140
0.0
141
0.0
142
1.0
143
1.0
 70
  1712
 72
     0
 73
     0
 74
     0
  7

 75
     0
147
1.0
148
0.0
149
0.0
100
AcDbLayout
  1
Model
 70
     1
 71
     0
 10
0.0
 20
0.0
 11
12.0
 21
9.0
 12
0.0
 22
0.0
 32
0.0
 14
0.0
 24
0.0
 34
0.0
 15
0.0
 25
0.0
 35
0.0
146
0.0
 13
0.0
 23
0.0
 33
0.0
 16
1.0
 26
0.0
 36
0.0
 17
0.0
 27
1.0
 37
0.0
 76
     0
330
2
  0
LAYOUT
  5
F
102
{ACAD_REACTORS
330
B
102
}
330
B
100
AcDbPlotSettings
  1

  2
C:\Program Files\AutoCAD 2000i\plotters\DWF Classic.pc3
  4

  6

 40
0.0
 41
0.0
 42
0.0
 43
0.0
 44
0.0
 45
0.0
 46
0.0
 47
0.0
 48
0.0
 49
0.0
140
0.0
141
0.0
142
1.0
143
1.0
 70
   688
 72
     0
 73
     0
 74
     5
  7

 75
    16
147
1.0
148
0.0
149
0.0
100
AcDbLayout
  1
ﾚｲｱｳﾄ1
 70
     1
 71
     1
 10
0.0
 20
0.0
 11
12.0
 21
9.0
 12
0.0
 22
0.0
 32
0.0
 14
1.000000000000000E+20
 24
1.000000000000000E+20
 34
1.000000000000000E+20
 15
-1.000000000000000E+20
 25
-1.000000000000000E+20
 35
-1.000000000000000E+20
146
0.0
 13
0.0
 23
0.0
 33
0.0
 16
1.0
 26
0.0
 36
0.0
 17
0.0
 27
1.0
 37
0.0
 76
     0
330
C
  0
MLINESTYLE
  5
22
102
{ACAD_REACTORS
330
20
102
}
330
20
100
AcDbMlineStyle
  2
STANDARD
 70
     0
  3

 62
   256
 51
90.0
 52
90.0
 71
     2
 49
0.5
 62
   256
  6
BYLAYER
 49
-0.5
 62
   256
  6
BYLAYER
  0
ACDBPLACEHOLDER
  5
5
102
{ACAD_REACTORS
330
6
102
}
330
6
  0
DICTIONARYVAR
  5
1FB
102
{ACAD_REACTORS
330
1FA
102
}
330
1FA
100
DictionaryVariables
280
     0
  1
1
  0
ENDSEC
  0
EOF
