  0
SECTION
  2
HEADER
  9
$ACADVER
  1
AC1015
  9
$ACADMAINTVER
 70
     6
  9
$DWGCODEPAGE
  3
ANSI_932
  9
$INSBASE
 10
0.0
 20
0.0
 30
0.0
  9
$EXTMIN
 10
-180.584300556164
 20
16.0
 30
0.0
  9
$EXTMAX
 10
-17.333323
 20
164.045475290036
 30
0.0
  9
$LIMMIN
 10
-215.1752441406
 20
-3.175
  9
$LIMMAX
 10
3.175
 20
300.175
  9
$ORTHOMODE
 70
     0
  9
$REGENMODE
 70
     1
  9
$FILLMODE
 70
     1
  9
$QTEXTMODE
 70
     0
  9
$MIRRTEXT
 70
     0
  9
$LTSCALE
 40
1.0
  9
$ATTMODE
 70
     1
  9
$TEXTSIZE
 40
0.2
  9
$TRACEWID
 40
0.05
  9
$TEXTSTYLE
  7
IDEC_TEXT
  9
$CLAYER
  8
中線
  9
$CELTYPE
  6
BYLAYER
  9
$CECOLOR
 62
   256
  9
$CELTSCALE
 40
1.0
  9
$DISPSILH
 70
     0
  9
$DIMSCALE
 40
1.0
  9
$DIMASZ
 40
2.0
  9
$DIMEXO
 40
0.625
  9
$DIMDLI
 40
5.0
  9
$DIMRND
 40
0.0
  9
$DIMDLE
 40
0.0
  9
$DIMEXE
 40
1.25
  9
$DIMTP
 40
0.0
  9
$DIMTM
 40
0.0
  9
$DIMTXT
 40
2.5
  9
$DIMCEN
 40
2.5
  9
$DIMTSZ
 40
0.0
  9
$DIMTOL
 70
     0
  9
$DIMLIM
 70
     0
  9
$DIMTIH
 70
     0
  9
$DIMTOH
 70
     0
  9
$DIMSE1
 70
     0
  9
$DIMSE2
 70
     0
  9
$DIMTAD
 70
     1
  9
$DIMZIN
 70
     0
  9
$DIMBLK
  1
OPEN30
  9
$DIMASO
 70
     1
  9
$DIMSHO
 70
     0
  9
$DIMPOST
  1

  9
$DIMAPOST
  1

  9
$DIMALT
 70
     0
  9
$DIMALTD
 70
     1
  9
$DIMALTF
 40
0.03937007874
  9
$DIMLFAC
 40
1.0
  9
$DIMTOFL
 70
     1
  9
$DIMTVP
 40
0.0
  9
$DIMTIX
 70
     0
  9
$DIMSOXD
 70
     0
  9
$DIMSAH
 70
     0
  9
$DIMBLK1
  1

  9
$DIMBLK2
  1

  9
$DIMSTYLE
  2
IDEC_DIM
  9
$DIMCLRD
 70
   256
  9
$DIMCLRE
 70
   256
  9
$DIMCLRT
 70
   256
  9
$DIMTFAC
 40
0.5
  9
$DIMGAP
 40
0.5
  9
$DIMJUST
 70
     0
  9
$DIMSD1
 70
     0
  9
$DIMSD2
 70
     0
  9
$DIMTOLJ
 70
     2
  9
$DIMTZIN
 70
     8
  9
$DIMALTZ
 70
     0
  9
$DIMALTTZ
 70
     0
  9
$DIMUPT
 70
     0
  9
$DIMDEC
 70
     1
  9
$DIMTDEC
 70
     1
  9
$DIMALTU
 70
     2
  9
$DIMALTTD
 70
     3
  9
$DIMTXSTY
  7
IDEC_TEXT
  9
$DIMAUNIT
 70
     1
  9
$DIMADEC
 70
     1
  9
$DIMALTRND
 40
0.0
  9
$DIMAZIN
 70
     2
  9
$DIMDSEP
 70
    46
  9
$DIMATFIT
 70
     3
  9
$DIMFRAC
 70
     0
  9
$DIMLDRBLK
  1
OPEN30
  9
$DIMLUNIT
 70
     2
  9
$DIMLWD
 70
    13
  9
$DIMLWE
 70
    13
  9
$DIMTMOVE
 70
     0
  9
$LUNITS
 70
     2
  9
$LUPREC
 70
     3
  9
$SKETCHINC
 40
0.1
  9
$FILLETRAD
 40
0.0625
  9
$AUNITS
 70
     0
  9
$AUPREC
 70
     0
  9
$MENU
  1
ACAD
  9
$ELEVATION
 40
0.0
  9
$PELEVATION
 40
0.0
  9
$THICKNESS
 40
0.0
  9
$LIMCHECK
 70
     0
  9
$CHAMFERA
 40
0.0
  9
$CHAMFERB
 40
0.0
  9
$CHAMFERC
 40
0.0
  9
$CHAMFERD
 40
0.0
  9
$SKPOLY
 70
     0
  9
$TDCREATE
 40
2454868.754201389
  9
$TDUCREATE
 40
2454868.379201389
  9
$TDUPDATE
 40
2456275.599115694
  9
$TDUUPDATE
 40
2456275.224115694
  9
$TDINDWG
 40
0.0109700347
  9
$TDUSRTIMER
 40
0.0109700347
  9
$USRTIMER
 70
     1
  9
$ANGBASE
 50
0.0
  9
$ANGDIR
 70
     0
  9
$PDMODE
 70
     0
  9
$PDSIZE
 40
0.0
  9
$PLINEWID
 40
0.0
  9
$SPLFRAME
 70
     0
  9
$SPLINETYPE
 70
     6
  9
$SPLINESEGS
 70
     8
  9
$HANDSEED
  5
A10
  9
$SURFTAB1
 70
     6
  9
$SURFTAB2
 70
     6
  9
$SURFTYPE
 70
     6
  9
$SURFU
 70
     6
  9
$SURFV
 70
     6
  9
$UCSBASE
  2

  9
$UCSNAME
  2

  9
$UCSORG
 10
0.0
 20
0.0
 30
0.0
  9
$UCSXDIR
 10
1.0
 20
0.0
 30
0.0
  9
$UCSYDIR
 10
0.0
 20
1.0
 30
0.0
  9
$UCSORTHOREF
  2

  9
$UCSORTHOVIEW
 70
     0
  9
$UCSORGTOP
 10
0.0
 20
0.0
 30
0.0
  9
$UCSORGBOTTOM
 10
0.0
 20
0.0
 30
0.0
  9
$UCSORGLEFT
 10
0.0
 20
0.0
 30
0.0
  9
$UCSORGRIGHT
 10
0.0
 20
0.0
 30
0.0
  9
$UCSORGFRONT
 10
0.0
 20
0.0
 30
0.0
  9
$UCSORGBACK
 10
0.0
 20
0.0
 30
0.0
  9
$PUCSBASE
  2

  9
$PUCSNAME
  2

  9
$PUCSORG
 10
0.0
 20
0.0
 30
0.0
  9
$PUCSXDIR
 10
1.0
 20
0.0
 30
0.0
  9
$PUCSYDIR
 10
0.0
 20
1.0
 30
0.0
  9
$PUCSORTHOREF
  2

  9
$PUCSORTHOVIEW
 70
     0
  9
$PUCSORGTOP
 10
0.0
 20
0.0
 30
0.0
  9
$PUCSORGBOTTOM
 10
0.0
 20
0.0
 30
0.0
  9
$PUCSORGLEFT
 10
0.0
 20
0.0
 30
0.0
  9
$PUCSORGRIGHT
 10
0.0
 20
0.0
 30
0.0
  9
$PUCSORGFRONT
 10
0.0
 20
0.0
 30
0.0
  9
$PUCSORGBACK
 10
0.0
 20
0.0
 30
0.0
  9
$USERI1
 70
     0
  9
$USERI2
 70
     0
  9
$USERI3
 70
     0
  9
$USERI4
 70
     0
  9
$USERI5
 70
     0
  9
$USERR1
 40
0.0
  9
$USERR2
 40
0.0
  9
$USERR3
 40
0.0
  9
$USERR4
 40
0.0
  9
$USERR5
 40
0.0
  9
$WORLDVIEW
 70
     1
  9
$SHADEDGE
 70
     3
  9
$SHADEDIF
 70
    70
  9
$TILEMODE
 70
     1
  9
$MAXACTVP
 70
    32
  9
$PINSBASE
 10
0.0
 20
0.0
 30
0.0
  9
$PLIMCHECK
 70
     0
  9
$PEXTMIN
 10
1.000000000000E+20
 20
1.000000000000E+20
 30
1.000000000000E+20
  9
$PEXTMAX
 10
-1.000000000000E+20
 20
-1.000000000000E+20
 30
-1.000000000000E+20
  9
$PLIMMIN
 10
-0.515625431379
 20
-0.515625013072
  9
$PLIMMAX
 10
11.171875143793
 20
8.515625431379
  9
$UNITMODE
 70
     0
  9
$VISRETAIN
 70
     0
  9
$PLINEGEN
 70
     0
  9
$PSLTSCALE
 70
     1
  9
$TREEDEPTH
 70
  3020
  9
$CMLSTYLE
  2
STANDARD
  9
$CMLJUST
 70
     0
  9
$CMLSCALE
 40
1.0
  9
$PROXYGRAPHICS
 70
     0
  9
$MEASUREMENT
 70
     0
  9
$CELWEIGHT
370
    -1
  9
$ENDCAPS
280
     0
  9
$JOINSTYLE
280
     0
  9
$LWDISPLAY
290
     0
  9
$INSUNITS
 70
     0
  9
$HYPERLINKBASE
  1

  9
$STYLESHEET
  1

  9
$XEDIT
290
     1
  9
$CEPSNTYPE
380
     0
  9
$PSTYLEMODE
290
     1
  9
$FINGERPRINTGUID
  2
{8547CB4C-C1B4-49B4-91FA-E1B6F5155767}
  9
$VERSIONGUID
  2
{B5880260-995A-4EFC-BA52-3028BE86BA5F}
  9
$EXTNAMES
290
     1
  9
$PSVPSCALE
 40
0.0
  9
$OLESTARTUP
290
     0
  0
ENDSEC
  0
SECTION
  2
CLASSES
  0
CLASS
  1
ACDBDICTIONARYWDFLT
  2
AcDbDictionaryWithDefault
  3
ObjectDBX Classes
 90
        0
280
     0
281
     0
  0
CLASS
  1
MATERIAL
  2
AcDbMaterial
  3
ObjectDBX Classes
 90
     1153
280
     0
281
     0
  0
CLASS
  1
VISUALSTYLE
  2
AcDbVisualStyle
  3
ObjectDBX Classes
 90
     4095
280
     0
281
     0
  0
CLASS
  1
TABLESTYLE
  2
AcDbTableStyle
  3
ObjectDBX Classes
 90
     4095
280
     0
281
     0
  0
CLASS
  1
DICTIONARYVAR
  2
AcDbDictionaryVar
  3
ObjectDBX Classes
 90
        0
280
     0
281
     0
  0
CLASS
  1
SCALE
  2
AcDbScale
  3
ObjectDBX Classes
 90
     1153
280
     0
281
     0
  0
CLASS
  1
CELLSTYLEMAP
  2
AcDbCellStyleMap
  3
ObjectDBX Classes
 90
     1152
280
     0
281
     0
  0
CLASS
  1
SORTENTSTABLE
  2
AcDbSortentsTable
  3
ObjectDBX Classes
 90
        0
280
     0
281
     0
  0
CLASS
  1
ACDBPLACEHOLDER
  2
AcDbPlaceHolder
  3
ObjectDBX Classes
 90
        0
280
     0
281
     0
  0
CLASS
  1
LAYOUT
  2
AcDbLayout
  3
ObjectDBX Classes
 90
        0
280
     0
281
     0
  0
ENDSEC
  0
SECTION
  2
TABLES
  0
TABLE
  2
VPORT
  5
3
330
0
100
AcDbSymbolTable
 70
     1
  0
VPORT
  5
7D3
330
3
100
AcDbSymbolTableRecord
100
AcDbViewportTableRecord
  2
*Active
 70
     0
 10
0.0
 20
0.0
 11
1.0
 21
1.0
 12
-98.958811778082
 22
90.022737645018
 13
0.0
 23
0.0
 14
0.5
 24
0.5
 15
0.5
 25
0.5
 16
0.0
 26
0.0
 36
1.0
 17
0.0
 27
0.0
 37
0.0
 40
151.006384795836
 41
1.49766718507
 42
50.0
 43
0.0
 44
0.0
 50
0.0
 51
0.0
 71
    16
 72
   100
 73
     1
 74
     3
 75
     0
 76
     0
 77
     0
 78
     0
281
     0
 65
     1
110
0.0
120
0.0
130
0.0
111
1.0
121
0.0
131
0.0
112
0.0
122
1.0
132
0.0
 79
     0
146
0.0
  0
ENDTAB
  0
TABLE
  2
LTYPE
  5
4
330
0
100
AcDbSymbolTable
 70
     9
  0
LTYPE
  5
6
330
4
100
AcDbSymbolTableRecord
100
AcDbLinetypeTableRecord
  2
BYBLOCK
 70
     0
  3

 72
    65
 73
     0
 40
0.0
  0
LTYPE
  5
5
330
4
100
AcDbSymbolTableRecord
100
AcDbLinetypeTableRecord
  2
BYLAYER
 70
     0
  3

 72
    65
 73
     0
 40
0.0
  0
LTYPE
  5
2B
330
4
100
AcDbSymbolTableRecord
100
AcDbLinetypeTableRecord
  2
Continuous
 70
     0
  3
Solid line
 72
    65
 73
     0
 40
0.0
  0
LTYPE
  5
7
330
4
100
AcDbSymbolTableRecord
100
AcDbLinetypeTableRecord
  2
SOLID
 70
     0
  3
Solid
 72
    65
 73
     0
 40
0.0
  0
LTYPE
  5
B
330
4
100
AcDbSymbolTableRecord
100
AcDbLinetypeTableRecord
  2
GAP
 70
     0
  3
Gap
 72
    65
 73
     3
 40
2540.9999980092
 49
0.0
 74
     0
 49
-0.9999980092
 74
     0
 49
2540.0
 74
     0
  0
LTYPE
  5
83A
330
4
100
AcDbSymbolTableRecord
100
AcDbLinetypeTableRecord
  2
CENTERX2
 70
     0
  3
________  __  ________  __  ________  __  ______
 72
    65
 73
     4
 40
4.0
 49
2.5
 74
     0
 49
-0.5
 74
     0
 49
0.5
 74
     0
 49
-0.5
 74
     0
  0
LTYPE
  5
83C
330
4
100
AcDbSymbolTableRecord
100
AcDbLinetypeTableRecord
  2
PHANTOMX2
 70
     0
  3
____________    ____    ____    ____________    
 72
    65
 73
     6
 40
5.0
 49
2.5
 74
     0
 49
-0.5
 74
     0
 49
0.5
 74
     0
 49
-0.5
 74
     0
 49
0.5
 74
     0
 49
-0.5
 74
     0
  0
LTYPE
  5
842
330
4
100
AcDbSymbolTableRecord
100
AcDbLinetypeTableRecord
  2
DASHEDX2
 70
     0
  3
____  ____  ____  ____  ____  ____  ____  ____  
 72
    65
 73
     2
 40
1.5
 49
1.0
 74
     0
 49
-0.5
 74
     0
  0
ENDTAB
  0
TABLE
  2
LAYER
  5
C
330
0
100
AcDbSymbolTable
 70
    21
  0
LAYER
  5
D
330
C
100
AcDbSymbolTableRecord
100
AcDbLayerTableRecord
  2
0
 70
     0
 62
     7
  6
Continuous
370
    -3
390
7B3
  0
LAYER
  5
15
330
C
100
AcDbSymbolTableRecord
100
AcDbLayerTableRecord
  2
VIEWPORTS
 70
     0
 62
     7
  6
SOLID
370
    -3
390
7B3
  0
LAYER
  5
837
330
C
100
AcDbSymbolTableRecord
100
AcDbLayerTableRecord
  2
Defpoints
 70
     0
 62
     7
  6
Continuous
290
     0
370
    -3
390
7B3
  0
LAYER
  5
838
330
C
100
AcDbSymbolTableRecord
100
AcDbLayerTableRecord
  2
CENTER
 70
     0
 62
     7
  6
CENTERX2
370
    13
390
7B3
  0
LAYER
  5
83B
330
C
100
AcDbSymbolTableRecord
100
AcDbLayerTableRecord
  2
PHANTOM
 70
     0
 62
     4
  6
PHANTOMX2
370
    13
390
7B3
  0
LAYER
  5
83D
330
C
100
AcDbSymbolTableRecord
100
AcDbLayerTableRecord
  2
太線
 70
     0
 62
     5
  6
Continuous
370
    40
390
7B3
  0
LAYER
  5
83E
330
C
100
AcDbSymbolTableRecord
100
AcDbLayerTableRecord
  2
細線
 70
     0
 62
     7
  6
Continuous
370
    13
390
7B3
  0
LAYER
  5
83F
330
C
100
AcDbSymbolTableRecord
100
AcDbLayerTableRecord
  2
中線
 70
     0
 62
     3
  6
Continuous
370
    25
390
7B3
  0
LAYER
  5
840
330
C
100
AcDbSymbolTableRecord
100
AcDbLayerTableRecord
  2
IDEC_DIM
 70
     0
 62
     2
  6
Continuous
370
    13
390
7B3
  0
LAYER
  5
841
330
C
100
AcDbSymbolTableRecord
100
AcDbLayerTableRecord
  2
HIDDEN
 70
     0
 62
     6
  6
DASHEDX2
370
    13
390
7B3
  0
LAYER
  5
843
330
C
100
AcDbSymbolTableRecord
100
AcDbLayerTableRecord
  2
CMNT
 70
     0
 62
     7
  6
Continuous
370
    13
390
7B3
  0
LAYER
  5
844
330
C
100
AcDbSymbolTableRecord
100
AcDbLayerTableRecord
  2
IDEC_DRAWINGFRAME
 70
     4
 62
     3
  6
Continuous
370
    13
390
7B3
  0
LAYER
  5
845
330
C
100
AcDbSymbolTableRecord
100
AcDbLayerTableRecord
  2
DIF_SCALE_TEXT
 70
     0
 62
   250
  6
Continuous
290
     0
370
     0
390
7B3
  0
LAYER
  5
846
330
C
100
AcDbSymbolTableRecord
100
AcDbLayerTableRecord
  2
DIF_SCALE_AREA
 70
     0
 62
   250
  6
Continuous
290
     0
370
     0
390
7B3
  0
ENDTAB
  0
TABLE
  2
STYLE
  5
16
330
0
100
AcDbSymbolTable
 70
     2
  0
STYLE
  5
17
330
16
100
AcDbSymbolTableRecord
100
AcDbTextStyleTableRecord
  2
STANDARD
 70
     0
 40
0.0
 41
1.0
 50
0.0
 71
     0
 42
3.1999998093
  3
simplex.shx
  4
extfont2.shx
  0
STYLE
  5
848
330
16
100
AcDbSymbolTableRecord
100
AcDbTextStyleTableRecord
  2
IDEC_TEXT
 70
     0
 40
0.0
 41
1.0
 50
0.0
 71
     0
 42
0.2
  3
simplex.shx
  4
extfont2.shx
  0
ENDTAB
  0
TABLE
  2
VIEW
  5
22
330
0
100
AcDbSymbolTable
 70
     0
  0
ENDTAB
  0
TABLE
  2
UCS
  5
23
330
0
100
AcDbSymbolTable
 70
     0
  0
ENDTAB
  0
TABLE
  2
APPID
  5
20
330
0
100
AcDbSymbolTable
 70
     5
  0
APPID
  5
21
330
20
100
AcDbSymbolTableRecord
100
AcDbRegAppTableRecord
  2
ACAD
 70
     0
  0
APPID
  5
84F
330
20
100
AcDbSymbolTableRecord
100
AcDbRegAppTableRecord
  2
BJM_BLN_TBL
 70
     0
  0
APPID
  5
850
330
20
100
AcDbSymbolTableRecord
100
AcDbRegAppTableRecord
  2
DENKISCL
 70
     0
  0
APPID
  5
851
330
20
100
AcDbSymbolTableRecord
100
AcDbRegAppTableRecord
  2
DENKISCLORG
 70
     0
  0
APPID
  5
9E9
330
20
100
AcDbSymbolTableRecord
100
AcDbRegAppTableRecord
  2
ACAD_DSTYLE_DIMTEXT_FILL
 70
     0
  0
ENDTAB
  0
TABLE
  2
DIMSTYLE
  5
18
330
0
100
AcDbSymbolTable
 70
     8
100
AcDbDimStyleTable
  0
DIMSTYLE
105
847
102
{ACAD_REACTORS
330
88A
330
89F
102
}
330
18
100
AcDbSymbolTableRecord
100
AcDbDimStyleTableRecord
  2
IDEC_DIM
 70
     0
 41
2.0
 42
0.625
 43
5.0
 44
1.25
 73
     0
 74
     0
 77
     1
 79
     2
140
2.5
141
2.5
143
0.03937007874
146
0.5
147
0.5
171
     1
172
     1
176
   256
177
   256
271
     1
178
   256
179
     1
271
     1
272
     1
274
     3
275
     1
283
     2
284
     8
340
848
341
849
342
849
371
    13
372
    13
1001
ACAD_DSTYLE_DIMTEXT_FILL
1070
   376
1070
     0
  0
ENDTAB
  0
TABLE
  2
BLOCK_RECORD
  5
24
330
0
100
AcDbSymbolTable
 70
    48
  0
BLOCK_RECORD
  5
25
330
24
100
AcDbSymbolTableRecord
100
AcDbBlockTableRecord
  2
*MODEL_SPACE
340
7CF
  0
BLOCK_RECORD
  5
26
330
24
100
AcDbSymbolTableRecord
100
AcDbBlockTableRecord
  2
*PAPER_SPACE
340
7D0
  0
BLOCK_RECORD
  5
28
330
24
100
AcDbSymbolTableRecord
100
AcDbBlockTableRecord
  2
*D1
340
0
  0
BLOCK_RECORD
  5
91
330
24
100
AcDbSymbolTableRecord
100
AcDbBlockTableRecord
  2
*D3
340
0
  0
BLOCK_RECORD
  5
92
330
24
100
AcDbSymbolTableRecord
100
AcDbBlockTableRecord
  2
*D4
340
0
  0
BLOCK_RECORD
  5
93
330
24
100
AcDbSymbolTableRecord
100
AcDbBlockTableRecord
  2
*D5
340
0
  0
BLOCK_RECORD
  5
94
330
24
100
AcDbSymbolTableRecord
100
AcDbBlockTableRecord
  2
*D6
340
0
  0
BLOCK_RECORD
  5
95
330
24
100
AcDbSymbolTableRecord
100
AcDbBlockTableRecord
  2
*D7
340
0
  0
BLOCK_RECORD
  5
96
330
24
100
AcDbSymbolTableRecord
100
AcDbBlockTableRecord
  2
*D8
340
0
  0
BLOCK_RECORD
  5
97
330
24
100
AcDbSymbolTableRecord
100
AcDbBlockTableRecord
  2
*D9
340
0
  0
BLOCK_RECORD
  5
98
330
24
100
AcDbSymbolTableRecord
100
AcDbBlockTableRecord
  2
*D10
340
0
  0
BLOCK_RECORD
  5
99
330
24
100
AcDbSymbolTableRecord
100
AcDbBlockTableRecord
  2
*D11
340
0
  0
BLOCK_RECORD
  5
9A
330
24
100
AcDbSymbolTableRecord
100
AcDbBlockTableRecord
  2
*D12
340
0
  0
BLOCK_RECORD
  5
9B
330
24
100
AcDbSymbolTableRecord
100
AcDbBlockTableRecord
  2
*D13
340
0
  0
BLOCK_RECORD
  5
9C
330
24
100
AcDbSymbolTableRecord
100
AcDbBlockTableRecord
  2
*D14
340
0
  0
BLOCK_RECORD
  5
9D
330
24
100
AcDbSymbolTableRecord
100
AcDbBlockTableRecord
  2
*D15
340
0
  0
BLOCK_RECORD
  5
9E
330
24
100
AcDbSymbolTableRecord
100
AcDbBlockTableRecord
  2
*D16
340
0
  0
BLOCK_RECORD
  5
9F
330
24
100
AcDbSymbolTableRecord
100
AcDbBlockTableRecord
  2
*D17
340
0
  0
BLOCK_RECORD
  5
A0
330
24
100
AcDbSymbolTableRecord
100
AcDbBlockTableRecord
  2
*D18
340
0
  0
BLOCK_RECORD
  5
849
330
24
100
AcDbSymbolTableRecord
100
AcDbBlockTableRecord
  2
_OPEN30
340
0
102
{BLKREFS
331
8F4
331
8F3
331
8CA
331
8C9
331
903
331
902
331
8D5
331
8D4
331
912
331
911
331
91E
331
91D
331
0
331
92A
331
0
331
937
331
945
331
944
331
951
331
950
331
95D
331
95C
331
8E0
331
8DF
331
0
331
96C
331
8EB
331
8EA
331
97C
331
97B
331
0
331
988
331
995
331
994
331
929
331
936
331
96B
331
987
102
}
  0
BLOCK_RECORD
  5
88B
330
24
100
AcDbSymbolTableRecord
100
AcDbBlockTableRecord
  2
*D27
340
0
  0
BLOCK_RECORD
  5
891
102
{ACAD_XDICTIONARY
360
892
102
}
330
24
100
AcDbSymbolTableRecord
100
AcDbBlockTableRecord
  2
_IDEC_OPEN30
340
0
102
{BLKREFS
331
890
331
899
102
}
1001
ACAD
1000
DesignCenter Data
1002
{
1070
     1
1070
     4
1002
}
  0
BLOCK_RECORD
  5
8A0
330
24
100
AcDbSymbolTableRecord
100
AcDbBlockTableRecord
  2
*D29
340
0
  0
BLOCK_RECORD
  5
8A6
102
{ACAD_XDICTIONARY
360
8A7
102
}
330
24
100
AcDbSymbolTableRecord
100
AcDbBlockTableRecord
  2
_IDEC_OPEN30R
340
0
102
{BLKREFS
331
8A5
331
8AE
102
}
1001
ACAD
1000
DesignCenter Data
1002
{
1070
     1
1070
     4
1002
}
  0
BLOCK_RECORD
  5
8C3
330
24
100
AcDbSymbolTableRecord
100
AcDbBlockTableRecord
  2
*D31
340
0
  0
BLOCK_RECORD
  5
8CE
330
24
100
AcDbSymbolTableRecord
100
AcDbBlockTableRecord
  2
*D32
340
0
  0
BLOCK_RECORD
  5
8D9
330
24
100
AcDbSymbolTableRecord
100
AcDbBlockTableRecord
  2
*D33
340
0
  0
BLOCK_RECORD
  5
8E4
330
24
100
AcDbSymbolTableRecord
100
AcDbBlockTableRecord
  2
*D34
340
0
  0
BLOCK_RECORD
  5
8EF
330
24
100
AcDbSymbolTableRecord
100
AcDbBlockTableRecord
  2
*D35
340
0
  0
BLOCK_RECORD
  5
8FE
330
24
100
AcDbSymbolTableRecord
100
AcDbBlockTableRecord
  2
*D36
340
0
  0
BLOCK_RECORD
  5
90D
330
24
100
AcDbSymbolTableRecord
100
AcDbBlockTableRecord
  2
*D37
340
0
  0
BLOCK_RECORD
  5
919
330
24
100
AcDbSymbolTableRecord
100
AcDbBlockTableRecord
  2
*D38
340
0
  0
BLOCK_RECORD
  5
925
330
24
100
AcDbSymbolTableRecord
100
AcDbBlockTableRecord
  2
*D39
340
0
  0
BLOCK_RECORD
  5
932
330
24
100
AcDbSymbolTableRecord
100
AcDbBlockTableRecord
  2
*D40
340
0
  0
BLOCK_RECORD
  5
93F
330
24
100
AcDbSymbolTableRecord
100
AcDbBlockTableRecord
  2
*D41
340
0
  0
BLOCK_RECORD
  5
94C
330
24
100
AcDbSymbolTableRecord
100
AcDbBlockTableRecord
  2
*D42
340
0
  0
BLOCK_RECORD
  5
958
330
24
100
AcDbSymbolTableRecord
100
AcDbBlockTableRecord
  2
*D43
340
0
  0
BLOCK_RECORD
  5
967
330
24
100
AcDbSymbolTableRecord
100
AcDbBlockTableRecord
  2
*D44
340
0
  0
BLOCK_RECORD
  5
977
330
24
100
AcDbSymbolTableRecord
100
AcDbBlockTableRecord
  2
*D45
340
0
  0
BLOCK_RECORD
  5
983
330
24
100
AcDbSymbolTableRecord
100
AcDbBlockTableRecord
  2
*D46
340
0
  0
BLOCK_RECORD
  5
990
330
24
100
AcDbSymbolTableRecord
100
AcDbBlockTableRecord
  2
*D47
340
0
  0
ENDTAB
  0
ENDSEC
  0
SECTION
  2
BLOCKS
  0
BLOCK
  5
A7
330
25
100
AcDbEntity
  8
0
100
AcDbBlockBegin
  2
*MODEL_SPACE
 70
     0
 10
0.0
 20
0.0
 30
0.0
  3
*MODEL_SPACE
  1
*MODEL_SPACE
  0
ENDBLK
  5
A8
330
25
100
AcDbEntity
  8
0
100
AcDbBlockEnd
  0
BLOCK
  5
A9
330
26
100
AcDbEntity
 67
     1
  8
0
100
AcDbBlockBegin
  2
*PAPER_SPACE
 70
     0
 10
0.0
 20
0.0
 30
0.0
  3
*PAPER_SPACE
  1
*PAPER_SPACE
  0
ENDBLK
  5
AA
330
26
100
AcDbEntity
 67
     1
  8
0
100
AcDbBlockEnd
  0
BLOCK
  5
AB
330
28
100
AcDbEntity
  8
0
100
AcDbBlockBegin
  2
*D1
 70
     1
 10
0.0
 20
0.0
 30
0.0
  3
*D1
  1
*D1
  0
LINE
  5
AC
330
28
100
AcDbEntity
  8
0
100
AcDbLine
 10
-154.3827209473
 20
95.3925323486
 30
0.0
 11
-152.421150386
 21
95.0023517045
 31
0.0
  0
LINE
  5
AD
330
28
100
AcDbEntity
  8
0
100
AcDbLine
 10
-154.3827209473
 20
95.3925323486
 30
0.0
 11
-152.421150386
 21
95.7827129928
 31
0.0
  0
LINE
  5
AE
330
28
100
AcDbEntity
  8
0
100
AcDbLine
 10
-120.182723999
 20
95.3925323486
 30
0.0
 11
-122.1442945603
 21
95.7827129928
 31
0.0
  0
LINE
  5
AF
330
28
100
AcDbEntity
  8
0
100
AcDbLine
 10
-120.182723999
 20
95.3925323486
 30
0.0
 11
-122.1442945603
 21
95.0023517045
 31
0.0
  0
LINE
  5
B0
330
28
100
AcDbEntity
  8
0
100
AcDbLine
 10
-154.3827209473
 20
95.3925323486
 30
0.0
 11
-120.182723999
 21
95.3925323486
 31
0.0
  0
LINE
  5
B1
330
28
100
AcDbEntity
  8
0
  6
GAP
100
AcDbLine
 10
-154.3827209473
 20
113.8525323868
 30
0.0
 11
-154.3827209473
 21
93.8925323486
 31
0.0
  0
LINE
  5
B2
330
28
100
AcDbEntity
  8
0
  6
GAP
100
AcDbLine
 10
-120.182723999
 20
113.8525323868
 30
0.0
 11
-120.182723999
 21
93.8925323486
 31
0.0
  0
TEXT
  5
B3
330
28
100
AcDbEntity
  8
0
100
AcDbText
 10
-139.448483292
 20
96.0175323486
 30
0.0
 40
2.5000000516
  1
38
 41
1.039561509479
 72
     5
 11
-135.1169769131
 21
96.0175323486
 31
0.0
100
AcDbText
  0
ENDBLK
  5
B4
330
28
100
AcDbEntity
  8
0
100
AcDbBlockEnd
  0
BLOCK
  5
B5
330
91
100
AcDbEntity
  8
0
100
AcDbBlockBegin
  2
*D3
 70
     1
 10
0.0
 20
0.0
 30
0.0
  3
*D3
  1
*D3
  0
LINE
  5
B6
330
91
100
AcDbEntity
  8
0
100
AcDbLine
 10
-155.7327270508
 20
201.7517242432
 30
0.0
 11
-157.6942976121
 21
201.361543599
 31
0.0
  0
LINE
  5
B7
330
91
100
AcDbEntity
  8
0
100
AcDbLine
 10
-155.7327270508
 20
201.7517242432
 30
0.0
 11
-157.6942976121
 21
202.1419048873
 31
0.0
  0
LINE
  5
B8
330
91
100
AcDbEntity
  8
0
100
AcDbLine
 10
-155.7327270508
 20
201.7517242432
 30
0.0
 11
-160.23272705
 21
201.7517242432
 31
0.0
  0
LINE
  5
B9
330
91
100
AcDbEntity
  8
0
100
AcDbLine
 10
-154.3827209473
 20
201.7517242432
 30
0.0
 11
-152.421150386
 21
202.1419048873
 31
0.0
  0
LINE
  5
BA
330
91
100
AcDbEntity
  8
0
100
AcDbLine
 10
-154.3827209473
 20
201.7517242432
 30
0.0
 11
-152.421150386
 21
201.361543599
 31
0.0
  0
LINE
  5
BB
330
91
100
AcDbEntity
  8
0
100
AcDbLine
 10
-154.3827209473
 20
201.7517242432
 30
0.0
 11
-149.882720948
 21
201.7517242432
 31
0.0
  0
LINE
  5
BC
330
91
100
AcDbEntity
  8
0
100
AcDbLine
 10
-155.7327270508
 20
201.7517242432
 30
0.0
 11
-154.3827209473
 21
201.7517242432
 31
0.0
  0
LINE
  5
BD
330
91
100
AcDbEntity
  8
0
100
AcDbLine
 10
-155.7327270508
 20
201.7517242432
 30
0.0
 11
-166.2871368565
 21
201.7517242432
 31
0.0
  0
LINE
  5
BE
330
91
100
AcDbEntity
  8
0
  6
GAP
100
AcDbLine
 10
-155.7327270508
 20
184.4567480087
 30
0.0
 11
-155.7327270508
 21
203.2517242432
 31
0.0
  0
LINE
  5
BF
330
91
100
AcDbEntity
  8
0
  6
GAP
100
AcDbLine
 10
-154.3827209473
 20
198.291724205
 30
0.0
 11
-154.3827209473
 21
203.2517242432
 31
0.0
  0
TEXT
  5
C0
330
91
100
AcDbEntity
  8
0
100
AcDbText
 10
-166.2871368565
 20
202.3767242432
 30
0.0
 40
2.5000000516
  1
1.5
 41
1.639561497119
 72
     5
 11
-159.4556304775
 21
202.3767242432
 31
0.0
100
AcDbText
  0
ENDBLK
  5
C1
330
91
100
AcDbEntity
  8
0
100
AcDbBlockEnd
  0
BLOCK
  5
C2
330
92
100
AcDbEntity
  8
0
100
AcDbBlockBegin
  2
*D4
 70
     1
 10
0.0
 20
0.0
 30
0.0
  3
*D4
  1
*D4
  0
LINE
  5
C3
330
92
100
AcDbEntity
  8
0
100
AcDbLine
 10
-104.182723999
 20
161.3925323486
 30
0.0
 11
-104.5729046432
 21
159.4309617873
 31
0.0
  0
LINE
  5
C4
330
92
100
AcDbEntity
  8
0
100
AcDbLine
 10
-104.182723999
 20
161.3925323486
 30
0.0
 11
-103.7925433549
 21
159.4309617873
 31
0.0
  0
LINE
  5
C5
330
92
100
AcDbEntity
  8
0
100
AcDbLine
 10
-104.182723999
 20
116.3925323486
 30
0.0
 11
-103.7925433549
 21
118.3541029099
 31
0.0
  0
LINE
  5
C6
330
92
100
AcDbEntity
  8
0
100
AcDbLine
 10
-104.182723999
 20
116.3925323486
 30
0.0
 11
-104.5729046432
 21
118.3541029099
 31
0.0
  0
LINE
  5
C7
330
92
100
AcDbEntity
  8
0
100
AcDbLine
 10
-104.182723999
 20
161.3925323486
 30
0.0
 11
-104.182723999
 21
116.3925323486
 31
0.0
  0
LINE
  5
C8
330
92
100
AcDbEntity
  8
0
  6
GAP
100
AcDbLine
 10
-117.6427240372
 20
161.3925323486
 30
0.0
 11
-102.682723999
 21
161.3925323486
 31
0.0
  0
LINE
  5
C9
330
92
100
AcDbEntity
  8
0
  6
GAP
100
AcDbLine
 10
-117.6427240372
 20
116.3925323486
 30
0.0
 11
-102.682723999
 21
116.3925323486
 31
0.0
  0
TEXT
  5
CA
330
92
100
AcDbEntity
  8
0
100
AcDbText
 10
-104.807723999
 20
136.7267791592
 30
0.0
 40
2.5000000516
  1
50
 50
90.0
 41
1.155068343866
 72
     5
 11
-104.807723999
 21
141.0582855381
 31
0.0
100
AcDbText
  0
ENDBLK
  5
CB
330
92
100
AcDbEntity
  8
0
100
AcDbBlockEnd
  0
BLOCK
  5
CC
330
93
100
AcDbEntity
  8
0
100
AcDbBlockBegin
  2
*D5
 70
     1
 10
0.0
 20
0.0
 30
0.0
  3
*D5
  1
*D5
  0
LINE
  5
CD
330
93
100
AcDbEntity
  8
0
100
AcDbLine
 10
-82.0688934326
 20
194.3117218018
 30
0.0
 11
-81.6787127885
 21
192.3501512405
 31
0.0
  0
LINE
  5
CE
330
93
100
AcDbEntity
  8
0
100
AcDbLine
 10
-82.0688934326
 20
194.3117218018
 30
0.0
 11
-82.4590740767
 21
192.3501512405
 31
0.0
  0
LINE
  5
CF
330
93
100
AcDbEntity
  8
0
100
AcDbLine
 10
-82.0688934326
 20
194.3117218018
 30
0.0
 11
-82.0688934326
 21
189.8117218025
 31
0.0
  0
LINE
  5
D0
330
93
100
AcDbEntity
  8
0
100
AcDbLine
 10
-82.0688934326
 20
195.7517242432
 30
0.0
 11
-82.4590740767
 21
197.7132948045
 31
0.0
  0
LINE
  5
D1
330
93
100
AcDbEntity
  8
0
100
AcDbLine
 10
-82.0688934326
 20
195.7517242432
 30
0.0
 11
-81.6787127885
 21
197.7132948045
 31
0.0
  0
LINE
  5
D2
330
93
100
AcDbEntity
  8
0
100
AcDbLine
 10
-82.0688934326
 20
195.7517242432
 30
0.0
 11
-82.0688934326
 21
200.2517242424
 31
0.0
  0
LINE
  5
D3
330
93
100
AcDbEntity
  8
0
100
AcDbLine
 10
-82.0688934326
 20
194.3117218018
 30
0.0
 11
-82.0688934326
 21
195.7517242432
 31
0.0
  0
LINE
  5
D4
330
93
100
AcDbEntity
  8
0
100
AcDbLine
 10
-82.0688934326
 20
195.7517242432
 30
0.0
 11
-82.0688934326
 21
206.4817169346
 31
0.0
  0
LINE
  5
D5
330
93
100
AcDbEntity
  8
0
  6
GAP
100
AcDbLine
 10
-73.6088933945
 20
195.7517242432
 30
0.0
 11
-83.5688934326
 21
195.7517242432
 31
0.0
  0
TEXT
  5
D6
330
93
100
AcDbEntity
  8
0
100
AcDbText
 10
-82.6938934326
 20
199.6502105556
 30
0.0
 40
2.5000000516
  1
1.6
 50
90.0
 41
1.639561497119
 72
     5
 11
-82.6938934326
 21
206.4817169346
 31
0.0
100
AcDbText
  0
ENDBLK
  5
D7
330
93
100
AcDbEntity
  8
0
100
AcDbBlockEnd
  0
BLOCK
  5
D8
330
94
100
AcDbEntity
  8
0
100
AcDbBlockBegin
  2
*D6
 70
     1
 10
0.0
 20
0.0
 30
0.0
  3
*D6
  1
*D6
  0
LINE
  5
D9
330
94
100
AcDbEntity
  8
0
100
AcDbLine
 10
-132.7827301025
 20
100.3925323486
 30
0.0
 11
-130.8211595412
 21
100.0023517045
 31
0.0
  0
LINE
  5
DA
330
94
100
AcDbEntity
  8
0
100
AcDbLine
 10
-132.7827301025
 20
100.3925323486
 30
0.0
 11
-130.8211595412
 21
100.7827129928
 31
0.0
  0
LINE
  5
DB
330
94
100
AcDbEntity
  8
0
100
AcDbLine
 10
-120.182723999
 20
100.3925323486
 30
0.0
 11
-122.1442945603
 21
100.7827129928
 31
0.0
  0
LINE
  5
DC
330
94
100
AcDbEntity
  8
0
100
AcDbLine
 10
-120.182723999
 20
100.3925323486
 30
0.0
 11
-122.1442945603
 21
100.0023517045
 31
0.0
  0
LINE
  5
DD
330
94
100
AcDbEntity
  8
0
100
AcDbLine
 10
-132.7827301025
 20
100.3925323486
 30
0.0
 11
-120.182723999
 21
100.3925323486
 31
0.0
  0
LINE
  5
DE
330
94
100
AcDbEntity
  8
0
  6
GAP
100
AcDbLine
 10
-120.182723999
 20
113.8525323868
 30
0.0
 11
-120.182723999
 21
98.8925323486
 31
0.0
  0
TEXT
  5
DF
330
94
100
AcDbEntity
  8
0
100
AcDbText
 10
-128.6484802403
 20
101.0175323486
 30
0.0
 40
2.5000000516
  1
14
 41
1.299451886879
 72
     5
 11
-124.3169738613
 21
101.0175323486
 31
0.0
100
AcDbText
  0
ENDBLK
  5
E0
330
94
100
AcDbEntity
  8
0
100
AcDbBlockEnd
  0
BLOCK
  5
E1
330
95
100
AcDbEntity
  8
0
100
AcDbBlockBegin
  2
*D7
 70
     1
 10
0.0
 20
0.0
 30
0.0
  3
*D7
  1
*D7
  0
LINE
  5
E2
330
95
100
AcDbEntity
  8
0
100
AcDbLine
 10
-132.7827301025
 20
100.3925323486
 30
0.0
 11
-134.7443006638
 21
100.7827129928
 31
0.0
  0
LINE
  5
E3
330
95
100
AcDbEntity
  8
0
100
AcDbLine
 10
-132.7827301025
 20
100.3925323486
 30
0.0
 11
-134.7443006638
 21
100.0023517045
 31
0.0
  0
LINE
  5
E4
330
95
100
AcDbEntity
  8
0
100
AcDbLine
 10
-150.7827301025
 20
100.3925323486
 30
0.0
 11
-148.8211595412
 21
100.0023517045
 31
0.0
  0
LINE
  5
E5
330
95
100
AcDbEntity
  8
0
100
AcDbLine
 10
-150.7827301025
 20
100.3925323486
 30
0.0
 11
-148.8211595412
 21
100.7827129928
 31
0.0
  0
LINE
  5
E6
330
95
100
AcDbEntity
  8
0
100
AcDbLine
 10
-132.7827301025
 20
100.3925323486
 30
0.0
 11
-150.7827301025
 21
100.3925323486
 31
0.0
  0
LINE
  5
E7
330
95
100
AcDbEntity
  8
0
  6
GAP
100
AcDbLine
 10
-132.7827301025
 20
117.0025262833
 30
0.0
 11
-132.7827301025
 21
98.8925323486
 31
0.0
  0
LINE
  5
E8
330
95
100
AcDbEntity
  8
0
  6
GAP
100
AcDbLine
 10
-150.7827301025
 20
117.0025262833
 30
0.0
 11
-150.7827301025
 21
98.8925323486
 31
0.0
  0
TEXT
  5
E9
330
95
100
AcDbEntity
  8
0
100
AcDbText
 10
-143.948483292
 20
101.0175323486
 30
0.0
 40
2.5000000516
  1
20
 41
1.155068343866
 72
     5
 11
-139.6169769131
 21
101.0175323486
 31
0.0
100
AcDbText
  0
ENDBLK
  5
EA
330
95
100
AcDbEntity
  8
0
100
AcDbBlockEnd
  0
BLOCK
  5
EB
330
96
100
AcDbEntity
  8
0
100
AcDbBlockBegin
  2
*D8
 70
     1
 10
0.0
 20
0.0
 30
0.0
  3
*D8
  1
*D8
  0
LINE
  5
EC
330
96
100
AcDbEntity
  8
0
100
AcDbLine
 10
-150.7827301025
 20
105.3925323486
 30
0.0
 11
-148.8211595412
 21
105.0023517045
 31
0.0
  0
LINE
  5
ED
330
96
100
AcDbEntity
  8
0
100
AcDbLine
 10
-150.7827301025
 20
105.3925323486
 30
0.0
 11
-148.8211595412
 21
105.7827129928
 31
0.0
  0
LINE
  5
EE
330
96
100
AcDbEntity
  8
0
100
AcDbLine
 10
-139.0827178955
 20
105.3925323486
 30
0.0
 11
-141.0442884568
 21
105.7827129928
 31
0.0
  0
LINE
  5
EF
330
96
100
AcDbEntity
  8
0
100
AcDbLine
 10
-139.0827178955
 20
105.3925323486
 30
0.0
 11
-141.0442884568
 21
105.0023517045
 31
0.0
  0
LINE
  5
F0
330
96
100
AcDbEntity
  8
0
100
AcDbLine
 10
-150.7827301025
 20
105.3925323486
 30
0.0
 11
-139.0827178955
 21
105.3925323486
 31
0.0
  0
LINE
  5
F1
330
96
100
AcDbEntity
  8
0
  6
GAP
100
AcDbLine
 10
-150.7827301025
 20
117.0025262833
 30
0.0
 11
-150.7827301025
 21
103.8925323486
 31
0.0
  0
LINE
  5
F2
330
96
100
AcDbEntity
  8
0
  6
GAP
100
AcDbLine
 10
-139.0827178955
 20
134.1025323868
 30
0.0
 11
-139.0827178955
 21
103.8925323486
 31
0.0
  0
TEXT
  5
F3
330
96
100
AcDbEntity
  8
0
100
AcDbText
 10
-147.0984771885
 20
106.0175323486
 30
0.0
 40
2.5000000516
  1
13
 41
1.299451886879
 72
     5
 11
-142.7669708095
 21
106.0175323486
 31
0.0
100
AcDbText
  0
ENDBLK
  5
F4
330
96
100
AcDbEntity
  8
0
100
AcDbBlockEnd
  0
BLOCK
  5
F5
330
97
100
AcDbEntity
  8
0
100
AcDbBlockBegin
  2
*D9
 70
     1
 10
0.0
 20
0.0
 30
0.0
  3
*D9
  1
*D9
  0
LINE
  5
F6
330
97
100
AcDbEntity
  8
0
100
AcDbLine
 10
-150.7827301025
 20
110.3925323486
 30
0.0
 11
-148.8211595412
 21
110.0023517045
 31
0.0
  0
LINE
  5
F7
330
97
100
AcDbEntity
  8
0
100
AcDbLine
 10
-150.7827301025
 20
110.3925323486
 30
0.0
 11
-148.8211595412
 21
110.7827129928
 31
0.0
  0
LINE
  5
F8
330
97
100
AcDbEntity
  8
0
100
AcDbLine
 10
-144.4827270508
 20
110.3925323486
 30
0.0
 11
-146.4442976121
 21
110.7827129928
 31
0.0
  0
LINE
  5
F9
330
97
100
AcDbEntity
  8
0
100
AcDbLine
 10
-144.4827270508
 20
110.3925323486
 30
0.0
 11
-146.4442976121
 21
110.0023517045
 31
0.0
  0
LINE
  5
FA
330
97
100
AcDbEntity
  8
0
100
AcDbLine
 10
-150.7827301025
 20
110.3925323486
 30
0.0
 11
-144.4827270508
 21
110.3925323486
 31
0.0
  0
LINE
  5
FB
330
97
100
AcDbEntity
  8
0
  6
GAP
100
AcDbLine
 10
-150.7827301025
 20
117.0025262833
 30
0.0
 11
-150.7827301025
 21
108.8925323486
 31
0.0
  0
LINE
  5
FC
330
97
100
AcDbEntity
  8
0
  6
GAP
100
AcDbLine
 10
-144.4827270508
 20
125.2735376358
 30
0.0
 11
-144.4827270508
 21
108.8925323486
 31
0.0
  0
TEXT
  5
FD
330
97
100
AcDbEntity
  8
0
100
AcDbText
 10
-148.5484741367
 20
111.0175323486
 30
0.0
 40
2.5000000516
  1
7
 41
1.098903804659
 72
     5
 11
-146.7169677578
 21
111.0175323486
 31
0.0
100
AcDbText
  0
ENDBLK
  5
FE
330
97
100
AcDbEntity
  8
0
100
AcDbBlockEnd
  0
BLOCK
  5
FF
330
98
100
AcDbEntity
  8
0
100
AcDbBlockBegin
  2
*D10
 70
     1
 10
0.0
 20
0.0
 30
0.0
  3
*D10
  1
*D10
  0
LINE
  5
100
330
98
100
AcDbEntity
  8
0
100
AcDbLine
 10
-125.4027252197
 20
110.3925323486
 30
0.0
 11
-123.4411546584
 21
110.0023517045
 31
0.0
  0
LINE
  5
101
330
98
100
AcDbEntity
  8
0
100
AcDbLine
 10
-125.4027252197
 20
110.3925323486
 30
0.0
 11
-123.4411546584
 21
110.7827129928
 31
0.0
  0
LINE
  5
102
330
98
100
AcDbEntity
  8
0
100
AcDbLine
 10
-120.182723999
 20
110.3925323486
 30
0.0
 11
-122.1442945603
 21
110.7827129928
 31
0.0
  0
LINE
  5
103
330
98
100
AcDbEntity
  8
0
100
AcDbLine
 10
-120.182723999
 20
110.3925323486
 30
0.0
 11
-122.1442945603
 21
110.0023517045
 31
0.0
  0
LINE
  5
104
330
98
100
AcDbEntity
  8
0
100
AcDbLine
 10
-125.4027252197
 20
110.3925323486
 30
0.0
 11
-120.182723999
 21
110.3925323486
 31
0.0
  0
LINE
  5
105
330
98
100
AcDbEntity
  8
0
100
AcDbLine
 10
-120.182723999
 20
110.3925323486
 30
0.0
 11
-111.6588012539
 21
110.3925323486
 31
0.0
  0
LINE
  5
106
330
98
100
AcDbEntity
  8
0
  6
GAP
100
AcDbLine
 10
-125.4027252197
 20
122.7355279922
 30
0.0
 11
-125.4027252197
 21
108.8925323486
 31
0.0
  0
LINE
  5
107
330
98
100
AcDbEntity
  8
0
  6
GAP
100
AcDbLine
 10
-120.182723999
 20
113.8525323868
 30
0.0
 11
-120.182723999
 21
108.8925323486
 31
0.0
  0
TEXT
  5
108
330
98
100
AcDbEntity
  8
0
100
AcDbText
 10
-118.4903076328
 20
111.0175323486
 30
0.0
 40
2.5000000516
  1
5.8
 41
1.36630124758
 72
     5
 11
-111.6588012539
 21
111.0175323486
 31
0.0
100
AcDbText
  0
ENDBLK
  5
109
330
98
100
AcDbEntity
  8
0
100
AcDbBlockEnd
  0
BLOCK
  5
10A
330
99
100
AcDbEntity
  8
0
100
AcDbBlockBegin
  2
*D11
 70
     1
 10
0.0
 20
0.0
 30
0.0
  3
*D11
  1
*D11
  0
LINE
  5
10B
330
99
100
AcDbEntity
  8
0
100
AcDbLine
 10
-109.182723999
 20
141.1425323486
 30
0.0
 11
-108.7925433549
 21
143.1041029099
 31
0.0
  0
LINE
  5
10C
330
99
100
AcDbEntity
  8
0
100
AcDbLine
 10
-109.182723999
 20
141.1425323486
 30
0.0
 11
-109.5729046432
 21
143.1041029099
 31
0.0
  0
LINE
  5
10D
330
99
100
AcDbEntity
  8
0
100
AcDbLine
 10
-109.182723999
 20
161.3925323486
 30
0.0
 11
-109.5729046432
 21
159.4309617873
 31
0.0
  0
LINE
  5
10E
330
99
100
AcDbEntity
  8
0
100
AcDbLine
 10
-109.182723999
 20
161.3925323486
 30
0.0
 11
-108.7925433549
 21
159.4309617873
 31
0.0
  0
LINE
  5
10F
330
99
100
AcDbEntity
  8
0
100
AcDbLine
 10
-109.182723999
 20
141.1425323486
 30
0.0
 11
-109.182723999
 21
161.3925323486
 31
0.0
  0
LINE
  5
110
330
99
100
AcDbEntity
  8
0
  6
GAP
100
AcDbLine
 10
-115.8427209854
 20
141.1425323486
 30
0.0
 11
-107.682723999
 21
141.1425323486
 31
0.0
  0
LINE
  5
111
330
99
100
AcDbEntity
  8
0
  6
GAP
100
AcDbLine
 10
-117.6427240372
 20
161.3925323486
 30
0.0
 11
-107.682723999
 21
161.3925323486
 31
0.0
  0
TEXT
  5
112
330
99
100
AcDbEntity
  8
0
100
AcDbText
 10
-109.807723999
 20
146.6017791592
 30
0.0
 40
2.5000000516
  1
22.5
 50
90.0
 41
1.24420082484
 72
     5
 11
-109.807723999
 21
155.9332855381
 31
0.0
100
AcDbText
  0
ENDBLK
  5
113
330
99
100
AcDbEntity
  8
0
100
AcDbBlockEnd
  0
BLOCK
  5
114
330
9A
100
AcDbEntity
  8
0
100
AcDbBlockBegin
  2
*D12
 70
     1
 10
0.0
 20
0.0
 30
0.0
  3
*D12
  1
*D12
  0
LINE
  5
115
330
9A
100
AcDbEntity
  8
0
100
AcDbLine
 10
-82.0688934326
 20
194.3117218018
 30
0.0
 11
-82.4590740767
 21
192.3501512405
 31
0.0
  0
LINE
  5
116
330
9A
100
AcDbEntity
  8
0
100
AcDbLine
 10
-82.0688934326
 20
194.3117218018
 30
0.0
 11
-81.6787127885
 21
192.3501512405
 31
0.0
  0
LINE
  5
117
330
9A
100
AcDbEntity
  8
0
100
AcDbLine
 10
-82.0688934326
 20
153.3608093262
 30
0.0
 11
-81.6787127885
 21
155.3223798875
 31
0.0
  0
LINE
  5
118
330
9A
100
AcDbEntity
  8
0
100
AcDbLine
 10
-82.0688934326
 20
153.3608093262
 30
0.0
 11
-82.4590740767
 21
155.3223798875
 31
0.0
  0
LINE
  5
119
330
9A
100
AcDbEntity
  8
0
100
AcDbLine
 10
-82.0688934326
 20
194.3117218018
 30
0.0
 11
-82.0688934326
 21
153.3608093262
 31
0.0
  0
LINE
  5
11A
330
9A
100
AcDbEntity
  8
0
  6
GAP
100
AcDbLine
 10
-73.6088933945
 20
194.3117218018
 30
0.0
 11
-83.5688934326
 21
194.3117218018
 31
0.0
  0
LINE
  5
11B
330
9A
100
AcDbEntity
  8
0
  6
GAP
100
AcDbLine
 10
-67.9388952255
 20
153.3608093262
 30
0.0
 11
-83.5688934326
 21
153.3608093262
 31
0.0
  0
TEXT
  5
11C
330
9A
100
AcDbEntity
  8
0
100
AcDbText
 10
-82.6938934326
 20
166.6705200039
 30
0.0
 40
2.5000000516
  1
(45.5)
 50
90.0
 41
1.322908253824
 72
     5
 11
-82.6938934326
 21
181.0020263828
 31
0.0
100
AcDbText
  0
ENDBLK
  5
11D
330
9A
100
AcDbEntity
  8
0
100
AcDbBlockEnd
  0
BLOCK
  5
11E
330
9B
100
AcDbEntity
  8
0
100
AcDbBlockBegin
  2
*D13
 70
     1
 10
0.0
 20
0.0
 30
0.0
  3
*D13
  1
*D13
  0
LINE
  5
11F
330
9B
100
AcDbEntity
  8
0
100
AcDbLine
 10
-109.182723999
 20
118.9125366211
 30
0.0
 11
-109.5729046432
 21
120.8741071824
 31
0.0
  0
LINE
  5
120
330
9B
100
AcDbEntity
  8
0
100
AcDbLine
 10
-109.182723999
 20
118.9125366211
 30
0.0
 11
-108.7925433549
 21
120.8741071824
 31
0.0
  0
LINE
  5
121
330
9B
100
AcDbEntity
  8
0
100
AcDbLine
 10
-109.182723999
 20
118.9125366211
 30
0.0
 11
-109.182723999
 21
123.4125366203
 31
0.0
  0
LINE
  5
122
330
9B
100
AcDbEntity
  8
0
100
AcDbLine
 10
-109.182723999
 20
116.3925323486
 30
0.0
 11
-108.7925433549
 21
114.4309617873
 31
0.0
  0
LINE
  5
123
330
9B
100
AcDbEntity
  8
0
100
AcDbLine
 10
-109.182723999
 20
116.3925323486
 30
0.0
 11
-109.5729046432
 21
114.4309617873
 31
0.0
  0
LINE
  5
124
330
9B
100
AcDbEntity
  8
0
100
AcDbLine
 10
-109.182723999
 20
116.3925323486
 30
0.0
 11
-109.182723999
 21
111.8925323494
 31
0.0
  0
LINE
  5
125
330
9B
100
AcDbEntity
  8
0
100
AcDbLine
 10
-109.182723999
 20
118.9125366211
 30
0.0
 11
-109.182723999
 21
116.3925323486
 31
0.0
  0
LINE
  5
126
330
9B
100
AcDbEntity
  8
0
100
AcDbLine
 10
-109.182723999
 20
118.9125366211
 30
0.0
 11
-109.182723999
 21
129.0270202793
 31
0.0
  0
LINE
  5
127
330
9B
100
AcDbEntity
  8
0
  6
GAP
100
AcDbLine
 10
-129.3427209854
 20
118.9125366211
 30
0.0
 11
-107.682723999
 21
118.9125366211
 31
0.0
  0
LINE
  5
128
330
9B
100
AcDbEntity
  8
0
  6
GAP
100
AcDbLine
 10
-117.6427240372
 20
116.3925323486
 30
0.0
 11
-107.682723999
 21
116.3925323486
 31
0.0
  0
TEXT
  5
129
330
9B
100
AcDbEntity
  8
0
100
AcDbText
 10
-109.807723999
 20
122.1955139004
 30
0.0
 40
2.5000000516
  1
2.8
 50
90.0
 41
1.36630124758
 72
     5
 11
-109.807723999
 21
129.0270202793
 31
0.0
100
AcDbText
  0
ENDBLK
  5
12A
330
9B
100
AcDbEntity
  8
0
100
AcDbBlockEnd
  0
BLOCK
  5
12B
330
9C
100
AcDbEntity
  8
0
100
AcDbBlockBegin
  2
*D14
 70
     1
 10
0.0
 20
0.0
 30
0.0
  3
*D14
  1
*D14
  0
LINE
  5
12C
330
9C
100
AcDbEntity
  8
0
100
AcDbLine
 10
-110.1309204102
 20
182.1617279053
 30
0.0
 11
-109.740739766
 21
184.1232984666
 31
0.0
  0
LINE
  5
12D
330
9C
100
AcDbEntity
  8
0
100
AcDbLine
 10
-110.1309204102
 20
182.1617279053
 30
0.0
 11
-110.5211010543
 21
184.1232984666
 31
0.0
  0
LINE
  5
12E
330
9C
100
AcDbEntity
  8
0
100
AcDbLine
 10
-110.1309204102
 20
194.3117218018
 30
0.0
 11
-110.5211010543
 21
192.3501512405
 31
0.0
  0
LINE
  5
12F
330
9C
100
AcDbEntity
  8
0
100
AcDbLine
 10
-110.1309204102
 20
194.3117218018
 30
0.0
 11
-109.740739766
 21
192.3501512405
 31
0.0
  0
LINE
  5
130
330
9C
100
AcDbEntity
  8
0
100
AcDbLine
 10
-110.1309204102
 20
182.1617279053
 30
0.0
 11
-110.1309204102
 21
194.3117218018
 31
0.0
  0
LINE
  5
131
330
9C
100
AcDbEntity
  8
0
  6
GAP
100
AcDbLine
 10
-113.5909204483
 20
182.1617279053
 30
0.0
 11
-108.6309204102
 21
182.1617279053
 31
0.0
  0
LINE
  5
132
330
9C
100
AcDbEntity
  8
0
  6
GAP
100
AcDbLine
 10
-117.6427240372
 20
194.3117218018
 30
0.0
 11
-108.6309204102
 21
194.3117218018
 31
0.0
  0
TEXT
  5
133
330
9C
100
AcDbEntity
  8
0
100
AcDbText
 10
-110.7559204102
 20
183.570971664
 30
0.0
 40
2.5000000516
  1
13.5
 50
90.0
 41
1.39972592796
 72
     5
 11
-110.7559204102
 21
192.902478043
 31
0.0
100
AcDbText
  0
ENDBLK
  5
134
330
9C
100
AcDbEntity
  8
0
100
AcDbBlockEnd
  0
BLOCK
  5
135
330
9D
100
AcDbEntity
  8
0
100
AcDbBlockBegin
  2
*D15
 70
     1
 10
0.0
 20
0.0
 30
0.0
  3
*D15
  1
*D15
  0
LINE
  5
136
330
9D
100
AcDbEntity
  8
0
100
AcDbLine
 10
-120.182723999
 20
201.7517242432
 30
0.0
 11
-122.1442945603
 21
201.361543599
 31
0.0
  0
LINE
  5
137
330
9D
100
AcDbEntity
  8
0
100
AcDbLine
 10
-120.182723999
 20
201.7517242432
 30
0.0
 11
-122.1442945603
 21
202.1419048873
 31
0.0
  0
LINE
  5
138
330
9D
100
AcDbEntity
  8
0
100
AcDbLine
 10
-120.182723999
 20
201.7517242432
 30
0.0
 11
-124.6827239982
 21
201.7517242432
 31
0.0
  0
LINE
  5
139
330
9D
100
AcDbEntity
  8
0
100
AcDbLine
 10
-116.1309204102
 20
201.7517242432
 30
0.0
 11
-114.1693498489
 21
202.1419048873
 31
0.0
  0
LINE
  5
13A
330
9D
100
AcDbEntity
  8
0
100
AcDbLine
 10
-116.1309204102
 20
201.7517242432
 30
0.0
 11
-114.1693498489
 21
201.361543599
 31
0.0
  0
LINE
  5
13B
330
9D
100
AcDbEntity
  8
0
100
AcDbLine
 10
-116.1309204102
 20
201.7517242432
 30
0.0
 11
-111.6309204109
 21
201.7517242432
 31
0.0
  0
LINE
  5
13C
330
9D
100
AcDbEntity
  8
0
100
AcDbLine
 10
-120.182723999
 20
201.7517242432
 30
0.0
 11
-116.1309204102
 21
201.7517242432
 31
0.0
  0
LINE
  5
13D
330
9D
100
AcDbEntity
  8
0
100
AcDbLine
 10
-116.1309204102
 20
201.7517242432
 30
0.0
 11
-105.700747665
 21
201.7517242432
 31
0.0
  0
LINE
  5
13E
330
9D
100
AcDbEntity
  8
0
  6
GAP
100
AcDbLine
 10
-120.182723999
 20
198.291724205
 30
0.0
 11
-120.182723999
 21
203.2517242432
 31
0.0
  0
LINE
  5
13F
330
9D
100
AcDbEntity
  8
0
  6
GAP
100
AcDbLine
 10
-116.1309204102
 20
184.7017278671
 30
0.0
 11
-116.1309204102
 21
203.2517242432
 31
0.0
  0
TEXT
  5
140
330
9D
100
AcDbEntity
  8
0
100
AcDbText
 10
-112.532254044
 20
202.3767242432
 30
0.0
 40
2.5000000516
  1
4.5
 41
1.3663012476
 72
     5
 11
-105.700747665
 21
202.3767242432
 31
0.0
100
AcDbText
  0
ENDBLK
  5
141
330
9D
100
AcDbEntity
  8
0
100
AcDbBlockEnd
  0
BLOCK
  5
142
330
9E
100
AcDbEntity
  8
0
100
AcDbBlockBegin
  2
*D16
 70
     1
 10
0.0
 20
0.0
 30
0.0
  3
*D16
  1
*D16
  0
LINE
  5
143
330
9E
100
AcDbEntity
  8
0
100
AcDbLine
 10
-114.182723999
 20
123.5925292969
 30
0.0
 11
-113.7925433549
 21
125.5540998582
 31
0.0
  0
LINE
  5
144
330
9E
100
AcDbEntity
  8
0
100
AcDbLine
 10
-114.182723999
 20
123.5925292969
 30
0.0
 11
-114.5729046432
 21
125.5540998582
 31
0.0
  0
LINE
  5
145
330
9E
100
AcDbEntity
  8
0
100
AcDbLine
 10
-114.182723999
 20
158.6925354004
 30
0.0
 11
-114.5729046432
 21
156.7309648391
 31
0.0
  0
LINE
  5
146
330
9E
100
AcDbEntity
  8
0
100
AcDbLine
 10
-114.182723999
 20
158.6925354004
 30
0.0
 11
-113.7925433549
 21
156.7309648391
 31
0.0
  0
LINE
  5
147
330
9E
100
AcDbEntity
  8
0
100
AcDbLine
 10
-114.182723999
 20
123.5925292969
 30
0.0
 11
-114.182723999
 21
158.6925354004
 31
0.0
  0
LINE
  5
148
330
9E
100
AcDbEntity
  8
0
  6
GAP
100
AcDbLine
 10
-125.8327264786
 20
123.5925292969
 30
0.0
 11
-112.682723999
 21
123.5925292969
 31
0.0
  0
LINE
  5
149
330
9E
100
AcDbEntity
  8
0
  6
GAP
100
AcDbLine
 10
-125.8327264786
 20
158.6925354004
 30
0.0
 11
-112.682723999
 21
158.6925354004
 31
0.0
  0
TEXT
  5
14A
330
9E
100
AcDbEntity
  8
0
100
AcDbText
 10
-114.807723999
 20
134.5672180019
 30
0.0
 40
2.5000000516
  1
39
 50
90.0
 41
1.039561509503
 72
     5
 11
-114.807723999
 21
138.8987243809
 31
0.0
100
AcDbText
  0
ENDBLK
  5
14B
330
9E
100
AcDbEntity
  8
0
100
AcDbBlockEnd
  0
BLOCK
  5
14C
330
9F
100
AcDbEntity
  8
0
100
AcDbBlockBegin
  2
*D17
 70
     1
 10
0.0
 20
0.0
 30
0.0
  3
*D17
  1
*D17
  0
LINE
  5
14D
330
9F
100
AcDbEntity
  8
0
100
AcDbLine
 10
-77.0688934326
 20
194.3117218018
 30
0.0
 11
-77.4590740767
 21
192.3501512405
 31
0.0
  0
LINE
  5
14E
330
9F
100
AcDbEntity
  8
0
100
AcDbLine
 10
-77.0688934326
 20
194.3117218018
 30
0.0
 11
-76.6787127885
 21
192.3501512405
 31
0.0
  0
LINE
  5
14F
330
9F
100
AcDbEntity
  8
0
100
AcDbLine
 10
-77.0688934326
 20
184.1417236328
 30
0.0
 11
-76.6787127885
 21
186.1032941941
 31
0.0
  0
LINE
  5
150
330
9F
100
AcDbEntity
  8
0
100
AcDbLine
 10
-77.0688934326
 20
184.1417236328
 30
0.0
 11
-77.4590740767
 21
186.1032941941
 31
0.0
  0
LINE
  5
151
330
9F
100
AcDbEntity
  8
0
100
AcDbLine
 10
-77.0688934326
 20
194.3117218018
 30
0.0
 11
-77.0688934326
 21
184.1417236328
 31
0.0
  0
LINE
  5
152
330
9F
100
AcDbEntity
  8
0
  6
GAP
100
AcDbLine
 10
-73.6088933945
 20
194.3117218018
 30
0.0
 11
-78.5688934326
 21
194.3117218018
 31
0.0
  0
LINE
  5
153
330
9F
100
AcDbEntity
  8
0
  6
GAP
100
AcDbLine
 10
-68.208899498
 20
184.1417236328
 30
0.0
 11
-78.5688934326
 21
184.1417236328
 31
0.0
  0
TEXT
  5
154
330
9F
100
AcDbEntity
  8
0
100
AcDbText
 10
-77.6938934326
 20
184.5609618984
 30
0.0
 40
2.5000000516
  1
11.3
 50
90.0
 41
1.599686774811
 72
     5
 11
-77.6938934326
 21
193.8924682774
 31
0.0
100
AcDbText
  0
ENDBLK
  5
155
330
9F
100
AcDbEntity
  8
0
100
AcDbBlockEnd
  0
BLOCK
  5
156
330
A0
100
AcDbEntity
  8
0
100
AcDbBlockBegin
  2
*D18
 70
     1
 10
0.0
 20
0.0
 30
0.0
  3
*D18
  1
*D18
  0
LINE
  5
157
330
A0
100
AcDbEntity
  8
0
100
AcDbLine
 10
-77.0688934326
 20
195.7517242432
 30
0.0
 11
-76.6787127885
 21
197.7132948045
 31
0.0
  0
LINE
  5
158
330
A0
100
AcDbEntity
  8
0
100
AcDbLine
 10
-77.0688934326
 20
195.7517242432
 30
0.0
 11
-77.4590740767
 21
197.7132948045
 31
0.0
  0
LINE
  5
159
330
A0
100
AcDbEntity
  8
0
100
AcDbLine
 10
-77.0688934326
 20
219.9167175293
 30
0.0
 11
-77.4590740767
 21
217.955146968
 31
0.0
  0
LINE
  5
15A
330
A0
100
AcDbEntity
  8
0
100
AcDbLine
 10
-77.0688934326
 20
219.9167175293
 30
0.0
 11
-76.6787127885
 21
217.955146968
 31
0.0
  0
LINE
  5
15B
330
A0
100
AcDbEntity
  8
0
100
AcDbLine
 10
-77.0688934326
 20
195.7517242432
 30
0.0
 11
-77.0688934326
 21
219.9167175293
 31
0.0
  0
LINE
  5
15C
330
A0
100
AcDbEntity
  8
0
  6
GAP
100
AcDbLine
 10
-73.6088933945
 20
195.7517242432
 30
0.0
 11
-78.5688934326
 21
195.7517242432
 31
0.0
  0
LINE
  5
15D
330
A0
100
AcDbEntity
  8
0
  6
GAP
100
AcDbLine
 10
-70.3283910751
 20
219.9167175293
 30
0.0
 11
-78.5688934326
 21
219.9167175293
 31
0.0
  0
TEXT
  5
15E
330
A0
100
AcDbEntity
  8
0
100
AcDbText
 10
-77.6938934326
 20
200.6684753262
 30
0.0
 40
2.5000000516
  1
(26.8)
 50
90.0
 41
1.322908253824
 72
     5
 11
-77.6938934326
 21
214.9999817051
 31
0.0
100
AcDbText
  0
ENDBLK
  5
15F
330
A0
100
AcDbEntity
  8
0
100
AcDbBlockEnd
  0
BLOCK
  5
84A
330
849
100
AcDbEntity
  8
0
100
AcDbBlockBegin
  2
_OPEN30
 70
     0
 10
0.0
 20
0.0
 30
0.0
  3
_OPEN30
  1
_OPEN30
  0
LINE
  5
84B
330
849
100
AcDbEntity
  8
0
  6
ByBlock
 62
     0
370
    -2
100
AcDbLine
 10
-1.0
 20
0.267949
 30
0.0
 11
0.0
 21
0.0
 31
0.0
  0
LINE
  5
84C
330
849
100
AcDbEntity
  8
0
  6
ByBlock
 62
     0
370
    -2
100
AcDbLine
 10
0.0
 20
0.0
 30
0.0
 11
-1.0
 21
-0.267949
 31
0.0
  0
LINE
  5
84D
330
849
100
AcDbEntity
  8
0
  6
ByBlock
 62
     0
370
    -2
100
AcDbLine
 10
0.0
 20
0.0
 30
0.0
 11
-1.0
 21
0.0
 31
0.0
  0
ENDBLK
  5
84E
330
849
100
AcDbEntity
  8
0
100
AcDbBlockEnd
  0
BLOCK
  5
88C
330
88B
100
AcDbEntity
  8
0
100
AcDbBlockBegin
  2
*D27
 70
     1
 10
0.0
 20
0.0
 30
0.0
  3
*D27
  1
*D27
  0
LINE
  5
88D
330
88B
100
AcDbEntity
  8
IDEC_DIM
370
    13
100
AcDbLine
 10
-67.986284281356
 20
2.655404490394
 30
0.0
 11
-67.986284281356
 21
14.744548293611
 31
0.0
  0
LINE
  5
88E
330
88B
100
AcDbEntity
  8
IDEC_DIM
370
    13
100
AcDbLine
 10
-57.986284281356
 20
3.280404490394
 30
0.0
 11
-57.986284281356
 21
14.744548293611
 31
0.0
  0
LINE
  5
88F
330
88B
100
AcDbEntity
  8
IDEC_DIM
370
    13
100
AcDbLine
 10
-65.986284281356
 20
13.494548293611
 30
0.0
 11
-59.986284281356
 21
13.494548293611
 31
0.0
  0
INSERT
  5
890
330
88B
100
AcDbEntity
  8
IDEC_DIM
370
    13
100
AcDbBlockReference
  2
_IDEC_OPEN30
 10
-67.986284281356
 20
13.494548293611
 30
0.0
 41
2.0
 42
2.0
 43
2.0
 50
180.0
  0
INSERT
  5
899
330
88B
100
AcDbEntity
  8
IDEC_DIM
370
    13
100
AcDbBlockReference
  2
_IDEC_OPEN30
 10
-57.986284281356
 20
13.494548293611
 30
0.0
 41
2.0
 42
2.0
 43
2.0
  0
MTEXT
  5
89A
330
88B
100
AcDbEntity
  8
IDEC_DIM
100
AcDbMText
 10
-62.986284281356
 20
15.244548293611
 30
0.0
 40
2.5
 41
0.0
 71
     5
 72
     1
  1
\A2;10.0
  7
IDEC_TEXT
 73
     1
 44
1.0
  0
POINT
  5
89B
330
88B
100
AcDbEntity
  8
Defpoints
 62
     0
100
AcDbPoint
 10
-67.986284281356
 20
2.030404490394
 30
0.0
  0
POINT
  5
89C
330
88B
100
AcDbEntity
  8
Defpoints
 62
     0
100
AcDbPoint
 10
-57.986284281356
 20
2.655404490394
 30
0.0
  0
POINT
  5
89D
330
88B
100
AcDbEntity
  8
Defpoints
 62
     0
100
AcDbPoint
 10
-57.986284281356
 20
13.494548293611
 30
0.0
  0
ENDBLK
  5
89E
330
88B
100
AcDbEntity
  8
0
100
AcDbBlockEnd
  0
BLOCK
  5
894
330
891
100
AcDbEntity
  8
0
100
AcDbBlockBegin
  2
_IDEC_OPEN30
 70
     0
 10
0.0
 20
0.0
 30
0.0
  3
_IDEC_OPEN30
  1
_IDEC_OPEN30
  0
LINE
  5
895
330
891
100
AcDbEntity
  8
0
  6
ByBlock
 62
     0
370
    -2
100
AcDbLine
 10
-1.0
 20
0.267949
 30
0.0
 11
0.0
 21
0.0
 31
0.0
  0
LINE
  5
896
330
891
100
AcDbEntity
  8
0
  6
ByBlock
 62
     0
370
    -2
100
AcDbLine
 10
0.0
 20
0.0
 30
0.0
 11
-1.0
 21
-0.267949
 31
0.0
  0
LINE
  5
897
330
891
100
AcDbEntity
  8
0
  6
ByBlock
 62
     0
370
    -2
100
AcDbLine
 10
0.0
 20
0.0
 30
0.0
 11
-2.0
 21
0.0
 31
0.0
  0
ENDBLK
  5
898
330
891
100
AcDbEntity
  8
0
100
AcDbBlockEnd
  0
BLOCK
  5
8A1
330
8A0
100
AcDbEntity
  8
0
100
AcDbBlockBegin
  2
*D29
 70
     1
 10
0.0
 20
0.0
 30
0.0
  3
*D29
  1
*D29
  0
LINE
  5
8A2
330
8A0
100
AcDbEntity
  8
IDEC_DIM
370
    13
100
AcDbLine
 10
-86.986284281356
 20
1.780574075025
 30
0.0
 11
-86.986284281356
 21
14.744548293611
 31
0.0
  0
LINE
  5
8A3
330
8A0
100
AcDbEntity
  8
IDEC_DIM
370
    13
100
AcDbLine
 10
-76.986284281356
 20
1.780574075025
 30
0.0
 11
-76.986284281356
 21
14.744548293611
 31
0.0
  0
LINE
  5
8A4
330
8A0
100
AcDbEntity
  8
IDEC_DIM
370
    13
100
AcDbLine
 10
-84.986284281356
 20
13.494548293611
 30
0.0
 11
-78.986284281356
 21
13.494548293611
 31
0.0
  0
INSERT
  5
8A5
330
8A0
100
AcDbEntity
  8
IDEC_DIM
370
    13
100
AcDbBlockReference
  2
_IDEC_OPEN30R
 10
-86.986284281356
 20
13.494548293611
 30
0.0
 41
2.0
 42
2.0
 43
2.0
 50
180.0
  0
INSERT
  5
8AE
330
8A0
100
AcDbEntity
  8
IDEC_DIM
370
    13
100
AcDbBlockReference
  2
_IDEC_OPEN30R
 10
-76.986284281356
 20
13.494548293611
 30
0.0
 41
2.0
 42
2.0
 43
2.0
  0
MTEXT
  5
8AF
330
8A0
100
AcDbEntity
  8
IDEC_DIM
100
AcDbMText
 10
-81.986284281356
 20
15.244548293611
 30
0.0
 40
2.5
 41
0.0
 71
     5
 72
     1
  1
\A2;10.0
  7
IDEC_TEXT
 73
     1
 44
1.0
  0
POINT
  5
8B0
330
8A0
100
AcDbEntity
  8
Defpoints
 62
     0
100
AcDbPoint
 10
-86.986284281356
 20
1.155574075025
 30
0.0
  0
POINT
  5
8B1
330
8A0
100
AcDbEntity
  8
Defpoints
 62
     0
100
AcDbPoint
 10
-76.986284281356
 20
1.155574075025
 30
0.0
  0
POINT
  5
8B2
330
8A0
100
AcDbEntity
  8
Defpoints
 62
     0
100
AcDbPoint
 10
-76.986284281356
 20
13.494548293611
 30
0.0
  0
ENDBLK
  5
8B3
330
8A0
100
AcDbEntity
  8
0
100
AcDbBlockEnd
  0
BLOCK
  5
8A9
330
8A6
100
AcDbEntity
  8
0
100
AcDbBlockBegin
  2
_IDEC_OPEN30R
 70
     0
 10
0.0
 20
0.0
 30
0.0
  3
_IDEC_OPEN30R
  1
_IDEC_OPEN30R
  0
LINE
  5
8AA
330
8A6
100
AcDbEntity
  8
0
  6
ByBlock
 62
     0
370
    -2
100
AcDbLine
 10
1.0
 20
0.267949
 30
0.0
 11
0.0
 21
0.0
 31
0.0
  0
LINE
  5
8AB
330
8A6
100
AcDbEntity
  8
0
  6
ByBlock
 62
     0
370
    -2
100
AcDbLine
 10
0.0
 20
0.0
 30
0.0
 11
1.0
 21
-0.267949
 31
0.0
  0
LINE
  5
8AC
330
8A6
100
AcDbEntity
  8
0
  6
ByBlock
 62
     0
370
    -2
100
AcDbLine
 10
-1.0
 20
0.0
 30
0.0
 11
2.0
 21
0.0
 31
0.0
  0
ENDBLK
  5
8AD
330
8A6
100
AcDbEntity
  8
0
100
AcDbBlockEnd
  0
BLOCK
  5
8CC
330
8C3
100
AcDbEntity
  8
0
100
AcDbBlockBegin
  2
*D31
 70
     1
 10
0.0
 20
0.0
 30
0.0
  3
*D31
  1
*D31
  0
LINE
  5
8C4
330
8C3
100
AcDbEntity
  8
IDEC_DIM
370
    13
100
AcDbLine
 10
-162.02495439606
 20
184.416830524125
 30
0.0
 11
-162.02495439606
 21
207.078489078215
 31
0.0
  0
LINE
  5
8C5
330
8C3
100
AcDbEntity
  8
IDEC_DIM
370
    13
100
AcDbLine
 10
-160.525097615071
 20
199.787489078215
 30
0.0
 11
-160.525097615071
 21
207.078489078215
 31
0.0
  0
LINE
  5
8C6
330
8C3
100
AcDbEntity
  8
IDEC_DIM
370
    13
100
AcDbLine
 10
-158.525097615071
 20
205.828489078215
 30
0.0
 11
-150.763192853167
 21
205.828489078215
 31
0.0
  0
LINE
  5
8C7
330
8C3
100
AcDbEntity
  8
IDEC_DIM
370
    13
100
AcDbLine
 10
-162.02495439606
 20
205.828489078215
 30
0.0
 11
-160.525097615071
 21
205.828489078215
 31
0.0
  0
LINE
  5
8C8
330
8C3
100
AcDbEntity
  8
IDEC_DIM
370
    13
100
AcDbLine
 10
-164.02495439606
 20
205.828489078215
 30
0.0
 11
-166.02495439606
 21
205.828489078215
 31
0.0
  0
INSERT
  5
8C9
330
8C3
100
AcDbEntity
  8
IDEC_DIM
370
    13
100
AcDbBlockReference
  2
_OPEN30
 10
-162.02495439606
 20
205.828489078215
 30
0.0
 41
2.0
 42
2.0
 43
2.0
  0
INSERT
  5
8CA
330
8C3
100
AcDbEntity
  8
IDEC_DIM
370
    13
100
AcDbBlockReference
  2
_OPEN30
 10
-160.525097615071
 20
205.828489078215
 30
0.0
 41
2.0
 42
2.0
 43
2.0
 50
180.0
  0
MTEXT
  5
8CB
330
8C3
100
AcDbEntity
  8
IDEC_DIM
100
AcDbMText
 10
-153.644145234119
 20
207.578489078215
 30
0.0
 40
2.5
 41
0.0
 71
     5
 72
     1
  1
\A2;1.5
  7
IDEC_TEXT
 73
     1
 44
1.0
  0
POINT
  5
8FB
330
8C3
100
AcDbEntity
  8
Defpoints
 62
     0
100
AcDbPoint
 10
-162.02495439606
 20
183.791830524125
 30
0.0
  0
POINT
  5
8FC
330
8C3
100
AcDbEntity
  8
Defpoints
 62
     0
100
AcDbPoint
 10
-160.525097615071
 20
199.162489078215
 30
0.0
  0
POINT
  5
8FD
330
8C3
100
AcDbEntity
  8
Defpoints
 62
     0
100
AcDbPoint
 10
-160.525097615071
 20
205.828489078215
 30
0.0
  0
ENDBLK
  5
8CD
330
8C3
100
AcDbEntity
  8
0
100
AcDbBlockEnd
  0
BLOCK
  5
8D7
330
8CE
100
AcDbEntity
  8
0
100
AcDbBlockBegin
  2
*D32
 70
     1
 10
0.0
 20
0.0
 30
0.0
  3
*D32
  1
*D32
  0
LINE
  5
8CF
330
8CE
100
AcDbEntity
  8
IDEC_DIM
370
    13
100
AcDbLine
 10
-68.58843524624
 20
197.562646365819
 30
0.0
 11
-81.43443524624
 21
197.562646365819
 31
0.0
  0
LINE
  5
8D0
330
8CE
100
AcDbEntity
  8
IDEC_DIM
370
    13
100
AcDbLine
 10
-68.58843524624
 20
199.162489078215
 30
0.0
 11
-81.43443524624
 21
199.162489078215
 31
0.0
  0
LINE
  5
8D1
330
8CE
100
AcDbEntity
  8
IDEC_DIM
370
    13
100
AcDbLine
 10
-80.18443524624
 20
201.162489078215
 30
0.0
 11
-80.18443524624
 21
208.805346221072
 31
0.0
  0
LINE
  5
8D2
330
8CE
100
AcDbEntity
  8
IDEC_DIM
370
    13
100
AcDbLine
 10
-80.18443524624
 20
197.562646365819
 30
0.0
 11
-80.18443524624
 21
199.162489078215
 31
0.0
  0
LINE
  5
8D3
330
8CE
100
AcDbEntity
  8
IDEC_DIM
370
    13
100
AcDbLine
 10
-80.18443524624
 20
195.562646365819
 30
0.0
 11
-80.18443524624
 21
193.562646365819
 31
0.0
  0
INSERT
  5
8D4
330
8CE
100
AcDbEntity
  8
IDEC_DIM
370
    13
100
AcDbBlockReference
  2
_OPEN30
 10
-80.18443524624
 20
197.562646365819
 30
0.0
 41
2.0
 42
2.0
 43
2.0
 50
90.0
  0
INSERT
  5
8D5
330
8CE
100
AcDbEntity
  8
IDEC_DIM
370
    13
100
AcDbBlockReference
  2
_OPEN30
 10
-80.18443524624
 20
199.162489078215
 30
0.0
 41
2.0
 42
2.0
 43
2.0
 50
270.0
  0
MTEXT
  5
8D6
330
8CE
100
AcDbEntity
  8
IDEC_DIM
100
AcDbMText
 10
-81.93443524624
 20
205.983917649643
 30
0.0
 40
2.5
 41
0.0
 71
     5
 72
     1
  1
\A2;1.6
  7
IDEC_TEXT
 11
0.0
 21
1.0
 31
0.0
 73
     1
 44
1.0
  0
POINT
  5
90A
330
8CE
100
AcDbEntity
  8
Defpoints
 62
     0
100
AcDbPoint
 10
-67.96343524624
 20
197.562646365819
 30
0.0
  0
POINT
  5
90B
330
8CE
100
AcDbEntity
  8
Defpoints
 62
     0
100
AcDbPoint
 10
-67.96343524624
 20
199.162489078215
 30
0.0
  0
POINT
  5
90C
330
8CE
100
AcDbEntity
  8
Defpoints
 62
     0
100
AcDbPoint
 10
-80.18443524624
 20
199.162489078215
 30
0.0
  0
ENDBLK
  5
8D8
330
8CE
100
AcDbEntity
  8
0
100
AcDbBlockEnd
  0
BLOCK
  5
8E2
330
8D9
100
AcDbEntity
  8
0
100
AcDbBlockBegin
  2
*D33
 70
     1
 10
0.0
 20
0.0
 30
0.0
  3
*D33
  1
*D33
  0
LINE
  5
8DA
330
8D9
100
AcDbEntity
  8
IDEC_DIM
370
    13
100
AcDbLine
 10
-134.902597615071
 20
113.794151630062
 30
0.0
 11
-109.05790100551
 21
113.794151630062
 31
0.0
  0
LINE
  5
8DB
330
8D9
100
AcDbEntity
  8
IDEC_DIM
370
    13
100
AcDbLine
 10
-121.90390100551
 20
110.994426883314
 30
0.0
 11
-109.05790100551
 21
110.994426883314
 31
0.0
  0
LINE
  5
8DC
330
8D9
100
AcDbEntity
  8
IDEC_DIM
370
    13
100
AcDbLine
 10
-110.30790100551
 20
108.994426883314
 30
0.0
 11
-110.30790100551
 21
100.756331645219
 31
0.0
  0
LINE
  5
8DD
330
8D9
100
AcDbEntity
  8
IDEC_DIM
370
    13
100
AcDbLine
 10
-110.30790100551
 20
113.794151630062
 30
0.0
 11
-110.30790100551
 21
110.994426883314
 31
0.0
  0
LINE
  5
8DE
330
8D9
100
AcDbEntity
  8
IDEC_DIM
370
    13
100
AcDbLine
 10
-110.30790100551
 20
115.794151630062
 30
0.0
 11
-110.30790100551
 21
117.794151630062
 31
0.0
  0
INSERT
  5
8DF
330
8D9
100
AcDbEntity
  8
IDEC_DIM
370
    13
100
AcDbBlockReference
  2
_OPEN30
 10
-110.30790100551
 20
113.794151630062
 30
0.0
 41
2.0
 42
2.0
 43
2.0
 50
270.0
  0
INSERT
  5
8E0
330
8D9
100
AcDbEntity
  8
IDEC_DIM
370
    13
100
AcDbBlockReference
  2
_OPEN30
 10
-110.30790100551
 20
110.994426883314
 30
0.0
 41
2.0
 42
2.0
 43
2.0
 50
90.0
  0
MTEXT
  5
8E1
330
8D9
100
AcDbEntity
  8
IDEC_DIM
100
AcDbMText
 10
-112.05790100551
 20
103.875379264266
 30
0.0
 40
2.5
 41
0.0
 71
     5
 72
     1
  1
\A2;2.8
  7
IDEC_TEXT
 11
0.0
 21
1.0
 31
0.0
 73
     1
 44
1.0
  0
POINT
  5
964
330
8D9
100
AcDbEntity
  8
Defpoints
 62
     0
100
AcDbPoint
 10
-135.527597615071
 20
113.794151630062
 30
0.0
  0
POINT
  5
965
330
8D9
100
AcDbEntity
  8
Defpoints
 62
     0
100
AcDbPoint
 10
-122.52890100551
 20
110.994426883314
 30
0.0
  0
POINT
  5
966
330
8D9
100
AcDbEntity
  8
Defpoints
 62
     0
100
AcDbPoint
 10
-110.30790100551
 20
110.994426883314
 30
0.0
  0
ENDBLK
  5
8E3
330
8D9
100
AcDbEntity
  8
0
100
AcDbBlockEnd
  0
BLOCK
  5
8ED
330
8E4
100
AcDbEntity
  8
0
100
AcDbBlockBegin
  2
*D34
 70
     1
 10
0.0
 20
0.0
 30
0.0
  3
*D34
  1
*D34
  0
LINE
  5
8E5
330
8E4
100
AcDbEntity
  8
IDEC_DIM
370
    13
100
AcDbLine
 10
-122.52890100551
 20
199.787489078215
 30
0.0
 11
-122.52890100551
 21
207.078489078215
 31
0.0
  0
LINE
  5
8E6
330
8E4
100
AcDbEntity
  8
IDEC_DIM
370
    13
100
AcDbLine
 10
-118.027347218353
 20
184.689003146808
 30
0.0
 11
-118.027347218353
 21
207.078489078215
 31
0.0
  0
LINE
  5
8E7
330
8E4
100
AcDbEntity
  8
IDEC_DIM
370
    13
100
AcDbLine
 10
-116.027347218353
 20
205.828489078215
 30
0.0
 11
-107.789251980258
 21
205.828489078215
 31
0.0
  0
LINE
  5
8E8
330
8E4
100
AcDbEntity
  8
IDEC_DIM
370
    13
100
AcDbLine
 10
-122.52890100551
 20
205.828489078215
 30
0.0
 11
-118.027347218353
 21
205.828489078215
 31
0.0
  0
LINE
  5
8E9
330
8E4
100
AcDbEntity
  8
IDEC_DIM
370
    13
100
AcDbLine
 10
-124.52890100551
 20
205.828489078215
 30
0.0
 11
-126.52890100551
 21
205.828489078215
 31
0.0
  0
INSERT
  5
8EA
330
8E4
100
AcDbEntity
  8
IDEC_DIM
370
    13
100
AcDbBlockReference
  2
_OPEN30
 10
-122.52890100551
 20
205.828489078215
 30
0.0
 41
2.0
 42
2.0
 43
2.0
  0
INSERT
  5
8EB
330
8E4
100
AcDbEntity
  8
IDEC_DIM
370
    13
100
AcDbBlockReference
  2
_OPEN30
 10
-118.027347218353
 20
205.828489078215
 30
0.0
 41
2.0
 42
2.0
 43
2.0
 50
180.0
  0
MTEXT
  5
8EC
330
8E4
100
AcDbEntity
  8
IDEC_DIM
100
AcDbMText
 10
-110.908299599306
 20
207.578489078215
 30
0.0
 40
2.5
 41
0.0
 71
     5
 72
     1
  1
\A2;4.5
  7
IDEC_TEXT
 73
     1
 44
1.0
  0
POINT
  5
974
330
8E4
100
AcDbEntity
  8
Defpoints
 62
     0
100
AcDbPoint
 10
-122.52890100551
 20
199.162489078215
 30
0.0
  0
POINT
  5
975
330
8E4
100
AcDbEntity
  8
Defpoints
 62
     0
100
AcDbPoint
 10
-118.027347218353
 20
184.064003146808
 30
0.0
  0
POINT
  5
976
330
8E4
100
AcDbEntity
  8
Defpoints
 62
     0
100
AcDbPoint
 10
-118.027347218353
 20
205.828489078215
 30
0.0
  0
ENDBLK
  5
8EE
330
8E4
100
AcDbEntity
  8
0
100
AcDbBlockEnd
  0
BLOCK
  5
8F9
330
8EF
100
AcDbEntity
  8
0
100
AcDbBlockBegin
  2
*D35
 70
     1
 10
0.0
 20
0.0
 30
0.0
  3
*D35
  1
*D35
  0
LINE
  5
8F0
330
8EF
100
AcDbEntity
  8
IDEC_DIM
370
    13
100
AcDbLine
 10
-160.525097615071
 20
110.369426883314
 30
0.0
 11
-160.525097615071
 21
86.413426883314
 31
0.0
  0
LINE
  5
8F1
330
8EF
100
AcDbEntity
  8
IDEC_DIM
370
    13
100
AcDbLine
 10
-122.52890100551
 20
110.369426883314
 30
0.0
 11
-122.52890100551
 21
86.413426883314
 31
0.0
  0
LINE
  5
8F2
330
8EF
100
AcDbEntity
  8
IDEC_DIM
370
    13
100
AcDbLine
 10
-158.525097615071
 20
87.663426883314
 30
0.0
 11
-124.52890100551
 21
87.663426883314
 31
0.0
  0
INSERT
  5
8F3
330
8EF
100
AcDbEntity
  8
IDEC_DIM
370
    13
100
AcDbBlockReference
  2
_OPEN30
 10
-160.525097615071
 20
87.663426883314
 30
0.0
 41
2.0
 42
2.0
 43
2.0
 50
180.0
  0
INSERT
  5
8F4
330
8EF
100
AcDbEntity
  8
IDEC_DIM
370
    13
100
AcDbBlockReference
  2
_OPEN30
 10
-122.52890100551
 20
87.663426883314
 30
0.0
 41
2.0
 42
2.0
 43
2.0
  0
MTEXT
  5
8F5
330
8EF
100
AcDbEntity
  8
IDEC_DIM
100
AcDbMText
 10
-141.526999310291
 20
89.413426883314
 30
0.0
 40
2.5
 41
0.0
 71
     5
 72
     1
  1
\A2;38.0
  7
IDEC_TEXT
 73
     1
 44
1.0
  0
POINT
  5
8F6
330
8EF
100
AcDbEntity
  8
Defpoints
 62
     0
100
AcDbPoint
 10
-160.525097615071
 20
110.994426883314
 30
0.0
  0
POINT
  5
8F7
330
8EF
100
AcDbEntity
  8
Defpoints
 62
     0
100
AcDbPoint
 10
-122.52890100551
 20
110.994426883314
 30
0.0
  0
POINT
  5
8F8
330
8EF
100
AcDbEntity
  8
Defpoints
 62
     0
100
AcDbPoint
 10
-122.52890100551
 20
87.663426883314
 30
0.0
  0
ENDBLK
  5
8FA
330
8EF
100
AcDbEntity
  8
0
100
AcDbBlockEnd
  0
BLOCK
  5
908
330
8FE
100
AcDbEntity
  8
0
100
AcDbBlockBegin
  2
*D36
 70
     1
 10
0.0
 20
0.0
 30
0.0
  3
*D36
  1
*D36
  0
LINE
  5
8FF
330
8FE
100
AcDbEntity
  8
IDEC_DIM
370
    13
100
AcDbLine
 10
-121.90390100551
 20
160.989426883314
 30
0.0
 11
-103.50290100551
 21
160.989426883314
 31
0.0
  0
LINE
  5
900
330
8FE
100
AcDbEntity
  8
IDEC_DIM
370
    13
100
AcDbLine
 10
-121.90390100551
 20
110.994426883314
 30
0.0
 11
-103.50290100551
 21
110.994426883314
 31
0.0
  0
LINE
  5
901
330
8FE
100
AcDbEntity
  8
IDEC_DIM
370
    13
100
AcDbLine
 10
-104.75290100551
 20
158.989426883314
 30
0.0
 11
-104.75290100551
 21
112.994426883314
 31
0.0
  0
INSERT
  5
902
330
8FE
100
AcDbEntity
  8
IDEC_DIM
370
    13
100
AcDbBlockReference
  2
_OPEN30
 10
-104.75290100551
 20
160.989426883314
 30
0.0
 41
2.0
 42
2.0
 43
2.0
 50
90.0
  0
INSERT
  5
903
330
8FE
100
AcDbEntity
  8
IDEC_DIM
370
    13
100
AcDbBlockReference
  2
_OPEN30
 10
-104.75290100551
 20
110.994426883314
 30
0.0
 41
2.0
 42
2.0
 43
2.0
 50
270.0
  0
MTEXT
  5
904
330
8FE
100
AcDbEntity
  8
IDEC_DIM
100
AcDbMText
 10
-106.50290100551
 20
135.991926883314
 30
0.0
 40
2.5
 41
0.0
 71
     5
 72
     1
  1
\A2;50.0
  7
IDEC_TEXT
 11
0.0
 21
1.0
 31
0.0
 73
     1
 44
1.0
  0
POINT
  5
905
330
8FE
100
AcDbEntity
  8
Defpoints
 62
     0
100
AcDbPoint
 10
-122.52890100551
 20
160.989426883314
 30
0.0
  0
POINT
  5
906
330
8FE
100
AcDbEntity
  8
Defpoints
 62
     0
100
AcDbPoint
 10
-122.52890100551
 20
110.994426883314
 30
0.0
  0
POINT
  5
907
330
8FE
100
AcDbEntity
  8
Defpoints
 62
     0
100
AcDbPoint
 10
-104.75290100551
 20
110.994426883314
 30
0.0
  0
ENDBLK
  5
909
330
8FE
100
AcDbEntity
  8
0
100
AcDbBlockEnd
  0
BLOCK
  5
917
330
90D
100
AcDbEntity
  8
0
100
AcDbBlockBegin
  2
*D37
 70
     1
 10
0.0
 20
0.0
 30
0.0
  3
*D37
  1
*D37
  0
LINE
  5
90E
330
90D
100
AcDbEntity
  8
IDEC_DIM
370
    13
100
AcDbLine
 10
-136.527507786499
 20
113.869070102326
 30
0.0
 11
-136.527507786499
 21
91.968426883314
 31
0.0
  0
LINE
  5
90F
330
90D
100
AcDbEntity
  8
IDEC_DIM
370
    13
100
AcDbLine
 10
-122.52890100551
 20
110.369426883314
 30
0.0
 11
-122.52890100551
 21
91.968426883314
 31
0.0
  0
LINE
  5
910
330
90D
100
AcDbEntity
  8
IDEC_DIM
370
    13
100
AcDbLine
 10
-134.527507786499
 20
93.218426883314
 30
0.0
 11
-124.52890100551
 21
93.218426883314
 31
0.0
  0
INSERT
  5
911
330
90D
100
AcDbEntity
  8
IDEC_DIM
370
    13
100
AcDbBlockReference
  2
_OPEN30
 10
-136.527507786499
 20
93.218426883314
 30
0.0
 41
2.0
 42
2.0
 43
2.0
 50
180.0
  0
INSERT
  5
912
330
90D
100
AcDbEntity
  8
IDEC_DIM
370
    13
100
AcDbBlockReference
  2
_OPEN30
 10
-122.52890100551
 20
93.218426883314
 30
0.0
 41
2.0
 42
2.0
 43
2.0
  0
MTEXT
  5
913
330
90D
100
AcDbEntity
  8
IDEC_DIM
100
AcDbMText
 10
-129.528204396004
 20
94.968426883314
 30
0.0
 40
2.5
 41
0.0
 71
     5
 72
     1
  1
\A2;14.0
  7
IDEC_TEXT
 73
     1
 44
1.0
  0
POINT
  5
914
330
90D
100
AcDbEntity
  8
Defpoints
 62
     0
100
AcDbPoint
 10
-136.527507786499
 20
114.494070102326
 30
0.0
  0
POINT
  5
915
330
90D
100
AcDbEntity
  8
Defpoints
 62
     0
100
AcDbPoint
 10
-122.52890100551
 20
110.994426883314
 30
0.0
  0
POINT
  5
916
330
90D
100
AcDbEntity
  8
Defpoints
 62
     0
100
AcDbPoint
 10
-122.52890100551
 20
93.218426883314
 30
0.0
  0
ENDBLK
  5
918
330
90D
100
AcDbEntity
  8
0
100
AcDbBlockEnd
  0
BLOCK
  5
923
330
919
100
AcDbEntity
  8
0
100
AcDbBlockBegin
  2
*D38
 70
     1
 10
0.0
 20
0.0
 30
0.0
  3
*D38
  1
*D38
  0
LINE
  5
91A
330
919
100
AcDbEntity
  8
IDEC_DIM
370
    13
100
AcDbLine
 10
-136.527507786499
 20
113.869070102326
 30
0.0
 11
-136.527507786499
 21
91.968426883314
 31
0.0
  0
LINE
  5
91B
330
919
100
AcDbEntity
  8
IDEC_DIM
370
    13
100
AcDbLine
 10
-156.525507786499
 20
113.869070102326
 30
0.0
 11
-156.525507786499
 21
91.968426883314
 31
0.0
  0
LINE
  5
91C
330
919
100
AcDbEntity
  8
IDEC_DIM
370
    13
100
AcDbLine
 10
-138.527507786499
 20
93.218426883314
 30
0.0
 11
-154.525507786499
 21
93.218426883314
 31
0.0
  0
INSERT
  5
91D
330
919
100
AcDbEntity
  8
IDEC_DIM
370
    13
100
AcDbBlockReference
  2
_OPEN30
 10
-136.527507786499
 20
93.218426883314
 30
0.0
 41
2.0
 42
2.0
 43
2.0
  0
INSERT
  5
91E
330
919
100
AcDbEntity
  8
IDEC_DIM
370
    13
100
AcDbBlockReference
  2
_OPEN30
 10
-156.525507786499
 20
93.218426883314
 30
0.0
 41
2.0
 42
2.0
 43
2.0
 50
180.0
  0
MTEXT
  5
91F
330
919
100
AcDbEntity
  8
IDEC_DIM
100
AcDbMText
 10
-146.526507786499
 20
94.968426883314
 30
0.0
 40
2.5
 41
0.0
 71
     5
 72
     1
  1
\A2;20.0
  7
IDEC_TEXT
 73
     1
 44
1.0
  0
POINT
  5
920
330
919
100
AcDbEntity
  8
Defpoints
 62
     0
100
AcDbPoint
 10
-136.527507786499
 20
114.494070102326
 30
0.0
  0
POINT
  5
921
330
919
100
AcDbEntity
  8
Defpoints
 62
     0
100
AcDbPoint
 10
-156.525507786499
 20
114.494070102326
 30
0.0
  0
POINT
  5
922
330
919
100
AcDbEntity
  8
Defpoints
 62
     0
100
AcDbPoint
 10
-156.525507786499
 20
93.218426883314
 30
0.0
  0
ENDBLK
  5
924
330
919
100
AcDbEntity
  8
0
100
AcDbBlockEnd
  0
BLOCK
  5
930
330
925
100
AcDbEntity
  8
0
100
AcDbBlockBegin
  2
*D39
 70
     1
 10
0.0
 20
0.0
 30
0.0
  3
*D39
  1
*D39
  0
LINE
  5
926
330
925
100
AcDbEntity
  8
IDEC_DIM
370
    13
100
AcDbLine
 10
-156.525507786499
 20
113.869070102326
 30
0.0
 11
-156.525507786499
 21
97.523426883314
 31
0.0
  0
LINE
  5
927
330
925
100
AcDbEntity
  8
IDEC_DIM
370
    13
100
AcDbLine
 10
-143.526794224522
 20
132.867176883314
 30
0.0
 11
-143.526794224522
 21
97.523426883314
 31
0.0
  0
LINE
  5
928
330
925
100
AcDbEntity
  8
IDEC_DIM
370
    13
100
AcDbLine
 10
-154.525507786499
 20
98.773426883314
 30
0.0
 11
-145.526794224522
 21
98.773426883314
 31
0.0
  0
INSERT
  5
929
330
925
100
AcDbEntity
  8
IDEC_DIM
370
    13
100
AcDbBlockReference
  2
_OPEN30
 10
-156.525507786499
 20
98.773426883314
 30
0.0
 41
2.0
 42
2.0
 43
2.0
 50
180.0
  0
INSERT
  5
92A
330
925
100
AcDbEntity
  8
IDEC_DIM
370
    13
100
AcDbBlockReference
  2
_OPEN30
 10
-143.526794224522
 20
98.773426883314
 30
0.0
 41
2.0
 42
2.0
 43
2.0
  0
MTEXT
  5
92B
330
925
100
AcDbEntity
  8
IDEC_DIM
100
AcDbMText
 10
-150.02615100551
 20
100.523426883314
 30
0.0
 40
2.5
 41
0.0
 71
     5
 72
     1
  1
\A2;13.0
  7
IDEC_TEXT
 73
     1
 44
1.0
  0
POINT
  5
92C
330
925
100
AcDbEntity
  8
Defpoints
 62
     0
100
AcDbPoint
 10
-156.525507786499
 20
114.494070102326
 30
0.0
  0
POINT
  5
92D
330
925
100
AcDbEntity
  8
Defpoints
 62
     0
100
AcDbPoint
 10
-143.526794224522
 20
133.492176883314
 30
0.0
  0
POINT
  5
92E
330
925
100
AcDbEntity
  8
Defpoints
 62
     0
100
AcDbPoint
 10
-143.526794224522
 20
98.773426883314
 30
0.0
  0
ENDBLK
  5
931
330
925
100
AcDbEntity
  8
0
100
AcDbBlockEnd
  0
BLOCK
  5
93D
330
932
100
AcDbEntity
  8
0
100
AcDbBlockBegin
  2
*D40
 70
     1
 10
0.0
 20
0.0
 30
0.0
  3
*D40
  1
*D40
  0
LINE
  5
933
330
932
100
AcDbEntity
  8
IDEC_DIM
370
    13
100
AcDbLine
 10
-156.525507786499
 20
113.869070102326
 30
0.0
 11
-156.525507786499
 21
103.078426883314
 31
0.0
  0
LINE
  5
934
330
932
100
AcDbEntity
  8
IDEC_DIM
370
    13
100
AcDbLine
 10
-149.52620439606
 20
123.058163715064
 30
0.0
 11
-149.52620439606
 21
103.078426883314
 31
0.0
  0
LINE
  5
935
330
932
100
AcDbEntity
  8
IDEC_DIM
370
    13
100
AcDbLine
 10
-154.525507786499
 20
104.328426883314
 30
0.0
 11
-151.52620439606
 21
104.328426883314
 31
0.0
  0
INSERT
  5
936
330
932
100
AcDbEntity
  8
IDEC_DIM
370
    13
100
AcDbBlockReference
  2
_OPEN30
 10
-156.525507786499
 20
104.328426883314
 30
0.0
 41
2.0
 42
2.0
 43
2.0
 50
180.0
  0
INSERT
  5
937
330
932
100
AcDbEntity
  8
IDEC_DIM
370
    13
100
AcDbBlockReference
  2
_OPEN30
 10
-149.52620439606
 20
104.328426883314
 30
0.0
 41
2.0
 42
2.0
 43
2.0
  0
MTEXT
  5
938
330
932
100
AcDbEntity
  8
IDEC_DIM
100
AcDbMText
 10
-153.025856091279
 20
106.078426883314
 30
0.0
 40
2.5
 41
0.0
 71
     5
 72
     1
  1
\A2;7.0
  7
IDEC_TEXT
 73
     1
 44
1.0
  0
POINT
  5
939
330
932
100
AcDbEntity
  8
Defpoints
 62
     0
100
AcDbPoint
 10
-156.525507786499
 20
114.494070102326
 30
0.0
  0
POINT
  5
93A
330
932
100
AcDbEntity
  8
Defpoints
 62
     0
100
AcDbPoint
 10
-149.52620439606
 20
123.683163715064
 30
0.0
  0
POINT
  5
93B
330
932
100
AcDbEntity
  8
Defpoints
 62
     0
100
AcDbPoint
 10
-149.52620439606
 20
104.328426883314
 30
0.0
  0
ENDBLK
  5
93E
330
932
100
AcDbEntity
  8
0
100
AcDbBlockEnd
  0
BLOCK
  5
94A
330
93F
100
AcDbEntity
  8
0
100
AcDbBlockBegin
  2
*D41
 70
     1
 10
0.0
 20
0.0
 30
0.0
  3
*D41
  1
*D41
  0
LINE
  5
940
330
93F
100
AcDbEntity
  8
IDEC_DIM
370
    13
100
AcDbLine
 10
-128.328322361708
 20
120.238435001025
 30
0.0
 11
-128.328322361708
 21
103.078426883314
 31
0.0
  0
LINE
  5
941
330
93F
100
AcDbEntity
  8
IDEC_DIM
370
    13
100
AcDbLine
 10
-122.52890100551
 20
110.369426883314
 30
0.0
 11
-122.52890100551
 21
103.078426883314
 31
0.0
  0
LINE
  5
942
330
93F
100
AcDbEntity
  8
IDEC_DIM
370
    13
100
AcDbLine
 10
-122.52890100551
 20
104.328426883314
 30
0.0
 11
-114.290805767415
 21
104.328426883314
 31
0.0
  0
LINE
  5
943
330
93F
100
AcDbEntity
  8
IDEC_DIM
370
    13
100
AcDbLine
 10
-126.328322361708
 20
104.328426883314
 30
0.0
 11
-124.52890100551
 21
104.328426883314
 31
0.0
  0
INSERT
  5
944
330
93F
100
AcDbEntity
  8
IDEC_DIM
370
    13
100
AcDbBlockReference
  2
_OPEN30
 10
-128.328322361708
 20
104.328426883314
 30
0.0
 41
2.0
 42
2.0
 43
2.0
 50
180.0
  0
INSERT
  5
945
330
93F
100
AcDbEntity
  8
IDEC_DIM
370
    13
100
AcDbBlockReference
  2
_OPEN30
 10
-122.52890100551
 20
104.328426883314
 30
0.0
 41
2.0
 42
2.0
 43
2.0
  0
MTEXT
  5
946
330
93F
100
AcDbEntity
  8
IDEC_DIM
100
AcDbMText
 10
-117.409853386463
 20
106.078426883314
 30
0.0
 40
2.5
 41
0.0
 71
     5
 72
     1
  1
\A2;5.8
  7
IDEC_TEXT
 73
     1
 44
1.0
  0
POINT
  5
947
330
93F
100
AcDbEntity
  8
Defpoints
 62
     0
100
AcDbPoint
 10
-128.328322361708
 20
120.863435001025
 30
0.0
  0
POINT
  5
948
330
93F
100
AcDbEntity
  8
Defpoints
 62
     0
100
AcDbPoint
 10
-122.52890100551
 20
110.994426883314
 30
0.0
  0
POINT
  5
949
330
93F
100
AcDbEntity
  8
Defpoints
 62
     0
100
AcDbPoint
 10
-122.52890100551
 20
104.328426883314
 30
0.0
  0
ENDBLK
  5
94B
330
93F
100
AcDbEntity
  8
0
100
AcDbBlockEnd
  0
BLOCK
  5
956
330
94C
100
AcDbEntity
  8
0
100
AcDbBlockBegin
  2
*D42
 70
     1
 10
0.0
 20
0.0
 30
0.0
  3
*D42
  1
*D42
  0
LINE
  5
94D
330
94C
100
AcDbEntity
  8
IDEC_DIM
370
    13
100
AcDbLine
 10
-119.904097615071
 20
138.491676883314
 30
0.0
 11
-109.05790100551
 21
138.491676883314
 31
0.0
  0
LINE
  5
94E
330
94C
100
AcDbEntity
  8
IDEC_DIM
370
    13
100
AcDbLine
 10
-121.90390100551
 20
160.989426883314
 30
0.0
 11
-109.05790100551
 21
160.989426883314
 31
0.0
  0
LINE
  5
94F
330
94C
100
AcDbEntity
  8
IDEC_DIM
370
    13
100
AcDbLine
 10
-110.30790100551
 20
140.491676883314
 30
0.0
 11
-110.30790100551
 21
158.989426883314
 31
0.0
  0
INSERT
  5
950
330
94C
100
AcDbEntity
  8
IDEC_DIM
370
    13
100
AcDbBlockReference
  2
_OPEN30
 10
-110.30790100551
 20
138.491676883314
 30
0.0
 41
2.0
 42
2.0
 43
2.0
 50
270.0
  0
INSERT
  5
951
330
94C
100
AcDbEntity
  8
IDEC_DIM
370
    13
100
AcDbBlockReference
  2
_OPEN30
 10
-110.30790100551
 20
160.989426883314
 30
0.0
 41
2.0
 42
2.0
 43
2.0
 50
90.0
  0
MTEXT
  5
952
330
94C
100
AcDbEntity
  8
IDEC_DIM
100
AcDbMText
 10
-112.05790100551
 20
149.740551883314
 30
0.0
 40
2.5
 41
0.0
 71
     5
 72
     1
  1
\A2;22.5
  7
IDEC_TEXT
 11
0.0
 21
1.0
 31
0.0
 73
     1
 44
1.0
  0
POINT
  5
953
330
94C
100
AcDbEntity
  8
Defpoints
 62
     0
100
AcDbPoint
 10
-120.529097615071
 20
138.491676883314
 30
0.0
  0
POINT
  5
954
330
94C
100
AcDbEntity
  8
Defpoints
 62
     0
100
AcDbPoint
 10
-122.52890100551
 20
160.989426883314
 30
0.0
  0
POINT
  5
955
330
94C
100
AcDbEntity
  8
Defpoints
 62
     0
100
AcDbPoint
 10
-110.30790100551
 20
160.989426883314
 30
0.0
  0
ENDBLK
  5
957
330
94C
100
AcDbEntity
  8
0
100
AcDbBlockEnd
  0
BLOCK
  5
962
330
958
100
AcDbEntity
  8
0
100
AcDbBlockBegin
  2
*D43
 70
     1
 10
0.0
 20
0.0
 30
0.0
  3
*D43
  1
*D43
  0
LINE
  5
959
330
958
100
AcDbEntity
  8
IDEC_DIM
370
    13
100
AcDbLine
 10
-68.58843524624
 20
197.562646365819
 30
0.0
 11
-81.43443524624
 21
197.562646365819
 31
0.0
  0
LINE
  5
95A
330
958
100
AcDbEntity
  8
IDEC_DIM
370
    13
100
AcDbLine
 10
-62.289067280592
 20
152.066182605428
 30
0.0
 11
-81.43443524624
 21
152.066182605428
 31
0.0
  0
LINE
  5
95B
330
958
100
AcDbEntity
  8
IDEC_DIM
370
    13
100
AcDbLine
 10
-80.18443524624
 20
195.562646365819
 30
0.0
 11
-80.18443524624
 21
154.066182605428
 31
0.0
  0
INSERT
  5
95C
330
958
100
AcDbEntity
  8
IDEC_DIM
370
    13
100
AcDbBlockReference
  2
_OPEN30
 10
-80.18443524624
 20
197.562646365819
 30
0.0
 41
2.0
 42
2.0
 43
2.0
 50
90.0
  0
INSERT
  5
95D
330
958
100
AcDbEntity
  8
IDEC_DIM
370
    13
100
AcDbBlockReference
  2
_OPEN30
 10
-80.18443524624
 20
152.066182605428
 30
0.0
 41
2.0
 42
2.0
 43
2.0
 50
270.0
  0
MTEXT
  5
95E
330
958
100
AcDbEntity
  8
IDEC_DIM
100
AcDbMText
 10
-81.93443524624
 20
174.814414485624
 30
0.0
 40
2.5
 41
0.0
 71
     5
 72
     1
  1
\A2;45.5
  7
IDEC_TEXT
 11
0.0
 21
1.0
 31
0.0
 73
     1
 44
1.0
  0
POINT
  5
95F
330
958
100
AcDbEntity
  8
Defpoints
 62
     0
100
AcDbPoint
 10
-67.96343524624
 20
197.562646365819
 30
0.0
  0
POINT
  5
960
330
958
100
AcDbEntity
  8
Defpoints
 62
     0
100
AcDbPoint
 10
-61.664067280592
 20
152.066182605428
 30
0.0
  0
POINT
  5
961
330
958
100
AcDbEntity
  8
Defpoints
 62
     0
100
AcDbPoint
 10
-80.18443524624
 20
152.066182605428
 30
0.0
  0
ENDBLK
  5
963
330
958
100
AcDbEntity
  8
0
100
AcDbBlockEnd
  0
BLOCK
  5
972
330
967
100
AcDbEntity
  8
0
100
AcDbBlockBegin
  2
*D44
 70
     1
 10
0.0
 20
0.0
 30
0.0
  3
*D44
  1
*D44
  0
LINE
  5
968
330
967
100
AcDbEntity
  8
IDEC_DIM
370
    13
100
AcDbLine
 10
-117.402347218353
 20
184.064003146808
 30
0.0
 11
-110.111347218353
 21
184.064003146808
 31
0.0
  0
LINE
  5
969
330
967
100
AcDbEntity
  8
IDEC_DIM
370
    13
100
AcDbLine
 10
-121.90390100551
 20
197.562646365819
 30
0.0
 11
-110.111347218353
 21
197.562646365819
 31
0.0
  0
LINE
  5
96A
330
967
100
AcDbEntity
  8
IDEC_DIM
370
    13
100
AcDbLine
 10
-111.361347218353
 20
186.064003146808
 30
0.0
 11
-111.361347218353
 21
195.562646365819
 31
0.0
  0
INSERT
  5
96B
330
967
100
AcDbEntity
  8
IDEC_DIM
370
    13
100
AcDbBlockReference
  2
_OPEN30
 10
-111.361347218353
 20
184.064003146808
 30
0.0
 41
2.0
 42
2.0
 43
2.0
 50
270.0
  0
INSERT
  5
96C
330
967
100
AcDbEntity
  8
IDEC_DIM
370
    13
100
AcDbBlockReference
  2
_OPEN30
 10
-111.361347218353
 20
197.562646365819
 30
0.0
 41
2.0
 42
2.0
 43
2.0
 50
90.0
  0
MTEXT
  5
96D
330
967
100
AcDbEntity
  8
IDEC_DIM
100
AcDbMText
 10
-113.111347218353
 20
190.813324756314
 30
0.0
 40
2.5
 41
0.0
 71
     5
 72
     1
  1
\A2;13.5
  7
IDEC_TEXT
 11
0.0
 21
1.0
 31
0.0
 73
     1
 44
1.0
  0
POINT
  5
96E
330
967
100
AcDbEntity
  8
Defpoints
 62
     0
100
AcDbPoint
 10
-118.027347218353
 20
184.064003146808
 30
0.0
  0
POINT
  5
96F
330
967
100
AcDbEntity
  8
Defpoints
 62
     0
100
AcDbPoint
 10
-122.52890100551
 20
197.562646365819
 30
0.0
  0
POINT
  5
970
330
967
100
AcDbEntity
  8
Defpoints
 62
     0
100
AcDbPoint
 10
-111.361347218353
 20
197.562646365819
 30
0.0
  0
ENDBLK
  5
973
330
967
100
AcDbEntity
  8
0
100
AcDbBlockEnd
  0
BLOCK
  5
981
330
977
100
AcDbEntity
  8
0
100
AcDbBlockBegin
  2
*D45
 70
     1
 10
0.0
 20
0.0
 30
0.0
  3
*D45
  1
*D45
  0
LINE
  5
978
330
977
100
AcDbEntity
  8
IDEC_DIM
370
    13
100
AcDbLine
 10
-131.002993717906
 20
118.993623492875
 30
0.0
 11
-114.61290100551
 21
118.993623492875
 31
0.0
  0
LINE
  5
979
330
977
100
AcDbEntity
  8
IDEC_DIM
370
    13
100
AcDbLine
 10
-131.002993717906
 20
157.989730273864
 30
0.0
 11
-114.61290100551
 21
157.989730273864
 31
0.0
  0
LINE
  5
97A
330
977
100
AcDbEntity
  8
IDEC_DIM
370
    13
100
AcDbLine
 10
-115.86290100551
 20
120.993623492875
 30
0.0
 11
-115.86290100551
 21
155.989730273864
 31
0.0
  0
INSERT
  5
97B
330
977
100
AcDbEntity
  8
IDEC_DIM
370
    13
100
AcDbBlockReference
  2
_OPEN30
 10
-115.86290100551
 20
118.993623492875
 30
0.0
 41
2.0
 42
2.0
 43
2.0
 50
270.0
  0
INSERT
  5
97C
330
977
100
AcDbEntity
  8
IDEC_DIM
370
    13
100
AcDbBlockReference
  2
_OPEN30
 10
-115.86290100551
 20
157.989730273864
 30
0.0
 41
2.0
 42
2.0
 43
2.0
 50
90.0
  0
MTEXT
  5
97D
330
977
100
AcDbEntity
  8
IDEC_DIM
100
AcDbMText
 10
-117.61290100551
 20
138.49167688337
 30
0.0
 40
2.5
 41
0.0
 71
     5
 72
     1
  1
\A2;39.0
  7
IDEC_TEXT
 11
0.0
 21
1.0
 31
0.0
 73
     1
 44
1.0
  0
POINT
  5
97E
330
977
100
AcDbEntity
  8
Defpoints
 62
     0
100
AcDbPoint
 10
-131.627993717906
 20
118.993623492875
 30
0.0
  0
POINT
  5
97F
330
977
100
AcDbEntity
  8
Defpoints
 62
     0
100
AcDbPoint
 10
-131.627993717906
 20
157.989730273864
 30
0.0
  0
POINT
  5
980
330
977
100
AcDbEntity
  8
Defpoints
 62
     0
100
AcDbPoint
 10
-115.86290100551
 20
157.989730273864
 30
0.0
  0
ENDBLK
  5
982
330
977
100
AcDbEntity
  8
0
100
AcDbBlockEnd
  0
BLOCK
  5
98E
330
983
100
AcDbEntity
  8
0
100
AcDbBlockBegin
  2
*D46
 70
     1
 10
0.0
 20
0.0
 30
0.0
  3
*D46
  1
*D46
  0
LINE
  5
984
330
983
100
AcDbEntity
  8
IDEC_DIM
370
    13
100
AcDbLine
 10
-68.58843524624
 20
197.562646365819
 30
0.0
 11
-75.87943524624
 21
197.562646365819
 31
0.0
  0
LINE
  5
985
330
983
100
AcDbEntity
  8
IDEC_DIM
370
    13
100
AcDbLine
 10
-62.589042027228
 20
186.26377840006
 30
0.0
 11
-75.87943524624
 21
186.26377840006
 31
0.0
  0
LINE
  5
986
330
983
100
AcDbEntity
  8
IDEC_DIM
370
    13
100
AcDbLine
 10
-74.62943524624
 20
195.562646365819
 30
0.0
 11
-74.62943524624
 21
188.26377840006
 31
0.0
  0
INSERT
  5
987
330
983
100
AcDbEntity
  8
IDEC_DIM
370
    13
100
AcDbBlockReference
  2
_OPEN30
 10
-74.62943524624
 20
197.562646365819
 30
0.0
 41
2.0
 42
2.0
 43
2.0
 50
90.0
  0
INSERT
  5
988
330
983
100
AcDbEntity
  8
IDEC_DIM
370
    13
100
AcDbBlockReference
  2
_OPEN30
 10
-74.62943524624
 20
186.26377840006
 30
0.0
 41
2.0
 42
2.0
 43
2.0
 50
270.0
  0
MTEXT
  5
989
330
983
100
AcDbEntity
  8
IDEC_DIM
100
AcDbMText
 10
-76.37943524624
 20
191.91321238294
 30
0.0
 40
2.5
 41
0.0
 71
     5
 72
     1
  1
\A2;11.3
  7
IDEC_TEXT
 11
0.0
 21
1.0
 31
0.0
 73
     1
 44
1.0
  0
POINT
  5
98A
330
983
100
AcDbEntity
  8
Defpoints
 62
     0
100
AcDbPoint
 10
-67.96343524624
 20
197.562646365819
 30
0.0
  0
POINT
  5
98B
330
983
100
AcDbEntity
  8
Defpoints
 62
     0
100
AcDbPoint
 10
-61.964042027228
 20
186.26377840006
 30
0.0
  0
POINT
  5
98C
330
983
100
AcDbEntity
  8
Defpoints
 62
     0
100
AcDbPoint
 10
-74.62943524624
 20
186.26377840006
 30
0.0
  0
ENDBLK
  5
98F
330
983
100
AcDbEntity
  8
0
100
AcDbBlockEnd
  0
BLOCK
  5
99A
330
990
100
AcDbEntity
  8
0
100
AcDbBlockBegin
  2
*D47
 70
     1
 10
0.0
 20
0.0
 30
0.0
  3
*D47
  1
*D47
  0
LINE
  5
991
330
990
100
AcDbEntity
  8
IDEC_DIM
370
    13
100
AcDbLine
 10
-68.58843524624
 20
199.162489078215
 30
0.0
 11
-75.87943524624
 21
199.162489078215
 31
0.0
  0
LINE
  5
992
330
990
100
AcDbEntity
  8
IDEC_DIM
370
    13
100
AcDbLine
 10
-64.943797169497
 20
226.009796619072
 30
0.0
 11
-75.87943524624
 21
226.009796619072
 31
0.0
  0
LINE
  5
993
330
990
100
AcDbEntity
  8
IDEC_DIM
370
    13
100
AcDbLine
 10
-74.62943524624
 20
201.162489078215
 30
0.0
 11
-74.62943524624
 21
224.009796619072
 31
0.0
  0
INSERT
  5
994
330
990
100
AcDbEntity
  8
IDEC_DIM
370
    13
100
AcDbBlockReference
  2
_OPEN30
 10
-74.62943524624
 20
199.162489078215
 30
0.0
 41
2.0
 42
2.0
 43
2.0
 50
270.0
  0
INSERT
  5
995
330
990
100
AcDbEntity
  8
IDEC_DIM
370
    13
100
AcDbBlockReference
  2
_OPEN30
 10
-74.62943524624
 20
226.009796619072
 30
0.0
 41
2.0
 42
2.0
 43
2.0
 50
90.0
  0
MTEXT
  5
996
330
990
100
AcDbEntity
  8
IDEC_DIM
100
AcDbMText
 10
-76.37943524624
 20
212.586142848643
 30
0.0
 40
2.5
 41
0.0
 71
     5
 72
     1
  1
\A2;26.8
  7
IDEC_TEXT
 11
0.0
 21
1.0
 31
0.0
 73
     1
 44
1.0
  0
POINT
  5
997
330
990
100
AcDbEntity
  8
Defpoints
 62
     0
100
AcDbPoint
 10
-67.96343524624
 20
199.162489078215
 30
0.0
  0
POINT
  5
998
330
990
100
AcDbEntity
  8
Defpoints
 62
     0
100
AcDbPoint
 10
-64.318797169497
 20
226.009796619072
 30
0.0
  0
POINT
  5
999
330
990
100
AcDbEntity
  8
Defpoints
 62
     0
100
AcDbPoint
 10
-74.62943524624
 20
226.009796619072
 30
0.0
  0
ENDBLK
  5
99B
330
990
100
AcDbEntity
  8
0
100
AcDbBlockEnd
  0
ENDSEC
  0
SECTION
  2
ENTITIES
  0
TEXT
  5
19E
330
25
100
AcDbEntity
  8
CMNT
100
AcDbText
 10
-100.9739685059
 20
242.4161529541
 30
0.0
 40
3.0
  1

 72
     5
 11
-100.9739685059
 21
242.4161529541
 31
0.0
100
AcDbText
  0
CIRCLE
  5
1A8
330
25
100
AcDbEntity
  8
中線
 62
     1
100
AcDbCircle
 10
-152.185158875019
 20
96.025408944828
 30
0.0
 40
1.5498444490551
  0
LINE
  5
1A9
330
25
100
AcDbEntity
  8
中線
 62
     3
100
AcDbLine
 10
-150.728210026474
 20
56.500373420003
 30
0.0
 11
-151.656609086395
 21
55.572479770537
 31
0.0
  0
TEXT
  5
1AC
330
25
100
AcDbEntity
  8
CMNT
100
AcDbText
 10
-91.780166626
 20
102.6157531738
 30
0.0
 40
2.5
  1

 72
     5
 11
-91.780166626
 21
102.6157531738
 31
0.0
100
AcDbText
  0
LINE
  5
1AE
330
25
100
AcDbEntity
  8
中線
 62
     3
100
AcDbLine
 10
-170.95248854436
 20
96.967329600675
 30
0.0
 11
-173.125271720645
 21
94.794542578219
 31
0.0
  0
LINE
  5
1B0
330
25
100
AcDbEntity
  8
中線
 62
     3
100
AcDbLine
 10
-172.047538140448
 20
58.573166232992
 30
0.0
 11
-173.72707139977
 21
56.893324030679
 31
0.0
  0
LINE
  5
1B4
330
25
100
AcDbEntity
  8
中線
 62
     3
100
AcDbLine
 10
-150.728211807519
 20
95.496468861126
 30
0.0
 11
-151.656612366178
 21
94.568573713587
 31
0.0
  0
LINE
  5
1B5
330
25
100
AcDbEntity
  8
中線
 62
     3
100
AcDbLine
 10
-150.679720705558
 20
96.393365488827
 30
0.0
 11
-152.553521569732
 21
94.519572206117
 31
0.0
  0
LINE
  5
1B6
330
25
100
AcDbEntity
  8
中線
 62
     3
100
AcDbLine
 10
-150.954485201916
 20
96.967328570445
 30
0.0
 11
-153.127278117783
 21
94.794531808407
 31
0.0
  0
LINE
  5
1B7
330
25
100
AcDbEntity
  8
中線
 62
     3
100
AcDbLine
 10
-152.049554771674
 20
97.569250682658
 30
0.0
 11
-153.729088030995
 21
95.889408480345
 31
0.0
  0
LINE
  5
1B8
330
25
100
AcDbEntity
  8
中線
 62
     3
100
AcDbLine
 10
-151.405519220448
 20
97.365262556622
 30
0.0
 11
-153.524610751435
 21
95.245474984135
 31
0.0
  0
ARC
  5
1BB
330
25
100
AcDbEntity
  8
HIDDEN
100
AcDbCircle
 10
-57.06573500114
 20
100.927804940866
 30
0.0
 40
0.100606353700688
100
AcDbArc
 50
89.999982013896
 51
179.999964029877
  0
ARC
  5
1BC
330
25
100
AcDbEntity
  8
HIDDEN
100
AcDbCircle
 10
-56.05884039367
 20
100.927804940866
 30
0.0
 40
0.100606353700688
100
AcDbArc
 50
270.000017986104
 51
0.0
  0
ARC
  5
1BD
330
25
100
AcDbEntity
  8
HIDDEN
100
AcDbCircle
 10
-56.05884039367
 20
100.927804940866
 30
0.0
 40
0.100606353700688
100
AcDbArc
 50
0.0
 51
89.999982013896
  0
ARC
  5
1BE
330
25
100
AcDbEntity
  8
HIDDEN
100
AcDbCircle
 10
-57.300713806687
 20
102.034685479853
 30
0.0
 40
0.2011974765735
100
AcDbArc
 50
179.999964019746
 51
270.000000683202
  0
ARC
  5
1BF
330
25
100
AcDbEntity
  8
HIDDEN
100
AcDbCircle
 10
-57.300713806687
 20
103.040579889019
 30
0.0
 40
0.2011974765735
100
AcDbArc
 50
89.999982013898
 51
179.999964019746
  0
ARC
  5
1C0
330
25
100
AcDbEntity
  8
HIDDEN
100
AcDbCircle
 10
-55.824861786427
 20
102.034685479853
 30
0.0
 40
0.2011974765735
100
AcDbArc
 50
270.000017986102
 51
0.0
  0
ARC
  5
1C1
330
25
100
AcDbEntity
  8
HIDDEN
100
AcDbCircle
 10
-55.824861786427
 20
103.040579889019
 30
0.0
 40
0.2011974765735
100
AcDbArc
 50
0.0
 51
89.999982013898
  0
ARC
  5
1C2
330
25
100
AcDbEntity
  8
HIDDEN
100
AcDbCircle
 10
-56.05884039367
 20
102.537632684436
 30
0.0
 40
0.100606353700688
100
AcDbArc
 50
270.000017986104
 51
0.0
  0
ARC
  5
1C3
330
25
100
AcDbEntity
  8
HIDDEN
100
AcDbCircle
 10
-60.792372391353
 20
100.071872476339
 30
0.0
 40
0.3199753367107001
100
AcDbArc
 50
270.0000179861
 51
0.0
  0
ARC
  5
1C4
330
25
100
AcDbEntity
  8
HIDDEN
100
AcDbCircle
 10
-60.792372391353
 20
100.071872476339
 30
0.0
 40
0.7199291941028
100
AcDbArc
 50
270.0000179861
 51
0.0
  0
ARC
  5
1C5
330
25
100
AcDbEntity
  8
HIDDEN
100
AcDbCircle
 10
-60.673382690957
 20
100.701827920606
 30
0.0
 40
0.1999921925584
100
AcDbArc
 50
0.0
 51
89.999982013899
  0
ARC
  5
1C6
330
25
100
AcDbEntity
  8
HIDDEN
100
AcDbCircle
 10
-56.05884039367
 20
102.537632684436
 30
0.0
 40
0.100606353700688
100
AcDbArc
 50
0.0
 51
89.999982013896
  0
ARC
  5
1C7
330
25
100
AcDbEntity
  8
HIDDEN
100
AcDbCircle
 10
-57.06573500114
 20
102.537632684436
 30
0.0
 40
0.100606353700688
100
AcDbArc
 50
179.999964029877
 51
270.000000683199
  0
ARC
  5
1C8
330
25
100
AcDbEntity
  8
HIDDEN
100
AcDbCircle
 10
-55.690886063228
 20
99.954883172773
 30
0.0
 40
0.067070927299827
100
AcDbArc
 50
0.0
 51
89.999982013894
  0
ARC
  5
1C9
330
25
100
AcDbEntity
  8
HIDDEN
100
AcDbCircle
 10
-57.06573500114
 20
102.537632684436
 30
0.0
 40
0.100606353700688
100
AcDbArc
 50
89.999982013896
 51
179.999964029877
  0
ARC
  5
1CA
330
25
100
AcDbEntity
  8
HIDDEN
100
AcDbCircle
 10
-56.05884039367
 20
104.147477380533
 30
0.0
 40
0.100606353700688
100
AcDbArc
 50
270.000017986104
 51
0.0
  0
ARC
  5
1CB
330
25
100
AcDbEntity
  8
HIDDEN
100
AcDbCircle
 10
-58.574593567415
 20
99.954883172773
 30
0.0
 40
0.067070927299827
100
AcDbArc
 50
89.999982013906
 51
179.999964040011
  0
ARC
  5
1CC
330
25
100
AcDbEntity
  8
HIDDEN
100
AcDbCircle
 10
-55.824861786427
 20
104.650407632589
 30
0.0
 40
0.2011974765735
100
AcDbArc
 50
0.0
 51
89.999982013898
  0
ARC
  5
1CD
330
25
100
AcDbEntity
  8
HIDDEN
100
AcDbCircle
 10
-56.05884039367
 20
104.147477380533
 30
0.0
 40
0.100606353700688
100
AcDbArc
 50
0.0
 51
89.999982013896
  0
ARC
  5
1CE
330
25
100
AcDbEntity
  8
HIDDEN
100
AcDbCircle
 10
-57.300713806687
 20
103.644513223423
 30
0.0
 40
0.2011974765735
100
AcDbArc
 50
179.999964019746
 51
270.000000683202
  0
ARC
  5
1CF
330
25
100
AcDbEntity
  8
HIDDEN
100
AcDbCircle
 10
-57.06573500114
 20
104.147477380533
 30
0.0
 40
0.100606353700688
100
AcDbArc
 50
179.999964029877
 51
270.000000683199
  0
ARC
  5
1D0
330
25
100
AcDbEntity
  8
HIDDEN
100
AcDbCircle
 10
-55.690886063228
 20
99.41894637459
 30
0.0
 40
0.067070927299827
100
AcDbArc
 50
270.000017986106
 51
0.0
  0
ARC
  5
1D1
330
25
100
AcDbEntity
  8
HIDDEN
100
AcDbCircle
 10
-61.313323166399
 20
103.651531564408
 30
0.0
 40
0.1999921925584
100
AcDbArc
 50
0.0
 51
89.999982013899
  0
ARC
  5
1D2
330
25
100
AcDbEntity
  8
HIDDEN
100
AcDbCircle
 10
-61.113334351169
 20
104.451452920606
 30
0.0
 40
0.3999691543067
100
AcDbArc
 50
0.0
 51
89.9999820139
  0
CIRCLE
  5
1D3
330
25
100
AcDbEntity
  8
HIDDEN
100
AcDbCircle
 10
-75.120925964918
 20
89.50194568795
 30
0.0
 40
0.5249495157984
  0
CIRCLE
  5
1D4
330
25
100
AcDbEntity
  8
HIDDEN
100
AcDbCircle
 10
-47.124729553771
 20
89.50194568795
 30
0.0
 40
0.5249495157984
  0
ARC
  5
1D5
330
25
100
AcDbEntity
  8
HIDDEN
100
AcDbCircle
 10
-55.824861786427
 20
103.644513223423
 30
0.0
 40
0.2011974765735
100
AcDbArc
 50
270.000017986102
 51
0.0
  0
ARC
  5
1D6
330
25
100
AcDbEntity
  8
HIDDEN
100
AcDbCircle
 10
-58.574593567415
 20
99.41894637459
 30
0.0
 40
0.067070927299827
100
AcDbArc
 50
179.999964040011
 51
270.000000683199
  0
CIRCLE
  5
1D7
330
25
100
AcDbEntity
  8
HIDDEN
100
AcDbCircle
 10
-68.121622574368
 20
93.102575036783
 30
0.0
 40
0.6249375
  0
CIRCLE
  5
1D8
330
25
100
AcDbEntity
  8
HIDDEN
100
AcDbCircle
 10
-54.124032944321
 20
93.102575036783
 30
0.0
 40
0.6249375
  0
ARC
  5
1D9
330
25
100
AcDbEntity
  8
HIDDEN
100
AcDbCircle
 10
-60.272421814499
 20
101.701721139617
 30
0.0
 40
0.1999921925584
100
AcDbArc
 50
0.0
 51
89.999982013899
  0
ARC
  5
1DA
330
25
100
AcDbEntity
  8
HIDDEN
100
AcDbCircle
 10
-62.173239471946
 20
104.451452920606
 30
0.0
 40
0.3999691543067
100
AcDbArc
 50
89.9999820139
 51
179.999964029877
  0
ARC
  5
1DB
330
25
100
AcDbEntity
  8
HIDDEN
100
AcDbCircle
 10
-61.972250458302
 20
103.651531564408
 30
0.0
 40
0.1999921925584
100
AcDbArc
 50
89.999982013899
 51
179.999964029877
  0
ARC
  5
1DC
330
25
100
AcDbEntity
  8
HIDDEN
100
AcDbCircle
 10
-57.300713806687
 20
104.650407632589
 30
0.0
 40
0.2011974765735
100
AcDbArc
 50
89.999982013898
 51
179.999964019746
  0
ARC
  5
1DD
330
25
100
AcDbEntity
  8
HIDDEN
100
AcDbCircle
 10
-57.06573500114
 20
104.147477380533
 30
0.0
 40
0.100606353700688
100
AcDbArc
 50
89.999982013896
 51
179.999964029877
  0
CIRCLE
  5
1E4
330
25
100
AcDbEntity
  8
中線
 62
     1
100
AcDbCircle
 10
-43.855064148456
 20
146.747197152849
 30
0.0
 40
0.1999800079992
  0
ARC
  5
1E5
330
25
100
AcDbEntity
  8
中線
 62
     1
100
AcDbCircle
 10
-163.683998703591
 20
148.197077920606
 30
0.0
 40
0.9998999735582
100
AcDbArc
 50
90.000200579999
 51
179.999964029877
  0
ARC
  5
1E6
330
25
100
AcDbEntity
  8
HIDDEN
100
AcDbCircle
 10
-46.123836136456
 20
89.022986291569
 30
0.0
 40
1.4998536024175
100
AcDbArc
 50
284.036712428599
 51
0.000582843573
  0
ARC
  5
1E7
330
25
100
AcDbEntity
  8
中線
 62
     1
100
AcDbCircle
 10
-43.475107437705
 20
137.498125543288
 30
0.0
 40
0.1999768955327
100
AcDbArc
 50
0.0
 51
89.9999820139
  0
ARC
  5
1E8
330
25
100
AcDbEntity
  8
中線
 62
     1
100
AcDbCircle
 10
-175.082869553173
 20
98.525158944828
 30
0.0
 40
0.4999499867791
100
AcDbArc
 50
89.9999820139
 51
179.999964029877
  0
ARC
  5
1E9
330
25
100
AcDbEntity
  8
中線
 62
     1
100
AcDbCircle
 10
-171.30323860229
 20
145.881296609564
 30
0.0
 40
0.2999692504083
100
AcDbArc
 50
0.0
 51
108.434717225298
  0
CIRCLE
  5
1EA
330
25
100
AcDbEntity
  8
中線
 62
     1
100
AcDbCircle
 10
-154.564918976431
 20
51.829830301025
 30
0.0
 40
1.1998799152307
  0
ARC
  5
1EB
330
25
100
AcDbEntity
  8
中線
 62
     1
100
AcDbCircle
 10
-163.683998703591
 20
145.881296609564
 30
0.0
 40
0.2999692504083
100
AcDbArc
 50
0.0
 51
108.434717225298
  0
ARC
  5
1ED
330
25
100
AcDbEntity
  8
中線
 62
     1
100
AcDbCircle
 10
-153.065062195331
 20
148.197077920606
 30
0.0
 40
0.9998999735582
100
AcDbArc
 50
0.0
 51
89.9999820139
  0
ARC
  5
1EF
330
25
100
AcDbEntity
  8
中線
 62
     1
100
AcDbCircle
 10
-156.064758804892
 20
148.197077920606
 30
0.0
 40
0.9998999735582
100
AcDbArc
 50
89.9999820139
 51
179.999964029877
  0
ARC
  5
1F0
330
25
100
AcDbEntity
  8
中線
 62
     1
100
AcDbCircle
 10
-160.68430209403
 20
145.897299783419
 30
0.0
 40
0.2999730249197
100
AcDbArc
 50
89.999982013902
 51
179.999964029877
  0
ARC
  5
1F9
330
25
100
AcDbEntity
  8
中線
 62
     1
100
AcDbCircle
 10
-45.578880600571
 20
154.696417749178
 30
0.0
 40
0.4999499867791
100
AcDbArc
 50
89.9999820139
 51
171.470806282903
  0
ARC
  5
1FA
330
25
100
AcDbEntity
  8
中線
 62
     1
100
AcDbCircle
 10
-79.171542862496
 20
137.398156564408
 30
0.0
 40
0.1999768955327
100
AcDbArc
 50
270.0000179861
 51
0.0
  0
CIRCLE
  5
1FB
330
25
100
AcDbEntity
  8
中線
 62
     1
100
AcDbCircle
 10
-142.716094482936
 20
70.177994622871
 30
0.0
 40
0.4999499867791
  0
ARC
  5
1FC
330
25
100
AcDbEntity
  8
中線
 62
     1
100
AcDbCircle
 10
-149.285448196975
 20
60.528945382851
 30
0.0
 40
0.4999499867791
100
AcDbArc
 50
270.0008922503
 51
0.0
  0
LINE
  5
1FD
330
25
100
AcDbEntity
  8
中線
 62
     3
100
AcDbLine
 10
-170.952484746851
 20
57.971230162841
 30
0.0
 11
-173.125265675472
 21
55.798445387938
 31
0.0
  0
ARC
  5
1FE
330
25
100
AcDbEntity
  8
中線
 62
     1
100
AcDbCircle
 10
-162.284144806426
 20
133.498535714826
 30
0.0
 40
0.2999692504083
100
AcDbArc
 50
179.999964029877
 51
270.000000683202
  0
ARC
  5
1FF
330
25
100
AcDbEntity
  8
中線
 62
     1
100
AcDbCircle
 10
-155.084869553173
 20
60.528945382851
 30
0.0
 40
0.4999499867791
100
AcDbArc
 50
179.999964029877
 51
270.000874947501
  0
ARC
  5
200
330
25
100
AcDbEntity
  8
中線
 62
     1
100
AcDbCircle
 10
-169.283448196975
 20
92.525748773289
 30
0.0
 40
0.4999499867791
100
AcDbArc
 50
0.0
 51
89.9999820139
  0
CIRCLE
  5
201
330
25
100
AcDbEntity
  8
中線
 62
     1
100
AcDbCircle
 10
-145.255835464993
 20
67.638253640814
 30
0.0
 40
0.4999499867791
  0
ARC
  5
202
330
25
100
AcDbEntity
  8
中線
 62
     1
100
AcDbCircle
 10
-175.082869553173
 20
92.525748773289
 30
0.0
 40
0.4999499867791
100
AcDbArc
 50
89.9999820139
 51
179.999964029877
  0
ARC
  5
203
330
25
100
AcDbEntity
  8
中線
 62
     1
100
AcDbCircle
 10
-169.283448196975
 20
60.528945382851
 30
0.0
 40
0.4999499867791
100
AcDbArc
 50
270.0008922503
 51
0.0
  0
CIRCLE
  5
204
330
25
100
AcDbEntity
  8
中線
 62
     1
100
AcDbCircle
 10
-142.716094482936
 20
67.638253640814
 30
0.0
 40
0.4999499867791
  0
ARC
  5
205
330
25
100
AcDbEntity
  8
中線
 62
     1
100
AcDbCircle
 10
-175.082869553173
 20
60.528945382851
 30
0.0
 40
0.4999499867791
100
AcDbArc
 50
179.999964029877
 51
270.000874947504
  0
ARC
  5
206
330
25
100
AcDbEntity
  8
中線
 62
     1
100
AcDbCircle
 10
-47.054732620831
 20
151.596718255683
 30
0.0
 40
0.4999499867791
100
AcDbArc
 50
270.0000179861
 51
351.470791028699
  0
ARC
  5
207
330
25
100
AcDbEntity
  8
中線
 62
     1
100
AcDbCircle
 10
-75.190922897858
 20
151.596718255683
 30
0.0
 40
0.4999433646636
100
AcDbArc
 50
188.531215453098
 51
270.000017986101
  0
ARC
  5
208
330
25
100
AcDbEntity
  8
中線
 62
     1
100
AcDbCircle
 10
-76.666774918118
 20
154.696417749178
 30
0.0
 40
0.4999584630425
100
AcDbArc
 50
8.530937009199
 51
89.9999820139
  0
ARC
  5
209
330
25
100
AcDbEntity
  8
中線
 62
     1
100
AcDbCircle
 10
-80.048445587675
 20
154.696417749178
 30
0.0
 40
0.4999499867791
100
AcDbArc
 50
89.9999820139
 51
163.4282312145
  0
ARC
  5
20A
330
25
100
AcDbEntity
  8
中線
 62
     1
100
AcDbCircle
 10
-82.971160828144
 20
144.874385049567
 30
0.0
 40
0.4999513112022
100
AcDbArc
 50
163.428231214498
 51
179.999964029877
  0
CIRCLE
  5
20B
330
25
100
AcDbEntity
  8
中線
 62
     1
100
AcDbCircle
 10
-78.391608521063
 20
140.047868509047
 30
0.0
 40
1.2998690252086
  0
ARC
  5
20C
330
25
100
AcDbEntity
  8
中線
 62
     1
100
AcDbCircle
 10
-159.184445313042
 20
135.284364465425
 30
0.0
 40
4.2639589967898
100
AcDbArc
 50
54.2706375033
 51
125.7289747698
  0
ARC
  5
20D
330
25
100
AcDbEntity
  8
中線
 62
     1
100
AcDbCircle
 10
-171.30323860229
 20
148.197077920606
 30
0.0
 40
0.9998999735582
100
AcDbArc
 50
90.000200579999
 51
179.999964029877
  0
CIRCLE
  5
20E
330
25
100
AcDbEntity
  8
中線
 62
     1
100
AcDbCircle
 10
-43.855064148456
 20
140.047868509047
 30
0.0
 40
1.2998690252086
  0
CIRCLE
  5
20F
330
25
100
AcDbEntity
  8
中線
 62
     1
100
AcDbCircle
 10
-78.391608521063
 20
146.747197152849
 30
0.0
 40
0.1999800079992
  0
ARC
  5
210
330
25
100
AcDbEntity
  8
中線
 62
     1
100
AcDbCircle
 10
-43.302123978225
 20
156.762200326705
 30
0.0
 40
0.1999768955327
100
AcDbArc
 50
179.999964040011
 51
216.621580546002
  0
ARC
  5
211
330
25
100
AcDbEntity
  8
中線
 62
     1
100
AcDbCircle
 10
-43.302123978225
 20
159.955884561231
 30
0.0
 40
0.1999759022987
100
AcDbArc
 50
157.451761049198
 51
179.999964040011
  0
ARC
  5
212
330
25
100
AcDbEntity
  8
中線
 62
     1
100
AcDbCircle
 10
-42.270224411613
 20
163.745500543288
 30
0.0
 40
0.2999709059094
100
AcDbArc
 50
337.452319530793
 51
89.999982013899
  0
ARC
  5
213
330
25
100
AcDbEntity
  8
中線
 62
     1
100
AcDbCircle
 10
-46.101848724862
 20
161.545725290036
 30
0.0
 40
0.1999768955327
100
AcDbArc
 50
89.999982013904
 51
179.999964040011
  0
ARC
  5
214
330
25
100
AcDbEntity
  8
中線
 62
     1
100
AcDbCircle
 10
-78.943565445517
 20
156.762200326705
 30
0.0
 40
0.1999849082869
100
AcDbArc
 50
323.378386896901
 51
0.0
  0
ARC
  5
215
330
25
100
AcDbEntity
  8
中線
 62
     1
100
AcDbCircle
 10
-78.943565445517
 20
159.955884561231
 30
0.0
 40
0.1999768955327
100
AcDbArc
 50
0.0
 51
22.548240544703
  0
ARC
  5
216
330
25
100
AcDbEntity
  8
中線
 62
     1
100
AcDbCircle
 10
-79.976448258017
 20
163.745500543288
 30
0.0
 40
0.2999730249197
100
AcDbArc
 50
89.999982013902
 51
202.5476205913
  0
ARC
  5
217
330
25
100
AcDbEntity
  8
中線
 62
     1
100
AcDbCircle
 10
-76.14384069877
 20
161.545725290036
 30
0.0
 40
0.1999768955327
100
AcDbArc
 50
0.0
 51
89.9999820139
  0
CIRCLE
  5
218
330
25
100
AcDbEntity
  8
中線
 62
     1
100
AcDbCircle
 10
-145.255835464993
 20
72.717735604928
 30
0.0
 40
0.4999499867791
  0
CIRCLE
  5
219
330
25
100
AcDbEntity
  8
中線
 62
     1
100
AcDbCircle
 10
-142.716094482936
 20
72.717735604928
 30
0.0
 40
0.4999499867791
  0
CIRCLE
  5
21A
330
25
100
AcDbEntity
  8
中線
 62
     1
100
AcDbCircle
 10
-145.255835464993
 20
75.257493539513
 30
0.0
 40
0.4999499867791
  0
CIRCLE
  5
21B
330
25
100
AcDbEntity
  8
中線
 62
     1
100
AcDbCircle
 10
-142.716094482936
 20
75.257493539513
 30
0.0
 40
0.4999499867791
  0
CIRCLE
  5
21C
330
25
100
AcDbEntity
  8
中線
 62
     1
100
AcDbCircle
 10
-145.255835464993
 20
77.797217569043
 30
0.0
 40
0.4999499867791
  0
CIRCLE
  5
21D
330
25
100
AcDbEntity
  8
中線
 62
     1
100
AcDbCircle
 10
-142.716094482936
 20
77.797217569043
 30
0.0
 40
0.4999499867791
  0
CIRCLE
  5
21E
330
25
100
AcDbEntity
  8
中線
 62
     1
100
AcDbCircle
 10
-145.255835464993
 20
80.336975503627
 30
0.0
 40
0.4999499867791
  0
CIRCLE
  5
21F
330
25
100
AcDbEntity
  8
中線
 62
     1
100
AcDbCircle
 10
-142.716094482936
 20
80.336975503627
 30
0.0
 40
0.4999499867791
  0
CIRCLE
  5
220
330
25
100
AcDbEntity
  8
中線
 62
     1
100
AcDbCircle
 10
-145.255835464993
 20
82.876716485685
 30
0.0
 40
0.4999499867791
  0
CIRCLE
  5
221
330
25
100
AcDbEntity
  8
中線
 62
     1
100
AcDbCircle
 10
-142.716094482936
 20
82.876716485685
 30
0.0
 40
0.4999499867791
  0
CIRCLE
  5
222
330
25
100
AcDbEntity
  8
中線
 62
     1
100
AcDbCircle
 10
-145.255835464993
 20
85.416474420269
 30
0.0
 40
0.4999499867791
  0
CIRCLE
  5
223
330
25
100
AcDbEntity
  8
中線
 62
     1
100
AcDbCircle
 10
-142.716094482936
 20
85.416474420269
 30
0.0
 40
0.4999499867791
  0
ARC
  5
226
330
25
100
AcDbEntity
  8
中線
 62
     1
100
AcDbCircle
 10
-169.283448196975
 20
54.529552163839
 30
0.0
 40
0.4999499867791
100
AcDbArc
 50
270.0008922503
 51
0.0
  0
ARC
  5
227
330
25
100
AcDbEntity
  8
中線
 62
     1
100
AcDbCircle
 10
-175.082869553173
 20
54.529552163839
 30
0.0
 40
0.4999499867791
100
AcDbArc
 50
179.999964029877
 51
270.000874947504
  0
ARC
  5
228
330
25
100
AcDbEntity
  8
中線
 62
     1
100
AcDbCircle
 10
-153.065062195331
 20
145.897299783419
 30
0.0
 40
0.2999730249197
100
AcDbArc
 50
89.999982013902
 51
179.999964029877
  0
ARC
  5
229
330
25
100
AcDbEntity
  8
中線
 62
     1
100
AcDbCircle
 10
-156.064758804892
 20
145.881296609564
 30
0.0
 40
0.2999730249197
100
AcDbArc
 50
0.0
 51
108.435427565002
  0
ARC
  5
22F
330
25
100
AcDbEntity
  8
中線
 62
     1
100
AcDbCircle
 10
-42.19722688354
 20
154.696417749178
 30
0.0
 40
0.4999513112022
100
AcDbArc
 50
16.57179087
 51
89.9999820139
  0
CIRCLE
  5
230
330
25
100
AcDbEntity
  8
中線
 62
     1
100
AcDbCircle
 10
-145.255835464993
 20
70.177994622871
 30
0.0
 40
0.4999499867791
  0
ARC
  5
231
330
25
100
AcDbEntity
  8
HIDDEN
100
AcDbCircle
 10
-57.300713806687
 20
100.424840783756
 30
0.0
 40
0.2011974765735
100
AcDbArc
 50
179.999964019746
 51
270.000000683202
  0
ARC
  5
232
330
25
100
AcDbEntity
  8
中線
 62
     1
100
AcDbCircle
 10
-160.68430209403
 20
148.197077920606
 30
0.0
 40
0.9998999735582
100
AcDbArc
 50
0.0
 51
90.000200579999
  0
ARC
  5
233
330
25
100
AcDbEntity
  8
HIDDEN
100
AcDbCircle
 10
-76.12183633476
 20
89.022986291569
 30
0.0
 40
1.4998493642858
100
AcDbArc
 50
179.999964029877
 51
255.9638526558
  0
ARC
  5
234
330
25
100
AcDbEntity
  8
中線
 62
     1
100
AcDbCircle
 10
-168.303541992729
 20
145.897299783419
 30
0.0
 40
0.2999730249197
100
AcDbArc
 50
89.999982013907
 51
179.999964029877
  0
ARC
  5
235
330
25
100
AcDbEntity
  8
中線
 62
     1
100
AcDbCircle
 10
-43.075129807024
 20
137.398156564408
 30
0.0
 40
0.1999768955327
100
AcDbArc
 50
179.999964029877
 51
270.000000683199
  0
ARC
  5
236
330
25
100
AcDbEntity
  8
中線
 62
     1
100
AcDbCircle
 10
-39.275511841376
 20
144.874385049567
 30
0.0
 40
0.4999499867791
100
AcDbArc
 50
0.0
 51
16.57179087
  0
ARC
  5
237
330
25
100
AcDbEntity
  8
中線
 62
     1
100
AcDbCircle
 10
-78.771565231926
 20
137.498125543288
 30
0.0
 40
0.1999768955327
100
AcDbArc
 50
89.9999820139
 51
179.999964029877
  0
ARC
  5
23E
330
25
100
AcDbEntity
  8
中線
 62
     1
100
AcDbCircle
 10
-149.285448196975
 20
98.525158944828
 30
0.0
 40
0.4999499867791
100
AcDbArc
 50
0.0
 51
89.9999820139
  0
ARC
  5
23F
330
25
100
AcDbEntity
  8
中線
 62
     1
100
AcDbCircle
 10
-155.084869553173
 20
98.525158944828
 30
0.0
 40
0.4999499867791
100
AcDbArc
 50
89.999982013903
 51
179.999964029877
  0
ARC
  5
240
330
25
100
AcDbEntity
  8
中線
 62
     1
100
AcDbCircle
 10
-149.285448196975
 20
54.529552163839
 30
0.0
 40
0.4999499867791
100
AcDbArc
 50
270.0008922503
 51
0.0
  0
ARC
  5
241
330
25
100
AcDbEntity
  8
中線
 62
     1
100
AcDbCircle
 10
-155.084869553173
 20
54.529552163839
 30
0.0
 40
0.4999499867791
100
AcDbArc
 50
179.999964029877
 51
270.000874947501
  0
ARC
  5
242
330
25
100
AcDbEntity
  8
中線
 62
     1
100
AcDbCircle
 10
-149.285448196975
 20
92.525748773289
 30
0.0
 40
0.4999499867791
100
AcDbArc
 50
0.0
 51
89.9999820139
  0
ARC
  5
243
330
25
100
AcDbEntity
  8
中線
 62
     1
100
AcDbCircle
 10
-155.084869553173
 20
92.525748773289
 30
0.0
 40
0.4999499867791
100
AcDbArc
 50
89.999982013903
 51
179.999964029877
  0
CIRCLE
  5
244
330
25
100
AcDbEntity
  8
中線
 62
     1
100
AcDbCircle
 10
-142.716094482936
 20
65.09849570634
 30
0.0
 40
0.4999499867791
  0
CIRCLE
  5
245
330
25
100
AcDbEntity
  8
中線
 62
     1
100
AcDbCircle
 10
-145.255835464993
 20
65.09849570634
 30
0.0
 40
0.4999499867791
  0
CIRCLE
  5
246
330
25
100
AcDbEntity
  8
中線
 62
     1
100
AcDbCircle
 10
-142.716094482936
 20
87.9561984498
 30
0.0
 40
0.4999499867791
  0
CIRCLE
  5
247
330
25
100
AcDbEntity
  8
中線
 62
     1
100
AcDbCircle
 10
-145.255835464993
 20
87.9561984498
 30
0.0
 40
0.4999499867791
  0
CIRCLE
  5
248
330
25
100
AcDbEntity
  8
中線
 62
     1
100
AcDbCircle
 10
-169.803381821191
 20
51.829830301025
 30
0.0
 40
1.1998799152307
  0
CIRCLE
  5
249
330
25
100
AcDbEntity
  8
中線
 62
     1
100
AcDbCircle
 10
-162.184158875019
 20
51.829830301025
 30
0.0
 40
1.1998799152307
  0
ARC
  5
24A
330
25
100
AcDbEntity
  8
中線
 62
     1
100
AcDbCircle
 10
-36.525797012914
 20
133.498535714826
 30
0.0
 40
0.2999730249197
100
AcDbArc
 50
179.999964029877
 51
270.0000006832
  0
ARC
  5
24B
330
25
100
AcDbEntity
  8
中線
 62
     1
100
AcDbCircle
 10
-36.325808197573
 20
133.498535714826
 30
0.0
 40
0.2999730249197
100
AcDbArc
 50
270.000017986101
 51
0.0
  0
ARC
  5
24C
330
25
100
AcDbEntity
  8
中線
 62
     1
100
AcDbCircle
 10
-168.303541992729
 20
148.197077920606
 30
0.0
 40
0.9998999735582
100
AcDbArc
 50
0.0
 51
90.000200579999
  0
ARC
  5
24D
330
25
100
AcDbEntity
  8
中線
 62
     1
100
AcDbCircle
 10
-34.625979553771
 20
150.796796899486
 30
0.0
 40
0.9998999735582
100
AcDbArc
 50
0.0
 51
89.9999820139
  0
ARC
  5
24E
330
25
100
AcDbEntity
  8
中線
 62
     1
100
AcDbCircle
 10
-169.283448196975
 20
98.525158944828
 30
0.0
 40
0.4999499867791
100
AcDbArc
 50
0.0
 51
89.9999820139
  0
ARC
  5
24F
330
25
100
AcDbEntity
  8
HIDDEN
100
AcDbCircle
 10
-55.824861786427
 20
100.424840783756
 30
0.0
 40
0.2011974765735
100
AcDbArc
 50
270.000017986102
 51
0.0
  0
ARC
  5
250
330
25
100
AcDbEntity
  8
HIDDEN
100
AcDbCircle
 10
-58.574593567415
 20
101.095770456079
 30
0.0
 40
0.067070927299827
100
AcDbArc
 50
179.999964040011
 51
270.000000683199
  0
ARC
  5
251
330
25
100
AcDbEntity
  8
HIDDEN
100
AcDbCircle
 10
-58.574593567415
 20
101.564727868759
 30
0.0
 40
0.067070927299827
100
AcDbArc
 50
89.999982013906
 51
179.999964040011
  0
ARC
  5
252
330
25
100
AcDbEntity
  8
HIDDEN
100
AcDbCircle
 10
-55.690886063228
 20
101.564727868759
 30
0.0
 40
0.067070927299827
100
AcDbArc
 50
0.0
 51
89.999982013894
  0
ARC
  5
253
330
25
100
AcDbEntity
  8
HIDDEN
100
AcDbCircle
 10
-57.06573500114
 20
100.927804940866
 30
0.0
 40
0.100606353700688
100
AcDbArc
 50
179.999964029877
 51
270.000000683199
  0
CIRCLE
  5
254
330
25
100
AcDbEntity
  8
中線
 62
     1
100
AcDbCircle
 10
-172.183158875019
 20
57.029302163839
 30
0.0
 40
1.5498444490551
  0
LINE
  5
255
330
25
100
AcDbEntity
  8
中線
 62
     3
100
AcDbLine
 10
-171.403514767671
 20
97.3652655541
 30
0.0
 11
-173.522602553255
 21
95.245481728349
 31
0.0
  0
LINE
  5
256
330
25
100
AcDbEntity
  8
中線
 62
     3
100
AcDbLine
 10
-170.726207264639
 20
56.500377539702
 30
0.0
 11
-171.654607823299
 21
55.572482392164
 31
0.0
  0
LINE
  5
25C
330
25
100
AcDbEntity
  8
中線
 62
     1
100
AcDbLine
 10
-165.923781891428
 20
84.806522943183
 30
0.0
 11
-164.42392511044
 21
84.806522943183
 31
0.0
  0
LINE
  5
25D
330
25
100
AcDbEntity
  8
中線
 62
     1
100
AcDbLine
 10
-164.42392511044
 20
88.806129724283
 30
0.0
 11
-164.42392511044
 21
84.806522943183
 31
0.0
  0
LINE
  5
25E
330
25
100
AcDbEntity
  8
中線
 62
     1
100
AcDbLine
 10
-165.503817245982
 20
83.306683114722
 30
0.0
 11
-165.503817245982
 21
82.66674263928
 31
0.0
  0
LINE
  5
25F
330
25
100
AcDbEntity
  8
中線
 62
     1
100
AcDbLine
 10
-165.503817245982
 20
85.846424096779
 30
0.0
 11
-165.503817245982
 21
85.206483621338
 31
0.0
  0
LINE
  5
260
330
25
100
AcDbEntity
  8
中線
 62
     1
100
AcDbLine
 10
-164.86387677054
 20
83.306683114722
 30
0.0
 11
-164.86387677054
 21
82.66674263928
 31
0.0
  0
LINE
  5
261
330
25
100
AcDbEntity
  8
中線
 62
     1
100
AcDbLine
 10
-164.86387677054
 20
85.846424096779
 30
0.0
 11
-164.86387677054
 21
85.206483621338
 31
0.0
  0
LINE
  5
262
330
25
100
AcDbEntity
  8
CENTER
100
AcDbLine
 10
-165.18385548458
 20
91.335868722639
 30
0.0
 11
-165.18385548458
 21
61.718842386028
 31
0.0
  0
LINE
  5
263
330
25
100
AcDbEntity
  8
中線
 62
     1
100
AcDbLine
 10
-165.503817245982
 20
82.66674263928
 30
0.0
 11
-164.86387677054
 21
82.66674263928
 31
0.0
  0
LINE
  5
264
330
25
100
AcDbEntity
  8
中線
 62
     1
100
AcDbLine
 10
-165.503817245982
 20
83.306683114722
 30
0.0
 11
-164.86387677054
 21
83.306683114722
 31
0.0
  0
LINE
  5
265
330
25
100
AcDbEntity
  8
中線
 62
     1
100
AcDbLine
 10
-165.503817245982
 20
85.206483621338
 30
0.0
 11
-164.86387677054
 21
85.206483621338
 31
0.0
  0
LINE
  5
266
330
25
100
AcDbEntity
  8
中線
 62
     1
100
AcDbLine
 10
-165.503817245982
 20
85.846424096779
 30
0.0
 11
-164.86387677054
 21
85.846424096779
 31
0.0
  0
LINE
  5
267
330
25
100
AcDbEntity
  8
中線
 62
     1
100
AcDbLine
 10
-165.503817245982
 20
87.746241555922
 30
0.0
 11
-164.86387677054
 21
87.746241555922
 31
0.0
  0
LINE
  5
268
330
25
100
AcDbEntity
  8
中線
 62
     1
100
AcDbLine
 10
-165.503817245982
 20
88.386165078837
 30
0.0
 11
-164.86387677054
 21
88.386165078837
 31
0.0
  0
LINE
  5
269
330
25
100
AcDbEntity
  8
中線
 62
     1
100
AcDbLine
 10
-164.86387677054
 20
88.386165078837
 30
0.0
 11
-164.86387677054
 21
87.746241555922
 31
0.0
  0
LINE
  5
26A
330
25
100
AcDbEntity
  8
中線
 62
     1
100
AcDbLine
 10
-165.503817245982
 20
88.386165078837
 30
0.0
 11
-165.503817245982
 21
87.746241555922
 31
0.0
  0
LINE
  5
26B
330
25
100
AcDbEntity
  8
中線
 62
     1
100
AcDbLine
 10
-166.43373048458
 20
84.256583368085
 30
0.0
 11
-163.93398048458
 21
84.256583368085
 31
0.0
  0
LINE
  5
26C
330
25
100
AcDbEntity
  8
中線
 62
     1
100
AcDbLine
 10
-166.423728500878
 20
89.306076333733
 30
0.0
 11
-163.923978500878
 21
89.306076333733
 31
0.0
  0
LINE
  5
26D
330
25
100
AcDbEntity
  8
中線
 62
     1
100
AcDbLine
 10
-166.43373048458
 20
89.3360653322
 30
0.0
 11
-163.93398048458
 21
89.3360653322
 31
0.0
  0
LINE
  5
26E
330
25
100
AcDbEntity
  8
中線
 62
     1
100
AcDbLine
 10
-166.43373048458
 20
81.716842386028
 30
0.0
 11
-163.93398048458
 21
81.716842386028
 31
0.0
  0
LINE
  5
26F
330
25
100
AcDbEntity
  8
中線
 62
     1
100
AcDbLine
 10
-166.423728500878
 20
84.306576333733
 30
0.0
 11
-163.923978500878
 21
84.306576333733
 31
0.0
  0
LINE
  5
277
330
25
100
AcDbEntity
  8
HIDDEN
100
AcDbLine
 10
-151.784197998561
 20
122.099681817772
 30
0.0
 11
-151.784197998561
 21
124.299457071024
 31
0.0
  0
LINE
  5
278
330
25
100
AcDbEntity
  8
中線
 62
     1
100
AcDbLine
 10
-151.685195313042
 20
67.378269876235
 30
0.0
 11
-150.18535548458
 21
67.378269876235
 31
0.0
  0
LINE
  5
279
330
25
100
AcDbEntity
  8
中線
 62
     1
100
AcDbLine
 10
-170.303345383279
 20
51.429869622871
 30
0.0
 11
-170.303345383279
 21
52.229774026653
 31
0.0
  0
LINE
  5
27A
330
25
100
AcDbEntity
  8
中線
 62
     1
100
AcDbLine
 10
-175.582816162623
 20
124.299457071024
 30
0.0
 11
-175.582816162623
 21
135.598325036783
 31
0.0
  0
LINE
  5
27B
330
25
100
AcDbEntity
  8
中線
 62
     1
100
AcDbLine
 10
-174.42292511044
 20
151.796707071024
 30
0.0
 11
-172.803095383279
 21
151.796707071024
 31
0.0
  0
LINE
  5
27C
330
25
100
AcDbEntity
  8
HIDDEN
100
AcDbLine
 10
-177.68260548458
 20
121.827509195089
 30
0.0
 11
-177.68260548458
 21
122.099681817772
 31
0.0
  0
LINE
  5
27D
330
25
100
AcDbEntity
  8
中線
 62
     1
100
AcDbLine
 10
-170.18335548458
 20
87.376269876235
 30
0.0
 11
-170.18335548458
 21
88.176191232432
 31
0.0
  0
LINE
  5
27E
330
25
100
AcDbEntity
  8
中線
 62
     1
100
AcDbLine
 10
-171.683195313042
 20
82.376769876235
 30
0.0
 11
-170.18335548458
 21
82.376769876235
 31
0.0
  0
LINE
  5
27F
330
25
100
AcDbEntity
  8
中線
 62
     1
100
AcDbLine
 10
-163.683999597058
 20
146.197283216187
 30
0.0
 11
-165.183843797304
 21
145.69733521221
 31
0.0
  0
LINE
  5
280
330
25
100
AcDbEntity
  8
中線
 62
     1
100
AcDbLine
 10
-171.683195313042
 20
64.878519876235
 30
0.0
 11
-171.683195313042
 21
63.178691232432
 31
0.0
  0
LINE
  5
281
330
25
100
AcDbEntity
  8
中線
 62
     1
100
AcDbLine
 10
-172.68310548458
 20
61.128894876235
 30
0.0
 11
-171.683195313042
 21
61.128894876235
 31
0.0
  0
LINE
  5
282
330
25
100
AcDbEntity
  8
中線
 62
     1
100
AcDbLine
 10
-171.683195313042
 20
74.877519876235
 30
0.0
 11
-171.683195313042
 21
73.177691232432
 31
0.0
  0
LINE
  5
283
330
25
100
AcDbEntity
  8
中線
 62
     1
100
AcDbLine
 10
-151.685195313042
 20
65.678441232432
 30
0.0
 11
-150.18535548458
 21
65.678441232432
 31
0.0
  0
LINE
  5
284
330
25
100
AcDbEntity
  8
中線
 62
     1
100
AcDbLine
 10
-151.685195313042
 20
64.878519876235
 30
0.0
 11
-150.18535548458
 21
64.878519876235
 31
0.0
  0
LINE
  5
285
330
25
100
AcDbEntity
  8
中線
 62
     1
100
AcDbLine
 10
-172.68310548458
 20
74.877519876235
 30
0.0
 11
-172.68310548458
 21
73.177691232432
 31
0.0
  0
LINE
  5
286
330
25
100
AcDbEntity
  8
中線
 62
     1
100
AcDbLine
 10
-151.565205414343
 20
138.053083062875
 30
0.0
 11
-151.565205414343
 21
151.796707071024
 31
0.0
  0
LINE
  5
287
330
25
100
AcDbEntity
  8
中線
 62
     1
100
AcDbLine
 10
-156.305712410566
 20
137.724132990394
 30
0.0
 11
-156.258720656212
 21
137.198191188945
 31
0.0
  0
LINE
  5
288
330
25
100
AcDbEntity
  8
中線
 62
     1
100
AcDbLine
 10
-153.365036942079
 20
145.897299783419
 30
0.0
 11
-153.365036942079
 21
144.697417749178
 31
0.0
  0
LINE
  5
289
330
25
100
AcDbEntity
  8
中線
 62
     1
100
AcDbLine
 10
-166.803685211741
 20
151.796707071024
 30
0.0
 11
-165.18385548458
 21
151.796707071024
 31
0.0
  0
LINE
  5
28A
330
25
100
AcDbEntity
  8
中線
 62
     1
100
AcDbLine
 10
-155.764801010672
 20
145.697327920606
 30
0.0
 11
-153.365036942079
 21
145.697327920606
 31
0.0
  0
LINE
  5
28B
330
25
100
AcDbEntity
  8
中線
 62
     1
100
AcDbLine
 10
-151.565216920747
 20
144.697413728247
 30
0.0
 11
-153.365033597524
 21
145.1973619762
 31
0.0
  0
LINE
  5
28C
330
25
100
AcDbEntity
  8
中線
 62
     1
100
AcDbLine
 10
-166.803685211741
 20
137.198167749178
 30
0.0
 11
-166.803685211741
 21
151.796707071024
 31
0.0
  0
LINE
  5
28D
330
25
100
AcDbEntity
  8
中線
 62
     1
100
AcDbLine
 10
-165.18385548458
 20
138.598021646233
 30
0.0
 11
-165.18385548458
 21
151.796707071024
 31
0.0
  0
LINE
  5
28E
330
25
100
AcDbEntity
  8
中線
 62
     1
100
AcDbLine
 10
-150.18535548458
 20
73.177691232432
 30
0.0
 11
-150.18535548458
 21
72.377769876235
 31
0.0
  0
LINE
  5
28F
330
25
100
AcDbEntity
  8
中線
 62
     1
100
AcDbLine
 10
-165.18385548458
 20
142.697614358629
 30
0.0
 11
-159.184445313042
 21
142.697614358629
 31
0.0
  0
LINE
  5
290
330
25
100
AcDbEntity
  8
中線
 62
     1
100
AcDbLine
 10
-163.18405209403
 20
139.997875543288
 30
0.0
 11
-161.184248703591
 21
139.997875543288
 31
0.0
  0
LINE
  5
291
330
25
100
AcDbEntity
  8
中線
 62
     1
100
AcDbLine
 10
-166.43373048458
 20
71.337868722639
 30
0.0
 11
-166.43373048458
 21
63.718645776467
 31
0.0
  0
LINE
  5
292
330
25
100
AcDbEntity
  8
中線
 62
     1
100
AcDbLine
 10
-165.18385548458
 20
144.697417749178
 30
0.0
 11
-159.184445313042
 21
144.697417749178
 31
0.0
  0
LINE
  5
293
330
25
100
AcDbEntity
  8
中線
 62
     1
100
AcDbLine
 10
-160.18435548458
 20
144.697417749178
 30
0.0
 11
-160.18435548458
 21
143.697524530167
 31
0.0
  0
LINE
  5
294
330
25
100
AcDbEntity
  8
中線
 62
     1
100
AcDbLine
 10
-162.584119553173
 20
147.897103173969
 30
0.0
 11
-162.584119553173
 21
149.196971139617
 31
0.0
  0
LINE
  5
295
330
25
100
AcDbEntity
  8
中線
 62
     1
100
AcDbLine
 10
-156.064758804892
 20
149.196971139617
 30
0.0
 11
-154.964879654474
 21
149.196971139617
 31
0.0
  0
LINE
  5
296
330
25
100
AcDbEntity
  8
中線
 62
     1
100
AcDbLine
 10
-161.184248703591
 20
139.997875543288
 30
0.0
 11
-161.184248703591
 21
141.197774530167
 31
0.0
  0
LINE
  5
297
330
25
100
AcDbEntity
  8
中線
 62
     1
100
AcDbLine
 10
-171.683195313042
 20
83.176691232432
 30
0.0
 11
-171.683195313042
 21
84.876519876235
 31
0.0
  0
LINE
  5
299
330
25
100
AcDbEntity
  8
中線
 62
     1
100
AcDbLine
 10
-172.68310548458
 20
78.177191232432
 30
0.0
 11
-172.68310548458
 21
79.877019876235
 31
0.0
  0
LINE
  5
29A
330
25
100
AcDbEntity
  8
中線
 62
     1
100
AcDbLine
 10
-64.632981537362
 20
137.198167749178
 30
0.0
 11
-64.632981537362
 21
141.197774530167
 31
0.0
  0
LINE
  5
29B
330
25
100
AcDbEntity
  8
中線
 62
     1
100
AcDbLine
 10
-65.232931030857
 20
137.198167749178
 30
0.0
 11
-65.232931030857
 21
141.197774530167
 31
0.0
  0
LINE
  5
29C
330
25
100
AcDbEntity
  8
中線
 62
     1
100
AcDbLine
 10
-33.62608633476
 20
135.598325036783
 30
0.0
 11
-33.62608633476
 21
137.198167749178
 31
0.0
  0
LINE
  5
29D
330
25
100
AcDbEntity
  8
中線
 62
     1
100
AcDbLine
 10
-154.184945313042
 20
65.678441232432
 30
0.0
 11
-152.68510548458
 21
65.678441232432
 31
0.0
  0
LINE
  5
29E
330
25
100
AcDbEntity
  8
中線
 62
     1
100
AcDbLine
 10
-154.184945313042
 20
88.176191232432
 30
0.0
 11
-152.68510548458
 21
88.176191232432
 31
0.0
  0
LINE
  5
29F
330
25
100
AcDbEntity
  8
中線
 62
     1
100
AcDbLine
 10
-154.184945313042
 20
64.878519876235
 30
0.0
 11
-152.68510548458
 21
64.878519876235
 31
0.0
  0
LINE
  5
2A0
330
25
100
AcDbEntity
  8
中線
 62
     1
100
AcDbLine
 10
-150.18535548458
 20
65.678441232432
 30
0.0
 11
-150.18535548458
 21
64.878519876235
 31
0.0
  0
LINE
  5
2A1
330
25
100
AcDbEntity
  8
中線
 62
     1
100
AcDbLine
 10
-150.18535548458
 20
87.376269876235
 30
0.0
 11
-150.18535548458
 21
88.176191232432
 31
0.0
  0
LINE
  5
2A2
330
25
100
AcDbEntity
  8
中線
 62
     1
100
AcDbLine
 10
-154.184945313042
 20
65.678441232432
 30
0.0
 11
-154.184945313042
 21
64.878519876235
 31
0.0
  0
LINE
  5
2A3
330
25
100
AcDbEntity
  8
中線
 62
     1
100
AcDbLine
 10
-151.685195313042
 20
63.178691232432
 30
0.0
 11
-150.18535548458
 21
63.178691232432
 31
0.0
  0
LINE
  5
2A4
330
25
100
AcDbEntity
  8
中線
 62
     1
100
AcDbLine
 10
-154.184945313042
 20
87.376269876235
 30
0.0
 11
-154.184945313042
 21
88.176191232432
 31
0.0
  0
LINE
  5
2A5
330
25
100
AcDbEntity
  8
中線
 62
     1
100
AcDbLine
 10
-38.125639725309
 20
142.197667749178
 30
0.0
 11
-38.125639725309
 21
137.198167749178
 31
0.0
  0
LINE
  5
2A6
330
25
100
AcDbEntity
  8
中線
 62
     1
100
AcDbLine
 10
-152.565115585881
 20
144.697417749178
 30
0.0
 11
-152.565115585881
 21
143.697524530167
 31
0.0
  0
LINE
  5
2A7
330
25
100
AcDbEntity
  8
中線
 62
     1
100
AcDbLine
 10
-151.685195313042
 20
89.876019876235
 30
0.0
 11
-150.18535548458
 21
89.876019876235
 31
0.0
  0
LINE
  5
2A8
330
25
100
AcDbEntity
  8
中線
 62
     1
100
AcDbLine
 10
-151.685195313042
 20
69.878019876235
 30
0.0
 11
-151.685195313042
 21
68.178191232432
 31
0.0
  0
LINE
  5
2A9
330
25
100
AcDbEntity
  8
中線
 62
     1
100
AcDbLine
 10
-163.93398048458
 20
71.337868722639
 30
0.0
 11
-163.93398048458
 21
63.718645776467
 31
0.0
  0
LINE
  5
2AA
330
25
100
AcDbEntity
  8
中線
 62
     1
100
AcDbLine
 10
-168.783484634998
 20
129.598931817772
 30
0.0
 11
-175.582816162623
 21
129.598931817772
 31
0.0
  0
LINE
  5
2AB
330
25
100
AcDbEntity
  8
中線
 62
     1
100
AcDbLine
 10
-152.68510548458
 20
69.878019876235
 30
0.0
 11
-152.68510548458
 21
68.178191232432
 31
0.0
  0
LINE
  5
2AC
330
25
100
AcDbEntity
  8
CENTER
100
AcDbLine
 10
-145.255835464993
 20
90.495956384384
 30
0.0
 11
-145.255835464993
 21
62.558754724283
 31
0.0
  0
LINE
  5
2AD
330
25
100
AcDbEntity
  8
CENTER
100
AcDbLine
 10
-146.396722748299
 20
75.257493539513
 30
0.0
 11
-141.517212646998
 21
75.257493539513
 31
0.0
  0
LINE
  5
2AE
330
25
100
AcDbEntity
  8
CENTER
100
AcDbLine
 10
-146.396722748299
 20
72.717735604928
 30
0.0
 11
-141.517212646998
 21
72.717735604928
 31
0.0
  0
LINE
  5
2AF
330
25
100
AcDbEntity
  8
CENTER
100
AcDbLine
 10
-146.396722748299
 20
70.177994622871
 30
0.0
 11
-141.517212646998
 21
70.177994622871
 31
0.0
  0
LINE
  5
2B0
330
25
100
AcDbEntity
  8
CENTER
100
AcDbLine
 10
-146.396722748299
 20
67.638253640814
 30
0.0
 11
-141.517212646998
 21
67.638253640814
 31
0.0
  0
LINE
  5
2B1
330
25
100
AcDbEntity
  8
CENTER
100
AcDbLine
 10
-146.396722748299
 20
65.09849570634
 30
0.0
 11
-141.517212646998
 21
65.09849570634
 31
0.0
  0
LINE
  5
2B2
330
25
100
AcDbEntity
  8
CENTER
100
AcDbLine
 10
-146.396722748299
 20
80.336975503627
 30
0.0
 11
-141.517212646998
 21
80.336975503627
 31
0.0
  0
LINE
  5
2B3
330
25
100
AcDbEntity
  8
中線
 62
     1
100
AcDbLine
 10
-154.184945313042
 20
82.376769876235
 30
0.0
 11
-152.68510548458
 21
82.376769876235
 31
0.0
  0
LINE
  5
2B4
330
25
100
AcDbEntity
  8
中線
 62
     1
100
AcDbLine
 10
-77.891661911613
 20
155.196364358629
 30
0.0
 11
-77.891661911613
 21
142.697614358629
 31
0.0
  0
LINE
  5
2B5
330
25
100
AcDbEntity
  8
中線
 62
     1
100
AcDbLine
 10
-154.184945313042
 20
83.176691232432
 30
0.0
 11
-152.68510548458
 21
83.176691232432
 31
0.0
  0
LINE
  5
2B6
330
25
100
AcDbEntity
  8
中線
 62
     1
100
AcDbLine
 10
-171.683195313042
 20
69.878019876235
 30
0.0
 11
-170.18335548458
 21
69.878019876235
 31
0.0
  0
LINE
  5
2B7
330
25
100
AcDbEntity
  8
中線
 62
     1
100
AcDbLine
 10
-174.182945313042
 20
70.677941232432
 30
0.0
 11
-172.68310548458
 21
70.677941232432
 31
0.0
  0
LINE
  5
2B8
330
25
100
AcDbEntity
  8
中線
 62
     1
100
AcDbLine
 10
-44.624979553771
 20
134.598431817772
 30
0.0
 11
-49.339507782576
 21
134.598431817772
 31
0.0
  0
LINE
  5
2B9
330
25
100
AcDbEntity
  8
中線
 62
     1
100
AcDbLine
 10
-44.624979553771
 20
134.598431817772
 30
0.0
 11
-44.624979553771
 21
135.598325036783
 31
0.0
  0
LINE
  5
2BA
330
25
100
AcDbEntity
  8
中線
 62
     1
100
AcDbLine
 10
-77.621693115748
 20
134.598431817772
 30
0.0
 11
-77.621693115748
 21
135.598325036783
 31
0.0
  0
LINE
  5
2BB
330
25
100
AcDbEntity
  8
中線
 62
     1
100
AcDbLine
 10
-174.182945313042
 20
69.878019876235
 30
0.0
 11
-172.68310548458
 21
69.878019876235
 31
0.0
  0
LINE
  5
2BC
330
25
100
AcDbEntity
  8
中線
 62
     1
100
AcDbLine
 10
-170.18335548458
 20
70.677941232432
 30
0.0
 11
-170.18335548458
 21
69.878019876235
 31
0.0
  0
LINE
  5
2BD
330
25
100
AcDbEntity
  8
中線
 62
     1
100
AcDbLine
 10
-174.182945313042
 20
70.677941232432
 30
0.0
 11
-174.182945313042
 21
69.878019876235
 31
0.0
  0
LINE
  5
2BE
330
25
100
AcDbEntity
  8
中線
 62
     1
100
AcDbLine
 10
-171.683195313042
 20
68.178191232432
 30
0.0
 11
-170.18335548458
 21
68.178191232432
 31
0.0
  0
LINE
  5
2BF
330
25
100
AcDbEntity
  8
中線
 62
     1
100
AcDbLine
 10
-151.685195313042
 20
62.378769876235
 30
0.0
 11
-150.18535548458
 21
62.378769876235
 31
0.0
  0
LINE
  5
2C0
330
25
100
AcDbEntity
  8
中線
 62
     1
100
AcDbLine
 10
-36.825754807024
 20
133.498535714826
 30
0.0
 11
-36.825754807024
 21
134.598431817772
 31
0.0
  0
LINE
  5
2C1
330
25
100
AcDbEntity
  8
中線
 62
     1
100
AcDbLine
 10
-35.525895825811
 20
135.598321530245
 30
0.0
 11
-36.025850914968
 21
134.598411351929
 31
0.0
  0
LINE
  5
2C2
330
25
100
AcDbEntity
  8
中線
 62
     1
100
AcDbLine
 10
-74.044046902927
 20
161.106782140407
 30
0.0
 11
-73.344121778662
 21
160.795809416456
 31
0.0
  0
LINE
  5
2C3
330
25
100
AcDbEntity
  8
中線
 62
     1
100
AcDbLine
 10
-75.943871751553
 20
159.75392705489
 30
0.0
 11
-74.163049916102
 21
159.611943522885
 31
0.0
  0
LINE
  5
2C4
330
25
100
AcDbEntity
  8
中線
 62
     1
100
AcDbLine
 10
-174.182945313042
 20
73.177691232432
 30
0.0
 11
-172.68310548458
 21
73.177691232432
 31
0.0
  0
LINE
  5
2C5
330
25
100
AcDbEntity
  8
HIDDEN
100
AcDbLine
 10
-156.43473048458
 20
122.099681817772
 30
0.0
 11
-156.43473048458
 21
135.598325036783
 31
0.0
  0
LINE
  5
2C6
330
25
100
AcDbEntity
  8
中線
 62
     1
100
AcDbLine
 10
-150.18535548458
 20
82.376769876235
 30
0.0
 11
-150.18535548458
 21
83.176691232432
 31
0.0
  0
LINE
  5
2C7
330
25
100
AcDbEntity
  8
中線
 62
     1
100
AcDbLine
 10
-154.184945313042
 20
82.376769876235
 30
0.0
 11
-154.184945313042
 21
83.176691232432
 31
0.0
  0
LINE
  5
2C8
330
25
100
AcDbEntity
  8
中線
 62
     1
100
AcDbLine
 10
-154.184945313042
 20
67.378269876235
 30
0.0
 11
-152.68510548458
 21
67.378269876235
 31
0.0
  0
LINE
  5
2C9
330
25
100
AcDbEntity
  8
中線
 62
     1
100
AcDbLine
 10
-172.803095383279
 20
144.697417749178
 30
0.0
 11
-166.803685211741
 21
144.697417749178
 31
0.0
  0
LINE
  5
2CA
330
25
100
AcDbEntity
  8
中線
 62
     1
100
AcDbLine
 10
-74.691993439238
 20
142.197667749178
 30
0.0
 11
-74.691993439238
 21
137.698114358629
 31
0.0
  0
LINE
  5
2CB
330
25
100
AcDbEntity
  8
中線
 62
     1
100
AcDbLine
 10
-151.685195313042
 20
84.876519876235
 30
0.0
 11
-150.18535548458
 21
84.876519876235
 31
0.0
  0
LINE
  5
2CC
330
25
100
AcDbEntity
  8
中線
 62
     1
100
AcDbLine
 10
-151.685195313042
 20
85.676441232432
 30
0.0
 11
-150.18535548458
 21
85.676441232432
 31
0.0
  0
LINE
  5
2CD
330
25
100
AcDbEntity
  8
中線
 62
     1
100
AcDbLine
 10
-154.184945313042
 20
84.876519876235
 30
0.0
 11
-152.68510548458
 21
84.876519876235
 31
0.0
  0
LINE
  5
2CE
330
25
100
AcDbEntity
  8
中線
 62
     1
100
AcDbLine
 10
-154.184945313042
 20
85.676441232432
 30
0.0
 11
-152.68510548458
 21
85.676441232432
 31
0.0
  0
LINE
  5
2CF
330
25
100
AcDbEntity
  8
中線
 62
     1
100
AcDbLine
 10
-171.683195313042
 20
67.378269876235
 30
0.0
 11
-171.683195313042
 21
65.678441232432
 31
0.0
  0
LINE
  5
2D0
330
25
100
AcDbEntity
  8
中線
 62
     1
100
AcDbLine
 10
-172.68310548458
 20
69.878019876235
 30
0.0
 11
-172.68310548458
 21
68.178191232432
 31
0.0
  0
LINE
  5
2D1
330
25
100
AcDbEntity
  8
中線
 62
     1
100
AcDbLine
 10
-172.68310548458
 20
67.378269876235
 30
0.0
 11
-172.68310548458
 21
65.678441232432
 31
0.0
  0
LINE
  5
2D2
330
25
100
AcDbEntity
  8
中線
 62
     1
100
AcDbLine
 10
-171.683195313042
 20
72.377769876235
 30
0.0
 11
-171.683195313042
 21
70.677941232432
 31
0.0
  0
LINE
  5
2D3
330
25
100
AcDbEntity
  8
中線
 62
     1
100
AcDbLine
 10
-172.68310548458
 20
72.377769876235
 30
0.0
 11
-172.68310548458
 21
70.677941232432
 31
0.0
  0
LINE
  5
2D4
330
25
100
AcDbEntity
  8
中線
 62
     1
100
AcDbLine
 10
-78.89157208304
 20
142.697614358629
 30
0.0
 11
-80.891358521063
 21
142.697614358629
 31
0.0
  0
LINE
  5
2D5
330
25
100
AcDbEntity
  8
中線
 62
     1
100
AcDbLine
 10
-78.89157208304
 20
155.196364358629
 30
0.0
 11
-78.89157208304
 21
142.697614358629
 31
0.0
  0
LINE
  5
2D6
330
25
100
AcDbEntity
  8
中線
 62
     1
100
AcDbLine
 10
-75.891858521063
 20
142.697614358629
 30
0.0
 11
-77.891661911613
 21
142.697614358629
 31
0.0
  0
LINE
  5
2D7
330
25
100
AcDbEntity
  8
中線
 62
     1
100
AcDbLine
 10
-46.354814148456
 20
142.697614358629
 30
0.0
 11
-44.355010758017
 21
142.697614358629
 31
0.0
  0
LINE
  5
2D8
330
25
100
AcDbEntity
  8
HIDDEN
100
AcDbLine
 10
-58.678580292258
 20
119.215957360946
 30
0.0
 11
-63.567092178846
 21
119.215957360946
 31
0.0
  0
LINE
  5
2D9
330
25
100
AcDbEntity
  8
中線
 62
     1
100
AcDbLine
 10
-171.683195313042
 20
69.878019876235
 30
0.0
 11
-171.683195313042
 21
68.178191232432
 31
0.0
  0
LINE
  5
2DA
330
25
100
AcDbEntity
  8
中線
 62
     1
100
AcDbLine
 10
-150.18535548458
 20
70.677941232432
 30
0.0
 11
-150.18535548458
 21
69.878019876235
 31
0.0
  0
LINE
  5
2DB
330
25
100
AcDbEntity
  8
CENTER
100
AcDbLine
 10
-146.396722748299
 20
85.416474420269
 30
0.0
 11
-141.517212646998
 21
85.416474420269
 31
0.0
  0
LINE
  5
2DC
330
25
100
AcDbEntity
  8
中線
 62
     1
100
AcDbLine
 10
-151.685195313042
 20
62.378769876235
 30
0.0
 11
-151.685195313042
 21
61.128894876235
 31
0.0
  0
LINE
  5
2DD
330
25
100
AcDbEntity
  8
中線
 62
     1
100
AcDbLine
 10
-152.68510548458
 20
62.378769876235
 30
0.0
 11
-152.68510548458
 21
61.128894876235
 31
0.0
  0
LINE
  5
2DE
330
25
100
AcDbEntity
  8
CENTER
100
AcDbLine
 10
-146.396722748299
 20
87.9561984498
 30
0.0
 11
-141.517212646998
 21
87.9561984498
 31
0.0
  0
LINE
  5
2DF
330
25
100
AcDbEntity
  8
中線
 62
     1
100
AcDbLine
 10
-154.184945313042
 20
63.178691232432
 30
0.0
 11
-152.68510548458
 21
63.178691232432
 31
0.0
  0
LINE
  5
2E0
330
25
100
AcDbEntity
  8
CENTER
100
AcDbLine
 10
-177.182658875019
 20
57.029302163839
 30
0.0
 11
-147.285644806425
 21
57.029302163839
 31
0.0
  0
LINE
  5
2E1
330
25
100
AcDbEntity
  8
CENTER
100
AcDbLine
 10
-177.182658875019
 20
96.025408944828
 30
0.0
 11
-147.285644806425
 21
96.025408944828
 31
0.0
  0
LINE
  5
2E2
330
25
100
AcDbEntity
  8
中線
 62
     3
100
AcDbLine
 10
-171.403514880993
 20
58.369171203535
 30
0.0
 11
-173.522594426734
 21
56.249395620404
 31
0.0
  0
LINE
  5
2E3
330
25
100
AcDbEntity
  8
中線
 62
     1
100
AcDbLine
 10
-162.284144806426
 20
133.198577920606
 30
0.0
 11
-161.93417709403
 21
133.198577920606
 31
0.0
  0
LINE
  5
2E4
330
25
100
AcDbEntity
  8
中線
 62
     1
100
AcDbLine
 10
-152.68510548458
 20
67.378269876235
 30
0.0
 11
-152.68510548458
 21
65.678441232432
 31
0.0
  0
LINE
  5
2E5
330
25
100
AcDbEntity
  8
CENTER
100
AcDbLine
 10
-136.186748703591
 20
76.527355554278
 30
0.0
 11
-178.18255209403
 21
76.527355554278
 31
0.0
  0
LINE
  5
2E6
330
25
100
AcDbEntity
  8
CENTER
100
AcDbLine
 10
-142.716094482936
 20
90.495956384384
 30
0.0
 11
-142.716094482936
 21
62.558754724283
 31
0.0
  0
LINE
  5
2E7
330
25
100
AcDbEntity
  8
CENTER
100
AcDbLine
 10
-146.396722748299
 20
82.876716485685
 30
0.0
 11
-141.517212646998
 21
82.876716485685
 31
0.0
  0
LINE
  5
2E8
330
25
100
AcDbEntity
  8
CENTER
100
AcDbLine
 10
-172.183158875019
 20
93.725630807641
 30
0.0
 11
-172.183158875019
 21
100.524962335266
 31
0.0
  0
LINE
  5
2E9
330
25
100
AcDbEntity
  8
CENTER
100
AcDbLine
 10
-152.185158875019
 20
93.725630807641
 30
0.0
 11
-152.185158875019
 21
100.524962335266
 31
0.0
  0
LINE
  5
2EA
330
25
100
AcDbEntity
  8
CENTER
100
AcDbLine
 10
-143.985973450228
 20
94.004618341209
 30
0.0
 11
-143.985973450228
 21
58.899113671988
 31
0.0
  0
LINE
  5
2EB
330
25
100
AcDbEntity
  8
中線
 62
     1
100
AcDbLine
 10
-138.18655209403
 20
49.030105554278
 30
0.0
 11
-138.18655209403
 21
99.025105554278
 31
0.0
  0
LINE
  5
2EC
330
25
100
AcDbEntity
  8
中線
 62
     1
100
AcDbLine
 10
-176.182748703591
 20
49.030105554278
 30
0.0
 11
-138.18655209403
 21
49.030105554278
 31
0.0
  0
LINE
  5
2ED
330
25
100
AcDbEntity
  8
CENTER
100
AcDbLine
 10
-146.396722748299
 20
77.797217569043
 30
0.0
 11
-141.517212646998
 21
77.797217569043
 31
0.0
  0
LINE
  5
2EE
330
25
100
AcDbEntity
  8
中線
 62
     1
100
AcDbLine
 10
-171.683195313042
 20
67.378269876235
 30
0.0
 11
-170.18335548458
 21
67.378269876235
 31
0.0
  0
LINE
  5
2EF
330
25
100
AcDbEntity
  8
中線
 62
     1
100
AcDbLine
 10
-154.184945313042
 20
62.378769876235
 30
0.0
 11
-152.68510548458
 21
62.378769876235
 31
0.0
  0
LINE
  5
2F0
330
25
100
AcDbEntity
  8
中線
 62
     1
100
AcDbLine
 10
-174.182945313042
 20
68.178191232432
 30
0.0
 11
-172.68310548458
 21
68.178191232432
 31
0.0
  0
LINE
  5
2F1
330
25
100
AcDbEntity
  8
中線
 62
     1
100
AcDbLine
 10
-174.182945313042
 20
67.378269876235
 30
0.0
 11
-172.68310548458
 21
67.378269876235
 31
0.0
  0
LINE
  5
2F2
330
25
100
AcDbEntity
  8
中線
 62
     1
100
AcDbLine
 10
-170.18335548458
 20
68.178191232432
 30
0.0
 11
-170.18335548458
 21
67.378269876235
 31
0.0
  0
LINE
  5
2F3
330
25
100
AcDbEntity
  8
中線
 62
     1
100
AcDbLine
 10
-171.683195313042
 20
90.675941232432
 30
0.0
 11
-171.683195313042
 21
91.925816232432
 31
0.0
  0
LINE
  5
2F4
330
25
100
AcDbEntity
  8
中線
 62
     1
100
AcDbLine
 10
-155.064865585881
 20
51.429869622871
 30
0.0
 11
-154.064955414343
 21
51.429869622871
 31
0.0
  0
LINE
  5
2F5
330
25
100
AcDbEntity
  8
中線
 62
     1
100
AcDbLine
 10
-154.184945313042
 20
70.677941232432
 30
0.0
 11
-154.184945313042
 21
69.878019876235
 31
0.0
  0
LINE
  5
2F6
330
25
100
AcDbEntity
  8
中線
 62
     1
100
AcDbLine
 10
-174.182945313042
 20
79.877019876235
 30
0.0
 11
-174.182945313042
 21
80.676941232432
 31
0.0
  0
LINE
  5
2F7
330
25
100
AcDbEntity
  8
中線
 62
     1
100
AcDbLine
 10
-170.18335548458
 20
79.877019876235
 30
0.0
 11
-170.18335548458
 21
80.676941232432
 31
0.0
  0
LINE
  5
2F8
330
25
100
AcDbEntity
  8
中線
 62
     1
100
AcDbLine
 10
-172.68310548458
 20
90.675941232432
 30
0.0
 11
-172.68310548458
 21
91.925816232432
 31
0.0
  0
LINE
  5
2F9
330
25
100
AcDbEntity
  8
中線
 62
     1
100
AcDbLine
 10
-169.303435211741
 20
51.429869622871
 30
0.0
 11
-169.303435211741
 21
52.229774026653
 31
0.0
  0
LINE
  5
2FA
330
25
100
AcDbEntity
  8
HIDDEN
100
AcDbLine
 10
-135.685801895727
 20
122.099681817772
 30
0.0
 11
-133.684998306873
 21
122.099681817772
 31
0.0
  0
LINE
  5
2FB
330
25
100
AcDbEntity
  8
HIDDEN
100
AcDbLine
 10
-135.685801895727
 20
120.397428964303
 30
0.0
 11
-135.685801895727
 21
122.099681817772
 31
0.0
  0
LINE
  5
2FC
330
25
100
AcDbEntity
  8
中線
 62
     1
100
AcDbLine
 10
-151.485223450228
 20
138.244053140402
 30
0.0
 11
-151.485223450228
 21
139.597931817772
 31
0.0
  0
LINE
  5
2FD
330
25
100
AcDbEntity
  8
中線
 62
     1
100
AcDbLine
 10
-171.683195313042
 20
89.876019876235
 30
0.0
 11
-170.18335548458
 21
89.876019876235
 31
0.0
  0
LINE
  5
2FE
330
25
100
AcDbEntity
  8
中線
 62
     1
100
AcDbLine
 10
-172.303131821191
 20
146.897193002431
 30
0.0
 11
-167.303631821191
 21
146.897193002431
 31
0.0
  0
LINE
  5
2FF
330
25
100
AcDbEntity
  8
中線
 62
     1
100
AcDbLine
 10
-145.575814179033
 20
134.198471139617
 30
0.0
 11
-144.935873703591
 21
134.198471139617
 31
0.0
  0
LINE
  5
300
330
25
100
AcDbEntity
  8
HIDDEN
100
AcDbLine
 10
-63.873068115748
 20
122.099681817772
 30
0.0
 11
-58.373604553771
 21
122.099681817772
 31
0.0
  0
LINE
  5
301
330
25
100
AcDbEntity
  8
中線
 62
     1
100
AcDbLine
 10
-152.885084915192
 20
138.28208099368
 30
0.0
 11
-152.407135873543
 21
137.198189716537
 31
0.0
  0
LINE
  5
302
330
25
100
AcDbEntity
  8
中線
 62
     1
100
AcDbLine
 10
-172.68310548458
 20
76.527355554278
 30
0.0
 11
-172.68310548458
 21
75.677441232432
 31
0.0
  0
LINE
  5
303
330
25
100
AcDbEntity
  8
中線
 62
     1
100
AcDbLine
 10
-152.885077347394
 20
138.282060678268
 30
0.0
 11
-152.885077347394
 21
139.597931817772
 31
0.0
  0
LINE
  5
304
330
25
100
AcDbEntity
  8
中線
 62
     1
100
AcDbLine
 10
-145.575811393867
 20
134.539425258795
 30
0.0
 11
-146.201743214425
 21
135.598316571852
 31
0.0
  0
LINE
  5
305
330
25
100
AcDbEntity
  8
中線
 62
     1
100
AcDbLine
 10
-160.68430209403
 20
149.196971139617
 30
0.0
 11
-161.784198196975
 21
149.196971139617
 31
0.0
  0
LINE
  5
306
330
25
100
AcDbEntity
  8
中線
 62
     1
100
AcDbLine
 10
-174.182945313042
 20
80.676941232432
 30
0.0
 11
-172.68310548458
 21
80.676941232432
 31
0.0
  0
LINE
  5
307
330
25
100
AcDbEntity
  8
中線
 62
     1
100
AcDbLine
 10
-154.064955414343
 20
146.197274530167
 30
0.0
 11
-154.064955414343
 21
146.897193002431
 31
0.0
  0
LINE
  5
308
330
25
100
AcDbEntity
  8
中線
 62
     1
100
AcDbLine
 10
-144.935888105818
 20
134.588413406602
 30
0.0
 11
-144.329940356764
 21
135.598316212999
 31
0.0
  0
LINE
  5
309
330
25
100
AcDbEntity
  8
中線
 62
     1
100
AcDbLine
 10
-174.182945313042
 20
79.877019876235
 30
0.0
 11
-172.68310548458
 21
79.877019876235
 31
0.0
  0
LINE
  5
30A
330
25
100
AcDbEntity
  8
中線
 62
     1
100
AcDbLine
 10
-171.683195313042
 20
75.677441232432
 30
0.0
 11
-170.18335548458
 21
75.677441232432
 31
0.0
  0
LINE
  5
30B
330
25
100
AcDbEntity
  8
中線
 62
     1
100
AcDbLine
 10
-152.065168976431
 20
146.197274530167
 30
0.0
 11
-157.064668976431
 21
146.197274530167
 31
0.0
  0
LINE
  5
30C
330
25
100
AcDbEntity
  8
中線
 62
     1
100
AcDbLine
 10
-174.182945313042
 20
89.876019876235
 30
0.0
 11
-174.182945313042
 21
90.675941232432
 31
0.0
  0
LINE
  5
30D
330
25
100
AcDbEntity
  8
中線
 62
     1
100
AcDbLine
 10
-170.303345383279
 20
52.229774026653
 30
0.0
 11
-169.303435211741
 21
52.229774026653
 31
0.0
  0
LINE
  5
30E
330
25
100
AcDbEntity
  8
中線
 62
     1
100
AcDbLine
 10
-170.18335548458
 20
89.876019876235
 30
0.0
 11
-170.18335548458
 21
90.675941232432
 31
0.0
  0
LINE
  5
30F
330
25
100
AcDbEntity
  8
中線
 62
     1
100
AcDbLine
 10
-157.564615585881
 20
142.697614358629
 30
0.0
 11
-151.565205414343
 21
142.697614358629
 31
0.0
  0
LINE
  5
310
330
25
100
AcDbEntity
  8
中線
 62
     1
100
AcDbLine
 10
-83.62108633476
 20
135.598325036783
 30
0.0
 11
-83.62108633476
 21
137.198167749178
 31
0.0
  0
LINE
  5
311
330
25
100
AcDbEntity
  8
中線
 62
     1
100
AcDbLine
 10
-33.62608633476
 20
135.598325036783
 30
0.0
 11
-83.62108633476
 21
135.598325036783
 31
0.0
  0
LINE
  5
312
330
25
100
AcDbEntity
  8
中線
 62
     1
100
AcDbLine
 10
-33.62608633476
 20
137.198167749178
 30
0.0
 11
-83.62108633476
 21
137.198167749178
 31
0.0
  0
LINE
  5
313
330
25
100
AcDbEntity
  8
中線
 62
     1
100
AcDbLine
 10
-151.685195313042
 20
90.675941232432
 30
0.0
 11
-150.18535548458
 21
90.675941232432
 31
0.0
  0
LINE
  5
314
330
25
100
AcDbEntity
  8
中線
 62
     1
100
AcDbLine
 10
-83.471107437705
 20
144.874385049567
 30
0.0
 11
-83.471107437705
 21
137.198167749178
 31
0.0
  0
LINE
  5
315
330
25
100
AcDbEntity
  8
中線
 62
     1
100
AcDbLine
 10
-45.578880600571
 20
155.196364358629
 30
0.0
 11
-42.19722688354
 21
155.196364358629
 31
0.0
  0
LINE
  5
316
330
25
100
AcDbEntity
  8
中線
 62
     1
100
AcDbLine
 10
-44.355010758017
 20
155.196364358629
 30
0.0
 11
-44.355010758017
 21
142.697614358629
 31
0.0
  0
LINE
  5
317
330
25
100
AcDbEntity
  8
中線
 62
     1
100
AcDbLine
 10
-38.775578751796
 20
144.947391672619
 30
0.0
 11
-41.71829548647
 21
154.838409549245
 31
0.0
  0
LINE
  5
318
330
25
100
AcDbEntity
  8
中線
 62
     1
100
AcDbLine
 10
-83.450101824921
 20
145.017381814128
 30
0.0
 11
-80.527404740637
 21
154.838408163939
 31
0.0
  0
LINE
  5
319
330
25
100
AcDbEntity
  8
中線
 62
     1
100
AcDbLine
 10
-80.048445587675
 20
155.196364358629
 30
0.0
 11
-76.666774918118
 21
155.196364358629
 31
0.0
  0
LINE
  5
31A
330
25
100
AcDbEntity
  8
中線
 62
     1
100
AcDbLine
 10
-75.190922897858
 20
151.096771646233
 30
0.0
 11
-47.054732620831
 21
151.096771646233
 31
0.0
  0
LINE
  5
31B
330
25
100
AcDbEntity
  8
中線
 62
     1
100
AcDbLine
 10
-46.560817537835
 20
151.522699175443
 30
0.0
 11
-46.07285778269
 21
154.770389040421
 31
0.0
  0
LINE
  5
31C
330
25
100
AcDbEntity
  8
中線
 62
     1
100
AcDbLine
 10
-76.172816159601
 20
154.770401161875
 30
0.0
 11
-75.684873394424
 21
151.521731644761
 31
0.0
  0
LINE
  5
31D
330
25
100
AcDbEntity
  8
中線
 62
     1
100
AcDbLine
 10
-33.62608633476
 20
150.796796899486
 30
0.0
 11
-33.62608633476
 21
137.198167749178
 31
0.0
  0
LINE
  5
31E
330
25
100
AcDbEntity
  8
中線
 62
     1
100
AcDbLine
 10
-78.971554047155
 20
137.398156564408
 30
0.0
 11
-78.971554047155
 21
137.498125543288
 31
0.0
  0
LINE
  5
31F
330
25
100
AcDbEntity
  8
中線
 62
     1
100
AcDbLine
 10
-161.784198196975
 20
147.897103173969
 30
0.0
 11
-161.784198196975
 21
149.196971139617
 31
0.0
  0
LINE
  5
320
330
25
100
AcDbEntity
  8
中線
 62
     1
100
AcDbLine
 10
-157.564615585881
 20
151.796707071024
 30
0.0
 11
-157.564615585881
 21
139.228960336388
 31
0.0
  0
LINE
  5
321
330
25
100
AcDbEntity
  8
中線
 62
     1
100
AcDbLine
 10
-40.81337616023
 20
151.796707071024
 30
0.0
 11
-34.625979553771
 21
151.796707071024
 31
0.0
  0
LINE
  5
322
330
25
100
AcDbEntity
  8
中線
 62
     1
100
AcDbLine
 10
-174.182945313042
 20
90.675941232432
 30
0.0
 11
-172.68310548458
 21
90.675941232432
 31
0.0
  0
LINE
  5
323
330
25
100
AcDbEntity
  8
中線
 62
     1
100
AcDbLine
 10
-38.775565231926
 20
144.947399530167
 30
0.0
 11
-38.775565231926
 21
137.198167749178
 31
0.0
  0
LINE
  5
324
330
25
100
AcDbEntity
  8
中線
 62
     1
100
AcDbLine
 10
-172.803095383279
 20
142.697614358629
 30
0.0
 11
-166.803685211741
 21
142.697614358629
 31
0.0
  0
LINE
  5
325
330
25
100
AcDbEntity
  8
中線
 62
     1
100
AcDbLine
 10
-80.891358521063
 20
142.697614358629
 30
0.0
 11
-80.891358521063
 21
137.198167749178
 31
0.0
  0
LINE
  5
326
330
25
100
AcDbEntity
  8
中線
 62
     1
100
AcDbLine
 10
-75.891858521063
 20
142.697614358629
 30
0.0
 11
-75.891858521063
 21
137.698114358629
 31
0.0
  0
LINE
  5
327
330
25
100
AcDbEntity
  8
中線
 62
     1
100
AcDbLine
 10
-170.883290909371
 20
138.299064050427
 30
0.0
 11
-170.883290909371
 21
139.597931817772
 31
0.0
  0
LINE
  5
328
330
25
100
AcDbEntity
  8
中線
 62
     1
100
AcDbLine
 10
-151.685195313042
 20
70.677941232432
 30
0.0
 11
-150.18535548458
 21
70.677941232432
 31
0.0
  0
LINE
  5
329
330
25
100
AcDbEntity
  8
中線
 62
     1
100
AcDbLine
 10
-152.885077347394
 20
139.597931817772
 30
0.0
 11
-153.485026840778
 21
139.597931817772
 31
0.0
  0
LINE
  5
32A
330
25
100
AcDbEntity
  8
中線
 62
     1
100
AcDbLine
 10
-151.685195313042
 20
83.176691232432
 30
0.0
 11
-150.18535548458
 21
83.176691232432
 31
0.0
  0
LINE
  5
32B
330
25
100
AcDbEntity
  8
中線
 62
     1
100
AcDbLine
 10
-170.883285898761
 20
138.299079352008
 30
0.0
 11
-170.396332751723
 21
137.198186225331
 31
0.0
  0
LINE
  5
32C
330
25
100
AcDbEntity
  8
中線
 62
     1
100
AcDbLine
 10
-171.683195313042
 20
70.677941232432
 30
0.0
 11
-170.18335548458
 21
70.677941232432
 31
0.0
  0
LINE
  5
32D
330
25
100
AcDbEntity
  8
中線
 62
     1
100
AcDbLine
 10
-173.483026840778
 20
138.188058984488
 30
0.0
 11
-173.483026840778
 21
139.597931817772
 31
0.0
  0
LINE
  5
32E
330
25
100
AcDbEntity
  8
中線
 62
     1
100
AcDbLine
 10
-171.683195313042
 20
83.176691232432
 30
0.0
 11
-170.18335548458
 21
83.176691232432
 31
0.0
  0
LINE
  5
32F
330
25
100
AcDbEntity
  8
中線
 62
     1
100
AcDbLine
 10
-170.883290909371
 20
139.597931817772
 30
0.0
 11
-171.483223450228
 21
139.597931817772
 31
0.0
  0
LINE
  5
330
330
25
100
AcDbEntity
  8
中線
 62
     1
100
AcDbLine
 10
-46.101848724862
 20
161.745697152849
 30
0.0
 11
-45.901842957105
 21
161.745697152849
 31
0.0
  0
LINE
  5
331
330
25
100
AcDbEntity
  8
中線
 62
     1
100
AcDbLine
 10
-42.270224411613
 20
164.045475290036
 30
0.0
 11
-43.102135162885
 21
164.045475290036
 31
0.0
  0
LINE
  5
332
330
25
100
AcDbEntity
  8
中線
 62
     1
100
AcDbLine
 10
-48.082635679467
 20
159.611913674315
 30
0.0
 11
-48.424589423451
 21
159.253971366126
 31
0.0
  0
LINE
  5
333
330
25
100
AcDbEntity
  8
中線
 62
     1
100
AcDbLine
 10
-48.424613342392
 20
159.253966216863
 30
0.0
 11
-48.901546858937
 21
159.594914201543
 31
0.0
  0
LINE
  5
334
330
25
100
AcDbEntity
  8
中線
 62
     1
100
AcDbLine
 10
-46.301820587675
 20
161.545725290036
 30
0.0
 11
-46.301820587675
 21
153.047582269439
 31
0.0
  0
LINE
  5
335
330
25
100
AcDbEntity
  8
中線
 62
     1
100
AcDbLine
 10
-43.502095841039
 20
159.955884561231
 30
0.0
 11
-43.502095841039
 21
156.762200326705
 31
0.0
  0
LINE
  5
336
330
25
100
AcDbEntity
  8
中線
 62
     1
100
AcDbLine
 10
-43.462118821807
 20
156.64321169487
 30
0.0
 11
-42.407217278623
 21
155.222365057965
 31
0.0
  0
LINE
  5
337
330
25
100
AcDbEntity
  8
中線
 62
     1
100
AcDbLine
 10
-41.993254947885
 20
163.630525749473
 30
0.0
 11
-43.487115007606
 21
160.031871373234
 31
0.0
  0
LINE
  5
338
330
25
100
AcDbEntity
  8
中線
 62
     1
100
AcDbLine
 10
-48.901556519082
 20
159.59491466683
 30
0.0
 11
-48.901556519082
 21
160.795796899486
 31
0.0
  0
LINE
  5
339
330
25
100
AcDbEntity
  8
中線
 62
     1
100
AcDbLine
 10
-45.901842957105
 20
162.045671899486
 30
0.0
 11
-45.501899231478
 21
162.045671899486
 31
0.0
  0
LINE
  5
33A
330
25
100
AcDbEntity
  8
中線
 62
     1
100
AcDbLine
 10
-44.302017197237
 20
163.245553933838
 30
0.0
 11
-43.902056519082
 21
163.245553933838
 31
0.0
  0
LINE
  5
33B
330
25
100
AcDbEntity
  8
中線
 62
     1
100
AcDbLine
 10
-43.902056519082
 20
163.545528680585
 30
0.0
 11
-43.502095841039
 21
163.545528680585
 31
0.0
  0
LINE
  5
33C
330
25
100
AcDbEntity
  8
中線
 62
     1
100
AcDbLine
 10
-43.502095841039
 20
163.845503427222
 30
0.0
 11
-43.102135162885
 21
163.845503427222
 31
0.0
  0
LINE
  5
33D
330
25
100
AcDbEntity
  8
中線
 62
     1
100
AcDbLine
 10
-45.501899231478
 20
162.345646646233
 30
0.0
 11
-45.101938553434
 21
162.345646646233
 31
0.0
  0
LINE
  5
33E
330
25
100
AcDbEntity
  8
中線
 62
     1
100
AcDbLine
 10
-45.101938553434
 20
162.645621392981
 30
0.0
 11
-44.70197787528
 21
162.645621392981
 31
0.0
  0
LINE
  5
33F
330
25
100
AcDbEntity
  8
中線
 62
     1
100
AcDbLine
 10
-44.70197787528
 20
162.945596139617
 30
0.0
 11
-44.302017197237
 21
162.945596139617
 31
0.0
  0
LINE
  5
340
330
25
100
AcDbEntity
  8
中線
 62
     1
100
AcDbLine
 10
-45.901842957105
 20
161.745697152849
 30
0.0
 11
-45.901842957105
 21
162.045671899486
 31
0.0
  0
LINE
  5
341
330
25
100
AcDbEntity
  8
中線
 62
     1
100
AcDbLine
 10
-45.501899231478
 20
162.045671899486
 30
0.0
 11
-45.501899231478
 21
162.345646646233
 31
0.0
  0
LINE
  5
342
330
25
100
AcDbEntity
  8
中線
 62
     1
100
AcDbLine
 10
-45.101938553434
 20
162.345646646233
 30
0.0
 11
-45.101938553434
 21
162.645621392981
 31
0.0
  0
LINE
  5
343
330
25
100
AcDbEntity
  8
中線
 62
     1
100
AcDbLine
 10
-44.70197787528
 20
162.645621392981
 30
0.0
 11
-44.70197787528
 21
162.945596139617
 31
0.0
  0
LINE
  5
344
330
25
100
AcDbEntity
  8
中線
 62
     1
100
AcDbLine
 10
-44.302017197237
 20
162.945596139617
 30
0.0
 11
-44.302017197237
 21
163.245553933838
 31
0.0
  0
LINE
  5
345
330
25
100
AcDbEntity
  8
中線
 62
     1
100
AcDbLine
 10
-43.902056519082
 20
163.245553933838
 30
0.0
 11
-43.902056519082
 21
163.545528680585
 31
0.0
  0
LINE
  5
346
330
25
100
AcDbEntity
  8
中線
 62
     1
100
AcDbLine
 10
-43.502095841039
 20
163.545528680585
 30
0.0
 11
-43.502095841039
 21
163.845503427222
 31
0.0
  0
LINE
  5
347
330
25
100
AcDbEntity
  8
中線
 62
     1
100
AcDbLine
 10
-43.102135162885
 20
163.845503427222
 30
0.0
 11
-43.102135162885
 21
164.045475290036
 31
0.0
  0
LINE
  5
348
330
25
100
AcDbEntity
  8
中線
 62
     1
100
AcDbLine
 10
-46.348794628468
 20
161.254761085921
 30
0.0
 11
-48.201602245621
 21
161.106781303824
 31
0.0
  0
LINE
  5
349
330
25
100
AcDbEntity
  8
中線
 62
     1
100
AcDbLine
 10
-48.201643215635
 20
161.106770144829
 30
0.0
 11
-48.9015683399
 21
160.795797420878
 31
0.0
  0
LINE
  5
34A
330
25
100
AcDbEntity
  8
中線
 62
     1
100
AcDbLine
 10
-46.301828734083
 20
159.753900917504
 30
0.0
 11
-48.082633564123
 21
159.611917454937
 31
0.0
  0
LINE
  5
34B
330
25
100
AcDbEntity
  8
中線
 62
     1
100
AcDbLine
 10
-76.14384069877
 20
161.745697152849
 30
0.0
 11
-76.343812561584
 21
161.745697152849
 31
0.0
  0
LINE
  5
34C
330
25
100
AcDbEntity
  8
中線
 62
     1
100
AcDbLine
 10
-79.976448258017
 20
164.045475290036
 30
0.0
 11
-79.143537308331
 21
164.045475290036
 31
0.0
  0
LINE
  5
34D
330
25
100
AcDbEntity
  8
中線
 62
     1
100
AcDbLine
 10
-74.163042607389
 20
159.611904174487
 30
0.0
 11
-73.821085120002
 21
159.253941995507
 31
0.0
  0
LINE
  5
34E
330
25
100
AcDbEntity
  8
中線
 62
     1
100
AcDbLine
 10
-73.821078967728
 20
159.253963854321
 30
0.0
 11
-73.344126488191
 21
159.594914464184
 31
0.0
  0
LINE
  5
34F
330
25
100
AcDbEntity
  8
中線
 62
     1
100
AcDbLine
 10
-75.943868835956
 20
161.545725290036
 30
0.0
 11
-75.943868835956
 21
153.047582269439
 31
0.0
  0
LINE
  5
350
330
25
100
AcDbEntity
  8
中線
 62
     1
100
AcDbLine
 10
-78.743576630177
 20
159.955884561231
 30
0.0
 11
-78.743576630177
 21
156.762200326705
 31
0.0
  0
LINE
  5
351
330
25
100
AcDbEntity
  8
中線
 62
     1
100
AcDbLine
 10
-78.7835730598
 20
156.64322614198
 30
0.0
 11
-79.839467502685
 21
155.222377820689
 31
0.0
  0
LINE
  5
352
330
25
100
AcDbEntity
  8
中線
 62
     1
100
AcDbLine
 10
-80.253444412521
 20
163.630521458346
 30
0.0
 11
-78.759590852261
 21
160.031882739097
 31
0.0
  0
LINE
  5
353
330
25
100
AcDbEntity
  8
中線
 62
     1
100
AcDbLine
 10
-73.344115952133
 20
159.59491466683
 30
0.0
 11
-73.344115952133
 21
160.795796899486
 31
0.0
  0
LINE
  5
354
330
25
100
AcDbEntity
  8
中線
 62
     1
100
AcDbLine
 10
-76.343812561584
 20
162.045671899486
 30
0.0
 11
-76.743773239738
 21
162.045671899486
 31
0.0
  0
LINE
  5
355
330
25
100
AcDbEntity
  8
中線
 62
     1
100
AcDbLine
 10
-77.943655273979
 20
163.245553933838
 30
0.0
 11
-78.343615952133
 21
163.245553933838
 31
0.0
  0
LINE
  5
356
330
25
100
AcDbEntity
  8
中線
 62
     1
100
AcDbLine
 10
-78.343615952133
 20
163.545528680585
 30
0.0
 11
-78.743576630177
 21
163.545528680585
 31
0.0
  0
LINE
  5
357
330
25
100
AcDbEntity
  8
中線
 62
     1
100
AcDbLine
 10
-78.743576630177
 20
163.845503427222
 30
0.0
 11
-79.143537308331
 21
163.845503427222
 31
0.0
  0
LINE
  5
358
330
25
100
AcDbEntity
  8
中線
 62
     1
100
AcDbLine
 10
-76.743773239738
 20
162.345646646233
 30
0.0
 11
-77.143733917781
 21
162.345646646233
 31
0.0
  0
LINE
  5
359
330
25
100
AcDbEntity
  8
中線
 62
     1
100
AcDbLine
 10
-77.143733917781
 20
162.645621392981
 30
0.0
 11
-77.543694595936
 21
162.645621392981
 31
0.0
  0
LINE
  5
35A
330
25
100
AcDbEntity
  8
中線
 62
     1
100
AcDbLine
 10
-77.543694595936
 20
162.945596139617
 30
0.0
 11
-77.943655273979
 21
162.945596139617
 31
0.0
  0
LINE
  5
35B
330
25
100
AcDbEntity
  8
中線
 62
     1
100
AcDbLine
 10
-76.343812561584
 20
161.745697152849
 30
0.0
 11
-76.343812561584
 21
162.045671899486
 31
0.0
  0
LINE
  5
35C
330
25
100
AcDbEntity
  8
中線
 62
     1
100
AcDbLine
 10
-76.743773239738
 20
162.045671899486
 30
0.0
 11
-76.743773239738
 21
162.345646646233
 31
0.0
  0
LINE
  5
35D
330
25
100
AcDbEntity
  8
中線
 62
     1
100
AcDbLine
 10
-77.143733917781
 20
162.345646646233
 30
0.0
 11
-77.143733917781
 21
162.645621392981
 31
0.0
  0
LINE
  5
35E
330
25
100
AcDbEntity
  8
中線
 62
     1
100
AcDbLine
 10
-77.543694595936
 20
162.645621392981
 30
0.0
 11
-77.543694595936
 21
162.945596139617
 31
0.0
  0
LINE
  5
35F
330
25
100
AcDbEntity
  8
中線
 62
     1
100
AcDbLine
 10
-77.943655273979
 20
162.945596139617
 30
0.0
 11
-77.943655273979
 21
163.245553933838
 31
0.0
  0
LINE
  5
360
330
25
100
AcDbEntity
  8
中線
 62
     1
100
AcDbLine
 10
-78.343615952133
 20
163.245553933838
 30
0.0
 11
-78.343615952133
 21
163.545528680585
 31
0.0
  0
LINE
  5
361
330
25
100
AcDbEntity
  8
中線
 62
     1
100
AcDbLine
 10
-78.743576630177
 20
163.545528680585
 30
0.0
 11
-78.743576630177
 21
163.845503427222
 31
0.0
  0
LINE
  5
362
330
25
100
AcDbEntity
  8
中線
 62
     1
100
AcDbLine
 10
-79.143537308331
 20
163.845503427222
 30
0.0
 11
-79.143537308331
 21
164.045475290036
 31
0.0
  0
LINE
  5
363
330
25
100
AcDbEntity
  8
中線
 62
     1
100
AcDbLine
 10
-75.896868170937
 20
161.254763038726
 30
0.0
 11
-74.044043655141
 21
161.106781906986
 31
0.0
  0
LINE
  5
364
330
25
100
AcDbEntity
  8
中線
 62
     1
100
AcDbLine
 10
-151.685195313042
 20
67.378269876235
 30
0.0
 11
-151.685195313042
 21
65.678441232432
 31
0.0
  0
LINE
  5
366
330
25
100
AcDbEntity
  8
中線
 62
     1
100
AcDbLine
 10
-165.923781891428
 20
88.806129724283
 30
0.0
 11
-165.923781891428
 21
84.806522943183
 31
0.0
  0
LINE
  5
367
330
25
100
AcDbEntity
  8
中線
 62
     1
100
AcDbLine
 10
-166.43373048458
 20
89.3360653322
 30
0.0
 11
-166.43373048458
 21
81.716842386028
 31
0.0
  0
LINE
  5
368
330
25
100
AcDbEntity
  8
中線
 62
     1
100
AcDbLine
 10
-163.93398048458
 20
89.3360653322
 30
0.0
 11
-163.93398048458
 21
81.716842386028
 31
0.0
  0
LINE
  5
36D
330
25
100
AcDbEntity
  8
中線
 62
     1
100
AcDbLine
 10
-172.803095383279
 20
143.697524530167
 30
0.0
 11
-166.803685211741
 21
143.697524530167
 31
0.0
  0
LINE
  5
36E
330
25
100
AcDbEntity
  8
中線
 62
     1
100
AcDbLine
 10
-169.303435211741
 20
146.197274530167
 30
0.0
 11
-169.303435211741
 21
146.897193002431
 31
0.0
  0
LINE
  5
36F
330
25
100
AcDbEntity
  8
中線
 62
     1
100
AcDbLine
 10
-150.18535548458
 20
63.178691232432
 30
0.0
 11
-150.18535548458
 21
62.378769876235
 31
0.0
  0
LINE
  5
370
330
25
100
AcDbEntity
  8
中線
 62
     1
100
AcDbLine
 10
-154.184945313042
 20
63.178691232432
 30
0.0
 11
-154.184945313042
 21
62.378769876235
 31
0.0
  0
LINE
  5
371
330
25
100
AcDbEntity
  8
中線
 62
     1
100
AcDbLine
 10
-151.685195313042
 20
78.177191232432
 30
0.0
 11
-151.685195313042
 21
79.877019876235
 31
0.0
  0
LINE
  5
372
330
25
100
AcDbEntity
  8
中線
 62
     1
100
AcDbLine
 10
-152.68510548458
 20
76.527355554278
 30
0.0
 11
-152.68510548458
 21
77.377269876235
 31
0.0
  0
LINE
  5
374
330
25
100
AcDbEntity
  8
中線
 62
     1
100
AcDbLine
 10
-151.685195313042
 20
64.878519876235
 30
0.0
 11
-151.685195313042
 21
63.178691232432
 31
0.0
  0
LINE
  5
375
330
25
100
AcDbEntity
  8
中線
 62
     1
100
AcDbLine
 10
-154.184945313042
 20
90.675941232432
 30
0.0
 11
-152.68510548458
 21
90.675941232432
 31
0.0
  0
LINE
  5
376
330
25
100
AcDbEntity
  8
中線
 62
     1
100
AcDbLine
 10
-152.68510548458
 20
64.878519876235
 30
0.0
 11
-152.68510548458
 21
63.178691232432
 31
0.0
  0
LINE
  5
377
330
25
100
AcDbEntity
  8
中線
 62
     1
100
AcDbLine
 10
-174.182945313042
 20
68.178191232432
 30
0.0
 11
-174.182945313042
 21
67.378269876235
 31
0.0
  0
LINE
  5
378
330
25
100
AcDbEntity
  8
中線
 62
     1
100
AcDbLine
 10
-171.683195313042
 20
65.678441232432
 30
0.0
 11
-170.18335548458
 21
65.678441232432
 31
0.0
  0
LINE
  5
379
330
25
100
AcDbEntity
  8
中線
 62
     1
100
AcDbLine
 10
-138.18655209403
 20
135.598325036783
 30
0.0
 11
-138.18655209403
 21
137.198167749178
 31
0.0
  0
LINE
  5
37A
330
25
100
AcDbEntity
  8
中線
 62
     1
100
AcDbLine
 10
-171.683195313042
 20
76.527355554278
 30
0.0
 11
-171.683195313042
 21
77.377269876235
 31
0.0
  0
LINE
  5
37B
330
25
100
AcDbEntity
  8
中線
 62
     1
100
AcDbLine
 10
-151.685195313042
 20
88.176191232432
 30
0.0
 11
-151.685195313042
 21
89.876019876235
 31
0.0
  0
LINE
  5
37C
330
25
100
AcDbEntity
  8
中線
 62
     1
100
AcDbLine
 10
-151.685195313042
 20
85.676441232432
 30
0.0
 11
-151.685195313042
 21
87.376269876235
 31
0.0
  0
LINE
  5
37D
330
25
100
AcDbEntity
  8
中線
 62
     1
100
AcDbLine
 10
-151.685195313042
 20
75.677441232432
 30
0.0
 11
-150.18535548458
 21
75.677441232432
 31
0.0
  0
LINE
  5
37E
330
25
100
AcDbEntity
  8
中線
 62
     1
100
AcDbLine
 10
-151.685195313042
 20
74.877519876235
 30
0.0
 11
-150.18535548458
 21
74.877519876235
 31
0.0
  0
LINE
  5
37F
330
25
100
AcDbEntity
  8
中線
 62
     1
100
AcDbLine
 10
-154.184945313042
 20
75.677441232432
 30
0.0
 11
-152.68510548458
 21
75.677441232432
 31
0.0
  0
LINE
  5
380
330
25
100
AcDbEntity
  8
中線
 62
     1
100
AcDbLine
 10
-154.184945313042
 20
74.877519876235
 30
0.0
 11
-152.68510548458
 21
74.877519876235
 31
0.0
  0
LINE
  5
381
330
25
100
AcDbEntity
  8
中線
 62
     1
100
AcDbLine
 10
-150.18535548458
 20
75.677441232432
 30
0.0
 11
-150.18535548458
 21
74.877519876235
 31
0.0
  0
LINE
  5
382
330
25
100
AcDbEntity
  8
中線
 62
     1
100
AcDbLine
 10
-154.184945313042
 20
75.677441232432
 30
0.0
 11
-154.184945313042
 21
74.877519876235
 31
0.0
  0
LINE
  5
383
330
25
100
AcDbEntity
  8
中線
 62
     1
100
AcDbLine
 10
-62.073260304307
 20
134.588425442398
 30
0.0
 11
-61.46732127727
 21
135.598313712138
 31
0.0
  0
LINE
  5
384
330
25
100
AcDbEntity
  8
中線
 62
     1
100
AcDbLine
 10
-50.014438248224
 20
134.598431817772
 30
0.0
 11
-51.879265717049
 21
134.598431817772
 31
0.0
  0
LINE
  5
385
330
25
100
AcDbEntity
  8
CENTER
100
AcDbLine
 10
-173.18305209403
 20
51.829830301025
 30
0.0
 11
-151.185248703591
 21
51.829830301025
 31
0.0
  0
LINE
  5
386
330
25
100
AcDbEntity
  8
中線
 62
     1
100
AcDbLine
 10
-62.713177063565
 20
134.198471139617
 30
0.0
 11
-62.713177063565
 21
134.539420114199
 31
0.0
  0
LINE
  5
387
330
25
100
AcDbEntity
  8
中線
 62
     1
100
AcDbLine
 10
-171.483224409465
 20
138.24406799536
 30
0.0
 11
-171.921182991894
 21
137.19817624444
 31
0.0
  0
LINE
  5
388
330
25
100
AcDbEntity
  8
中線
 62
     1
100
AcDbLine
 10
-155.564812195331
 20
139.997875543288
 30
0.0
 11
-155.564812195331
 21
141.197774530167
 31
0.0
  0
LINE
  5
389
330
25
100
AcDbEntity
  8
中線
 62
     1
100
AcDbLine
 10
-162.584119553173
 20
133.498535714826
 30
0.0
 11
-162.584119553173
 21
134.598431817772
 31
0.0
  0
LINE
  5
38A
330
25
100
AcDbEntity
  8
中線
 62
     1
100
AcDbLine
 10
-172.883080275767
 20
138.282078811454
 30
0.0
 11
-172.40512805688
 21
137.198188946392
 31
0.0
  0
LINE
  5
38B
330
25
100
AcDbEntity
  8
中線
 62
     1
100
AcDbLine
 10
-151.685195313042
 20
73.177691232432
 30
0.0
 11
-150.18535548458
 21
73.177691232432
 31
0.0
  0
LINE
  5
38C
330
25
100
AcDbEntity
  8
中線
 62
     1
100
AcDbLine
 10
-41.355314148456
 20
142.697614358629
 30
0.0
 11
-41.355314148456
 21
137.198167749178
 31
0.0
  0
LINE
  5
38D
330
25
100
AcDbEntity
  8
中線
 62
     1
100
AcDbLine
 10
-157.564615585881
 20
143.697524530167
 30
0.0
 11
-151.565205414343
 21
143.697524530167
 31
0.0
  0
LINE
  5
38E
330
25
100
AcDbEntity
  8
HIDDEN
100
AcDbLine
 10
-75.454890503457
 20
94.10146805738
 30
0.0
 11
-76.12183633476
 21
94.10146805738
 31
0.0
  0
LINE
  5
38F
330
25
100
AcDbEntity
  8
HIDDEN
100
AcDbLine
 10
-76.121840175376
 20
94.101458384792
 30
0.0
 11
-75.454891631678
 21
95.101370043181
 31
0.0
  0
LINE
  5
390
330
25
100
AcDbEntity
  8
中線
 62
     1
100
AcDbLine
 10
-46.354814148456
 20
142.697614358629
 30
0.0
 11
-46.354814148456
 21
137.698114358629
 31
0.0
  0
LINE
  5
392
330
25
100
AcDbEntity
  8
中線
 62
     1
100
AcDbLine
 10
-36.525797012914
 20
133.198577920606
 30
0.0
 11
-36.325808197573
 21
133.198577920606
 31
0.0
  0
LINE
  5
393
330
25
100
AcDbEntity
  8
中線
 62
     1
100
AcDbLine
 10
-163.18405209403
 20
139.997875543288
 30
0.0
 11
-163.18405209403
 21
141.197774530167
 31
0.0
  0
LINE
  5
394
330
25
100
AcDbEntity
  8
中線
 62
     1
100
AcDbLine
 10
-154.964879654474
 20
147.897103173969
 30
0.0
 11
-154.964879654474
 21
149.196971139617
 31
0.0
  0
LINE
  5
395
330
25
100
AcDbEntity
  8
HIDDEN
100
AcDbLine
 10
-75.455907654399
 20
100.100861276391
 30
0.0
 11
-76.12183633476
 21
100.100861276391
 31
0.0
  0
LINE
  5
396
330
25
100
AcDbEntity
  8
HIDDEN
100
AcDbLine
 10
-76.121840136824
 20
100.100866162347
 30
0.0
 11
-75.454901000074
 21
101.100763717481
 31
0.0
  0
LINE
  5
397
330
25
100
AcDbEntity
  8
中線
 62
     1
100
AcDbLine
 10
-171.803185211741
 20
144.697417749178
 30
0.0
 11
-171.803185211741
 21
143.697524530167
 31
0.0
  0
LINE
  5
398
330
25
100
AcDbEntity
  8
HIDDEN
100
AcDbLine
 10
-75.454890503457
 20
105.101378427222
 30
0.0
 11
-76.12183633476
 21
105.101378427222
 31
0.0
  0
LINE
  5
39C
330
25
100
AcDbEntity
  8
HIDDEN
100
AcDbLine
 10
-76.121844563826
 20
106.101275420411
 30
0.0
 11
-75.454905427076
 21
107.101172975545
 31
0.0
  0
LINE
  5
39D
330
25
100
AcDbEntity
  8
中線
 62
     1
100
AcDbLine
 10
-163.084040772496
 20
135.598313948892
 30
0.0
 11
-162.584100846044
 21
134.598434096099
 31
0.0
  0
LINE
  5
39E
330
25
100
AcDbEntity
  8
中線
 62
     1
100
AcDbLine
 10
-154.184945313042
 20
73.177691232432
 30
0.0
 11
-154.184945313042
 21
72.377769876235
 31
0.0
  0
LINE
  5
39F
330
25
100
AcDbEntity
  8
中線
 62
     1
100
AcDbLine
 10
-171.683195313042
 20
76.527355554278
 30
0.0
 11
-171.683195313042
 21
75.677441232432
 31
0.0
  0
LINE
  5
3A0
330
25
100
AcDbEntity
  8
中線
 62
     1
100
AcDbLine
 10
-174.182945313042
 20
72.377769876235
 30
0.0
 11
-172.68310548458
 21
72.377769876235
 31
0.0
  0
LINE
  5
3A1
330
25
100
AcDbEntity
  8
中線
 62
     1
100
AcDbLine
 10
-174.182945313042
 20
89.876019876235
 30
0.0
 11
-172.68310548458
 21
89.876019876235
 31
0.0
  0
LINE
  5
3A2
330
25
100
AcDbEntity
  8
中線
 62
     1
100
AcDbLine
 10
-159.184471486757
 20
144.697408502437
 30
0.0
 11
-160.98428794089
 21
145.197357641189
 31
0.0
  0
LINE
  5
3A3
330
25
100
AcDbEntity
  8
中線
 62
     1
100
AcDbLine
 10
-163.384040909371
 20
145.697327920606
 30
0.0
 11
-160.984276840778
 21
145.697327920606
 31
0.0
  0
LINE
  5
3A4
330
25
100
AcDbEntity
  8
中線
 62
     1
100
AcDbLine
 10
-174.182945313042
 20
85.676441232432
 30
0.0
 11
-172.68310548458
 21
85.676441232432
 31
0.0
  0
LINE
  5
3A5
330
25
100
AcDbEntity
  8
中線
 62
     1
100
AcDbLine
 10
-162.063165623887
 20
137.724126128414
 30
0.0
 11
-162.110157378242
 21
137.198184326965
 31
0.0
  0
LINE
  5
3A6
330
25
100
AcDbEntity
  8
中線
 62
     1
100
AcDbLine
 10
-151.685195313042
 20
82.376769876235
 30
0.0
 11
-150.18535548458
 21
82.376769876235
 31
0.0
  0
LINE
  5
3A7
330
25
100
AcDbEntity
  8
HIDDEN
100
AcDbLine
 10
-155.684293518671
 20
119.695103235011
 30
0.0
 11
-155.684293518671
 21
122.099681817772
 31
0.0
  0
LINE
  5
3A8
330
25
100
AcDbEntity
  8
中線
 62
     1
100
AcDbLine
 10
-176.182748703591
 20
135.598325036783
 30
0.0
 11
-138.18655209403
 21
135.598325036783
 31
0.0
  0
LINE
  5
3A9
330
25
100
AcDbEntity
  8
中線
 62
     1
100
AcDbLine
 10
-165.18385548458
 20
143.697524530167
 30
0.0
 11
-159.184445313042
 21
143.697524530167
 31
0.0
  0
LINE
  5
3AA
330
25
100
AcDbEntity
  8
中線
 62
     1
100
AcDbLine
 10
-174.182945313042
 20
75.677441232432
 30
0.0
 11
-172.68310548458
 21
75.677441232432
 31
0.0
  0
LINE
  5
3AB
330
25
100
AcDbEntity
  8
中線
 62
     1
100
AcDbLine
 10
-163.384040909371
 20
145.881296609564
 30
0.0
 11
-163.384040909371
 21
144.697417749178
 31
0.0
  0
LINE
  5
3AC
330
25
100
AcDbEntity
  8
中線
 62
     1
100
AcDbLine
 10
-171.683195313042
 20
64.878519876235
 30
0.0
 11
-170.18335548458
 21
64.878519876235
 31
0.0
  0
LINE
  5
3AD
330
25
100
AcDbEntity
  8
中線
 62
     1
100
AcDbLine
 10
-169.283448196975
 20
60.028998773289
 30
0.0
 11
-175.082869553173
 21
60.028998773289
 31
0.0
  0
LINE
  5
3AE
330
25
100
AcDbEntity
  8
HIDDEN
100
AcDbLine
 10
-161.93417709403
 20
123.67775750131
 30
0.0
 11
-161.93417709403
 21
135.598325036783
 31
0.0
  0
LINE
  5
3AF
330
25
100
AcDbEntity
  8
中線
 62
     1
100
AcDbLine
 10
-151.685195313042
 20
72.377769876235
 30
0.0
 11
-150.18535548458
 21
72.377769876235
 31
0.0
  0
LINE
  5
3B0
330
25
100
AcDbEntity
  8
中線
 62
     1
100
AcDbLine
 10
-52.534192215516
 20
137.198167749178
 30
0.0
 11
-52.534192215516
 21
141.197774530167
 31
0.0
  0
LINE
  5
3B1
330
25
100
AcDbEntity
  8
中線
 62
     1
100
AcDbLine
 10
-176.182748703591
 20
137.198167749178
 30
0.0
 11
-138.18655209403
 21
137.198167749178
 31
0.0
  0
LINE
  5
3B3
330
25
100
AcDbEntity
  8
中線
 62
     1
100
AcDbLine
 10
-172.883077347394
 20
138.282060678268
 30
0.0
 11
-172.883077347394
 21
139.597931817772
 31
0.0
  0
LINE
  5
3B4
330
25
100
AcDbEntity
  8
HIDDEN
100
AcDbLine
 10
-75.454890503457
 20
98.101074838368
 30
0.0
 11
-76.12183633476
 21
98.101074838368
 31
0.0
  0
LINE
  5
3B5
330
25
100
AcDbEntity
  8
HIDDEN
100
AcDbLine
 10
-76.12183633476
 20
122.099681817772
 30
0.0
 11
-76.12183633476
 21
124.299457071024
 31
0.0
  0
LINE
  5
3B6
330
25
100
AcDbEntity
  8
HIDDEN
100
AcDbLine
 10
-76.12183633476
 20
122.099681817772
 30
0.0
 11
-70.160145508354
 21
122.099681817772
 31
0.0
  0
LINE
  5
3B7
330
25
100
AcDbEntity
  8
HIDDEN
100
AcDbLine
 10
-44.622979157053
 20
90.101861276391
 30
0.0
 11
-44.923954102104
 21
90.101861276391
 31
0.0
  0
LINE
  5
3B8
330
25
100
AcDbEntity
  8
中線
 62
     1
100
AcDbLine
 10
-75.271922012914
 20
134.598431817772
 30
0.0
 11
-75.271922012914
 21
135.598325036783
 31
0.0
  0
LINE
  5
3B9
330
25
100
AcDbEntity
  8
中線
 62
     1
100
AcDbLine
 10
-159.684408875019
 20
148.197077920606
 30
0.0
 11
-159.684408875019
 21
146.197274530167
 31
0.0
  0
LINE
  5
3BA
330
25
100
AcDbEntity
  8
中線
 62
     1
100
AcDbLine
 10
-154.164958298276
 20
147.897103173969
 30
0.0
 11
-154.164958298276
 21
149.196971139617
 31
0.0
  0
LINE
  5
3BB
330
25
100
AcDbEntity
  8
中線
 62
     1
100
AcDbLine
 10
-165.923781891428
 20
70.807933114722
 30
0.0
 11
-165.923781891428
 21
66.808326333733
 31
0.0
  0
LINE
  5
3BC
330
25
100
AcDbEntity
  8
HIDDEN
100
AcDbLine
 10
-49.324514132869
 20
86.603227373105
 30
0.0
 11
-45.759855329621
 21
87.568130633018
 31
0.0
  0
LINE
  5
3BD
330
25
100
AcDbEntity
  8
中線
 62
     1
100
AcDbLine
 10
-155.564812195331
 20
141.197774530167
 30
0.0
 11
-153.565008804892
 21
141.197774530167
 31
0.0
  0
LINE
  5
3BE
330
25
100
AcDbEntity
  8
中線
 62
     1
100
AcDbLine
 10
-169.283448196975
 20
93.025712335266
 30
0.0
 11
-175.082869553173
 21
93.025712335266
 31
0.0
  0
LINE
  5
3BF
330
25
100
AcDbEntity
  8
HIDDEN
100
AcDbLine
 10
-49.324521269266
 20
87.80209756043
 30
0.0
 11
-45.423901764671
 21
89.001976990153
 31
0.0
  0
LINE
  5
3C0
330
25
100
AcDbEntity
  8
HIDDEN
100
AcDbLine
 10
-45.423905800379
 20
89.001982147749
 30
0.0
 11
-44.923957317116
 21
90.101859679662
 31
0.0
  0
LINE
  5
3C1
330
25
100
AcDbEntity
  8
HIDDEN
100
AcDbLine
 10
-44.622979157053
 20
89.022986291569
 30
0.0
 11
-44.622979157053
 21
90.101861276391
 31
0.0
  0
LINE
  5
3C2
330
25
100
AcDbEntity
  8
HIDDEN
100
AcDbLine
 10
-77.621693115748
 20
90.101861276391
 30
0.0
 11
-77.321718369112
 21
90.101861276391
 31
0.0
  0
LINE
  5
3C3
330
25
100
AcDbEntity
  8
中線
 62
     1
100
AcDbLine
 10
-159.184445313042
 20
139.547921899486
 30
0.0
 11
-159.184445313042
 21
151.796707071024
 31
0.0
  0
LINE
  5
3C4
330
25
100
AcDbEntity
  8
中線
 62
     1
100
AcDbLine
 10
-167.803595383279
 20
144.697417749178
 30
0.0
 11
-167.803595383279
 21
143.697524530167
 31
0.0
  0
LINE
  5
3C5
330
25
100
AcDbEntity
  8
HIDDEN
100
AcDbLine
 10
-73.771065033511
 20
90.101861276391
 30
0.0
 11
-72.622193115748
 21
90.101861276391
 31
0.0
  0
LINE
  5
3C6
330
25
100
AcDbEntity
  8
中線
 62
     1
100
AcDbLine
 10
-159.184445313042
 20
151.796707071024
 30
0.0
 11
-157.564615585881
 21
151.796707071024
 31
0.0
  0
LINE
  5
3C7
330
25
100
AcDbEntity
  8
中線
 62
     1
100
AcDbLine
 10
-175.582816162623
 20
98.525158944828
 30
0.0
 11
-175.582816162623
 21
54.529552163839
 31
0.0
  0
LINE
  5
3C8
330
25
100
AcDbEntity
  8
中線
 62
     1
100
AcDbLine
 10
-171.003263855543
 20
145.881296609564
 30
0.0
 11
-171.003263855543
 21
144.697417749178
 31
0.0
  0
LINE
  5
3C9
330
25
100
AcDbEntity
  8
HIDDEN
100
AcDbLine
 10
-73.771065033511
 20
90.101861276391
 30
0.0
 11
-73.62208633476
 21
90.101861276391
 31
0.0
  0
LINE
  5
3CA
330
25
100
AcDbEntity
  8
中線
 62
     1
100
AcDbLine
 10
-169.403438095674
 20
147.897103173969
 30
0.0
 11
-169.403438095674
 21
149.196971139617
 31
0.0
  0
LINE
  5
3CB
330
25
100
AcDbEntity
  8
HIDDEN
100
AcDbLine
 10
-72.92215805181
 20
86.603230025506
 30
0.0
 11
-76.485808119497
 21
87.568132767027
 31
0.0
  0
LINE
  5
3CC
330
25
100
AcDbEntity
  8
HIDDEN
100
AcDbLine
 10
-63.567092178846
 20
120.527827707014
 30
0.0
 11
-58.678580292258
 21
120.527827707014
 31
0.0
  0
LINE
  5
3CD
330
25
100
AcDbEntity
  8
中線
 62
     1
100
AcDbLine
 10
-169.283448196975
 20
54.029605554278
 30
0.0
 11
-175.082869553173
 21
54.029605554278
 31
0.0
  0
LINE
  5
3CE
330
25
100
AcDbEntity
  8
HIDDEN
100
AcDbLine
 10
-77.621693115748
 20
89.022986291569
 30
0.0
 11
-77.621693115748
 21
90.101861276391
 31
0.0
  0
LINE
  5
3CF
330
25
100
AcDbEntity
  8
HIDDEN
100
AcDbLine
 10
-72.922150909969
 20
86.603218255683
 30
0.0
 11
-49.324504807024
 21
86.603218255683
 31
0.0
  0
LINE
  5
3D0
330
25
100
AcDbEntity
  8
中線
 62
     1
100
AcDbLine
 10
-74.472000656716
 20
134.598431817772
 30
0.0
 11
-74.472000656716
 21
135.598325036783
 31
0.0
  0
LINE
  5
3D1
330
25
100
AcDbEntity
  8
中線
 62
     1
100
AcDbLine
 10
-171.003263855543
 20
145.697327920606
 30
0.0
 11
-168.603516739477
 21
145.697327920606
 31
0.0
  0
LINE
  5
3D2
330
25
100
AcDbEntity
  8
中線
 62
     1
100
AcDbLine
 10
-168.603516739477
 20
145.897299783419
 30
0.0
 11
-168.603516739477
 21
144.697417749178
 31
0.0
  0
LINE
  5
3D3
330
25
100
AcDbEntity
  8
HIDDEN
100
AcDbLine
 10
-76.121852700234
 20
96.101262547487
 30
0.0
 11
-75.454904156536
 21
97.101174205876
 31
0.0
  0
LINE
  5
3D4
330
25
100
AcDbEntity
  8
中線
 62
     1
100
AcDbLine
 10
-151.685195313042
 20
90.675941232432
 30
0.0
 11
-151.685195313042
 21
91.925816232432
 31
0.0
  0
LINE
  5
3D5
330
25
100
AcDbEntity
  8
中線
 62
     1
100
AcDbLine
 10
-172.68310548458
 20
83.176691232432
 30
0.0
 11
-172.68310548458
 21
84.876519876235
 31
0.0
  0
LINE
  5
3D7
330
25
100
AcDbEntity
  8
HIDDEN
100
AcDbLine
 10
-47.874657944321
 20
104.101468255683
 30
0.0
 11
-46.123836136456
 21
104.101468255683
 31
0.0
  0
LINE
  5
3D8
330
25
100
AcDbEntity
  8
HIDDEN
100
AcDbLine
 10
-75.454890503457
 20
110.101878625636
 30
0.0
 11
-76.12183633476
 21
110.101878625636
 31
0.0
  0
LINE
  5
3D9
330
25
100
AcDbEntity
  8
HIDDEN
100
AcDbLine
 10
-45.424914557382
 20
89.001975135894
 30
0.0
 11
-44.92496607423
 21
90.101852667808
 31
0.0
  0
LINE
  5
3DA
330
25
100
AcDbEntity
  8
HIDDEN
100
AcDbLine
 10
-77.321721850097
 20
90.101872695138
 30
0.0
 11
-76.820783208749
 21
89.00199864321
 31
0.0
  0
LINE
  5
3DC
330
25
100
AcDbEntity
  8
HIDDEN
100
AcDbLine
 10
-76.820770307706
 20
89.00198332352
 30
0.0
 11
-72.922156659394
 21
87.802105865932
 31
0.0
  0
LINE
  5
3DD
330
25
100
AcDbEntity
  8
HIDDEN
100
AcDbLine
 10
-49.324517514864
 20
87.802114973799
 30
0.0
 11
-45.42490460471
 21
89.001994615835
 31
0.0
  0
LINE
  5
3DE
330
25
100
AcDbEntity
  8
HIDDEN
100
AcDbLine
 10
-46.624782944321
 20
103.100574838368
 30
0.0
 11
-46.624782944321
 21
102.85059305738
 31
0.0
  0
LINE
  5
3DF
330
25
100
AcDbEntity
  8
HIDDEN
100
AcDbLine
 10
-46.791782166062
 20
102.10066466683
 30
0.0
 11
-46.123836136456
 21
102.10066466683
 31
0.0
  0
LINE
  5
3E0
330
25
100
AcDbEntity
  8
HIDDEN
100
AcDbLine
 10
-75.621889725309
 20
103.100574838368
 30
0.0
 11
-75.621889725309
 21
102.85059305738
 31
0.0
  0
LINE
  5
3E1
330
25
100
AcDbEntity
  8
HIDDEN
100
AcDbLine
 10
-75.454890503457
 20
102.10066466683
 30
0.0
 11
-76.12183633476
 21
102.10066466683
 31
0.0
  0
LINE
  5
3E2
330
25
100
AcDbEntity
  8
HIDDEN
100
AcDbLine
 10
-76.121857272666
 20
102.100663724147
 30
0.0
 11
-75.621898028368
 21
102.850602617535
 31
0.0
  0
LINE
  5
3E3
330
25
100
AcDbEntity
  8
中線
 62
     1
100
AcDbLine
 10
-166.43373048458
 20
135.598325036783
 30
0.0
 11
-166.43373048458
 21
129.598931817772
 31
0.0
  0
LINE
  5
3E4
330
25
100
AcDbEntity
  8
HIDDEN
100
AcDbLine
 10
-75.454890503457
 20
101.100771447819
 30
0.0
 11
-76.12183633476
 21
101.100771447819
 31
0.0
  0
LINE
  5
3E5
330
25
100
AcDbEntity
  8
HIDDEN
100
AcDbLine
 10
-76.121834644262
 20
101.100770591793
 30
0.0
 11
-75.454895507512
 21
102.100668147038
 31
0.0
  0
LINE
  5
3E6
330
25
100
AcDbEntity
  8
中線
 62
     1
100
AcDbLine
 10
-173.483043377124
 20
138.18805908159
 30
0.0
 11
-173.994985835869
 21
137.198181970867
 31
0.0
  0
LINE
  5
3E7
330
25
100
AcDbEntity
  8
HIDDEN
100
AcDbLine
 10
-46.791782166062
 20
105.101378427222
 30
0.0
 11
-46.123836136456
 21
105.101378427222
 31
0.0
  0
LINE
  5
3E8
330
25
100
AcDbEntity
  8
HIDDEN
100
AcDbLine
 10
-75.454890503457
 20
95.101361276391
 30
0.0
 11
-76.12183633476
 21
95.101361276391
 31
0.0
  0
LINE
  5
3E9
330
25
100
AcDbEntity
  8
HIDDEN
100
AcDbLine
 10
-76.121848785848
 20
95.101372221186
 30
0.0
 11
-75.454900242261
 21
96.101283879575
 31
0.0
  0
LINE
  5
3EA
330
25
100
AcDbEntity
  8
中線
 62
     1
100
AcDbLine
 10
-156.305734756998
 20
137.724130122459
 30
0.0
 11
-156.69469210704
 21
138.745014463926
 31
0.0
  0
LINE
  5
3EB
330
25
100
AcDbEntity
  8
中線
 62
     1
100
AcDbLine
 10
-171.003260128804
 20
145.197375164659
 30
0.0
 11
-172.803076582937
 21
144.697426025906
 31
0.0
  0
LINE
  5
3EC
330
25
100
AcDbEntity
  8
HIDDEN
100
AcDbLine
 10
-75.454890503457
 20
106.101271646233
 30
0.0
 11
-76.12183633476
 21
106.101271646233
 31
0.0
  0
LINE
  5
3ED
330
25
100
AcDbEntity
  8
中線
 62
     1
100
AcDbLine
 10
-167.303631821191
 20
148.197077920606
 30
0.0
 11
-167.303631821191
 21
146.197274530167
 31
0.0
  0
LINE
  5
3EE
330
25
100
AcDbEntity
  8
HIDDEN
100
AcDbLine
 10
-67.37271133476
 20
105.601325036783
 30
0.0
 11
-54.87396133476
 21
105.601325036783
 31
0.0
  0
LINE
  5
3EF
330
25
100
AcDbEntity
  8
HIDDEN
100
AcDbLine
 10
-76.121839071264
 20
107.101179849857
 30
0.0
 11
-75.454899934514
 21
108.101077405102
 31
0.0
  0
LINE
  5
3F0
330
25
100
AcDbEntity
  8
HIDDEN
100
AcDbLine
 10
-67.37271133476
 20
98.602021646233
 30
0.0
 11
-67.37271133476
 21
105.601325036783
 31
0.0
  0
LINE
  5
3F1
330
25
100
AcDbEntity
  8
中線
 62
     1
100
AcDbLine
 10
-168.303541992729
 20
149.196971139617
 30
0.0
 11
-169.403438095674
 21
149.196971139617
 31
0.0
  0
LINE
  5
3F2
330
25
100
AcDbEntity
  8
HIDDEN
100
AcDbLine
 10
-54.87396133476
 20
98.602021646233
 30
0.0
 11
-67.37271133476
 21
98.602021646233
 31
0.0
  0
LINE
  5
3F3
330
25
100
AcDbEntity
  8
HIDDEN
100
AcDbLine
 10
-54.87396133476
 20
105.601325036783
 30
0.0
 11
-54.87396133476
 21
98.602021646233
 31
0.0
  0
LINE
  5
3F4
330
25
100
AcDbEntity
  8
HIDDEN
100
AcDbLine
 10
-75.454890503457
 20
107.101181817772
 30
0.0
 11
-76.12183633476
 21
107.101181817772
 31
0.0
  0
LINE
  5
3F5
330
25
100
AcDbEntity
  8
中線
 62
     1
100
AcDbLine
 10
-167.303631821191
 20
146.197274530167
 30
0.0
 11
-172.303131821191
 21
146.197274530167
 31
0.0
  0
LINE
  5
3F8
330
25
100
AcDbEntity
  8
HIDDEN
100
AcDbLine
 10
-56.662790680491
 20
104.247463311829
 30
0.0
 11
-56.662790680491
 21
104.851396646233
 31
0.0
  0
LINE
  5
3F9
330
25
100
AcDbEntity
  8
HIDDEN
100
AcDbLine
 10
-57.06573500114
 20
104.247463311829
 30
0.0
 11
-56.662790680491
 21
104.247463311829
 31
0.0
  0
LINE
  5
3FA
330
25
100
AcDbEntity
  8
HIDDEN
100
AcDbLine
 10
-57.300713806687
 20
104.851396646233
 30
0.0
 11
-56.662790680491
 21
104.851396646233
 31
0.0
  0
LINE
  5
3FB
330
25
100
AcDbEntity
  8
HIDDEN
100
AcDbLine
 10
-57.954640106739
 20
99.351950036783
 30
0.0
 11
-57.954640106739
 21
100.02187951058
 31
0.0
  0
LINE
  5
3FC
330
25
100
AcDbEntity
  8
HIDDEN
100
AcDbLine
 10
-55.690886063228
 20
101.631724206677
 30
0.0
 11
-58.574593567415
 21
101.631724206677
 31
0.0
  0
LINE
  5
3FD
330
25
100
AcDbEntity
  8
HIDDEN
100
AcDbLine
 10
-56.05884039367
 20
101.028791070687
 30
0.0
 11
-57.06573500114
 21
101.028791070687
 31
0.0
  0
LINE
  5
3FE
330
25
100
AcDbEntity
  8
HIDDEN
100
AcDbLine
 10
-56.05884039367
 20
100.826801858629
 30
0.0
 11
-57.06573500114
 21
100.826801858629
 31
0.0
  0
LINE
  5
3FF
330
25
100
AcDbEntity
  8
HIDDEN
100
AcDbLine
 10
-55.824861786427
 20
100.223851770112
 30
0.0
 11
-57.300713806687
 21
100.223851770112
 31
0.0
  0
LINE
  5
400
330
25
100
AcDbEntity
  8
HIDDEN
100
AcDbLine
 10
-55.690886063228
 20
100.02187951058
 30
0.0
 11
-57.500702622028
 21
100.02187951058
 31
0.0
  0
LINE
  5
401
330
25
100
AcDbEntity
  8
HIDDEN
100
AcDbLine
 10
-55.623889725309
 20
99.954883172773
 30
0.0
 11
-55.623889725309
 21
99.41894637459
 31
0.0
  0
LINE
  5
402
330
25
100
AcDbEntity
  8
HIDDEN
100
AcDbLine
 10
-57.500702622028
 20
99.351950036783
 30
0.0
 11
-57.500702622028
 21
100.02187951058
 31
0.0
  0
LINE
  5
405
330
25
100
AcDbEntity
  8
中線
 62
     1
100
AcDbLine
 10
-72.872157944321
 20
134.198471139617
 30
0.0
 11
-72.872157944321
 21
134.539420114199
 31
0.0
  0
LINE
  5
408
330
25
100
AcDbEntity
  8
HIDDEN
100
AcDbLine
 10
-46.790765015232
 20
100.100861276391
 30
0.0
 11
-46.123836136456
 21
100.100861276391
 31
0.0
  0
LINE
  5
409
330
25
100
AcDbEntity
  8
HIDDEN
100
AcDbLine
 10
-46.123837258233
 20
100.100870269936
 30
0.0
 11
-46.791783557034
 21
101.10076814126
 31
0.0
  0
LINE
  5
40B
330
25
100
AcDbEntity
  8
中線
 62
     1
100
AcDbLine
 10
-165.923781891428
 20
70.807933114722
 30
0.0
 11
-164.42392511044
 21
70.807933114722
 31
0.0
  0
LINE
  5
40C
330
25
100
AcDbEntity
  8
中線
 62
     1
100
AcDbLine
 10
-70.332416962264
 20
134.198471139617
 30
0.0
 11
-69.692493439238
 21
134.198471139617
 31
0.0
  0
LINE
  5
40D
330
25
100
AcDbEntity
  8
HIDDEN
100
AcDbLine
 10
-47.874657944321
 20
103.101575036783
 30
0.0
 11
-46.624782944321
 21
103.101575036783
 31
0.0
  0
LINE
  5
40E
330
25
100
AcDbEntity
  8
中線
 62
     1
100
AcDbLine
 10
-36.025833450826
 20
133.498535714826
 30
0.0
 11
-36.025833450826
 21
134.598431817772
 31
0.0
  0
LINE
  5
40F
330
25
100
AcDbEntity
  8
HIDDEN
100
AcDbLine
 10
-76.12183633476
 20
118.350056817772
 30
0.0
 11
-75.120925964918
 21
118.350056817772
 31
0.0
  0
LINE
  5
410
330
25
100
AcDbEntity
  8
HIDDEN
100
AcDbLine
 10
-76.12183633476
 20
113.850503427222
 30
0.0
 11
-75.120925964918
 21
113.850503427222
 31
0.0
  0
LINE
  5
411
330
25
100
AcDbEntity
  8
HIDDEN
100
AcDbLine
 10
-46.123855989693
 20
102.100643350629
 30
0.0
 11
-46.624813079752
 21
102.850568474283
 31
0.0
  0
LINE
  5
412
330
25
100
AcDbEntity
  8
HIDDEN
100
AcDbLine
 10
-75.454890503457
 20
96.101271447819
 30
0.0
 11
-76.12183633476
 21
96.101271447819
 31
0.0
  0
LINE
  5
413
330
25
100
AcDbEntity
  8
中線
 62
     1
100
AcDbLine
 10
-37.325734146867
 20
135.598306367428
 30
0.0
 11
-36.825786639062
 21
134.598411351929
 31
0.0
  0
LINE
  5
414
330
25
100
AcDbEntity
  8
HIDDEN
100
AcDbLine
 10
-76.121847207672
 20
97.101166977044
 30
0.0
 11
-75.454898663975
 21
98.101078635322
 31
0.0
  0
LINE
  5
415
330
25
100
AcDbEntity
  8
HIDDEN
100
AcDbLine
 10
-75.454890503457
 20
97.10116466683
 30
0.0
 11
-76.12183633476
 21
97.10116466683
 31
0.0
  0
LINE
  5
417
330
25
100
AcDbEntity
  8
HIDDEN
100
AcDbLine
 10
-50.674382690957
 20
90.101861276391
 30
0.0
 11
-48.474607437705
 21
90.101861276391
 31
0.0
  0
LINE
  5
418
330
25
100
AcDbEntity
  8
HIDDEN
100
AcDbLine
 10
-47.874657944321
 20
103.101575036783
 30
0.0
 11
-47.874657944321
 21
104.101468255683
 31
0.0
  0
LINE
  5
419
330
25
100
AcDbEntity
  8
HIDDEN
100
AcDbLine
 10
-71.572289978562
 20
87.802117044148
 30
0.0
 11
-50.674382690957
 21
87.802117044148
 31
0.0
  0
LINE
  5
41A
330
25
100
AcDbEntity
  8
HIDDEN
100
AcDbLine
 10
-71.572289978562
 20
87.802117044148
 30
0.0
 11
-71.572289978562
 21
90.101861276391
 31
0.0
  0
LINE
  5
41B
330
25
100
AcDbEntity
  8
HIDDEN
100
AcDbLine
 10
-50.674382690957
 20
87.802117044148
 30
0.0
 11
-50.674382690957
 21
90.101861276391
 31
0.0
  0
LINE
  5
41C
330
25
100
AcDbEntity
  8
中線
 62
     1
100
AcDbLine
 10
-174.182945313042
 20
65.678441232432
 30
0.0
 11
-172.68310548458
 21
65.678441232432
 31
0.0
  0
LINE
  5
41D
330
25
100
AcDbEntity
  8
中線
 62
     1
100
AcDbLine
 10
-78.771565231926
 20
137.698114358629
 30
0.0
 11
-72.852153977029
 21
137.698114358629
 31
0.0
  0
LINE
  5
41E
330
25
100
AcDbEntity
  8
中線
 62
     1
100
AcDbLine
 10
-142.396132721534
 20
134.539420114199
 30
0.0
 11
-142.396132721534
 21
134.198471139617
 31
0.0
  0
LINE
  5
41F
330
25
100
AcDbEntity
  8
中線
 62
     1
100
AcDbLine
 10
-163.93398048458
 20
133.598521646233
 30
0.0
 11
-166.43373048458
 21
133.598521646233
 31
0.0
  0
LINE
  5
420
330
25
100
AcDbEntity
  8
中線
 62
     1
100
AcDbLine
 10
-164.862876572237
 20
138.20806295178
 30
0.0
 11
-164.862876572237
 21
138.598021646233
 31
0.0
  0
LINE
  5
421
330
25
100
AcDbEntity
  8
中線
 62
     1
100
AcDbLine
 10
-163.93398048458
 20
129.598931817772
 30
0.0
 11
-166.43373048458
 21
129.598931817772
 31
0.0
  0
LINE
  5
422
330
25
100
AcDbEntity
  8
中線
 62
     1
100
AcDbLine
 10
-165.502817047678
 20
138.598021646233
 30
0.0
 11
-165.502817047678
 21
138.257055719125
 31
0.0
  0
LINE
  5
423
330
25
100
AcDbEntity
  8
中線
 62
     1
100
AcDbLine
 10
-165.923781891428
 20
66.808326333733
 30
0.0
 11
-164.42392511044
 21
66.808326333733
 31
0.0
  0
LINE
  5
424
330
25
100
AcDbEntity
  8
中線
 62
     1
100
AcDbLine
 10
-165.502817047678
 20
138.598021646233
 30
0.0
 11
-164.862876572237
 21
138.598021646233
 31
0.0
  0
LINE
  5
425
330
25
100
AcDbEntity
  8
中線
 62
     1
100
AcDbLine
 10
-164.862889882239
 20
138.208055995698
 30
0.0
 11
-164.256953593039
 21
137.198166111342
 31
0.0
  0
LINE
  5
426
330
25
100
AcDbEntity
  8
中線
 62
     1
100
AcDbLine
 10
-168.783484634998
 20
98.525158944828
 30
0.0
 11
-168.783484634998
 21
54.529552163839
 31
0.0
  0
LINE
  5
427
330
25
100
AcDbEntity
  8
中線
 62
     1
100
AcDbLine
 10
-72.872173378666
 20
134.539401099434
 30
0.0
 11
-73.498119471241
 21
135.598303633479
 31
0.0
  0
LINE
  5
428
330
25
100
AcDbEntity
  8
中線
 62
     1
100
AcDbLine
 10
-72.872157944321
 20
134.198471139617
 30
0.0
 11
-72.232217468769
 21
134.198471139617
 31
0.0
  0
LINE
  5
429
330
25
100
AcDbEntity
  8
中線
 62
     1
100
AcDbLine
 10
-62.073236588123
 20
134.58842983407
 30
0.0
 11
-62.073236588123
 21
134.198471139617
 31
0.0
  0
LINE
  5
42A
330
25
100
AcDbEntity
  8
中線
 62
     1
100
AcDbLine
 10
-59.533495606066
 20
134.539420114199
 30
0.0
 11
-59.533495606066
 21
134.198471139617
 31
0.0
  0
LINE
  5
42B
330
25
100
AcDbEntity
  8
中線
 62
     1
100
AcDbLine
 10
-60.173437077963
 20
134.588421041283
 30
0.0
 11
-60.779384827017
 21
135.59832384768
 31
0.0
  0
LINE
  5
42C
330
25
100
AcDbEntity
  8
中線
 62
     1
100
AcDbLine
 10
-59.533505982917
 20
134.539405642979
 30
0.0
 11
-58.907559890342
 21
135.598308177025
 31
0.0
  0
LINE
  5
42D
330
25
100
AcDbEntity
  8
中線
 62
     1
100
AcDbLine
 10
-49.374514725309
 20
134.198471139617
 30
0.0
 11
-50.014438248224
 21
134.198471139617
 31
0.0
  0
LINE
  5
42E
330
25
100
AcDbEntity
  8
中線
 62
     1
100
AcDbLine
 10
-50.014438248224
 20
134.58842983407
 30
0.0
 11
-50.014438248224
 21
134.198471139617
 31
0.0
  0
LINE
  5
42F
330
25
100
AcDbEntity
  8
中線
 62
     1
100
AcDbLine
 10
-49.374531597622
 20
134.539408708895
 30
0.0
 11
-48.748585505047
 21
135.598311242829
 31
0.0
  0
LINE
  5
430
330
25
100
AcDbEntity
  8
中線
 62
     1
100
AcDbLine
 10
-50.014456321861
 20
134.588431014841
 30
0.0
 11
-50.620395348898
 21
135.598319284692
 31
0.0
  0
LINE
  5
431
330
25
100
AcDbEntity
  8
中線
 62
     1
100
AcDbLine
 10
-49.374514725309
 20
134.539420114199
 30
0.0
 11
-49.374514725309
 21
134.198471139617
 31
0.0
  0
LINE
  5
432
330
25
100
AcDbEntity
  8
中線
 62
     1
100
AcDbLine
 10
-51.914255707367
 20
134.198471139617
 30
0.0
 11
-52.554179230281
 21
134.198471139617
 31
0.0
  0
LINE
  5
433
330
25
100
AcDbEntity
  8
中線
 62
     1
100
AcDbLine
 10
-52.554179230281
 20
134.58842983407
 30
0.0
 11
-52.554179230281
 21
134.198471139617
 31
0.0
  0
LINE
  5
434
330
25
100
AcDbEntity
  8
中線
 62
     1
100
AcDbLine
 10
-51.914256634607
 20
134.539395022597
 30
0.0
 11
-51.288321833014
 21
135.598304228531
 31
0.0
  0
LINE
  5
435
330
25
100
AcDbEntity
  8
中線
 62
     1
100
AcDbLine
 10
-47.774672012914
 20
134.598431817772
 30
0.0
 11
-47.774672012914
 21
135.598325036783
 31
0.0
  0
LINE
  5
436
330
25
100
AcDbEntity
  8
中線
 62
     1
100
AcDbLine
 10
-46.974750656716
 20
134.598431817772
 30
0.0
 11
-46.974750656716
 21
135.598325036783
 31
0.0
  0
LINE
  5
437
330
25
100
AcDbEntity
  8
中線
 62
     1
100
AcDbLine
 10
-168.80348860229
 20
139.997875543288
 30
0.0
 11
-168.80348860229
 21
141.197774530167
 31
0.0
  0
LINE
  5
438
330
25
100
AcDbEntity
  8
中線
 62
     1
100
AcDbLine
 10
-172.68310548458
 20
85.676441232432
 30
0.0
 11
-172.68310548458
 21
87.376269876235
 31
0.0
  0
LINE
  5
439
330
25
100
AcDbEntity
  8
中線
 62
     1
100
AcDbLine
 10
-153.565008804892
 20
139.997875543288
 30
0.0
 11
-153.565008804892
 21
141.197774530167
 31
0.0
  0
LINE
  5
43A
330
25
100
AcDbEntity
  8
中線
 62
     1
100
AcDbLine
 10
-172.883077347394
 20
139.597931817772
 30
0.0
 11
-173.483026840778
 21
139.597931817772
 31
0.0
  0
LINE
  5
43B
330
25
100
AcDbEntity
  8
中線
 62
     1
100
AcDbLine
 10
-171.683195313042
 20
85.676441232432
 30
0.0
 11
-171.683195313042
 21
87.376269876235
 31
0.0
  0
LINE
  5
43C
330
25
100
AcDbEntity
  8
中線
 62
     1
100
AcDbLine
 10
-171.483223450228
 20
138.244053140402
 30
0.0
 11
-171.483223450228
 21
139.597931817772
 31
0.0
  0
LINE
  5
43D
330
25
100
AcDbEntity
  8
中線
 62
     1
100
AcDbLine
 10
-174.182945313042
 20
64.878519876235
 30
0.0
 11
-172.68310548458
 21
64.878519876235
 31
0.0
  0
LINE
  5
43E
330
25
100
AcDbEntity
  8
中線
 62
     1
100
AcDbLine
 10
-67.772672012914
 20
141.197774530167
 30
0.0
 11
-67.172739471946
 21
141.197774530167
 31
0.0
  0
LINE
  5
43F
330
25
100
AcDbEntity
  8
中線
 62
     1
100
AcDbLine
 10
-43.275118622364
 20
137.398156564408
 30
0.0
 11
-43.275118622364
 21
137.498125543288
 31
0.0
  0
LINE
  5
440
330
25
100
AcDbEntity
  8
中線
 62
     1
100
AcDbLine
 10
-74.691993439238
 20
142.197667749178
 30
0.0
 11
-47.554679230281
 21
142.197667749178
 31
0.0
  0
LINE
  5
441
330
25
100
AcDbEntity
  8
中線
 62
     1
100
AcDbLine
 10
-170.803291992729
 20
139.997875543288
 30
0.0
 11
-170.803291992729
 21
141.197774530167
 31
0.0
  0
LINE
  5
442
330
25
100
AcDbEntity
  8
中線
 62
     1
100
AcDbLine
 10
-160.684317588036
 20
146.197260618225
 30
0.0
 11
-159.184473387901
 21
145.697312614359
 31
0.0
  0
LINE
  5
443
330
25
100
AcDbEntity
  8
中線
 62
     1
100
AcDbLine
 10
-174.42292511044
 20
151.796707071024
 30
0.0
 11
-174.42292511044
 21
137.198167749178
 31
0.0
  0
LINE
  5
444
330
25
100
AcDbEntity
  8
中線
 62
     1
100
AcDbLine
 10
-164.42392511044
 20
70.807933114722
 30
0.0
 11
-164.42392511044
 21
66.808326333733
 31
0.0
  0
LINE
  5
445
330
25
100
AcDbEntity
  8
HIDDEN
100
AcDbLine
 10
-76.121848001371
 20
110.101883141518
 30
0.0
 11
-75.621888757073
 21
110.851822034906
 31
0.0
  0
LINE
  5
446
330
25
100
AcDbEntity
  8
中線
 62
     1
100
AcDbLine
 10
-171.683195313042
 20
80.676941232432
 30
0.0
 11
-171.683195313042
 21
82.376769876235
 31
0.0
  0
LINE
  5
447
330
25
100
AcDbEntity
  8
HIDDEN
100
AcDbLine
 10
-76.121846142112
 20
104.101480664554
 30
0.0
 11
-75.454897598414
 21
105.101392322943
 31
0.0
  0
LINE
  5
448
330
25
100
AcDbEntity
  8
HIDDEN
100
AcDbLine
 10
-46.791782166062
 20
94.10146805738
 30
0.0
 11
-46.123836136456
 21
94.10146805738
 31
0.0
  0
LINE
  5
449
330
25
100
AcDbEntity
  8
HIDDEN
100
AcDbLine
 10
-74.372014725309
 20
104.101468255683
 30
0.0
 11
-76.12183633476
 21
104.101468255683
 31
0.0
  0
LINE
  5
44A
330
25
100
AcDbEntity
  8
HIDDEN
100
AcDbLine
 10
-60.712373474711
 20
102.701614358629
 30
0.0
 11
-60.073433197573
 21
102.701614358629
 31
0.0
  0
LINE
  5
44B
330
25
100
AcDbEntity
  8
中線
 62
     1
100
AcDbLine
 10
-72.232217468769
 20
134.58842983407
 30
0.0
 11
-72.232217468769
 21
134.198471139617
 31
0.0
  0
LINE
  5
44C
330
25
100
AcDbEntity
  8
中線
 62
     1
100
AcDbLine
 10
-166.803704955988
 20
144.697415340753
 30
0.0
 11
-168.603521410121
 21
145.197364479505
 31
0.0
  0
LINE
  5
44D
330
25
100
AcDbEntity
  8
HIDDEN
100
AcDbLine
 10
-46.12383609446
 20
93.102577646078
 30
0.0
 11
-46.791786026454
 21
94.101473939014
 31
0.0
  0
LINE
  5
44E
330
25
100
AcDbEntity
  8
中線
 62
     1
100
AcDbLine
 10
-156.564722366869
 20
144.697417749178
 30
0.0
 11
-156.564722366869
 21
143.697524530167
 31
0.0
  0
LINE
  5
44F
330
25
100
AcDbEntity
  8
中線
 62
     1
100
AcDbLine
 10
-172.303131821191
 20
148.197077920606
 30
0.0
 11
-172.303131821191
 21
146.197274530167
 31
0.0
  0
LINE
  5
450
330
25
100
AcDbEntity
  8
HIDDEN
100
AcDbLine
 10
-76.121850056387
 20
105.101370990854
 30
0.0
 11
-75.45490151269
 21
106.101282649244
 31
0.0
  0
LINE
  5
451
330
25
100
AcDbEntity
  8
HIDDEN
100
AcDbLine
 10
-57.954640106739
 20
100.02187951058
 30
0.0
 11
-58.574593567415
 21
100.02187951058
 31
0.0
  0
LINE
  5
452
330
25
100
AcDbEntity
  8
HIDDEN
100
AcDbLine
 10
-55.623889725309
 20
101.564727868759
 30
0.0
 11
-55.623889725309
 21
100.424840783756
 31
0.0
  0
LINE
  5
453
330
25
100
AcDbEntity
  8
HIDDEN
100
AcDbLine
 10
-46.123843837686
 20
95.101364913694
 30
0.0
 11
-46.791790136487
 21
96.101262785018
 31
0.0
  0
LINE
  5
454
330
25
100
AcDbEntity
  8
HIDDEN
100
AcDbLine
 10
-58.640589706919
 20
101.564727868759
 30
0.0
 11
-58.640589706919
 21
101.095770456079
 31
0.0
  0
LINE
  5
455
330
25
100
AcDbEntity
  8
HIDDEN
100
AcDbLine
 10
-57.500702622028
 20
100.424840783756
 30
0.0
 11
-57.500702622028
 21
101.028791070687
 31
0.0
  0
LINE
  5
456
330
25
100
AcDbEntity
  8
HIDDEN
100
AcDbLine
 10
-55.824861786427
 20
101.832696267794
 30
0.0
 11
-57.300713806687
 21
101.832696267794
 31
0.0
  0
LINE
  5
457
330
25
100
AcDbEntity
  8
HIDDEN
100
AcDbLine
 10
-46.791782166062
 20
95.101361276391
 30
0.0
 11
-46.123836136456
 21
95.101361276391
 31
0.0
  0
LINE
  5
458
330
25
100
AcDbEntity
  8
中線
 62
     1
100
AcDbLine
 10
-37.625693115748
 20
142.197667749178
 30
0.0
 11
-38.775565231926
 21
142.197667749178
 31
0.0
  0
LINE
  5
459
330
25
100
AcDbEntity
  8
HIDDEN
100
AcDbLine
 10
-46.123835947142
 20
96.101274454296
 30
0.0
 11
-46.791782245943
 21
97.10117232562
 31
0.0
  0
LINE
  5
45A
330
25
100
AcDbEntity
  8
HIDDEN
100
AcDbLine
 10
-46.791782166062
 20
96.101271447819
 30
0.0
 11
-46.123836136456
 21
96.101271447819
 31
0.0
  0
LINE
  5
45B
330
25
100
AcDbEntity
  8
中線
 62
     1
100
AcDbLine
 10
-36.12583633476
 20
141.697721139617
 30
0.0
 11
-37.625693115748
 21
141.697721139617
 31
0.0
  0
LINE
  5
45C
330
25
100
AcDbEntity
  8
HIDDEN
100
AcDbLine
 10
-61.113334351169
 20
103.651531564408
 30
0.0
 11
-61.113334351169
 21
102.701614358629
 31
0.0
  0
LINE
  5
45D
330
25
100
AcDbEntity
  8
HIDDEN
100
AcDbLine
 10
-57.500702622028
 20
99.351950036783
 30
0.0
 11
-55.690886063228
 21
99.351950036783
 31
0.0
  0
LINE
  5
45E
330
25
100
AcDbEntity
  8
HIDDEN
100
AcDbLine
 10
-46.123842153299
 20
97.101174578172
 30
0.0
 11
-46.791788451989
 21
98.101072449496
 31
0.0
  0
LINE
  5
45F
330
25
100
AcDbEntity
  8
HIDDEN
100
AcDbLine
 10
-56.05884039367
 20
102.436646554726
 30
0.0
 11
-56.561787598253
 21
102.436646554726
 31
0.0
  0
LINE
  5
460
330
25
100
AcDbEntity
  8
HIDDEN
100
AcDbLine
 10
-76.121855024779
 20
93.10256243971
 30
0.0
 11
-75.454912061524
 21
94.101458741089
 31
0.0
  0
LINE
  5
461
330
25
100
AcDbEntity
  8
HIDDEN
100
AcDbLine
 10
-46.791782166062
 20
97.10116466683
 30
0.0
 11
-46.123836136456
 21
97.10116466683
 31
0.0
  0
LINE
  5
462
330
25
100
AcDbEntity
  8
HIDDEN
100
AcDbLine
 10
-56.461801666846
 20
104.247463311829
 30
0.0
 11
-56.461801666846
 21
104.851396646233
 31
0.0
  0
LINE
  5
463
330
25
100
AcDbEntity
  8
HIDDEN
100
AcDbLine
 10
-56.05884039367
 20
102.637618615843
 30
0.0
 11
-56.360815537025
 21
102.637618615843
 31
0.0
  0
LINE
  5
464
330
25
100
AcDbEntity
  8
中線
 62
     1
100
AcDbLine
 10
-37.625693115748
 20
142.197667749178
 30
0.0
 11
-37.625693115748
 21
141.697721139617
 31
0.0
  0
LINE
  5
465
330
25
100
AcDbEntity
  8
HIDDEN
100
AcDbLine
 10
-57.06573500114
 20
102.637618615843
 30
0.0
 11
-56.763776810201
 21
102.637618615843
 31
0.0
  0
LINE
  5
466
330
25
100
AcDbEntity
  8
HIDDEN
100
AcDbLine
 10
-55.824861786427
 20
103.241551950136
 30
0.0
 11
-56.360815537025
 21
103.241551950136
 31
0.0
  0
LINE
  5
467
330
25
100
AcDbEntity
  8
中線
 62
     1
100
AcDbLine
 10
-172.68310548458
 20
88.176191232432
 30
0.0
 11
-172.68310548458
 21
89.876019876235
 31
0.0
  0
LINE
  5
468
330
25
100
AcDbEntity
  8
HIDDEN
100
AcDbLine
 10
-57.06573500114
 20
102.436646554726
 30
0.0
 11
-56.763776810201
 21
102.436646554726
 31
0.0
  0
LINE
  5
469
330
25
100
AcDbEntity
  8
HIDDEN
100
AcDbLine
 10
-46.123837630862
 20
98.101072944558
 30
0.0
 11
-46.791789565655
 21
99.101986279548
 31
0.0
  0
LINE
  5
46A
330
25
100
AcDbEntity
  8
HIDDEN
100
AcDbLine
 10
-46.791782166062
 20
98.101074838368
 30
0.0
 11
-46.123836136456
 21
98.101074838368
 31
0.0
  0
LINE
  5
46B
330
25
100
AcDbEntity
  8
中線
 62
     1
100
AcDbLine
 10
-70.3324327088
 20
134.539399218066
 30
0.0
 11
-70.958367510393
 21
135.598308424
 31
0.0
  0
LINE
  5
46C
330
25
100
AcDbEntity
  8
HIDDEN
100
AcDbLine
 10
-56.763776810201
 20
102.436646554726
 30
0.0
 11
-56.763776810201
 21
102.637618615843
 31
0.0
  0
LINE
  5
46D
330
25
100
AcDbEntity
  8
HIDDEN
100
AcDbLine
 10
-75.621889725309
 20
111.000785714826
 30
0.0
 11
-74.372014725309
 21
111.000785714826
 31
0.0
  0
LINE
  5
46E
330
25
100
AcDbEntity
  8
HIDDEN
100
AcDbLine
 10
-75.621889725309
 20
111.000785714826
 30
0.0
 11
-75.621889725309
 21
110.851807016075
 31
0.0
  0
LINE
  5
46F
330
25
100
AcDbEntity
  8
HIDDEN
100
AcDbLine
 10
-46.123834801367
 20
104.101467568974
 30
0.0
 11
-46.791790516893
 21
105.101379537
 31
0.0
  0
LINE
  5
470
330
25
100
AcDbEntity
  8
HIDDEN
100
AcDbLine
 10
-75.621889725309
 20
113.350556817772
 30
0.0
 11
-75.621889725309
 21
111.900693002431
 31
0.0
  0
LINE
  5
471
330
25
100
AcDbEntity
  8
HIDDEN
100
AcDbLine
 10
-57.300713806687
 20
103.241551950136
 30
0.0
 11
-56.561787598253
 21
103.241551950136
 31
0.0
  0
LINE
  5
472
330
25
100
AcDbEntity
  8
HIDDEN
100
AcDbLine
 10
-76.12183633476
 20
122.099681817772
 30
0.0
 11
-76.12183633476
 21
90.101861276391
 31
0.0
  0
LINE
  5
473
330
25
100
AcDbEntity
  8
HIDDEN
100
AcDbLine
 10
-75.120925964918
 20
115.650318002431
 30
0.0
 11
-76.12183633476
 21
115.650318002431
 31
0.0
  0
LINE
  5
474
330
25
100
AcDbEntity
  8
HIDDEN
100
AcDbLine
 10
-76.121848931611
 20
108.101072588583
 30
0.0
 11
-75.455912153838
 21
109.101984150528
 31
0.0
  0
LINE
  5
475
330
25
100
AcDbEntity
  8
中線
 62
     1
100
AcDbLine
 10
-171.683195313042
 20
77.377269876235
 30
0.0
 11
-170.18335548458
 21
77.377269876235
 31
0.0
  0
LINE
  5
476
330
25
100
AcDbEntity
  8
HIDDEN
100
AcDbLine
 10
-75.621889725309
 20
122.099681817772
 30
0.0
 11
-75.621889725309
 21
118.948989160325
 31
0.0
  0
LINE
  5
477
330
25
100
AcDbEntity
  8
HIDDEN
100
AcDbLine
 10
-72.922150909969
 20
87.802117044148
 30
0.0
 11
-72.922150909969
 21
88.902996392981
 31
0.0
  0
LINE
  5
478
330
25
100
AcDbEntity
  8
HIDDEN
100
AcDbLine
 10
-49.324504807024
 20
87.802117044148
 30
0.0
 11
-49.324504807024
 21
88.902996392981
 31
0.0
  0
LINE
  5
479
330
25
100
AcDbEntity
  8
HIDDEN
100
AcDbLine
 10
-75.120925964918
 20
113.850503427222
 30
0.0
 11
-75.120925964918
 21
118.350056817772
 31
0.0
  0
LINE
  5
47A
330
25
100
AcDbEntity
  8
HIDDEN
100
AcDbLine
 10
-49.324504807024
 20
88.902996392981
 30
0.0
 11
-48.474607437705
 21
88.902996392981
 31
0.0
  0
LINE
  5
47B
330
25
100
AcDbEntity
  8
HIDDEN
100
AcDbLine
 10
-76.121859140257
 20
99.101960842425
 30
0.0
 11
-75.455923499259
 21
100.100856718958
 31
0.0
  0
LINE
  5
47C
330
25
100
AcDbEntity
  8
HIDDEN
100
AcDbLine
 10
-46.123836136456
 20
105.443581887898
 30
0.0
 11
-46.123836136456
 21
90.101861276391
 31
0.0
  0
LINE
  5
47D
330
25
100
AcDbEntity
  8
HIDDEN
100
AcDbLine
 10
-76.12183633476
 20
90.101861276391
 30
0.0
 11
-77.321718369112
 21
90.101861276391
 31
0.0
  0
LINE
  5
47E
330
25
100
AcDbEntity
  8
中線
 62
     1
100
AcDbLine
 10
-72.232249782426
 20
134.588420879299
 30
0.0
 11
-71.626302033372
 21
135.598323685807
 31
0.0
  0
LINE
  5
47F
330
25
100
AcDbEntity
  8
HIDDEN
100
AcDbLine
 10
-76.12183633476
 20
113.350556817772
 30
0.0
 11
-75.621889725309
 21
113.350556817772
 31
0.0
  0
LINE
  5
480
330
25
100
AcDbEntity
  8
中線
 62
     1
100
AcDbLine
 10
-168.303557336528
 20
146.197265691829
 30
0.0
 11
-166.803697053779
 21
145.697312327054
 31
0.0
  0
LINE
  5
481
330
25
100
AcDbEntity
  8
HIDDEN
100
AcDbLine
 10
-48.474607437705
 20
88.902996392981
 30
0.0
 11
-48.474607437705
 21
90.101861276391
 31
0.0
  0
LINE
  5
482
330
25
100
AcDbEntity
  8
HIDDEN
100
AcDbLine
 10
-75.621889725309
 20
111.900693002431
 30
0.0
 11
-74.372014725309
 21
111.900693002431
 31
0.0
  0
LINE
  5
483
330
25
100
AcDbEntity
  8
HIDDEN
100
AcDbLine
 10
-75.120925964918
 20
116.550225290036
 30
0.0
 11
-76.12183633476
 21
116.550225290036
 31
0.0
  0
LINE
  5
484
330
25
100
AcDbEntity
  8
中線
 62
     1
100
AcDbLine
 10
-57.633678146923
 20
134.598431817772
 30
0.0
 11
-59.498505615748
 21
134.598431817772
 31
0.0
  0
LINE
  5
485
330
25
100
AcDbEntity
  8
中線
 62
     1
100
AcDbLine
 10
-151.685195313042
 20
76.527355554278
 30
0.0
 11
-151.685195313042
 21
77.377269876235
 31
0.0
  0
LINE
  5
486
330
25
100
AcDbEntity
  8
中線
 62
     1
100
AcDbLine
 10
-152.68510548458
 20
74.877519876235
 30
0.0
 11
-152.68510548458
 21
73.177691232432
 31
0.0
  0
LINE
  5
487
330
25
100
AcDbEntity
  8
中線
 62
     1
100
AcDbLine
 10
-152.68510548458
 20
72.377769876235
 30
0.0
 11
-152.68510548458
 21
70.677941232432
 31
0.0
  0
LINE
  5
488
330
25
100
AcDbEntity
  8
中線
 62
     1
100
AcDbLine
 10
-151.685195313042
 20
72.377769876235
 30
0.0
 11
-151.685195313042
 21
70.677941232432
 31
0.0
  0
LINE
  5
48A
330
25
100
AcDbEntity
  8
中線
 62
     1
100
AcDbLine
 10
-67.772672012914
 20
137.198167749178
 30
0.0
 11
-67.772672012914
 21
141.197774530167
 31
0.0
  0
LINE
  5
48B
330
25
100
AcDbEntity
  8
中線
 62
     1
100
AcDbLine
 10
-67.172739471946
 20
137.198167749178
 30
0.0
 11
-67.172739471946
 21
141.197774530167
 31
0.0
  0
LINE
  5
48C
330
25
100
AcDbEntity
  8
中線
 62
     1
100
AcDbLine
 10
-152.68510548458
 20
85.676441232432
 30
0.0
 11
-152.68510548458
 21
87.376269876235
 31
0.0
  0
LINE
  5
48D
330
25
100
AcDbEntity
  8
中線
 62
     1
100
AcDbLine
 10
-51.934259674659
 20
137.698114358629
 30
0.0
 11
-49.994451233459
 21
137.698114358629
 31
0.0
  0
LINE
  5
48E
330
25
100
AcDbEntity
  8
中線
 62
     1
100
AcDbLine
 10
-152.68510548458
 20
83.176691232432
 30
0.0
 11
-152.68510548458
 21
84.876519876235
 31
0.0
  0
LINE
  5
48F
330
25
100
AcDbEntity
  8
中線
 62
     1
100
AcDbLine
 10
-49.994451233459
 20
141.197774530167
 30
0.0
 11
-49.394518692602
 21
141.197774530167
 31
0.0
  0
LINE
  5
490
330
25
100
AcDbEntity
  8
中線
 62
     1
100
AcDbLine
 10
-49.394518692602
 20
137.198167749178
 30
0.0
 11
-49.394518692602
 21
141.197774530167
 31
0.0
  0
LINE
  5
491
330
25
100
AcDbEntity
  8
中線
 62
     1
100
AcDbLine
 10
-49.994451233459
 20
137.198167749178
 30
0.0
 11
-49.994451233459
 21
141.197774530167
 31
0.0
  0
LINE
  5
492
330
25
100
AcDbEntity
  8
中線
 62
     1
100
AcDbLine
 10
-65.232931030857
 20
141.197774530167
 30
0.0
 11
-64.632981537362
 21
141.197774530167
 31
0.0
  0
LINE
  5
493
330
25
100
AcDbEntity
  8
中線
 62
     1
100
AcDbLine
 10
-54.474000656716
 20
137.698114358629
 30
0.0
 11
-52.534192215516
 21
137.698114358629
 31
0.0
  0
LINE
  5
494
330
25
100
AcDbEntity
  8
中線
 62
     1
100
AcDbLine
 10
-57.013741638774
 20
137.698114358629
 30
0.0
 11
-55.073933197573
 21
137.698114358629
 31
0.0
  0
LINE
  5
495
330
25
100
AcDbEntity
  8
中線
 62
     1
100
AcDbLine
 10
-59.553482620831
 20
137.698114358629
 30
0.0
 11
-57.613691132158
 21
137.698114358629
 31
0.0
  0
LINE
  5
496
330
25
100
AcDbEntity
  8
中線
 62
     1
100
AcDbLine
 10
-62.093240555415
 20
137.698114358629
 30
0.0
 11
-60.153432114215
 21
137.698114358629
 31
0.0
  0
LINE
  5
497
330
25
100
AcDbEntity
  8
中線
 62
     1
100
AcDbLine
 10
-64.632981537362
 20
137.698114358629
 30
0.0
 11
-62.693190048799
 21
137.698114358629
 31
0.0
  0
LINE
  5
498
330
25
100
AcDbEntity
  8
中線
 62
     1
100
AcDbLine
 10
-67.172739471946
 20
137.698114358629
 30
0.0
 11
-65.232931030857
 21
137.698114358629
 31
0.0
  0
LINE
  5
499
330
25
100
AcDbEntity
  8
中線
 62
     1
100
AcDbLine
 10
-69.712480454003
 20
137.698114358629
 30
0.0
 11
-67.772672012914
 21
137.698114358629
 31
0.0
  0
LINE
  5
49A
330
25
100
AcDbEntity
  8
中線
 62
     1
100
AcDbLine
 10
-165.503817245982
 20
65.308469552745
 30
0.0
 11
-165.503817245982
 21
64.66854602983
 31
0.0
  0
LINE
  5
49B
330
25
100
AcDbEntity
  8
中線
 62
     1
100
AcDbLine
 10
-165.503817245982
 20
67.848227487329
 30
0.0
 11
-165.503817245982
 21
67.208287011888
 31
0.0
  0
LINE
  5
49C
330
25
100
AcDbEntity
  8
中線
 62
     1
100
AcDbLine
 10
-164.86387677054
 20
65.308469552745
 30
0.0
 11
-164.86387677054
 21
64.66854602983
 31
0.0
  0
LINE
  5
49D
330
25
100
AcDbEntity
  8
中線
 62
     1
100
AcDbLine
 10
-164.86387677054
 20
67.848227487329
 30
0.0
 11
-164.86387677054
 21
67.208287011888
 31
0.0
  0
LINE
  5
4AC
330
25
100
AcDbEntity
  8
中線
 62
     1
100
AcDbLine
 10
-165.923781891428
 20
88.806129724283
 30
0.0
 11
-164.42392511044
 21
88.806129724283
 31
0.0
  0
LINE
  5
4AD
330
25
100
AcDbEntity
  8
中線
 62
     1
100
AcDbLine
 10
-72.252221436061
 20
137.698114358629
 30
0.0
 11
-70.312412994971
 21
137.698114358629
 31
0.0
  0
LINE
  5
4AE
330
25
100
AcDbEntity
  8
中線
 62
     1
100
AcDbLine
 10
-151.685195313042
 20
83.176691232432
 30
0.0
 11
-151.685195313042
 21
84.876519876235
 31
0.0
  0
LINE
  5
4AF
330
25
100
AcDbEntity
  8
中線
 62
     1
100
AcDbLine
 10
-151.685195313042
 20
80.676941232432
 30
0.0
 11
-151.685195313042
 21
82.376769876235
 31
0.0
  0
LINE
  5
4B0
330
25
100
AcDbEntity
  8
中線
 62
     1
100
AcDbLine
 10
-165.503817245982
 20
64.66854602983
 30
0.0
 11
-164.86387677054
 21
64.66854602983
 31
0.0
  0
LINE
  5
4B1
330
25
100
AcDbEntity
  8
中線
 62
     1
100
AcDbLine
 10
-165.503817245982
 20
65.308469552745
 30
0.0
 11
-164.86387677054
 21
65.308469552745
 31
0.0
  0
LINE
  5
4B2
330
25
100
AcDbEntity
  8
中線
 62
     1
100
AcDbLine
 10
-165.503817245982
 20
67.208287011888
 30
0.0
 11
-164.86387677054
 21
67.208287011888
 31
0.0
  0
LINE
  5
4B3
330
25
100
AcDbEntity
  8
中線
 62
     1
100
AcDbLine
 10
-165.503817245982
 20
67.848227487329
 30
0.0
 11
-164.86387677054
 21
67.848227487329
 31
0.0
  0
LINE
  5
4B4
330
25
100
AcDbEntity
  8
中線
 62
     1
100
AcDbLine
 10
-165.503817245982
 20
69.748027993945
 30
0.0
 11
-164.86387677054
 21
69.748027993945
 31
0.0
  0
LINE
  5
4B5
330
25
100
AcDbEntity
  8
中線
 62
     1
100
AcDbLine
 10
-165.503817245982
 20
70.387968469386
 30
0.0
 11
-164.86387677054
 21
70.387968469386
 31
0.0
  0
LINE
  5
4B6
330
25
100
AcDbEntity
  8
中線
 62
     1
100
AcDbLine
 10
-164.86387677054
 20
70.387968469386
 30
0.0
 11
-164.86387677054
 21
69.748027993945
 31
0.0
  0
LINE
  5
4B7
330
25
100
AcDbEntity
  8
中線
 62
     1
100
AcDbLine
 10
-165.503817245982
 20
70.387968469386
 30
0.0
 11
-165.503817245982
 21
69.748027993945
 31
0.0
  0
LINE
  5
4B8
330
25
100
AcDbEntity
  8
中線
 62
     1
100
AcDbLine
 10
-166.43373048458
 20
66.258386758524
 30
0.0
 11
-163.93398048458
 21
66.258386758524
 31
0.0
  0
LINE
  5
4B9
330
25
100
AcDbEntity
  8
中線
 62
     1
100
AcDbLine
 10
-166.423728500878
 20
71.307879724283
 30
0.0
 11
-163.923978500878
 21
71.307879724283
 31
0.0
  0
LINE
  5
4BA
330
25
100
AcDbEntity
  8
中線
 62
     1
100
AcDbLine
 10
-166.43373048458
 20
71.337868722639
 30
0.0
 11
-163.93398048458
 21
71.337868722639
 31
0.0
  0
LINE
  5
4BB
330
25
100
AcDbEntity
  8
中線
 62
     1
100
AcDbLine
 10
-166.43373048458
 20
63.718645776467
 30
0.0
 11
-163.93398048458
 21
63.718645776467
 31
0.0
  0
LINE
  5
4BE
330
25
100
AcDbEntity
  8
中線
 62
     1
100
AcDbLine
 10
-43.355100586479
 20
142.697614358629
 30
0.0
 11
-41.355314148456
 21
142.697614358629
 31
0.0
  0
LINE
  5
4BF
330
25
100
AcDbEntity
  8
中線
 62
     1
100
AcDbLine
 10
-153.065077839544
 20
146.197255544621
 30
0.0
 11
-151.565233639409
 21
145.697307540755
 31
0.0
  0
LINE
  5
4C0
330
25
100
AcDbEntity
  8
中線
 62
     1
100
AcDbLine
 10
-152.065168976431
 20
148.197077920606
 30
0.0
 11
-152.065168976431
 21
146.197274530167
 31
0.0
  0
LINE
  5
4C1
330
25
100
AcDbEntity
  8
中線
 62
     1
100
AcDbLine
 10
-170.203342499345
 20
147.897103173969
 30
0.0
 11
-170.203342499345
 21
149.196971139617
 31
0.0
  0
LINE
  5
4C2
330
25
100
AcDbEntity
  8
中線
 62
     1
100
AcDbLine
 10
-153.065062195331
 20
149.196971139617
 30
0.0
 11
-154.164958298276
 21
149.196971139617
 31
0.0
  0
LINE
  5
4C3
330
25
100
AcDbEntity
  8
中線
 62
     1
100
AcDbLine
 10
-171.683195313042
 20
78.177191232432
 30
0.0
 11
-170.18335548458
 21
78.177191232432
 31
0.0
  0
LINE
  5
4C4
330
25
100
AcDbEntity
  8
中線
 62
     1
100
AcDbLine
 10
-154.184945313042
 20
89.876019876235
 30
0.0
 11
-152.68510548458
 21
89.876019876235
 31
0.0
  0
LINE
  5
4C5
330
25
100
AcDbEntity
  8
中線
 62
     1
100
AcDbLine
 10
-72.852153977029
 20
137.198167749178
 30
0.0
 11
-72.852153977029
 21
141.197774530167
 31
0.0
  0
LINE
  5
4C6
330
25
100
AcDbEntity
  8
中線
 62
     1
100
AcDbLine
 10
-152.68510548458
 20
90.675941232432
 30
0.0
 11
-152.68510548458
 21
91.925816232432
 31
0.0
  0
LINE
  5
4C7
330
25
100
AcDbEntity
  8
中線
 62
     1
100
AcDbLine
 10
-154.064955414343
 20
51.429869622871
 30
0.0
 11
-154.064955414343
 21
52.229774026653
 31
0.0
  0
LINE
  5
4C8
330
25
100
AcDbEntity
  8
中線
 62
     1
100
AcDbLine
 10
-152.68510548458
 20
78.177191232432
 30
0.0
 11
-152.68510548458
 21
79.877019876235
 31
0.0
  0
LINE
  5
4C9
330
25
100
AcDbEntity
  8
中線
 62
     1
100
AcDbLine
 10
-170.18335548458
 20
84.876519876235
 30
0.0
 11
-170.18335548458
 21
85.676441232432
 31
0.0
  0
LINE
  5
4CA
330
25
100
AcDbEntity
  8
中線
 62
     1
100
AcDbLine
 10
-152.68510548458
 20
61.128894876235
 30
0.0
 11
-151.685195313042
 21
61.128894876235
 31
0.0
  0
LINE
  5
4CB
330
25
100
AcDbEntity
  8
中線
 62
     1
100
AcDbLine
 10
-174.182945313042
 20
82.376769876235
 30
0.0
 11
-174.182945313042
 21
83.176691232432
 31
0.0
  0
LINE
  5
4CC
330
25
100
AcDbEntity
  8
HIDDEN
100
AcDbLine
 10
-133.684998306873
 20
120.989461633449
 30
0.0
 11
-133.684998306873
 21
122.099681817772
 31
0.0
  0
LINE
  5
4CD
330
25
100
AcDbEntity
  8
中線
 62
     1
100
AcDbLine
 10
-142.736098450228
 20
145.797296899486
 30
0.0
 11
-145.735795059789
 21
145.797296899486
 31
0.0
  0
LINE
  5
4CE
330
25
100
AcDbEntity
  8
中線
 62
     1
100
AcDbLine
 10
-146.035769806425
 20
144.947399530167
 30
0.0
 11
-148.135559128382
 21
144.947399530167
 31
0.0
  0
LINE
  5
4CF
330
25
100
AcDbEntity
  8
中線
 62
     1
100
AcDbLine
 10
-145.735795059789
 20
154.096468255683
 30
0.0
 11
-146.685695313042
 21
154.096468255683
 31
0.0
  0
LINE
  5
4D0
330
25
100
AcDbEntity
  8
中線
 62
     1
100
AcDbLine
 10
-141.786181244448
 20
154.096468255683
 30
0.0
 11
-142.736098450228
 21
154.096468255683
 31
0.0
  0
LINE
  5
4D1
330
25
100
AcDbEntity
  8
中線
 62
     1
100
AcDbLine
 10
-151.685195313042
 20
74.877519876235
 30
0.0
 11
-151.685195313042
 21
73.177691232432
 31
0.0
  0
LINE
  5
4D2
330
25
100
AcDbEntity
  8
中線
 62
     1
100
AcDbLine
 10
-142.736098450228
 20
154.096468255683
 30
0.0
 11
-142.736098450228
 21
145.797296899486
 31
0.0
  0
LINE
  5
4D3
330
25
100
AcDbEntity
  8
HIDDEN
100
AcDbLine
 10
-177.68260548458
 20
122.099681817772
 30
0.0
 11
-168.129982147783
 21
122.099681817772
 31
0.0
  0
LINE
  5
4D4
330
25
100
AcDbEntity
  8
中線
 62
     1
100
AcDbLine
 10
-156.064744560428
 20
146.197279138484
 30
0.0
 11
-157.56460522014
 21
145.697326904596
 31
0.0
  0
LINE
  5
4D5
330
25
100
AcDbEntity
  8
中線
 62
     1
100
AcDbLine
 10
-163.18405209403
 20
141.197774530167
 30
0.0
 11
-161.184248703591
 21
141.197774530167
 31
0.0
  0
LINE
  5
4D6
330
25
100
AcDbEntity
  8
中線
 62
     1
100
AcDbLine
 10
-155.76478865313
 20
145.197372507258
 30
0.0
 11
-157.564605107262
 21
144.697423368505
 31
0.0
  0
LINE
  5
4D7
330
25
100
AcDbEntity
  8
中線
 62
     1
100
AcDbLine
 10
-43.355100586479
 20
155.196364358629
 30
0.0
 11
-43.355100586479
 21
142.697614358629
 31
0.0
  0
LINE
  5
4D8
330
25
100
AcDbEntity
  8
中線
 62
     1
100
AcDbLine
 10
-171.30323860229
 20
149.196971139617
 30
0.0
 11
-170.203342499345
 21
149.196971139617
 31
0.0
  0
LINE
  5
4D9
330
25
100
AcDbEntity
  8
中線
 62
     1
100
AcDbLine
 10
-169.403438095674
 20
147.897103173969
 30
0.0
 11
-170.203342499345
 21
147.897103173969
 31
0.0
  0
LINE
  5
4DA
330
25
100
AcDbEntity
  8
HIDDEN
100
AcDbLine
 10
-58.373604553771
 20
122.099681817772
 30
0.0
 11
-58.373604553771
 21
124.299457071024
 31
0.0
  0
LINE
  5
4DB
330
25
100
AcDbEntity
  8
HIDDEN
100
AcDbLine
 10
-61.12333633476
 20
122.099681817772
 30
0.0
 11
-61.12333633476
 21
124.299457071024
 31
0.0
  0
LINE
  5
4DC
330
25
100
AcDbEntity
  8
HIDDEN
100
AcDbLine
 10
-63.873068115748
 20
122.099681817772
 30
0.0
 11
-63.873068115748
 21
124.299457071024
 31
0.0
  0
LINE
  5
4DD
330
25
100
AcDbEntity
  8
HIDDEN
100
AcDbLine
 10
-159.184445313042
 20
122.099681817772
 30
0.0
 11
-159.184445313042
 21
135.598325036783
 31
0.0
  0
LINE
  5
4E0
330
25
100
AcDbEntity
  8
HIDDEN
100
AcDbLine
 10
-62.567198959946
 20
120.527827707014
 30
0.0
 11
-62.567198959946
 21
119.215957360946
 31
0.0
  0
LINE
  5
4E1
330
25
100
AcDbEntity
  8
HIDDEN
100
AcDbLine
 10
-63.567092178846
 20
120.527827707014
 30
0.0
 11
-63.567092178846
 21
119.215957360946
 31
0.0
  0
LINE
  5
4E2
330
25
100
AcDbEntity
  8
HIDDEN
100
AcDbLine
 10
-58.678580292258
 20
120.527827707014
 30
0.0
 11
-58.678580292258
 21
119.215957360946
 31
0.0
  0
LINE
  5
4E7
330
25
100
AcDbEntity
  8
中線
 62
     1
100
AcDbLine
 10
-74.959944885858
 20
131.705705575659
 30
0.0
 11
-74.959944885858
 21
130.905801171988
 31
0.0
  0
LINE
  5
4E8
330
25
100
AcDbEntity
  8
中線
 62
     1
100
AcDbLine
 10
-74.959944885858
 20
133.805511850143
 30
0.0
 11
-74.959944885858
 21
133.005590493945
 31
0.0
  0
LINE
  5
4E9
330
25
100
AcDbEntity
  8
中線
 62
     1
100
AcDbLine
 10
-76.559813963505
 20
132.355644365502
 30
0.0
 11
-74.959965229712
 21
130.905790088875
 31
0.0
  0
LINE
  5
4EA
330
25
100
AcDbEntity
  8
中線
 62
     1
100
AcDbLine
 10
-76.559815999302
 20
132.35564945566
 30
0.0
 11
-74.959967265509
 21
133.805503732399
 31
0.0
  0
LINE
  5
4EB
330
25
100
AcDbEntity
  8
中線
 62
     1
100
AcDbLine
 10
-72.696190842235
 20
133.005590493945
 30
0.0
 11
-72.696190842235
 21
131.705705575659
 31
0.0
  0
LINE
  5
4EC
330
25
100
AcDbEntity
  8
中線
 62
     1
100
AcDbLine
 10
-74.959944885858
 20
131.705705575659
 30
0.0
 11
-72.696190842235
 21
131.705705575659
 31
0.0
  0
LINE
  5
4ED
330
25
100
AcDbEntity
  8
中線
 62
     1
100
AcDbLine
 10
-74.959944885858
 20
133.005590493945
 30
0.0
 11
-72.696190842235
 21
133.005590493945
 31
0.0
  0
LINE
  5
4EE
330
25
100
AcDbEntity
  8
中線
 62
     1
100
AcDbLine
 10
-151.685195313042
 20
68.178191232432
 30
0.0
 11
-150.18535548458
 21
68.178191232432
 31
0.0
  0
LINE
  5
4EF
330
25
100
AcDbEntity
  8
中線
 62
     1
100
AcDbLine
 10
-152.68510548458
 20
76.527355554278
 30
0.0
 11
-152.68510548458
 21
75.677441232432
 31
0.0
  0
LINE
  5
4F0
330
25
100
AcDbEntity
  8
中線
 62
     1
100
AcDbLine
 10
-151.685195313042
 20
76.527355554278
 30
0.0
 11
-151.685195313042
 21
75.677441232432
 31
0.0
  0
LINE
  5
4F1
330
25
100
AcDbEntity
  8
中線
 62
     1
100
AcDbLine
 10
-174.182945313042
 20
77.377269876235
 30
0.0
 11
-172.68310548458
 21
77.377269876235
 31
0.0
  0
LINE
  5
4F2
330
25
100
AcDbEntity
  8
中線
 62
     1
100
AcDbLine
 10
-149.285448196975
 20
60.028998773289
 30
0.0
 11
-155.084869553173
 21
60.028998773289
 31
0.0
  0
LINE
  5
4F3
330
25
100
AcDbEntity
  8
中線
 62
     1
100
AcDbLine
 10
-145.735795059789
 20
154.096468255683
 30
0.0
 11
-145.735795059789
 21
145.797296899486
 31
0.0
  0
LINE
  5
4F4
330
25
100
AcDbEntity
  8
中線
 62
     1
100
AcDbLine
 10
-149.285448196975
 20
93.025712335266
 30
0.0
 11
-155.084869553173
 21
93.025712335266
 31
0.0
  0
LINE
  5
4F5
330
25
100
AcDbEntity
  8
中線
 62
     1
100
AcDbLine
 10
-148.785484634998
 20
124.299457071024
 30
0.0
 11
-155.584816162623
 21
124.299457071024
 31
0.0
  0
LINE
  5
4F6
330
25
100
AcDbEntity
  8
中線
 62
     1
100
AcDbLine
 10
-141.786181244448
 20
154.096468255683
 30
0.0
 11
-141.786181244448
 21
164.045475290036
 31
0.0
  0
LINE
  5
4F7
330
25
100
AcDbEntity
  8
中線
 62
     1
100
AcDbLine
 10
-155.584816162623
 20
98.525158944828
 30
0.0
 11
-155.584816162623
 21
54.529552163839
 31
0.0
  0
LINE
  5
4F8
330
25
100
AcDbEntity
  8
中線
 62
     1
100
AcDbLine
 10
-146.685695313042
 20
154.096468255683
 30
0.0
 11
-146.685695313042
 21
164.045475290036
 31
0.0
  0
LINE
  5
4F9
330
25
100
AcDbEntity
  8
中線
 62
     1
100
AcDbLine
 10
-147.035663025437
 20
155.196364358629
 30
0.0
 11
-148.135559128382
 21
155.196364358629
 31
0.0
  0
LINE
  5
4FA
330
25
100
AcDbEntity
  8
中線
 62
     1
100
AcDbLine
 10
-146.035769806425
 20
153.596521646233
 30
0.0
 11
-147.035663025437
 21
153.596521646233
 31
0.0
  0
LINE
  5
4FB
330
25
100
AcDbEntity
  8
中線
 62
     1
100
AcDbLine
 10
-141.43623048458
 20
153.596521646233
 30
0.0
 11
-142.436123703591
 21
153.596521646233
 31
0.0
  0
LINE
  5
4FC
330
25
100
AcDbEntity
  8
中線
 62
     1
100
AcDbLine
 10
-146.035769806425
 20
150.796796899486
 30
0.0
 11
-147.035663025437
 21
150.796796899486
 31
0.0
  0
LINE
  5
4FD
330
25
100
AcDbEntity
  8
中線
 62
     1
100
AcDbLine
 10
-174.182945313042
 20
88.176191232432
 30
0.0
 11
-172.68310548458
 21
88.176191232432
 31
0.0
  0
LINE
  5
4FE
330
25
100
AcDbEntity
  8
中線
 62
     1
100
AcDbLine
 10
-147.035663025437
 20
155.196364358629
 30
0.0
 11
-147.035663025437
 21
150.796796899486
 31
0.0
  0
LINE
  5
4FF
330
25
100
AcDbEntity
  8
中線
 62
     1
100
AcDbLine
 10
-141.43623048458
 20
155.196364358629
 30
0.0
 11
-141.43623048458
 21
150.796796899486
 31
0.0
  0
LINE
  5
500
330
25
100
AcDbEntity
  8
HIDDEN
100
AcDbLine
 10
-170.68330209403
 20
121.238070260766
 30
0.0
 11
-170.68330209403
 21
122.099681817772
 31
0.0
  0
LINE
  5
501
330
25
100
AcDbEntity
  8
中線
 62
     1
100
AcDbLine
 10
-141.43623048458
 20
150.796796899486
 30
0.0
 11
-142.436123703591
 21
150.796796899486
 31
0.0
  0
LINE
  5
502
330
25
100
AcDbEntity
  8
中線
 62
     1
100
AcDbLine
 10
-146.035769806425
 20
153.596521646233
 30
0.0
 11
-146.035769806425
 21
142.697614358629
 31
0.0
  0
LINE
  5
503
330
25
100
AcDbEntity
  8
中線
 62
     1
100
AcDbLine
 10
-150.885278817469
 20
138.299078830282
 30
0.0
 11
-150.398325670431
 21
137.198185703605
 31
0.0
  0
LINE
  5
504
330
25
100
AcDbEntity
  8
中線
 62
     1
100
AcDbLine
 10
-142.436123703591
 20
142.697614358629
 30
0.0
 11
-146.035769806425
 21
142.697614358629
 31
0.0
  0
LINE
  5
505
330
25
100
AcDbEntity
  8
中線
 62
     1
100
AcDbLine
 10
-142.436123703591
 20
153.596521646233
 30
0.0
 11
-142.436123703591
 21
142.697614358629
 31
0.0
  0
LINE
  5
506
330
25
100
AcDbEntity
  8
中線
 62
     1
100
AcDbLine
 10
-148.435533875019
 20
151.096771646233
 30
0.0
 11
-148.435533875019
 21
148.047082071024
 31
0.0
  0
LINE
  5
507
330
25
100
AcDbEntity
  8
中線
 62
     1
100
AcDbLine
 10
-148.135559128382
 20
148.047082071024
 30
0.0
 11
-148.435533875019
 21
148.047082071024
 31
0.0
  0
LINE
  5
508
330
25
100
AcDbEntity
  8
中線
 62
     1
100
AcDbLine
 10
-148.135559128382
 20
151.096771646233
 30
0.0
 11
-148.435533875019
 21
151.096771646233
 31
0.0
  0
LINE
  5
509
330
25
100
AcDbEntity
  8
HIDDEN
100
AcDbLine
 10
-175.68280209403
 20
121.547131555324
 30
0.0
 11
-175.68280209403
 21
122.099681817772
 31
0.0
  0
LINE
  5
50A
330
25
100
AcDbEntity
  8
中線
 62
     1
100
AcDbLine
 10
-171.683195313042
 20
90.675941232432
 30
0.0
 11
-170.18335548458
 21
90.675941232432
 31
0.0
  0
LINE
  5
50B
330
25
100
AcDbEntity
  8
中線
 62
     1
100
AcDbLine
 10
-149.285448196975
 20
54.029605554278
 30
0.0
 11
-155.084869553173
 21
54.029605554278
 31
0.0
  0
LINE
  5
50C
330
25
100
AcDbEntity
  8
中線
 62
     1
100
AcDbLine
 10
-155.584816162623
 20
124.299457071024
 30
0.0
 11
-155.584816162623
 21
135.598325036783
 31
0.0
  0
LINE
  5
50D
330
25
100
AcDbEntity
  8
中線
 62
     1
100
AcDbLine
 10
-139.836387772185
 20
155.196364358629
 30
0.0
 11
-139.836387772185
 21
137.198167749178
 31
0.0
  0
LINE
  5
50E
330
25
100
AcDbEntity
  8
中線
 62
     1
100
AcDbLine
 10
-148.785484634998
 20
98.525158944828
 30
0.0
 11
-148.785484634998
 21
54.529552163839
 31
0.0
  0
LINE
  5
50F
330
25
100
AcDbEntity
  8
中線
 62
     1
100
AcDbLine
 10
-139.836387772185
 20
144.947399530167
 30
0.0
 11
-142.436123703591
 21
144.947399530167
 31
0.0
  0
LINE
  5
510
330
25
100
AcDbEntity
  8
中線
 62
     1
100
AcDbLine
 10
-148.135559128382
 20
155.196364358629
 30
0.0
 11
-148.135559128382
 21
137.198167749178
 31
0.0
  0
LINE
  5
514
330
25
100
AcDbEntity
  8
中線
 62
     1
100
AcDbLine
 10
-44.624979553771
 20
129.598931817772
 30
0.0
 11
-38.62558633476
 21
129.598931817772
 31
0.0
  0
LINE
  5
515
330
25
100
AcDbEntity
  8
HIDDEN
100
AcDbLine
 10
-62.423204300519
 20
120.527827707014
 30
0.0
 11
-62.423204300519
 21
122.099681817772
 31
0.0
  0
LINE
  5
516
330
25
100
AcDbEntity
  8
中線
 62
     1
100
AcDbLine
 10
-174.182945313042
 20
78.177191232432
 30
0.0
 11
-172.68310548458
 21
78.177191232432
 31
0.0
  0
LINE
  5
51B
330
25
100
AcDbEntity
  8
HIDDEN
100
AcDbLine
 10
-46.123849934521
 20
99.101964862023
 30
0.0
 11
-46.790792897776
 21
100.100861163403
 31
0.0
  0
LINE
  5
51C
330
25
100
AcDbEntity
  8
HIDDEN
100
AcDbLine
 10
-46.791782166062
 20
99.101968255683
 30
0.0
 11
-46.123836136456
 21
99.101968255683
 31
0.0
  0
LINE
  5
51D
330
25
100
AcDbEntity
  8
HIDDEN
100
AcDbLine
 10
-75.455907654399
 20
99.101968255683
 30
0.0
 11
-76.12183633476
 21
99.101968255683
 31
0.0
  0
LINE
  5
51E
330
25
100
AcDbEntity
  8
中線
 62
     1
100
AcDbLine
 10
-170.18335548458
 20
77.377269876235
 30
0.0
 11
-170.18335548458
 21
78.177191232432
 31
0.0
  0
LINE
  5
520
330
25
100
AcDbEntity
  8
HIDDEN
100
AcDbLine
 10
-59.67847351127
 20
120.527827707014
 30
0.0
 11
-59.67847351127
 21
119.215957360946
 31
0.0
  0
LINE
  5
521
330
25
100
AcDbEntity
  8
HIDDEN
100
AcDbLine
 10
-59.823468369112
 20
120.527827707014
 30
0.0
 11
-59.823468369112
 21
122.099681817772
 31
0.0
  0
LINE
  5
522
330
25
100
AcDbEntity
  8
中線
 62
     1
100
AcDbLine
 10
-36.12583633476
 20
141.697721139617
 30
0.0
 11
-36.12583633476
 21
137.198167749178
 31
0.0
  0
LINE
  5
524
330
25
100
AcDbEntity
  8
HIDDEN
100
AcDbLine
 10
-76.121844477279
 20
98.101069942414
 30
0.0
 11
-75.455907699394
 21
99.101981504358
 31
0.0
  0
LINE
  5
527
330
25
100
AcDbEntity
  8
中線
 62
     1
100
AcDbLine
 10
-174.182945313042
 20
77.377269876235
 30
0.0
 11
-174.182945313042
 21
78.177191232432
 31
0.0
  0
LINE
  5
528
330
25
100
AcDbEntity
  8
中線
 62
     1
100
AcDbLine
 10
-163.683998703591
 20
149.196971139617
 30
0.0
 11
-162.584119553173
 21
149.196971139617
 31
0.0
  0
LINE
  5
530
330
25
100
AcDbEntity
  8
中線
 62
     1
100
AcDbLine
 10
-174.182945313042
 20
74.877519876235
 30
0.0
 11
-172.68310548458
 21
74.877519876235
 31
0.0
  0
LINE
  5
531
330
25
100
AcDbEntity
  8
中線
 62
     1
100
AcDbLine
 10
-164.683908875019
 20
148.197077920606
 30
0.0
 11
-164.683908875019
 21
146.197274530167
 31
0.0
  0
LINE
  5
532
330
25
100
AcDbEntity
  8
中線
 62
     1
100
AcDbLine
 10
-151.565205414343
 20
151.796707071024
 30
0.0
 11
-149.945375687182
 21
151.796707071024
 31
0.0
  0
LINE
  5
533
330
25
100
AcDbEntity
  8
中線
 62
     1
100
AcDbLine
 10
-170.18335548458
 20
65.678441232432
 30
0.0
 11
-170.18335548458
 21
64.878519876235
 31
0.0
  0
LINE
  5
534
330
25
100
AcDbEntity
  8
中線
 62
     1
100
AcDbLine
 10
-163.384026659574
 20
145.197382002975
 30
0.0
 11
-165.183843113706
 21
144.697432864222
 31
0.0
  0
LINE
  5
535
330
25
100
AcDbEntity
  8
中線
 62
     1
100
AcDbLine
 10
-174.182945313042
 20
65.678441232432
 30
0.0
 11
-174.182945313042
 21
64.878519876235
 31
0.0
  0
LINE
  5
536
330
25
100
AcDbEntity
  8
中線
 62
     1
100
AcDbLine
 10
-171.683195313042
 20
63.178691232432
 30
0.0
 11
-170.18335548458
 21
63.178691232432
 31
0.0
  0
LINE
  5
537
330
25
100
AcDbEntity
  8
中線
 62
     1
100
AcDbLine
 10
-143.036056244448
 20
134.58842983407
 30
0.0
 11
-143.036056244448
 21
134.198471139617
 31
0.0
  0
LINE
  5
538
330
25
100
AcDbEntity
  8
中線
 62
     1
100
AcDbLine
 10
-172.68310548458
 20
80.676941232432
 30
0.0
 11
-172.68310548458
 21
82.376769876235
 31
0.0
  0
LINE
  5
539
330
25
100
AcDbEntity
  8
中線
 62
     1
100
AcDbLine
 10
-142.396132721534
 20
134.198471139617
 30
0.0
 11
-143.036056244448
 21
134.198471139617
 31
0.0
  0
LINE
  5
53A
330
25
100
AcDbEntity
  8
中線
 62
     1
100
AcDbLine
 10
-142.396131289677
 20
134.539434487317
 30
0.0
 11
-141.770208095701
 21
135.598311206944
 31
0.0
  0
LINE
  5
53B
330
25
100
AcDbEntity
  8
中線
 62
     1
100
AcDbLine
 10
-150.885273956844
 20
138.299064050427
 30
0.0
 11
-150.885273956844
 21
139.597931817772
 31
0.0
  0
LINE
  5
53C
330
25
100
AcDbEntity
  8
中線
 62
     1
100
AcDbLine
 10
-150.885273956844
 20
139.597931817772
 30
0.0
 11
-151.485223450228
 21
139.597931817772
 31
0.0
  0
LINE
  5
53D
330
25
100
AcDbEntity
  8
中線
 62
     1
100
AcDbLine
 10
-153.485027345283
 20
138.188039056704
 30
0.0
 11
-153.996963825737
 21
137.198158890509
 31
0.0
  0
LINE
  5
53E
330
25
100
AcDbEntity
  8
中線
 62
     1
100
AcDbLine
 10
-154.184945313042
 20
68.178191232432
 30
0.0
 11
-152.68510548458
 21
68.178191232432
 31
0.0
  0
LINE
  5
53F
330
25
100
AcDbEntity
  8
中線
 62
     1
100
AcDbLine
 10
-143.036059428352
 20
134.588436347752
 30
0.0
 11
-143.641998455278
 21
135.598324617603
 31
0.0
  0
LINE
  5
540
330
25
100
AcDbEntity
  8
中線
 62
     1
100
AcDbLine
 10
-154.184945313042
 20
69.878019876235
 30
0.0
 11
-152.68510548458
 21
69.878019876235
 31
0.0
  0
LINE
  5
541
330
25
100
AcDbEntity
  8
中線
 62
     1
100
AcDbLine
 10
-152.68510548458
 20
88.176191232432
 30
0.0
 11
-152.68510548458
 21
89.876019876235
 31
0.0
  0
LINE
  5
542
330
25
100
AcDbEntity
  8
中線
 62
     1
100
AcDbLine
 10
-151.685195313042
 20
77.377269876235
 30
0.0
 11
-150.18535548458
 21
77.377269876235
 31
0.0
  0
LINE
  5
543
330
25
100
AcDbEntity
  8
HIDDEN
100
AcDbLine
 10
-58.574593567415
 20
101.028791070687
 30
0.0
 11
-57.500702622028
 21
101.028791070687
 31
0.0
  0
LINE
  5
544
330
25
100
AcDbEntity
  8
中線
 62
     1
100
AcDbLine
 10
-55.093937164866
 20
134.598431817772
 30
0.0
 11
-56.958764633691
 21
134.598431817772
 31
0.0
  0
LINE
  5
545
330
25
100
AcDbEntity
  8
HIDDEN
100
AcDbLine
 10
-46.123837631529
 20
94.101464789818
 30
0.0
 11
-46.79178393033
 21
95.101362661142
 31
0.0
  0
LINE
  5
546
330
25
100
AcDbEntity
  8
HIDDEN
100
AcDbLine
 10
-46.123836136456
 20
90.101861276391
 30
0.0
 11
-44.924954300519
 21
90.101861276391
 31
0.0
  0
LINE
  5
547
330
25
100
AcDbEntity
  8
中線
 62
     1
100
AcDbLine
 10
-69.692506047088
 20
134.588424200633
 30
0.0
 11
-69.086567020051
 21
135.598312470484
 31
0.0
  0
LINE
  5
548
330
25
100
AcDbEntity
  8
HIDDEN
100
AcDbLine
 10
-58.640589706919
 20
99.954883172773
 30
0.0
 11
-58.640589706919
 21
99.41894637459
 31
0.0
  0
LINE
  5
549
330
25
100
AcDbEntity
  8
HIDDEN
100
AcDbLine
 10
-74.372014725309
 20
103.101575036783
 30
0.0
 11
-75.621889725309
 21
103.101575036783
 31
0.0
  0
LINE
  5
54A
330
25
100
AcDbEntity
  8
HIDDEN
100
AcDbLine
 10
-57.500702622028
 20
103.040579889019
 30
0.0
 11
-57.500702622028
 21
102.034685479853
 31
0.0
  0
LINE
  5
54B
330
25
100
AcDbEntity
  8
中線
 62
     1
100
AcDbLine
 10
-164.183945313042
 20
144.697417749178
 30
0.0
 11
-164.183945313042
 21
143.697524530167
 31
0.0
  0
LINE
  5
54C
330
25
100
AcDbEntity
  8
中線
 62
     1
100
AcDbLine
 10
-170.303345383279
 20
51.429869622871
 30
0.0
 11
-169.303435211741
 21
51.429869622871
 31
0.0
  0
LINE
  5
54D
330
25
100
AcDbEntity
  8
HIDDEN
100
AcDbLine
 10
-74.372014725309
 20
103.101575036783
 30
0.0
 11
-74.372014725309
 21
104.101468255683
 31
0.0
  0
LINE
  5
54E
330
25
100
AcDbEntity
  8
HIDDEN
100
AcDbLine
 10
-75.455907654399
 20
109.101985406625
 30
0.0
 11
-76.12183633476
 21
109.101985406625
 31
0.0
  0
LINE
  5
54F
330
25
100
AcDbEntity
  8
HIDDEN
100
AcDbLine
 10
-74.372014725309
 20
111.000785714826
 30
0.0
 11
-74.372014725309
 21
111.900693002431
 31
0.0
  0
LINE
  5
550
330
25
100
AcDbEntity
  8
HIDDEN
100
AcDbLine
 10
-76.121841958531
 20
109.101976086224
 30
0.0
 11
-75.454893414833
 21
110.101887744613
 31
0.0
  0
LINE
  5
551
330
25
100
AcDbEntity
  8
中線
 62
     1
100
AcDbLine
 10
-160.984276840778
 20
145.897299783419
 30
0.0
 11
-160.984276840778
 21
144.697417749178
 31
0.0
  0
LINE
  5
552
330
25
100
AcDbEntity
  8
HIDDEN
100
AcDbLine
 10
-75.454890503457
 20
108.101075036783
 30
0.0
 11
-76.12183633476
 21
108.101075036783
 31
0.0
  0
LINE
  5
553
330
25
100
AcDbEntity
  8
HIDDEN
100
AcDbLine
 10
-55.623889725309
 20
103.040579889019
 30
0.0
 11
-55.623889725309
 21
102.034685479853
 31
0.0
  0
LINE
  5
554
330
25
100
AcDbEntity
  8
HIDDEN
100
AcDbLine
 10
-73.771065033511
 20
88.902996392981
 30
0.0
 11
-72.922150909969
 21
88.902996392981
 31
0.0
  0
LINE
  5
555
330
25
100
AcDbEntity
  8
HIDDEN
100
AcDbLine
 10
-73.771065033511
 20
88.902996392981
 30
0.0
 11
-73.771065033511
 21
90.101861276391
 31
0.0
  0
LINE
  5
556
330
25
100
AcDbEntity
  8
HIDDEN
100
AcDbLine
 10
-55.824861786427
 20
103.442540963891
 30
0.0
 11
-57.300713806687
 21
103.442540963891
 31
0.0
  0
LINE
  5
557
330
25
100
AcDbEntity
  8
HIDDEN
100
AcDbLine
 10
-73.771065033511
 20
90.101861276391
 30
0.0
 11
-71.572289978562
 21
90.101861276391
 31
0.0
  0
LINE
  5
558
330
25
100
AcDbEntity
  8
HIDDEN
100
AcDbLine
 10
-55.623889725309
 20
103.644513223423
 30
0.0
 11
-55.623889725309
 21
104.650407632589
 31
0.0
  0
LINE
  5
559
330
25
100
AcDbEntity
  8
HIDDEN
100
AcDbLine
 10
-57.06573500114
 20
104.047474496599
 30
0.0
 11
-56.05884039367
 21
104.047474496599
 31
0.0
  0
LINE
  5
55A
330
25
100
AcDbEntity
  8
HIDDEN
100
AcDbLine
 10
-57.500702622028
 20
104.650407632589
 30
0.0
 11
-57.500702622028
 21
103.644513223423
 31
0.0
  0
LINE
  5
55B
330
25
100
AcDbEntity
  8
HIDDEN
100
AcDbLine
 10
-56.05884039367
 20
104.247463311829
 30
0.0
 11
-56.461801666846
 21
104.247463311829
 31
0.0
  0
LINE
  5
55C
330
25
100
AcDbEntity
  8
HIDDEN
100
AcDbLine
 10
-57.954640106739
 20
99.351950036783
 30
0.0
 11
-58.574593567415
 21
99.351950036783
 31
0.0
  0
LINE
  5
55D
330
25
100
AcDbEntity
  8
HIDDEN
100
AcDbLine
 10
-55.824861786427
 20
104.851396646233
 30
0.0
 11
-56.461801666846
 21
104.851396646233
 31
0.0
  0
LINE
  5
55E
330
25
100
AcDbEntity
  8
HIDDEN
100
AcDbLine
 10
-56.561787598253
 20
102.436646554726
 30
0.0
 11
-56.561787598253
 21
103.241551950136
 31
0.0
  0
LINE
  5
55F
330
25
100
AcDbEntity
  8
HIDDEN
100
AcDbLine
 10
-64.971947067863
 20
103.851503427222
 30
0.0
 11
-64.971947067863
 21
104.851396646233
 31
0.0
  0
LINE
  5
560
330
25
100
AcDbEntity
  8
HIDDEN
100
AcDbLine
 10
-56.360815537025
 20
102.637618615843
 30
0.0
 11
-56.360815537025
 21
103.241551950136
 31
0.0
  0
LINE
  5
561
330
25
100
AcDbEntity
  8
HIDDEN
100
AcDbLine
 10
-63.573093369112
 20
100.351843255683
 30
0.0
 11
-63.573093369112
 21
103.851503427222
 31
0.0
  0
LINE
  5
562
330
25
100
AcDbEntity
  8
HIDDEN
100
AcDbLine
 10
-150.684793518671
 20
120.495685739199
 30
0.0
 11
-150.684793518671
 21
122.099681817772
 31
0.0
  0
LINE
  5
563
330
25
100
AcDbEntity
  8
中線
 62
     1
100
AcDbLine
 10
-174.182945313042
 20
73.177691232432
 30
0.0
 11
-174.182945313042
 21
72.377769876235
 31
0.0
  0
LINE
  5
564
330
25
100
AcDbEntity
  8
中線
 62
     1
100
AcDbLine
 10
-44.624979553771
 20
129.598931817772
 30
0.0
 11
-44.624979553771
 21
124.299457071024
 31
0.0
  0
LINE
  5
565
330
25
100
AcDbEntity
  8
中線
 62
     1
100
AcDbLine
 10
-77.621693115748
 20
129.598931817772
 30
0.0
 11
-77.621693115748
 21
124.299457071024
 31
0.0
  0
LINE
  5
566
330
25
100
AcDbEntity
  8
中線
 62
     1
100
AcDbLine
 10
-77.621693115748
 20
124.299457071024
 30
0.0
 11
-44.624979553771
 21
124.299457071024
 31
0.0
  0
LINE
  5
567
330
25
100
AcDbEntity
  8
中線
 62
     1
100
AcDbLine
 10
-83.62108633476
 20
129.598931817772
 30
0.0
 11
-77.621693115748
 21
129.598931817772
 31
0.0
  0
LINE
  5
568
330
25
100
AcDbEntity
  8
中線
 62
     1
100
AcDbLine
 10
-159.684408875019
 20
146.197274530167
 30
0.0
 11
-164.683908875019
 21
146.197274530167
 31
0.0
  0
LINE
  5
569
330
25
100
AcDbEntity
  8
中線
 62
     1
100
AcDbLine
 10
-170.18335548458
 20
73.177691232432
 30
0.0
 11
-170.18335548458
 21
72.377769876235
 31
0.0
  0
LINE
  5
56A
330
25
100
AcDbEntity
  8
中線
 62
     1
100
AcDbLine
 10
-154.184945313042
 20
70.677941232432
 30
0.0
 11
-152.68510548458
 21
70.677941232432
 31
0.0
  0
LINE
  5
56B
330
25
100
AcDbEntity
  8
中線
 62
     1
100
AcDbLine
 10
-38.62558633476
 20
129.598931817772
 30
0.0
 11
-38.62558633476
 21
135.598325036783
 31
0.0
  0
LINE
  5
56C
330
25
100
AcDbEntity
  8
中線
 62
     1
100
AcDbLine
 10
-83.62108633476
 20
129.598931817772
 30
0.0
 11
-83.62108633476
 21
135.598325036783
 31
0.0
  0
LINE
  5
56D
330
25
100
AcDbEntity
  8
中線
 62
     1
100
AcDbLine
 10
-151.685195313042
 20
79.877019876235
 30
0.0
 11
-150.18535548458
 21
79.877019876235
 31
0.0
  0
LINE
  5
56E
330
25
100
AcDbEntity
  8
中線
 62
     1
100
AcDbLine
 10
-151.685195313042
 20
80.676941232432
 30
0.0
 11
-150.18535548458
 21
80.676941232432
 31
0.0
  0
LINE
  5
56F
330
25
100
AcDbEntity
  8
中線
 62
     1
100
AcDbLine
 10
-149.945375687182
 20
137.198167749178
 30
0.0
 11
-149.945375687182
 21
151.796707071024
 31
0.0
  0
LINE
  5
570
330
25
100
AcDbEntity
  8
中線
 62
     1
100
AcDbLine
 10
-154.184945313042
 20
79.877019876235
 30
0.0
 11
-152.68510548458
 21
79.877019876235
 31
0.0
  0
LINE
  5
571
330
25
100
AcDbEntity
  8
中線
 62
     1
100
AcDbLine
 10
-154.184945313042
 20
80.676941232432
 30
0.0
 11
-152.68510548458
 21
80.676941232432
 31
0.0
  0
LINE
  5
572
330
25
100
AcDbEntity
  8
中線
 62
     1
100
AcDbLine
 10
-150.18535548458
 20
79.877019876235
 30
0.0
 11
-150.18535548458
 21
80.676941232432
 31
0.0
  0
LINE
  5
573
330
25
100
AcDbEntity
  8
中線
 62
     1
100
AcDbLine
 10
-47.554679230281
 20
142.197667749178
 30
0.0
 11
-47.554679230281
 21
137.698114358629
 31
0.0
  0
LINE
  5
574
330
25
100
AcDbEntity
  8
中線
 62
     1
100
AcDbLine
 10
-166.423728500878
 20
66.308379724283
 30
0.0
 11
-163.923978500878
 21
66.308379724283
 31
0.0
  0
LINE
  5
575
330
25
100
AcDbEntity
  8
中線
 62
     1
100
AcDbLine
 10
-171.303223263047
 20
146.197283503381
 30
0.0
 11
-172.803083545796
 21
145.697330138606
 31
0.0
  0
LINE
  5
576
330
25
100
AcDbEntity
  8
HIDDEN
100
AcDbLine
 10
-61.113334351169
 20
102.701614358629
 30
0.0
 11
-62.173239471946
 21
102.701614358629
 31
0.0
  0
LINE
  5
577
330
25
100
AcDbEntity
  8
中線
 62
     1
100
AcDbLine
 10
-165.502827821489
 20
138.257044342485
 30
0.0
 11
-166.128757687243
 21
137.198171582017
 31
0.0
  0
LINE
  5
578
330
25
100
AcDbEntity
  8
中線
 62
     1
100
AcDbLine
 10
-161.684195313042
 20
146.197274530167
 30
0.0
 11
-161.684195313042
 21
146.897193002431
 31
0.0
  0
LINE
  5
579
330
25
100
AcDbEntity
  8
HIDDEN
100
AcDbLine
 10
-60.673382690957
 20
100.901799783419
 30
0.0
 11
-62.573183197573
 21
100.901799783419
 31
0.0
  0
LINE
  5
57A
330
25
100
AcDbEntity
  8
HIDDEN
100
AcDbLine
 10
-62.573183197573
 20
100.901799783419
 30
0.0
 11
-62.573183197573
 21
101.901693002431
 31
0.0
  0
LINE
  5
57B
330
25
100
AcDbEntity
  8
HIDDEN
100
AcDbLine
 10
-76.121851850097
 20
118.450028381171
 30
0.0
 11
-75.621888360002
 21
118.948984891197
 31
0.0
  0
LINE
  5
57C
330
25
100
AcDbEntity
  8
HIDDEN
100
AcDbLine
 10
-62.173239471946
 20
103.651531564408
 30
0.0
 11
-62.173239471946
 21
102.701614358629
 31
0.0
  0
LINE
  5
57D
330
25
100
AcDbEntity
  8
中線
 62
     1
100
AcDbLine
 10
-154.184945313042
 20
73.177691232432
 30
0.0
 11
-152.68510548458
 21
73.177691232432
 31
0.0
  0
LINE
  5
57E
330
25
100
AcDbEntity
  8
中線
 62
     1
100
AcDbLine
 10
-152.68510548458
 20
91.925816232432
 30
0.0
 11
-151.685195313042
 21
91.925816232432
 31
0.0
  0
LINE
  5
57F
330
25
100
AcDbEntity
  8
中線
 62
     1
100
AcDbLine
 10
-154.184945313042
 20
89.876019876235
 30
0.0
 11
-154.184945313042
 21
90.675941232432
 31
0.0
  0
LINE
  5
580
330
25
100
AcDbEntity
  8
中線
 62
     1
100
AcDbLine
 10
-72.252221436061
 20
137.198167749178
 30
0.0
 11
-72.252221436061
 21
141.197774530167
 31
0.0
  0
LINE
  5
581
330
25
100
AcDbEntity
  8
中線
 62
     1
100
AcDbLine
 10
-72.852153977029
 20
141.197774530167
 30
0.0
 11
-72.252221436061
 21
141.197774530167
 31
0.0
  0
LINE
  5
582
330
25
100
AcDbEntity
  8
中線
 62
     1
100
AcDbLine
 10
-70.312412994971
 20
137.198167749178
 30
0.0
 11
-70.312412994971
 21
141.197774530167
 31
0.0
  0
LINE
  5
583
330
25
100
AcDbEntity
  8
中線
 62
     1
100
AcDbLine
 10
-69.712480454003
 20
137.198167749178
 30
0.0
 11
-69.712480454003
 21
141.197774530167
 31
0.0
  0
LINE
  5
584
330
25
100
AcDbEntity
  8
中線
 62
     1
100
AcDbLine
 10
-70.312412994971
 20
141.197774530167
 30
0.0
 11
-69.712480454003
 21
141.197774530167
 31
0.0
  0
LINE
  5
585
330
25
100
AcDbEntity
  8
中線
 62
     1
100
AcDbLine
 10
-49.394518692602
 20
137.698114358629
 30
0.0
 11
-43.475107437705
 21
137.698114358629
 31
0.0
  0
LINE
  5
586
330
25
100
AcDbEntity
  8
中線
 62
     1
100
AcDbLine
 10
-65.722875656716
 20
142.197667749178
 30
0.0
 11
-65.722875656716
 21
151.096771646233
 31
0.0
  0
LINE
  5
587
330
25
100
AcDbEntity
  8
中線
 62
     1
100
AcDbLine
 10
-56.523797012914
 20
142.197667749178
 30
0.0
 11
-56.523797012914
 21
151.096771646233
 31
0.0
  0
LINE
  5
588
330
25
100
AcDbEntity
  8
中線
 62
     1
100
AcDbLine
 10
-66.522797012914
 20
142.197667749178
 30
0.0
 11
-66.522797012914
 21
151.096771646233
 31
0.0
  0
LINE
  5
589
330
25
100
AcDbEntity
  8
中線
 62
     1
100
AcDbLine
 10
-55.723875656716
 20
142.197667749178
 30
0.0
 11
-55.723875656716
 21
151.096771646233
 31
0.0
  0
LINE
  5
58A
330
25
100
AcDbEntity
  8
中線
 62
     1
100
AcDbLine
 10
-62.693190048799
 20
141.197774530167
 30
0.0
 11
-62.093240555415
 21
141.197774530167
 31
0.0
  0
LINE
  5
58B
330
25
100
AcDbEntity
  8
中線
 62
     1
100
AcDbLine
 10
-62.093240555415
 20
137.198167749178
 30
0.0
 11
-62.093240555415
 21
141.197774530167
 31
0.0
  0
LINE
  5
58C
330
25
100
AcDbEntity
  8
中線
 62
     1
100
AcDbLine
 10
-62.693190048799
 20
137.198167749178
 30
0.0
 11
-62.693190048799
 21
141.197774530167
 31
0.0
  0
LINE
  5
58D
330
25
100
AcDbEntity
  8
中線
 62
     1
100
AcDbLine
 10
-60.153432114215
 20
141.197774530167
 30
0.0
 11
-59.553482620831
 21
141.197774530167
 31
0.0
  0
LINE
  5
58E
330
25
100
AcDbEntity
  8
中線
 62
     1
100
AcDbLine
 10
-59.553482620831
 20
137.198167749178
 30
0.0
 11
-59.553482620831
 21
141.197774530167
 31
0.0
  0
LINE
  5
58F
330
25
100
AcDbEntity
  8
中線
 62
     1
100
AcDbLine
 10
-60.153432114215
 20
137.198167749178
 30
0.0
 11
-60.153432114215
 21
141.197774530167
 31
0.0
  0
LINE
  5
590
330
25
100
AcDbEntity
  8
中線
 62
     1
100
AcDbLine
 10
-57.613691132158
 20
141.197774530167
 30
0.0
 11
-57.013741638774
 21
141.197774530167
 31
0.0
  0
LINE
  5
591
330
25
100
AcDbEntity
  8
中線
 62
     1
100
AcDbLine
 10
-57.013741638774
 20
137.198167749178
 30
0.0
 11
-57.013741638774
 21
141.197774530167
 31
0.0
  0
LINE
  5
592
330
25
100
AcDbEntity
  8
中線
 62
     1
100
AcDbLine
 10
-57.613691132158
 20
137.198167749178
 30
0.0
 11
-57.613691132158
 21
141.197774530167
 31
0.0
  0
LINE
  5
593
330
25
100
AcDbEntity
  8
中線
 62
     1
100
AcDbLine
 10
-55.073933197573
 20
141.197774530167
 30
0.0
 11
-54.474000656716
 21
141.197774530167
 31
0.0
  0
LINE
  5
594
330
25
100
AcDbEntity
  8
中線
 62
     1
100
AcDbLine
 10
-54.474000656716
 20
137.198167749178
 30
0.0
 11
-54.474000656716
 21
141.197774530167
 31
0.0
  0
LINE
  5
595
330
25
100
AcDbEntity
  8
中線
 62
     1
100
AcDbLine
 10
-55.073933197573
 20
137.198167749178
 30
0.0
 11
-55.073933197573
 21
141.197774530167
 31
0.0
  0
LINE
  5
596
330
25
100
AcDbEntity
  8
中線
 62
     1
100
AcDbLine
 10
-52.534192215516
 20
141.197774530167
 30
0.0
 11
-51.934259674659
 21
141.197774530167
 31
0.0
  0
LINE
  5
597
330
25
100
AcDbEntity
  8
中線
 62
     1
100
AcDbLine
 10
-51.934259674659
 20
137.198167749178
 30
0.0
 11
-51.934259674659
 21
141.197774530167
 31
0.0
  0
LINE
  5
598
330
25
100
AcDbEntity
  8
中線
 62
     1
100
AcDbLine
 10
-155.064865585881
 20
52.229774026653
 30
0.0
 11
-154.064955414343
 21
52.229774026653
 31
0.0
  0
LINE
  5
599
330
25
100
AcDbEntity
  8
中線
 62
     1
100
AcDbLine
 10
-162.68410548458
 20
51.429869622871
 30
0.0
 11
-162.68410548458
 21
52.229774026653
 31
0.0
  0
LINE
  5
59A
330
25
100
AcDbEntity
  8
中線
 62
     1
100
AcDbLine
 10
-148.785484634998
 20
124.299457071024
 30
0.0
 11
-148.785484634998
 21
135.598325036783
 31
0.0
  0
LINE
  5
59B
330
25
100
AcDbEntity
  8
中線
 62
     1
100
AcDbLine
 10
-162.063154384122
 20
137.724127906125
 30
0.0
 11
-161.674190998351
 21
138.745028089341
 31
0.0
  0
LINE
  5
59C
330
25
100
AcDbEntity
  8
中線
 62
     1
100
AcDbLine
 10
-151.685195313042
 20
69.878019876235
 30
0.0
 11
-150.18535548458
 21
69.878019876235
 31
0.0
  0
LINE
  5
59D
330
25
100
AcDbEntity
  8
中線
 62
     1
100
AcDbLine
 10
-151.685195313042
 20
78.177191232432
 30
0.0
 11
-150.18535548458
 21
78.177191232432
 31
0.0
  0
LINE
  5
59E
330
25
100
AcDbEntity
  8
中線
 62
     1
100
AcDbLine
 10
-151.485230846044
 20
138.244048263556
 30
0.0
 11
-151.923179636451
 21
137.198170797762
 31
0.0
  0
LINE
  5
59F
330
25
100
AcDbEntity
  8
中線
 62
     1
100
AcDbLine
 10
-154.184945313042
 20
77.377269876235
 30
0.0
 11
-152.68510548458
 21
77.377269876235
 31
0.0
  0
LINE
  5
5A0
330
25
100
AcDbEntity
  8
中線
 62
     1
100
AcDbLine
 10
-154.184945313042
 20
78.177191232432
 30
0.0
 11
-152.68510548458
 21
78.177191232432
 31
0.0
  0
LINE
  5
5A1
330
25
100
AcDbEntity
  8
中線
 62
     1
100
AcDbLine
 10
-164.683908875019
 20
146.897193002431
 30
0.0
 11
-159.684408875019
 21
146.897193002431
 31
0.0
  0
LINE
  5
5A2
330
25
100
AcDbEntity
  8
HIDDEN
100
AcDbLine
 10
-155.684293518671
 20
122.099681817772
 30
0.0
 11
-135.68629351867
 21
122.099681817772
 31
0.0
  0
LINE
  5
5A3
330
25
100
AcDbEntity
  8
中線
 62
     1
100
AcDbLine
 10
-139.536413025437
 20
155.196364358629
 30
0.0
 11
-141.43623048458
 21
155.196364358629
 31
0.0
  0
LINE
  5
5A4
330
25
100
AcDbEntity
  8
中線
 62
     1
100
AcDbLine
 10
-153.485026840778
 20
138.188058984488
 30
0.0
 11
-153.485026840778
 21
139.597931817772
 31
0.0
  0
LINE
  5
5A5
330
25
100
AcDbEntity
  8
HIDDEN
100
AcDbLine
 10
-142.651132446789
 20
118.850003427222
 30
0.0
 11
-138.352161209684
 21
118.850003427222
 31
0.0
  0
LINE
  5
5A6
330
25
100
AcDbEntity
  8
中線
 62
     1
100
AcDbLine
 10
-150.18535548458
 20
77.377269876235
 30
0.0
 11
-150.18535548458
 21
78.177191232432
 31
0.0
  0
LINE
  5
5A7
330
25
100
AcDbEntity
  8
中線
 62
     1
100
AcDbLine
 10
-171.683195313042
 20
88.176191232432
 30
0.0
 11
-170.18335548458
 21
88.176191232432
 31
0.0
  0
LINE
  5
5A8
330
25
100
AcDbEntity
  8
中線
 62
     1
100
AcDbLine
 10
-174.182945313042
 20
87.376269876235
 30
0.0
 11
-172.68310548458
 21
87.376269876235
 31
0.0
  0
LINE
  5
5A9
330
25
100
AcDbEntity
  8
中線
 62
     1
100
AcDbLine
 10
-155.764801010672
 20
145.881296609564
 30
0.0
 11
-155.764801010672
 21
144.697417749178
 31
0.0
  0
LINE
  5
5AA
330
25
100
AcDbEntity
  8
中線
 62
     1
100
AcDbLine
 10
-154.184945313042
 20
77.377269876235
 30
0.0
 11
-154.184945313042
 21
78.177191232432
 31
0.0
  0
LINE
  5
5AB
330
25
100
AcDbEntity
  8
中線
 62
     1
100
AcDbLine
 10
-162.68410548458
 20
51.429869622871
 30
0.0
 11
-161.684195313042
 21
51.429869622871
 31
0.0
  0
LINE
  5
5AC
330
25
100
AcDbEntity
  8
中線
 62
     1
100
AcDbLine
 10
-146.685695313042
 20
160.074874261626
 30
0.0
 11
-141.786181244448
 21
160.074874261626
 31
0.0
  0
LINE
  5
5AD
330
25
100
AcDbEntity
  8
中線
 62
     1
100
AcDbLine
 10
-154.184945313042
 20
79.877019876235
 30
0.0
 11
-154.184945313042
 21
80.676941232432
 31
0.0
  0
LINE
  5
5AE
330
25
100
AcDbEntity
  8
中線
 62
     1
100
AcDbLine
 10
-174.182945313042
 20
84.876519876235
 30
0.0
 11
-172.68310548458
 21
84.876519876235
 31
0.0
  0
LINE
  5
5AF
330
25
100
AcDbEntity
  8
中線
 62
     1
100
AcDbLine
 10
-161.684195313042
 20
51.429869622871
 30
0.0
 11
-161.684195313042
 21
52.229774026653
 31
0.0
  0
LINE
  5
5B0
330
25
100
AcDbEntity
  8
中線
 62
     1
100
AcDbLine
 10
-152.68510548458
 20
80.676941232432
 30
0.0
 11
-152.68510548458
 21
82.376769876235
 31
0.0
  0
LINE
  5
5B1
330
25
100
AcDbEntity
  8
HIDDEN
100
AcDbLine
 10
-171.782689621505
 20
122.099681817772
 30
0.0
 11
-171.782689621505
 21
124.299457071024
 31
0.0
  0
LINE
  5
5B2
330
25
100
AcDbEntity
  8
HIDDEN
100
AcDbLine
 10
-172.582610977702
 20
122.099681817772
 30
0.0
 11
-172.582610977702
 21
124.299457071024
 31
0.0
  0
LINE
  5
5B3
330
25
100
AcDbEntity
  8
中線
 62
     1
100
AcDbLine
 10
-171.683195313042
 20
74.877519876235
 30
0.0
 11
-170.18335548458
 21
74.877519876235
 31
0.0
  0
LINE
  5
5B4
330
25
100
AcDbEntity
  8
中線
 62
     1
100
AcDbLine
 10
-171.683195313042
 20
72.377769876235
 30
0.0
 11
-170.18335548458
 21
72.377769876235
 31
0.0
  0
LINE
  5
5B5
330
25
100
AcDbEntity
  8
中線
 62
     1
100
AcDbLine
 10
-162.68410548458
 20
52.229774026653
 30
0.0
 11
-161.684195313042
 21
52.229774026653
 31
0.0
  0
LINE
  5
5B6
330
25
100
AcDbEntity
  8
中線
 62
     1
100
AcDbLine
 10
-171.683195313042
 20
80.676941232432
 30
0.0
 11
-170.18335548458
 21
80.676941232432
 31
0.0
  0
LINE
  5
5B7
330
25
100
AcDbEntity
  8
中線
 62
     1
100
AcDbLine
 10
-170.18335548458
 20
82.376769876235
 30
0.0
 11
-170.18335548458
 21
83.176691232432
 31
0.0
  0
LINE
  5
5B8
330
25
100
AcDbEntity
  8
中線
 62
     1
100
AcDbLine
 10
-174.182945313042
 20
83.176691232432
 30
0.0
 11
-172.68310548458
 21
83.176691232432
 31
0.0
  0
LINE
  5
5B9
330
25
100
AcDbEntity
  8
中線
 62
     1
100
AcDbLine
 10
-171.683195313042
 20
62.378769876235
 30
0.0
 11
-170.18335548458
 21
62.378769876235
 31
0.0
  0
LINE
  5
5BA
330
25
100
AcDbEntity
  8
中線
 62
     1
100
AcDbLine
 10
-144.935873703591
 20
134.58842983407
 30
0.0
 11
-144.935873703591
 21
134.198471139617
 31
0.0
  0
LINE
  5
5BB
330
25
100
AcDbEntity
  8
HIDDEN
100
AcDbLine
 10
-152.584119354758
 20
122.099681817772
 30
0.0
 11
-152.584119354758
 21
124.299457071024
 31
0.0
  0
LINE
  5
5BC
330
25
100
AcDbEntity
  8
中線
 62
     1
100
AcDbLine
 10
-174.182945313042
 20
82.376769876235
 30
0.0
 11
-172.68310548458
 21
82.376769876235
 31
0.0
  0
LINE
  5
5BD
330
25
100
AcDbEntity
  8
中線
 62
     1
100
AcDbLine
 10
-155.064865585881
 20
51.429869622871
 30
0.0
 11
-155.064865585881
 21
52.229774026653
 31
0.0
  0
LINE
  5
5BE
330
25
100
AcDbEntity
  8
HIDDEN
100
AcDbLine
 10
-159.179444321191
 20
122.099681817772
 30
0.0
 11
-155.68480209403
 21
122.099681817772
 31
0.0
  0
LINE
  5
5BF
330
25
100
AcDbEntity
  8
中線
 62
     1
100
AcDbLine
 10
-171.683195313042
 20
62.378769876235
 30
0.0
 11
-171.683195313042
 21
61.128894876235
 31
0.0
  0
LINE
  5
5C0
330
25
100
AcDbEntity
  8
中線
 62
     1
100
AcDbLine
 10
-154.164958298276
 20
147.897103173969
 30
0.0
 11
-154.964879654474
 21
147.897103173969
 31
0.0
  0
LINE
  5
5C1
330
25
100
AcDbEntity
  8
中線
 62
     1
100
AcDbLine
 10
-154.184945313042
 20
72.377769876235
 30
0.0
 11
-152.68510548458
 21
72.377769876235
 31
0.0
  0
LINE
  5
5C2
330
25
100
AcDbEntity
  8
中線
 62
     1
100
AcDbLine
 10
-146.685695313042
 20
156.762200326705
 30
0.0
 11
-141.786181244448
 21
156.762200326705
 31
0.0
  0
LINE
  5
5C3
330
25
100
AcDbEntity
  8
中線
 62
     1
100
AcDbLine
 10
-171.683195313042
 20
87.376269876235
 30
0.0
 11
-170.18335548458
 21
87.376269876235
 31
0.0
  0
LINE
  5
5C4
330
25
100
AcDbEntity
  8
中線
 62
     1
100
AcDbLine
 10
-154.184945313042
 20
68.178191232432
 30
0.0
 11
-154.184945313042
 21
67.378269876235
 31
0.0
  0
LINE
  5
5C5
330
25
100
AcDbEntity
  8
中線
 62
     1
100
AcDbLine
 10
-150.18535548458
 20
68.178191232432
 30
0.0
 11
-150.18535548458
 21
67.378269876235
 31
0.0
  0
LINE
  5
5C6
330
25
100
AcDbEntity
  8
中線
 62
     1
100
AcDbLine
 10
-54.454014476979
 20
134.539414472652
 30
0.0
 11
-53.828077010985
 21
135.598302413157
 31
0.0
  0
LINE
  5
5C7
330
25
100
AcDbEntity
  8
中線
 62
     1
100
AcDbLine
 10
-55.093937164866
 20
134.58842983407
 30
0.0
 11
-55.093937164866
 21
134.198471139617
 31
0.0
  0
LINE
  5
5C8
330
25
100
AcDbEntity
  8
中線
 62
     1
100
AcDbLine
 10
-54.453996689424
 20
134.198471139617
 30
0.0
 11
-55.093937164866
 21
134.198471139617
 31
0.0
  0
LINE
  5
5C9
330
25
100
AcDbEntity
  8
中線
 62
     1
100
AcDbLine
 10
-51.914255707367
 20
134.539420114199
 30
0.0
 11
-51.914255707367
 21
134.198471139617
 31
0.0
  0
LINE
  5
5CA
330
25
100
AcDbEntity
  8
中線
 62
     1
100
AcDbLine
 10
-52.554191335182
 20
134.588419799518
 30
0.0
 11
-53.160139084236
 21
135.598322605915
 31
0.0
  0
LINE
  5
5CB
330
25
100
AcDbEntity
  8
中線
 62
     1
100
AcDbLine
 10
-176.182748703591
 20
99.025105554278
 30
0.0
 11
-138.18655209403
 21
99.025105554278
 31
0.0
  0
LINE
  5
5CC
330
25
100
AcDbEntity
  8
中線
 62
     1
100
AcDbLine
 10
-70.36740695247
 20
134.598431817772
 30
0.0
 11
-72.232217468769
 21
134.598431817772
 31
0.0
  0
LINE
  5
5CD
330
25
100
AcDbEntity
  8
中線
 62
     1
100
AcDbLine
 10
-67.827665970413
 20
134.598431817772
 30
0.0
 11
-69.692493439238
 21
134.598431817772
 31
0.0
  0
LINE
  5
5CE
330
25
100
AcDbEntity
  8
中線
 62
     1
100
AcDbLine
 10
-55.093949607177
 20
134.588414398725
 30
0.0
 11
-55.699897356231
 21
135.598317205122
 31
0.0
  0
LINE
  5
5CF
330
25
100
AcDbEntity
  8
中線
 62
     1
100
AcDbLine
 10
-56.993742813079
 20
134.539407663
 30
0.0
 11
-56.367816637956
 21
135.598302275393
 31
0.0
  0
LINE
  5
5D0
330
25
100
AcDbEntity
  8
中線
 62
     1
100
AcDbLine
 10
-57.633678146923
 20
134.58842983407
 30
0.0
 11
-57.633678146923
 21
134.198471139617
 31
0.0
  0
LINE
  5
5D1
330
25
100
AcDbEntity
  8
中線
 62
     1
100
AcDbLine
 10
-56.993737671482
 20
134.198471139617
 30
0.0
 11
-57.633678146923
 21
134.198471139617
 31
0.0
  0
LINE
  5
5D2
330
25
100
AcDbEntity
  8
中線
 62
     1
100
AcDbLine
 10
-54.453996689424
 20
134.539420114199
 30
0.0
 11
-54.453996689424
 21
134.198471139617
 31
0.0
  0
LINE
  5
5D3
330
25
100
AcDbEntity
  8
中線
 62
     1
100
AcDbLine
 10
-56.993737671482
 20
134.539420114199
 30
0.0
 11
-56.993737671482
 21
134.198471139617
 31
0.0
  0
LINE
  5
5D4
330
25
100
AcDbEntity
  8
中線
 62
     1
100
AcDbLine
 10
-65.287908035829
 20
134.598431817772
 30
0.0
 11
-67.146734314499
 21
134.598431817772
 31
0.0
  0
LINE
  5
5D5
330
25
100
AcDbEntity
  8
中線
 62
     1
100
AcDbLine
 10
-57.633678805968
 20
134.588426442076
 30
0.0
 11
-58.239626555022
 21
135.598329248473
 31
0.0
  0
LINE
  5
5D6
330
25
100
AcDbEntity
  8
中線
 62
     1
100
AcDbLine
 10
-154.184945313042
 20
84.876519876235
 30
0.0
 11
-154.184945313042
 21
85.676441232432
 31
0.0
  0
LINE
  5
5D7
330
25
100
AcDbEntity
  8
中線
 62
     1
100
AcDbLine
 10
-151.685195313042
 20
87.376269876235
 30
0.0
 11
-150.18535548458
 21
87.376269876235
 31
0.0
  0
LINE
  5
5D8
330
25
100
AcDbEntity
  8
中線
 62
     1
100
AcDbLine
 10
-151.685195313042
 20
88.176191232432
 30
0.0
 11
-150.18535548458
 21
88.176191232432
 31
0.0
  0
LINE
  5
5D9
330
25
100
AcDbEntity
  8
中線
 62
     1
100
AcDbLine
 10
-72.907164887054
 20
134.598431817772
 30
0.0
 11
-77.621693115748
 21
134.598431817772
 31
0.0
  0
LINE
  5
5DA
330
25
100
AcDbEntity
  8
中線
 62
     1
100
AcDbLine
 10
-67.792675905769
 20
134.539415489883
 30
0.0
 11
-68.418613371763
 21
135.598303430388
 31
0.0
  0
LINE
  5
5DB
330
25
100
AcDbEntity
  8
中線
 62
     1
100
AcDbLine
 10
-67.792659027679
 20
134.198471139617
 30
0.0
 11
-67.152735504654
 21
134.198471139617
 31
0.0
  0
LINE
  5
5DC
330
25
100
AcDbEntity
  8
中線
 62
     1
100
AcDbLine
 10
-69.692493439238
 20
134.58842983407
 30
0.0
 11
-69.692493439238
 21
134.198471139617
 31
0.0
  0
LINE
  5
5DD
330
25
100
AcDbEntity
  8
中線
 62
     1
100
AcDbLine
 10
-70.332416962264
 20
134.198471139617
 30
0.0
 11
-70.332416962264
 21
134.539420114199
 31
0.0
  0
LINE
  5
5DE
330
25
100
AcDbEntity
  8
中線
 62
     1
100
AcDbLine
 10
-67.792659027679
 20
134.198471139617
 30
0.0
 11
-67.792659027679
 21
134.539420114199
 31
0.0
  0
LINE
  5
5DF
330
25
100
AcDbEntity
  8
中線
 62
     1
100
AcDbLine
 10
-139.536413025437
 20
155.196364358629
 30
0.0
 11
-139.536413025437
 21
137.198167749178
 31
0.0
  0
LINE
  5
5E0
330
25
100
AcDbEntity
  8
中線
 62
     1
100
AcDbLine
 10
-67.152747775093
 20
134.58841879984
 30
0.0
 11
-66.546800026039
 21
135.598321606237
 31
0.0
  0
LINE
  5
5E1
330
25
100
AcDbEntity
  8
中線
 62
     1
100
AcDbLine
 10
-154.184945313042
 20
87.376269876235
 30
0.0
 11
-152.68510548458
 21
87.376269876235
 31
0.0
  0
LINE
  5
5E2
330
25
100
AcDbEntity
  8
中線
 62
     1
100
AcDbLine
 10
-172.68310548458
 20
62.378769876235
 30
0.0
 11
-172.68310548458
 21
61.128894876235
 31
0.0
  0
LINE
  5
5E4
330
25
100
AcDbEntity
  8
中線
 62
     1
100
AcDbLine
 10
-64.612994522596
 20
134.58842983407
 30
0.0
 11
-64.612994522596
 21
134.198471139617
 31
0.0
  0
LINE
  5
5E5
330
25
100
AcDbEntity
  8
中線
 62
     1
100
AcDbLine
 10
-64.613018576302
 20
134.588430843191
 30
0.0
 11
-64.007079549265
 21
135.598319112931
 31
0.0
  0
LINE
  5
5E6
330
25
100
AcDbEntity
  8
中線
 62
     1
100
AcDbLine
 10
-65.252946530329
 20
134.53941185858
 30
0.0
 11
-65.878872705451
 21
135.598306470862
 31
0.0
  0
LINE
  5
5E7
330
25
100
AcDbEntity
  8
中線
 62
     1
100
AcDbLine
 10
-65.252934998149
 20
134.198471139617
 30
0.0
 11
-64.612994522596
 21
134.198471139617
 31
0.0
  0
LINE
  5
5E8
330
25
100
AcDbEntity
  8
中線
 62
     1
100
AcDbLine
 10
-67.152735504654
 20
134.58842983407
 30
0.0
 11
-67.152735504654
 21
134.198471139617
 31
0.0
  0
LINE
  5
5E9
330
25
100
AcDbEntity
  8
中線
 62
     1
100
AcDbLine
 10
-65.252934998149
 20
134.198471139617
 30
0.0
 11
-65.252934998149
 21
134.539420114199
 31
0.0
  0
LINE
  5
5EA
330
25
100
AcDbEntity
  8
中線
 62
     1
100
AcDbLine
 10
-141.786181244448
 20
164.045475290036
 30
0.0
 11
-146.685695313042
 21
164.045475290036
 31
0.0
  0
LINE
  5
5EB
330
25
100
AcDbEntity
  8
中線
 62
     1
100
AcDbLine
 10
-150.18535548458
 20
84.876519876235
 30
0.0
 11
-150.18535548458
 21
85.676441232432
 31
0.0
  0
LINE
  5
5EC
330
25
100
AcDbEntity
  8
中線
 62
     1
100
AcDbLine
 10
-174.182945313042
 20
63.178691232432
 30
0.0
 11
-172.68310548458
 21
63.178691232432
 31
0.0
  0
LINE
  5
5ED
330
25
100
AcDbEntity
  8
中線
 62
     1
100
AcDbLine
 10
-174.182945313042
 20
62.378769876235
 30
0.0
 11
-172.68310548458
 21
62.378769876235
 31
0.0
  0
LINE
  5
5EE
330
25
100
AcDbEntity
  8
中線
 62
     1
100
AcDbLine
 10
-171.683195313042
 20
78.177191232432
 30
0.0
 11
-171.683195313042
 21
79.877019876235
 31
0.0
  0
LINE
  5
5EF
330
25
100
AcDbEntity
  8
中線
 62
     1
100
AcDbLine
 10
-174.182945313042
 20
75.677441232432
 30
0.0
 11
-174.182945313042
 21
74.877519876235
 31
0.0
  0
LINE
  5
5F0
330
25
100
AcDbEntity
  8
中線
 62
     1
100
AcDbLine
 10
-62.713184399831
 20
134.539406660211
 30
0.0
 11
-63.339130492406
 21
135.598309194256
 31
0.0
  0
LINE
  5
5F1
330
25
100
AcDbEntity
  8
中線
 62
     1
100
AcDbLine
 10
-62.713177063565
 20
134.198471139617
 30
0.0
 11
-62.073236588123
 21
134.198471139617
 31
0.0
  0
LINE
  5
5F2
330
25
100
AcDbEntity
  8
中線
 62
     1
100
AcDbLine
 10
-60.173436081507
 20
134.58842983407
 30
0.0
 11
-60.173436081507
 21
134.198471139617
 31
0.0
  0
LINE
  5
5F3
330
25
100
AcDbEntity
  8
中線
 62
     1
100
AcDbLine
 10
-59.533495606066
 20
134.198471139617
 30
0.0
 11
-60.173436081507
 21
134.198471139617
 31
0.0
  0
LINE
  5
5F4
330
25
100
AcDbEntity
  8
中線
 62
     1
100
AcDbLine
 10
-60.179437271661
 20
134.598431817772
 30
0.0
 11
-62.067235397858
 21
134.598431817772
 31
0.0
  0
LINE
  5
5F5
330
25
100
AcDbEntity
  8
中線
 62
     1
100
AcDbLine
 10
-62.748167053771
 20
134.598431817772
 30
0.0
 11
-64.606976379915
 21
134.598431817772
 31
0.0
  0
LINE
  5
5F6
330
25
100
AcDbEntity
  8
中線
 62
     1
100
AcDbLine
 10
-157.064668976431
 20
146.897193002431
 30
0.0
 11
-152.065168976431
 21
146.897193002431
 31
0.0
  0
LINE
  5
5F7
330
25
100
AcDbEntity
  8
中線
 62
     1
100
AcDbLine
 10
-170.18335548458
 20
63.178691232432
 30
0.0
 11
-170.18335548458
 21
62.378769876235
 31
0.0
  0
LINE
  5
5F8
330
25
100
AcDbEntity
  8
中線
 62
     1
100
AcDbLine
 10
-163.93398048458
 20
135.598325036783
 30
0.0
 11
-163.93398048458
 21
129.598931817772
 31
0.0
  0
LINE
  5
5F9
330
25
100
AcDbEntity
  8
中線
 62
     1
100
AcDbLine
 10
-150.18535548458
 20
89.876019876235
 30
0.0
 11
-150.18535548458
 21
90.675941232432
 31
0.0
  0
LINE
  5
5FA
330
25
100
AcDbEntity
  8
CENTER
100
AcDbLine
 10
-172.183158875019
 20
59.329080301025
 30
0.0
 11
-172.183158875019
 21
52.529748773289
 31
0.0
  0
LINE
  5
5FB
330
25
100
AcDbEntity
  8
CENTER
100
AcDbLine
 10
-152.185158875019
 20
59.329080301025
 30
0.0
 11
-152.185158875019
 21
52.529748773289
 31
0.0
  0
LINE
  5
5FC
330
25
100
AcDbEntity
  8
中線
 62
     1
100
AcDbLine
 10
-174.182945313042
 20
63.178691232432
 30
0.0
 11
-174.182945313042
 21
62.378769876235
 31
0.0
  0
LINE
  5
5FD
330
25
100
AcDbEntity
  8
中線
 62
     1
100
AcDbLine
 10
-171.683195313042
 20
88.176191232432
 30
0.0
 11
-171.683195313042
 21
89.876019876235
 31
0.0
  0
LINE
  5
5FE
330
25
100
AcDbEntity
  8
中線
 62
     1
100
AcDbLine
 10
-172.68310548458
 20
76.527355554278
 30
0.0
 11
-172.68310548458
 21
77.377269876235
 31
0.0
  0
LINE
  5
5FF
330
25
100
AcDbEntity
  8
中線
 62
     1
100
AcDbLine
 10
-172.68310548458
 20
91.925816232432
 30
0.0
 11
-171.683195313042
 21
91.925816232432
 31
0.0
  0
LINE
  5
600
330
25
100
AcDbEntity
  8
中線
 62
     1
100
AcDbLine
 10
-170.803291992729
 20
141.197774530167
 30
0.0
 11
-168.80348860229
 21
141.197774530167
 31
0.0
  0
LINE
  5
601
330
25
100
AcDbEntity
  8
中線
 62
     1
100
AcDbLine
 10
-52.560197372962
 20
134.598431817772
 30
0.0
 11
-54.419006699107
 21
134.598431817772
 31
0.0
  0
LINE
  5
602
330
25
100
AcDbEntity
  8
中線
 62
     1
100
AcDbLine
 10
-145.575814179033
 20
134.198471139617
 30
0.0
 11
-145.575814179033
 21
134.539420114199
 31
0.0
  0
LINE
  5
603
330
25
100
AcDbEntity
  8
中線
 62
     1
100
AcDbLine
 10
-157.064668976431
 20
148.197077920606
 30
0.0
 11
-157.064668976431
 21
146.197274530167
 31
0.0
  0
LINE
  5
604
330
25
100
AcDbEntity
  8
中線
 62
     1
100
AcDbLine
 10
-170.803291992729
 20
139.997875543288
 30
0.0
 11
-168.80348860229
 21
139.997875543288
 31
0.0
  0
LINE
  5
605
330
25
100
AcDbEntity
  8
中線
 62
     1
100
AcDbLine
 10
-168.783484634998
 20
124.299457071024
 30
0.0
 11
-175.582816162623
 21
124.299457071024
 31
0.0
  0
LINE
  5
606
330
25
100
AcDbEntity
  8
中線
 62
     1
100
AcDbLine
 10
-174.182945313042
 20
87.376269876235
 30
0.0
 11
-174.182945313042
 21
88.176191232432
 31
0.0
  0
LINE
  5
607
330
25
100
AcDbEntity
  8
中線
 62
     1
100
AcDbLine
 10
-148.785484634998
 20
129.598931817772
 30
0.0
 11
-155.584816162623
 21
129.598931817772
 31
0.0
  0
LINE
  5
608
330
25
100
AcDbEntity
  8
中線
 62
     1
100
AcDbLine
 10
-171.683195313042
 20
85.676441232432
 30
0.0
 11
-170.18335548458
 21
85.676441232432
 31
0.0
  0
LINE
  5
609
330
25
100
AcDbEntity
  8
中線
 62
     1
100
AcDbLine
 10
-168.783484634998
 20
124.299457071024
 30
0.0
 11
-168.783484634998
 21
135.598325036783
 31
0.0
  0
LINE
  5
60A
330
25
100
AcDbEntity
  8
中線
 62
     1
100
AcDbLine
 10
-171.683195313042
 20
79.877019876235
 30
0.0
 11
-170.18335548458
 21
79.877019876235
 31
0.0
  0
LINE
  5
60B
330
25
100
AcDbEntity
  8
中線
 62
     1
100
AcDbLine
 10
-172.803095383279
 20
138.101075631805
 30
0.0
 11
-172.803095383279
 21
151.796707071024
 31
0.0
  0
LINE
  5
60C
330
25
100
AcDbEntity
  8
中線
 62
     1
100
AcDbLine
 10
-171.683195313042
 20
73.177691232432
 30
0.0
 11
-170.18335548458
 21
73.177691232432
 31
0.0
  0
LINE
  5
60D
330
25
100
AcDbEntity
  8
中線
 62
     1
100
AcDbLine
 10
-170.18335548458
 20
75.677441232432
 30
0.0
 11
-170.18335548458
 21
74.877519876235
 31
0.0
  0
LINE
  5
60E
330
25
100
AcDbEntity
  8
HIDDEN
100
AcDbLine
 10
-64.971958280964
 20
99.351953726747
 30
0.0
 11
-66.622791321372
 21
102.101674023662
 31
0.0
  0
LINE
  5
60F
330
25
100
AcDbEntity
  8
HIDDEN
100
AcDbLine
 10
-66.6227923766
 20
102.101690335697
 30
0.0
 11
-64.971959336303
 21
104.851410632723
 31
0.0
  0
LINE
  5
610
330
25
100
AcDbEntity
  8
HIDDEN
100
AcDbLine
 10
-63.573093369112
 20
100.351843255683
 30
0.0
 11
-64.971947067863
 21
100.351843255683
 31
0.0
  0
LINE
  5
611
330
25
100
AcDbEntity
  8
HIDDEN
100
AcDbLine
 10
-63.573093369112
 20
103.851503427222
 30
0.0
 11
-64.971947067863
 21
103.851503427222
 31
0.0
  0
LINE
  5
612
330
25
100
AcDbEntity
  8
HIDDEN
100
AcDbLine
 10
-64.971947067863
 20
99.351950036783
 30
0.0
 11
-64.971947067863
 21
100.351843255683
 31
0.0
  0
LINE
  5
613
330
25
100
AcDbEntity
  8
HIDDEN
100
AcDbLine
 10
-61.113334351169
 20
104.851396646233
 30
0.0
 11
-62.173239471946
 21
104.851396646233
 31
0.0
  0
LINE
  5
614
330
25
100
AcDbEntity
  8
HIDDEN
100
AcDbLine
 10
-60.792372391353
 20
99.351950036783
 30
0.0
 11
-62.573183197573
 21
99.351950036783
 31
0.0
  0
LINE
  5
615
330
25
100
AcDbEntity
  8
HIDDEN
100
AcDbLine
 10
-46.791782166062
 20
101.100771447819
 30
0.0
 11
-46.123836136456
 21
101.100771447819
 31
0.0
  0
LINE
  5
617
330
25
100
AcDbEntity
  8
HIDDEN
100
AcDbLine
 10
-46.123843464279
 20
101.100770393813
 30
0.0
 11
-46.79178976308
 21
102.100668265137
 31
0.0
  0
LINE
  5
618
330
25
100
AcDbEntity
  8
HIDDEN
100
AcDbLine
 10
-60.472393677313
 20
100.701827920606
 30
0.0
 11
-60.472393677313
 21
100.071872476339
 31
0.0
  0
LINE
  5
619
330
25
100
AcDbEntity
  8
HIDDEN
100
AcDbLine
 10
-60.272421814499
 20
101.901693002431
 30
0.0
 11
-62.573183197573
 21
101.901693002431
 31
0.0
  0
LINE
  5
61A
330
25
100
AcDbEntity
  8
HIDDEN
100
AcDbLine
 10
-60.792372391353
 20
99.751910714826
 30
0.0
 11
-62.573183197573
 21
99.751910714826
 31
0.0
  0
LINE
  5
61B
330
25
100
AcDbEntity
  8
HIDDEN
100
AcDbLine
 10
-60.073433197573
 20
102.301653680585
 30
0.0
 11
-60.073433197573
 21
102.701614358629
 31
0.0
  0
LINE
  5
61C
330
25
100
AcDbEntity
  8
HIDDEN
100
AcDbLine
 10
-60.073433197573
 20
101.701721139617
 30
0.0
 11
-60.073433197573
 21
100.071872476339
 31
0.0
  0
LINE
  5
61D
330
25
100
AcDbEntity
  8
HIDDEN
100
AcDbLine
 10
-62.573183197573
 20
104.451452920606
 30
0.0
 11
-62.573183197573
 21
102.301653680585
 31
0.0
  0
LINE
  5
61E
330
25
100
AcDbEntity
  8
HIDDEN
100
AcDbLine
 10
-62.573183197573
 20
99.351950036783
 30
0.0
 11
-62.573183197573
 21
99.751910714826
 31
0.0
  0
LINE
  5
61F
330
25
100
AcDbEntity
  8
HIDDEN
100
AcDbLine
 10
-62.573183197573
 20
102.301653680585
 30
0.0
 11
-60.073433197573
 21
102.301653680585
 31
0.0
  0
LINE
  5
620
330
25
100
AcDbEntity
  8
中線
 62
     1
100
AcDbLine
 10
-157.564615585881
 20
144.697417749178
 30
0.0
 11
-151.565205414343
 21
144.697417749178
 31
0.0
  0
LINE
  5
621
330
25
100
AcDbEntity
  8
HIDDEN
100
AcDbLine
 10
-61.972250458302
 20
103.851503427222
 30
0.0
 11
-61.313323166399
 21
103.851503427222
 31
0.0
  0
LINE
  5
622
330
25
100
AcDbEntity
  8
HIDDEN
100
AcDbLine
 10
-60.712373474711
 20
104.451452920606
 30
0.0
 11
-60.712373474711
 21
102.701614358629
 31
0.0
  0
LINE
  5
623
330
25
100
AcDbEntity
  8
中線
 62
     1
100
AcDbLine
 10
-155.564812195331
 20
139.997875543288
 30
0.0
 11
-153.565008804892
 21
139.997875543288
 31
0.0
  0
LINE
  5
624
330
25
100
AcDbEntity
  8
中線
 62
     1
100
AcDbLine
 10
-161.784198196975
 20
147.897103173969
 30
0.0
 11
-162.584119553173
 21
147.897103173969
 31
0.0
  0
LINE
  5
625
330
25
100
AcDbEntity
  8
中線
 62
     1
100
AcDbLine
 10
-172.68310548458
 20
64.878519876235
 30
0.0
 11
-172.68310548458
 21
63.178691232432
 31
0.0
  0
LINE
  5
626
330
25
100
AcDbEntity
  8
中線
 62
     1
100
AcDbLine
 10
-176.182748703591
 20
49.030105554278
 30
0.0
 11
-176.182748703591
 21
99.025105554278
 31
0.0
  0
LINE
  5
627
330
25
100
AcDbEntity
  8
中線
 62
     1
100
AcDbLine
 10
-176.182748703591
 20
135.598325036783
 30
0.0
 11
-176.182748703591
 21
137.198167749178
 31
0.0
  0
LINE
  5
628
330
25
100
AcDbEntity
  8
中線
 62
     1
100
AcDbLine
 10
-174.182945313042
 20
84.876519876235
 30
0.0
 11
-174.182945313042
 21
85.676441232432
 31
0.0
  0
LINE
  5
629
330
25
100
AcDbEntity
  8
中線
 62
     3
100
AcDbLine
 10
-170.677712941112
 20
57.397278932371
 30
0.0
 11
-172.551513805397
 21
55.523485649772
 31
0.0
  0
LINE
  5
62A
330
25
100
AcDbEntity
  8
中線
 62
     1
100
AcDbLine
 10
-171.683195313042
 20
84.876519876235
 30
0.0
 11
-170.18335548458
 21
84.876519876235
 31
0.0
  0
TEXT
  5
62B
330
25
100
AcDbEntity
  8
CMNT
100
AcDbText
 10
-54.796690157872
 20
132.980002262357
 30
0.0
 40
2.999699788132
  1
DMC-2
 50
180.0
 41
0.964151314299
 72
     5
 11
-69.395234742747
 21
132.980002262357
 31
0.0
100
AcDbText
  0
TEXT
  5
62C
330
25
100
AcDbEntity
  8
CMNT
100
AcDbText
 10
-72.588966187107
 20
124.928992401751
 30
0.0
 40
3.333
  1
UP
 50
90.0
 41
1.088890033253
 72
     5
 11
-72.588966187107
 21
131.150598940319
 31
0.0
100
AcDbText
  0
TEXT
  5
634
330
25
100
AcDbEntity
  8
CMNT
100
AcDbText
 10
-100.9739685059
 20
232.4161529541
 30
0.0
 40
3.0
  1

 72
     5
 11
-100.9739685059
 21
232.4161529541
 31
0.0
100
AcDbText
  0
LINE
  5
636
330
25
100
AcDbEntity
  8
中線
 62
     3
100
AcDbLine
 10
-158.178442214301
 20
77.50025488617
 30
0.0
 11
-160.157842632575
 21
75.521457208617
 31
0.0
  0
LINE
  5
637
330
25
100
AcDbEntity
  8
中線
 62
     3
100
AcDbLine
 10
-158.690489001502
 20
77.837208680532
 30
0.0
 11
-160.494200885163
 21
76.033393861832
 31
0.0
  0
LINE
  5
638
330
25
100
AcDbEntity
  8
中線
 62
     3
100
AcDbLine
 10
-159.480522977758
 20
77.895224359939
 30
0.0
 11
-160.552619503051
 21
76.823329975431
 31
0.0
  0
LINE
  5
639
330
25
100
AcDbEntity
  8
中線
 62
     3
100
AcDbLine
 10
-157.857476511637
 20
76.973301925847
 30
0.0
 11
-159.630302201338
 21
75.200472350646
 31
0.0
  0
CIRCLE
  5
63A
330
25
100
AcDbEntity
  8
中線
 62
     1
100
AcDbCircle
 10
-159.184445313042
 20
76.527355554278
 30
0.0
 40
1.3998591947472
  0
LINE
  5
63B
330
25
100
AcDbEntity
  8
中線
 62
     3
100
AcDbLine
 10
-157.837970338338
 20
76.14437601684
 30
0.0
 11
-158.801379063275
 21
75.180471381721
 31
0.0
  0
LINE
  5
63C
330
25
100
AcDbEntity
  8
中線
 62
     3
100
AcDbLine
 10
-170.726209795053
 20
95.496472231789
 30
0.0
 11
-171.654608854973
 21
94.568578582211
 31
0.0
  0
LINE
  5
63D
330
25
100
AcDbEntity
  8
中線
 62
     3
100
AcDbLine
 10
-170.677705224329
 20
96.393370733191
 30
0.0
 11
-172.551512082236
 21
94.519571456859
 31
0.0
  0
CIRCLE
  5
63E
330
25
100
AcDbEntity
  8
中線
 62
     1
100
AcDbCircle
 10
-172.183158875019
 20
96.025408944828
 30
0.0
 40
1.5498444490551
  0
LINE
  5
63F
330
25
100
AcDbEntity
  8
中線
 62
     3
100
AcDbLine
 10
-172.047550698415
 20
97.569259111482
 30
0.0
 11
-173.727081710294
 21
95.889419157055
 31
0.0
  0
LINE
  5
687
330
25
100
AcDbEntity
  8
CENTER
100
AcDbLine
 10
-159.184445313042
 20
72.027802163839
 30
0.0
 11
-159.184445313042
 21
81.026908944828
 31
0.0
  0
TEXT
  5
71E
330
25
100
AcDbEntity
  8
CMNT
100
AcDbText
 10
-100.9739685059
 20
252.4161529541
 30
0.0
 40
3.0
  1

 72
     5
 11
-100.9739685059
 21
252.4161529541
 31
0.0
100
AcDbText
  0
CIRCLE
  5
723
330
25
100
AcDbEntity
  8
中線
 62
     1
100
AcDbCircle
 10
-152.185158875019
 20
57.029302163839
 30
0.0
 40
1.5498444490551
  0
LINE
  5
724
330
25
100
AcDbEntity
  8
中線
 62
     3
100
AcDbLine
 10
-150.679705196998
 20
57.397272938748
 30
0.0
 11
-152.553512054906
 21
55.523473662527
 31
0.0
  0
LINE
  5
725
330
25
100
AcDbEntity
  8
中線
 62
     3
100
AcDbLine
 10
-152.049545210297
 20
58.573154807024
 30
0.0
 11
-153.729076222176
 21
56.893314852597
 31
0.0
  0
LINE
  5
726
330
25
100
AcDbEntity
  8
中線
 62
     3
100
AcDbLine
 10
-151.405517835475
 20
58.369169704685
 30
0.0
 11
-153.524605621059
 21
56.249385878934
 31
0.0
  0
LINE
  5
727
330
25
100
AcDbEntity
  8
中線
 62
     3
100
AcDbLine
 10
-150.954484401218
 20
57.9712261358
 30
0.0
 11
-153.127267577504
 21
55.798439113343
 31
0.0
  0
TEXT
  5
735
330
25
100
AcDbEntity
  8
CMNT
100
AcDbText
 10
-100.9739685059
 20
267.416015625
 30
0.0
 40
3.0
  1

 72
     5
 11
-100.9739685059
 21
267.416015625
 31
0.0
100
AcDbText
  0
TEXT
  5
737
330
25
100
AcDbEntity
  8
CMNT
100
AcDbText
 10
-100.9739685059
 20
267.416015625
 30
0.0
 40
3.0
  1

 72
     5
 11
-100.9739685059
 21
267.416015625
 31
0.0
100
AcDbText
  0
SPLINE
  5
7AB
330
25
100
AcDbEntity
  8
中線
100
AcDbSpline
210
0.0
220
0.0
230
1.0
 70
     8
 71
     3
 72
    43
 73
    39
 74
    37
 42
0.0000000001
 43
0.0000000001
 44
0.0000000001
 40
0.0
 40
0.0
 40
0.0
 40
0.0
 40
0.9433019265964346
 40
1.889511497795043
 40
2.788282480027728
 40
3.625757343319201
 40
4.225316955657478
 40
4.853064465100636
 40
5.512392834528892
 40
6.188401765601484
 40
7.308816823408772
 40
8.393764504338645
 40
9.43760801907599
 40
10.46626348581842
 40
12.14849530070464
 40
13.9312321506106
 40
15.60886371661968
 40
17.0367354819311
 40
18.50735123186514
 40
20.24114079164376
 40
22.07503851542612
 40
23.79057021336657
 40
25.05162185068402
 40
26.35217540788255
 40
27.69348068886338
 40
29.03570362432298
 40
29.72337745359544
 40
30.40549045114175
 40
31.08197330166864
 40
31.7573203787022
 40
32.33078933138715
 40
32.90589994512231
 40
33.47182797301188
 40
34.02604219403808
 40
34.54294097589587
 40
35.07330825937521
 40
35.61119548899583
 40
36.14267789703307
 40
36.14267789703307
 40
36.14267789703307
 40
36.14267789703307
 10
-69.72489297940439
 20
124.2994334552748
 30
0.0
 10
-69.82964337016415
 20
124.0024264720414
 30
0.0
 10
-70.0394670354812
 20
123.4074970078669
 30
0.0
 10
-70.1816613297557
 20
122.4828744172388
 30
0.0
 10
-70.15193528189818
 20
121.582582772743
 30
0.0
 10
-69.89189099324128
 20
120.8276043272767
 30
0.0
 10
-69.44157818352525
 20
120.295187766759
 30
0.0
 10
-68.9385885443571
 20
119.9131421662489
 30
0.0
 10
-68.3691274327444
 20
119.5887518821777
 30
0.0
 10
-67.63173863205712
 20
119.2329592283837
 30
0.0
 10
-66.75827582652619
 20
118.8337552130306
 30
0.0
 10
-65.79258098218038
 20
118.341189532742
 30
0.0
 10
-64.9154722756458
 20
117.7517075367254
 30
0.0
 10
-64.04095786132999
 20
116.8339784276713
 30
0.0
 10
-63.44049677773739
 20
115.4336695210573
 30
0.0
 10
-62.9856579966108
 20
113.7827677953459
 30
0.0
 10
-62.52011577628334
 20
112.2310010173935
 30
0.0
 10
-61.64409023616963
 20
110.8769534296268
 30
0.0
 10
-60.06547052917771
 20
110.4498284771619
 30
0.0
 10
-58.39692695214429
 20
110.4774281672823
 30
0.0
 10
-56.63956919374056
 20
110.5341389460271
 30
0.0
 10
-55.01287320462961
 20
110.337105641752
 30
0.0
 10
-53.76948169704995
 20
109.5848075845958
 30
0.0
 10
-52.83717965761469
 20
108.6738117144172
 30
0.0
 10
-51.94833177497836
 20
107.6884782784007
 30
0.0
 10
-51.13982203879807
 20
106.9018042777878
 30
0.0
 10
-50.40027784324762
 20
106.3782465001023
 30
0.0
 10
-49.7990367654128
 20
106.0523070957807
 30
0.0
 10
-49.1626128872762
 20
105.8120667230156
 30
0.0
 10
-48.5311572100883
 20
105.6802479816548
 30
0.0
 10
-47.92281096080776
 20
105.6508619248612
 30
0.0
 10
-47.351501935258
 20
105.6493122278154
 30
0.0
 10
-46.78655543603696
 20
105.6215269176925
 30
0.0
 10
-46.24741973650189
 20
105.5124594039907
 30
0.0
 10
-45.76155198672897
 20
105.2806655380891
 30
0.0
 10
-45.33203724398754
 20
104.9699582495409
 30
0.0
 10
-44.94267622597233
 20
104.6031393648168
 30
0.0
 10
-44.71640131805808
 20
104.3273734927926
 30
0.0
 10
-44.60394148312199
 20
104.1903163849819
 30
0.0
 11
-69.72489297940439
 21
124.2994334552748
 31
0.0
 11
-70.01086536663898
 21
123.4005239389941
 31
0.0
 11
-70.15395564551339
 21
122.4651963361086
 31
0.0
 11
-70.10461561123248
 21
121.5677806913149
 31
0.0
 11
-69.81329705866789
 21
120.7826070496427
 31
0.0
 11
-69.43351610300608
 21
120.3186693873821
 31
0.0
 11
-68.93981985867909
 21
119.9309440284622
 31
0.0
 11
-68.37065046053338
 21
119.5981376358743
 31
0.0
 11
-67.76445004330438
 21
119.2989568727205
 31
0.0
 11
-66.75090071192959
 21
118.8214135190541
 31
0.0
 11
-65.79110211394388
 21
118.3155497808204
 31
0.0
 11
-64.9348489443798
 21
117.7185239917034
 31
0.0
 11
-64.23193589838088
 21
116.9674944856096
 31
0.0
 11
-63.49082597845138
 21
115.4573090779203
 31
0.0
 11
-62.97012396641568
 21
113.7523105176058
 31
0.0
 11
-62.40914819838059
 21
112.1712495260728
 31
0.0
 11
-61.5472170110084
 21
111.032876825061
 31
0.0
 11
-60.16164623427649
 21
110.5400235947575
 31
0.0
 11
-58.42885115966919
 21
110.4813084603026
 31
0.0
 11
-56.59496058373419
 21
110.4864286937836
 31
0.0
 11
-54.90610330257479
 21
110.1850815675101
 31
0.0
 11
-53.81314320173779
 21
109.5560430552079
 31
0.0
 11
-52.85701323396349
 21
108.6744223658716
 31
0.0
 11
-51.9373213172419
 21
107.6980686210107
 31
0.0
 11
-50.95367536978519
 21
106.7848309419118
 31
0.0
 11
-50.39146644218948
 21
106.3888304151471
 31
0.0
 11
-49.79084866997349
 21
106.0655094706974
 31
0.0
 11
-49.1571537348046
 21
105.8287400127888
 31
0.0
 11
-48.49571331846128
 21
105.6923939454258
 31
0.0
 11
-47.92344902416949
 21
105.6552426712582
 31
0.0
 11
-47.34843295419388
 21
105.6448149533565
 31
0.0
 11
-46.78377162386299
 21
105.6069716609531
 31
0.0
 11
-46.24257154906078
 21
105.4875736633913
 31
0.0
 11
-45.77391076115998
 21
105.2695337207884
 31
0.0
 11
-45.34133459699149
 21
104.9626667828845
 31
0.0
 11
-44.94971939231739
 21
104.5939389655761
 31
0.0
 11
-44.60394148312199
 21
104.1903163849819
 31
0.0
  0
SPLINE
  5
7AC
330
25
100
AcDbEntity
  8
中線
100
AcDbSpline
210
0.0
220
0.0
230
1.0
 70
     8
 71
     3
 72
    33
 73
    29
 74
    27
 42
0.0000000001
 43
0.0000000001
 44
0.0000000001
 40
0.0
 40
0.0
 40
0.0
 40
0.0
 40
0.6938003849210821
 40
2.62935863043281
 40
4.728871958088165
 40
6.952949407457076
 40
9.16322466853966
 40
11.79101568109402
 40
14.46097182407025
 40
16.96793955883485
 40
19.22076715733603
 40
21.34095305703569
 40
23.69698632580442
 40
26.01076373291367
 40
28.07791104662284
 40
29.82576377750274
 40
31.74452356639967
 40
33.66222446414628
 40
35.4296452888433
 40
37.24788720277284
 40
39.23085453316765
 40
41.17221630509182
 40
42.87667454843267
 40
44.39947603015257
 40
46.11307563927672
 40
47.91981300841805
 40
49.66241134283191
 40
51.33025252529827
 40
51.33025252529827
 40
51.33025252529827
 40
51.33025252529827
 10
-180.584300556164
 20
121.1277216265113
 30
0.0
 10
-180.3870139691814
 20
121.2500134329794
 30
0.0
 10
-179.6393389874065
 20
121.7134738515043
 30
0.0
 10
-178.0107844657073
 20
121.9409176632118
 30
0.0
 10
-175.9505302955631
 20
121.6154592587686
 30
0.0
 10
-173.8226595668243
 20
121.1663719641342
 30
0.0
 10
-171.4475645717791
 20
120.965243726914
 30
0.0
 10
-169.0022457107188
 20
121.6747444481489
 30
0.0
 10
-166.6474946051368
 20
122.7673900879406
 30
0.0
 10
-164.3685102447052
 20
123.7399020680635
 30
0.0
 10
-161.9703703071817
 20
123.9168874975208
 30
0.0
 10
-159.9672199164272
 20
122.755383894094
 30
0.0
 10
-158.2228199051038
 20
121.3328220580687
 30
0.0
 10
-156.451305968754
 20
119.9588399607353
 30
0.0
 10
-154.454266854443
 20
119.1837680539096
 30
0.0
 10
-152.5339936976151
 20
119.6466597988892
 30
0.0
 10
-150.8516336038089
 20
120.4247928257542
 30
0.0
 10
-149.1495255503893
 20
121.1867560723919
 30
0.0
 10
-147.2773948554076
 20
121.5187154162498
 30
0.0
 10
-145.5024585120702
 20
120.7821704615054
 30
0.0
 10
-143.9356214695239
 20
119.6920483768282
 30
0.0
 10
-142.4040265303646
 20
118.6251583047011
 30
0.0
 10
-140.7253522624745
 20
117.971274726049
 30
0.0
 10
-139.0663806636684
 20
118.4132894802365
 30
0.0
 10
-137.6212451468959
 20
119.2672213412874
 30
0.0
 10
-136.141363388492
 20
120.1959763710495
 30
0.0
 10
-134.5431334997181
 20
120.9733854972158
 30
0.0
 10
-133.3928621880265
 20
120.9845305065595
 30
0.0
 10
-132.83033355934
 20
120.9899808614097
 30
0.0
 11
-180.584300556164
 21
121.1277216265113
 31
0.0
 11
-179.9814512334587
 21
121.4711334321184
 31
0.0
 11
-178.081385413821
 21
121.840099016981
 31
0.0
 11
-175.9950906778263
 21
121.6048746824336
 31
0.0
 11
-173.8062894062881
 21
121.2103249460199
 31
0.0
 11
-171.5987039800199
 21
121.1013143250611
 31
0.0
 11
-169.047242055174
 21
121.7300651912418
 31
0.0
 11
-166.5913948194585
 21
122.7776720641885
 31
0.0
 11
-164.2353228725496
 21
123.6343004574487
 31
0.0
 11
-161.9831868139013
 21
123.6901158845701
 31
0.0
 11
-160.0783811972907
 21
122.7590391894402
 31
0.0
 11
-158.2047758666728
 21
121.3305799395401
 31
0.0
 11
-156.3095987498937
 21
120.0032255838061
 31
0.0
 11
-154.3400777745773
 21
119.3754635712855
 31
0.0
 11
-152.6192610484598
 21
119.6816970834273
 31
0.0
 11
-150.8489423590337
 21
120.4217044248479
 31
0.0
 11
-149.067512475727
 21
121.1316933712971
 31
0.0
 11
-147.3133621678566
 21
121.3478716980802
 31
0.0
 11
-145.5948766520392
 21
120.7538925827099
 31
0.0
 11
-143.9250166274086
 21
119.6844408860196
 31
0.0
 11
-142.2851052480584
 21
118.6454143236227
 31
0.0
 11
-140.6564656683044
 21
118.1427106111326
 31
0.0
 11
-139.165704488887
 21
118.4534443535396
 31
0.0
 11
-137.6524096432838
 21
119.2574109763924
 31
0.0
 11
-136.1001973718124
 21
120.1820390017871
 31
0.0
 11
-134.4926839147904
 21
120.8547569520419
 31
0.0
 11
-132.83033355934
 21
120.9899808614097
 31
0.0
  0
TEXT
  5
8BD
330
25
100
AcDbEntity
  8
CMNT
100
AcDbText
 10
-66.954484926905
 20
24.725630174184
 30
0.0
 40
4.167171
  1
DD9Z-MB2-2
 41
0.967589124139
 72
     5
 11
-26.057375926905
 21
24.725630174184
 31
0.0
100
AcDbText
  0
TEXT
  5
8C1
330
25
100
AcDbEntity
  8
CMNT
100
AcDbText
 10
-66.666667
 20
16.0
 30
0.0
 40
5.0
  1
MA4-P00014
 41
1.015686494118
 72
     5
 11
-17.333323
 21
16.0
 31
0.0
100
AcDbText
  0
VIEWPORT
  5
17D
330
26
100
AcDbEntity
 67
     1
  8
0
  6
SOLID
100
AcDbViewport
 10
-106.000122
 20
148.5
 30
0.0
 40
218.350244
 41
303.35
 68
     2
 69
     1
 12
-106.000122
 22
148.5
 13
0.0
 23
0.0
 14
1.0
 24
1.0
 15
0.0
 25
0.0
 16
0.0
 26
0.0
 36
1.0
 17
0.0
 27
0.0
 37
0.0
 42
0.0
 43
0.0
 44
0.0
 45
303.35
 50
0.0
 51
0.0
 72
   100
 90
      160
  1

281
     0
 71
     1
 74
     0
110
0.0
120
0.0
130
0.0
111
1.0
121
0.0
131
0.0
112
0.0
122
1.0
132
0.0
 79
     0
146
0.0
  0
VIEWPORT
  5
7AD
330
26
100
AcDbEntity
 67
     1
  8
VIEWPORTS
  6
SOLID
100
AcDbViewport
 10
-106.0001220703
 20
148.5
 30
0.0
 40
218.3502441406
 41
303.35
 68
     1
 69
     2
 12
-106.0001220703
 22
148.5
 13
0.0
 23
0.0
 14
1.0
 24
1.0
 15
0.0
 25
0.0
 16
0.0
 26
0.0
 36
1.0
 17
0.0
 27
0.0
 37
0.0
 42
0.0
 43
0.0
 44
0.0
 45
303.35
 50
0.0
 51
0.0
 72
   100
 90
      160
  1

281
     0
 71
     1
 74
     0
110
0.0
120
0.0
130
0.0
111
1.0
121
0.0
131
0.0
112
0.0
122
1.0
132
0.0
 79
     0
146
0.0
  0
ENDSEC
  0
SECTION
  2
OBJECTS
  0
DICTIONARY
  5
7AE
330
0
100
AcDbDictionary
281
     1
  3
ACAD_COLOR
350
7C9
  3
ACAD_GROUP
350
7AF
  3
ACAD_LAYOUT
350
7CE
  3
ACAD_MATERIAL
350
7B4
  3
ACAD_MLEADERSTYLE
350
833
  3
ACAD_MLINESTYLE
350
7B0
  3
ACAD_PLOTSETTINGS
350
7CD
  3
ACAD_PLOTSTYLENAME
350
7B2
  3
ACAD_SCALELIST
350
7D4
  3
ACAD_TABLESTYLE
350
7CA
  3
ACAD_VISUALSTYLE
350
7B8
  3
ACDBHEADERROUNDTRIPXREC
350
9E5
  3
AcDbVariableDictionary
350
7D1
  3
DWGPROPS
350
9E8
  0
DICTIONARY
  5
892
330
891
100
AcDbDictionary
280
     1
281
     1
  3
ACAD_SORTENTS
360
893
  0
DICTIONARY
  5
8A7
330
8A6
100
AcDbDictionary
280
     1
281
     1
  3
ACAD_SORTENTS
360
8A8
  0
DICTIONARY
  5
7C9
102
{ACAD_REACTORS
330
7AE
102
}
330
7AE
100
AcDbDictionary
281
     1
  0
DICTIONARY
  5
7AF
102
{ACAD_REACTORS
330
7AE
102
}
330
7AE
100
AcDbDictionary
281
     1
  0
DICTIONARY
  5
7CE
102
{ACAD_REACTORS
330
7AE
102
}
330
7AE
100
AcDbDictionary
281
     1
  3
Model
350
7CF
  3
レイアウト1
350
7D0
  0
DICTIONARY
  5
7B4
102
{ACAD_REACTORS
330
7AE
102
}
330
7AE
100
AcDbDictionary
281
     1
  3
ByBlock
350
7B6
  3
ByLayer
350
7B5
  3
Global
350
7B7
  0
DICTIONARY
  5
833
102
{ACAD_REACTORS
330
7AE
102
}
330
7AE
100
AcDbDictionary
281
     1
  0
DICTIONARY
  5
7B0
102
{ACAD_REACTORS
330
7AE
102
}
330
7AE
100
AcDbDictionary
281
     1
  3
STANDARD
350
7B1
  0
DICTIONARY
  5
7CD
102
{ACAD_REACTORS
330
7AE
102
}
330
7AE
100
AcDbDictionary
281
     1
  0
ACDBDICTIONARYWDFLT
  5
7B2
102
{ACAD_REACTORS
330
7AE
102
}
330
7AE
100
AcDbDictionary
281
     1
  3
Normal
350
7B3
100
AcDbDictionaryWithDefault
340
7B3
  0
DICTIONARY
  5
7D4
102
{ACAD_REACTORS
330
7AE
102
}
330
7AE
100
AcDbDictionary
281
     1
  3
A0
350
7D5
  3
A1
350
7D6
  3
A2
350
7D7
  3
A3
350
7D8
  3
A4
350
7D9
  3
A5
350
7DA
  3
A6
350
7DB
  3
A7
350
7DC
  3
A8
350
7DD
  3
A9
350
7DE
  3
B0
350
7DF
  3
B1
350
7E0
  3
B2
350
7E1
  3
B3
350
7E2
  3
B4
350
7E3
  3
B5
350
7E4
  3
B6
350
7E5
  3
B7
350
7E6
  3
B8
350
7E7
  3
B9
350
7E8
  3
C0
350
7E9
  3
C1
350
7EA
  3
C2
350
7EB
  3
C3
350
7EC
  3
C4
350
7ED
  3
C5
350
7EE
  3
C6
350
7EF
  3
C7
350
7F0
  3
C8
350
7F1
  3
C9
350
7F2
  3
D0
350
7F3
  3
D1
350
7F4
  3
D2
350
7F5
  0
DICTIONARY
  5
7CA
102
{ACAD_REACTORS
330
7AE
102
}
330
7AE
100
AcDbDictionary
281
     1
  3
Standard
350
7CB
  0
DICTIONARY
  5
7B8
102
{ACAD_REACTORS
330
7AE
102
}
330
7AE
100
AcDbDictionary
281
     1
  3
2dWireframe
350
7BE
  3
3D Hidden
350
7C0
  3
3dWireframe
350
7BF
  3
Basic
350
7BD
  3
Brighten
350
7C4
  3
ColorChange
350
7C8
  3
Conceptual
350
7C1
  3
Dim
350
7C3
  3
Facepattern
350
7C7
  3
Flat
350
7B9
  3
FlatWithEdges
350
7BA
  3
Gouraud
350
7BB
  3
GouraudWithEdges
350
7BC
  3
Linepattern
350
7C6
  3
Realistic
350
7C2
  3
Thicken
350
7C5
  0
DICTIONARY
  5
9E5
102
{ACAD_REACTORS
330
7AE
102
}
330
7AE
100
AcDbDictionary
281
     1
  3
COLORDICT
350
9E6
  3
MATERIALDICT
350
9E7
  0
DICTIONARY
  5
7D1
102
{ACAD_REACTORS
330
7AE
102
}
330
7AE
100
AcDbDictionary
281
     1
  3
CANNOSCALE
350
808
  3
CTABLESTYLE
350
7D2
  3
DIMASSOC
350
9E3
  3
HIDETEXT
350
9E4
  3
MSLTSCALE
350
834
  3
XCLIPFRAME
350
835
  0
XRECORD
  5
9E8
102
{ACAD_REACTORS
330
7AE
102
}
330
7AE
100
AcDbXrecord
280
     1
  1
DWGPROPS COOKIE
  2

  3

  4

  6

  7

  8
3167
  9

300
=
301
=
302
=
303
=
304
=
305
=
306
=
307
=
308
=
309
=
 40
0.0
 41
2454868.379201389
 42
2456275.224115694
  1

 90
        0
  0
SORTENTSTABLE
  5
893
102
{ACAD_REACTORS
330
892
330
892
102
}
330
892
100
AcDbSortentsTable
330
891
  0
SORTENTSTABLE
  5
8A8
102
{ACAD_REACTORS
330
8A7
330
8A7
102
}
330
8A7
100
AcDbSortentsTable
330
8A6
  0
LAYOUT
  5
7CF
102
{ACAD_REACTORS
330
7CE
102
}
330
7CE
100
AcDbPlotSettings
  1

  2
\\s-w03-hon002\FX DocuWide 2050 (本社7F)
  4

  6

 40
0.0
 41
0.0
 42
0.0
 43
0.0
 44
0.0
 45
0.0
 46
0.0
 47
0.0
 48
0.0
 49
0.0
140
0.0
141
0.0
142
1.0
143
1.0
 70
  1712
 72
     0
 73
     0
 74
     0
  7

 75
     0
147
1.0
148
0.0
149
0.0
100
AcDbLayout
  1
Model
 70
     1
 71
     0
 10
0.0
 20
0.0
 11
12.0
 21
9.0
 12
0.0
 22
0.0
 32
0.0
 14
-180.584300556164
 24
16.0
 34
0.0
 15
-17.333323
 25
164.045475290036
 35
0.0
146
0.0
 13
0.0
 23
0.0
 33
0.0
 16
1.0
 26
0.0
 36
0.0
 17
0.0
 27
1.0
 37
0.0
 76
     0
330
25
331
7D3
  0
LAYOUT
  5
7D0
102
{ACAD_REACTORS
330
7CE
102
}
330
7CE
100
AcDbPlotSettings
  1

  2
none_device
  4
Letter_(8.50_x_11.00_Inches)
  6

 40
6.35
 41
6.35
 42
6.35001
 43
6.35001
 44
215.9
 45
279.4
 46
0.0
 47
0.0
 48
0.0
 49
0.0
140
0.0
141
0.0
142
1.0
143
1.062500052288
 70
   688
 72
     0
 73
     1
 74
     1
  7

 75
     0
147
0.94117642427
148
6.35
149
6.35
100
AcDbLayout
  1
レイアウト1
 70
     1
 71
     1
 10
-0.515625431379
 20
-0.515625013072
 11
11.171875143793
 21
8.515625431379
 12
0.0
 22
0.0
 32
0.0
 14
1.000000000000E+20
 24
1.000000000000E+20
 34
1.000000000000E+20
 15
-1.000000000000E+20
 25
-1.000000000000E+20
 35
-1.000000000000E+20
146
0.0
 13
0.0
 23
0.0
 33
0.0
 16
1.0
 26
0.0
 36
0.0
 17
0.0
 27
1.0
 37
0.0
 76
     0
330
26
331
7AD
  0
MATERIAL
  5
7B6
102
{ACAD_REACTORS
330
7B4
102
}
102
{ACAD_XDICTIONARY
360
9EA
102
}
330
7B4
100
AcDbMaterial
  1
ByBlock
  0
MATERIAL
  5
7B5
102
{ACAD_REACTORS
330
7B4
102
}
102
{ACAD_XDICTIONARY
360
9EC
102
}
330
7B4
100
AcDbMaterial
  1
ByLayer
  0
MATERIAL
  5
7B7
102
{ACAD_REACTORS
330
7B4
102
}
102
{ACAD_XDICTIONARY
360
9EE
102
}
330
7B4
100
AcDbMaterial
  1
Global
  0
MLINESTYLE
  5
7B1
102
{ACAD_REACTORS
330
7B0
102
}
330
7B0
100
AcDbMlineStyle
  2
STANDARD
 70
     0
  3

 62
   256
 51
90.0
 52
90.0
 71
     2
 49
1.5
 62
   256
  6
Continuous
 49
0.5
 62
   256
  6
Continuous
  0
ACDBPLACEHOLDER
  5
7B3
102
{ACAD_REACTORS
330
7B2
102
}
330
7B2
  0
SCALE
  5
7D5
102
{ACAD_REACTORS
330
7D4
102
}
330
7D4
100
AcDbScale
 70
     0
300
1:1
140
1.0
141
1.0
290
     1
  0
SCALE
  5
7D6
102
{ACAD_REACTORS
330
7D4
102
}
330
7D4
100
AcDbScale
 70
     0
300
1:2
140
1.0
141
2.0
290
     0
  0
SCALE
  5
7D7
102
{ACAD_REACTORS
330
7D4
102
}
330
7D4
100
AcDbScale
 70
     0
300
1:4
140
1.0
141
4.0
290
     0
  0
SCALE
  5
7D8
102
{ACAD_REACTORS
330
7D4
102
}
330
7D4
100
AcDbScale
 70
     0
300
1:5
140
1.0
141
5.0
290
     0
  0
SCALE
  5
7D9
102
{ACAD_REACTORS
330
7D4
102
}
330
7D4
100
AcDbScale
 70
     0
300
1:8
140
1.0
141
8.0
290
     0
  0
SCALE
  5
7DA
102
{ACAD_REACTORS
330
7D4
102
}
330
7D4
100
AcDbScale
 70
     0
300
1:10
140
1.0
141
10.0
290
     0
  0
SCALE
  5
7DB
102
{ACAD_REACTORS
330
7D4
102
}
330
7D4
100
AcDbScale
 70
     0
300
1:16
140
1.0
141
16.0
290
     0
  0
SCALE
  5
7DC
102
{ACAD_REACTORS
330
7D4
102
}
330
7D4
100
AcDbScale
 70
     0
300
1:20
140
1.0
141
20.0
290
     0
  0
SCALE
  5
7DD
102
{ACAD_REACTORS
330
7D4
102
}
330
7D4
100
AcDbScale
 70
     0
300
1:30
140
1.0
141
30.0
290
     0
  0
SCALE
  5
7DE
102
{ACAD_REACTORS
330
7D4
102
}
330
7D4
100
AcDbScale
 70
     0
300
1:40
140
1.0
141
40.0
290
     0
  0
SCALE
  5
7DF
102
{ACAD_REACTORS
330
7D4
102
}
330
7D4
100
AcDbScale
 70
     0
300
1:50
140
1.0
141
50.0
290
     0
  0
SCALE
  5
7E0
102
{ACAD_REACTORS
330
7D4
102
}
330
7D4
100
AcDbScale
 70
     0
300
1:100
140
1.0
141
100.0
290
     0
  0
SCALE
  5
7E1
102
{ACAD_REACTORS
330
7D4
102
}
330
7D4
100
AcDbScale
 70
     0
300
2:1
140
2.0
141
1.0
290
     0
  0
SCALE
  5
7E2
102
{ACAD_REACTORS
330
7D4
102
}
330
7D4
100
AcDbScale
 70
     0
300
4:1
140
4.0
141
1.0
290
     0
  0
SCALE
  5
7E3
102
{ACAD_REACTORS
330
7D4
102
}
330
7D4
100
AcDbScale
 70
     0
300
8:1
140
8.0
141
1.0
290
     0
  0
SCALE
  5
7E4
102
{ACAD_REACTORS
330
7D4
102
}
330
7D4
100
AcDbScale
 70
     0
300
10:1
140
10.0
141
1.0
290
     0
  0
SCALE
  5
7E5
102
{ACAD_REACTORS
330
7D4
102
}
330
7D4
100
AcDbScale
 70
     0
300
100:1
140
100.0
141
1.0
290
     0
  0
SCALE
  5
7E6
102
{ACAD_REACTORS
330
7D4
102
}
330
7D4
100
AcDbScale
 70
     0
300
1/128" = 1'-0"
140
0.0078125
141
12.0
290
     0
  0
SCALE
  5
7E7
102
{ACAD_REACTORS
330
7D4
102
}
330
7D4
100
AcDbScale
 70
     0
300
1/64" = 1'-0"
140
0.015625
141
12.0
290
     0
  0
SCALE
  5
7E8
102
{ACAD_REACTORS
330
7D4
102
}
330
7D4
100
AcDbScale
 70
     0
300
1/32" = 1'-0"
140
0.03125
141
12.0
290
     0
  0
SCALE
  5
7E9
102
{ACAD_REACTORS
330
7D4
102
}
330
7D4
100
AcDbScale
 70
     0
300
1/16" = 1'-0"
140
0.0625
141
12.0
290
     0
  0
SCALE
  5
7EA
102
{ACAD_REACTORS
330
7D4
102
}
330
7D4
100
AcDbScale
 70
     0
300
3/32" = 1'-0"
140
0.09375
141
12.0
290
     0
  0
SCALE
  5
7EB
102
{ACAD_REACTORS
330
7D4
102
}
330
7D4
100
AcDbScale
 70
     0
300
1/8" = 1'-0"
140
0.125
141
12.0
290
     0
  0
SCALE
  5
7EC
102
{ACAD_REACTORS
330
7D4
102
}
330
7D4
100
AcDbScale
 70
     0
300
3/16" = 1'-0"
140
0.1875
141
12.0
290
     0
  0
SCALE
  5
7ED
102
{ACAD_REACTORS
330
7D4
102
}
330
7D4
100
AcDbScale
 70
     0
300
1/4" = 1'-0"
140
0.25
141
12.0
290
     0
  0
SCALE
  5
7EE
102
{ACAD_REACTORS
330
7D4
102
}
330
7D4
100
AcDbScale
 70
     0
300
3/8" = 1'-0"
140
0.375
141
12.0
290
     0
  0
SCALE
  5
7EF
102
{ACAD_REACTORS
330
7D4
102
}
330
7D4
100
AcDbScale
 70
     0
300
1/2" = 1'-0"
140
0.5
141
12.0
290
     0
  0
SCALE
  5
7F0
102
{ACAD_REACTORS
330
7D4
102
}
330
7D4
100
AcDbScale
 70
     0
300
3/4" = 1'-0"
140
0.75
141
12.0
290
     0
  0
SCALE
  5
7F1
102
{ACAD_REACTORS
330
7D4
102
}
330
7D4
100
AcDbScale
 70
     0
300
1" = 1'-0"
140
1.0
141
12.0
290
     0
  0
SCALE
  5
7F2
102
{ACAD_REACTORS
330
7D4
102
}
330
7D4
100
AcDbScale
 70
     0
300
1-1/2" = 1'-0"
140
1.5
141
12.0
290
     0
  0
SCALE
  5
7F3
102
{ACAD_REACTORS
330
7D4
102
}
330
7D4
100
AcDbScale
 70
     0
300
3" = 1'-0"
140
3.0
141
12.0
290
     0
  0
SCALE
  5
7F4
102
{ACAD_REACTORS
330
7D4
102
}
330
7D4
100
AcDbScale
 70
     0
300
6" = 1'-0"
140
6.0
141
12.0
290
     0
  0
SCALE
  5
7F5
102
{ACAD_REACTORS
330
7D4
102
}
330
7D4
100
AcDbScale
 70
     0
300
1'-0" = 1'-0"
140
12.0
141
12.0
290
     0
  0
TABLESTYLE
  5
7CB
102
{ACAD_REACTORS
330
7CA
102
}
330
7CA
100
AcDbTableStyle
  3
Standard
 70
     0
 71
     0
 40
0.06
 41
0.06
280
     0
281
     0
  7
STANDARD
140
0.18
170
     2
 62
     0
 63
   256
283
     0
274
    -2
284
     1
 64
     0
275
    -2
285
     1
 65
     0
276
    -2
286
     1
 66
     0
277
    -2
287
     1
 67
     0
278
    -2
288
     1
 68
     0
279
    -2
289
     1
 69
     0
  7
STANDARD
140
0.25
170
     5
 62
     0
 63
   256
283
     0
274
    -2
284
     1
 64
     0
275
    -2
285
     1
 65
     0
276
    -2
286
     1
 66
     0
277
    -2
287
     1
 67
     0
278
    -2
288
     1
 68
     0
279
    -2
289
     1
 69
     0
  7
STANDARD
140
0.18
170
     5
 62
     0
 63
   256
283
     0
274
    -2
284
     1
 64
     0
275
    -2
285
     1
 65
     0
276
    -2
286
     1
 66
     0
277
    -2
287
     1
 67
     0
278
    -2
288
     1
 68
     0
279
    -2
289
     1
 69
     0
  0
VISUALSTYLE
  5
7BE
102
{ACAD_REACTORS
330
7B8
102
}
102
{ACAD_XDICTIONARY
360
9F0
102
}
330
7B8
100
AcDbVisualStyle
  2
2dWireframe
 70
     4
 71
     0
 72
     2
 73
     0
 90
        0
 40
-0.6
 41
-30.0
 62
     5
 63
     7
 74
     1
 91
        4
 64
     7
 65
   256
 75
     1
175
     1
 42
1.0
 92
        0
 66
   256
 43
1.0
 76
     1
 77
     6
 78
     2
 67
     7
 79
     5
170
     0
171
     0
290
     0
174
     0
 93
        1
 44
0.0
173
     0
291
     0
 45
0.0
1001
ACAD
1000
AcDbSavedByObjectVersion
1070
     0
  0
VISUALSTYLE
  5
7C0
102
{ACAD_REACTORS
330
7B8
102
}
102
{ACAD_XDICTIONARY
360
9F2
102
}
330
7B8
100
AcDbVisualStyle
  2
3D Hidden
 70
     6
 71
     1
 72
     2
 73
     2
 90
        0
 40
-0.6
 41
-30.0
 62
     5
 63
     7
 74
     2
 91
        2
 64
     7
 65
   256
 75
     2
175
     1
 42
40.0
 92
        0
 66
   256
 43
1.0
 76
     1
 77
     6
 78
     2
 67
     7
 79
     3
170
     0
171
     0
290
     0
174
     0
 93
        1
 44
0.0
173
     0
291
     0
 45
0.0
1001
ACAD
1000
AcDbSavedByObjectVersion
1070
     0
  0
VISUALSTYLE
  5
7BF
102
{ACAD_REACTORS
330
7B8
102
}
102
{ACAD_XDICTIONARY
360
9F4
102
}
330
7B8
100
AcDbVisualStyle
  2
3dWireframe
 70
     5
 71
     0
 72
     2
 73
     0
 90
        0
 40
-0.6
 41
-30.0
 62
     5
 63
     7
 74
     1
 91
        4
 64
     7
 65
   256
 75
     1
175
     1
 42
1.0
 92
        0
 66
   256
 43
1.0
 76
     1
 77
     6
 78
     2
 67
     7
 79
     5
170
     0
171
     0
290
     0
174
     0
 93
        1
 44
0.0
173
     0
291
     0
 45
0.0
1001
ACAD
1000
AcDbSavedByObjectVersion
1070
     0
  0
VISUALSTYLE
  5
7BD
102
{ACAD_REACTORS
330
7B8
102
}
102
{ACAD_XDICTIONARY
360
9F6
102
}
330
7B8
100
AcDbVisualStyle
  2
Basic
 70
     7
 71
     1
 72
     0
 73
     1
 90
        0
 40
-0.6
 41
-30.0
 62
     5
 63
     7
 74
     0
 91
        4
 64
     7
 65
   256
 75
     1
175
     1
 42
1.0
 92
        8
 66
     7
 43
1.0
 76
     1
 77
     6
 78
     2
 67
     7
 79
     5
170
     0
171
     0
290
     0
174
     0
 93
        1
 44
0.0
173
     0
291
     1
 45
0.0
1001
ACAD
1000
AcDbSavedByObjectVersion
1070
     0
  0
VISUALSTYLE
  5
7C4
102
{ACAD_REACTORS
330
7B8
102
}
102
{ACAD_XDICTIONARY
360
9F8
102
}
330
7B8
100
AcDbVisualStyle
  2
Brighten
 70
    12
 71
     2
 72
     2
 73
     0
 90
        0
 40
-0.6
 41
-30.0
 62
     5
 63
     7
 74
     1
 91
        4
 64
     7
 65
   256
 75
     1
175
     1
 42
1.0
 92
        8
 66
     7
 43
1.0
 76
     1
 77
     6
 78
     2
 67
     7
 79
     5
170
     0
171
     0
290
     0
174
     0
 93
        1
 44
50.0
173
     0
291
     1
 45
0.0
1001
ACAD
1000
AcDbSavedByObjectVersion
1070
     0
  0
VISUALSTYLE
  5
7C8
102
{ACAD_REACTORS
330
7B8
102
}
102
{ACAD_XDICTIONARY
360
9FA
102
}
330
7B8
100
AcDbVisualStyle
  2
ColorChange
 70
    16
 71
     2
 72
     2
 73
     3
 90
        0
 40
-0.6
 41
-30.0
 62
     5
 63
     8
 74
     1
 91
        4
 64
     7
 65
   256
 75
     1
175
     1
 42
1.0
 92
        8
 66
     8
 43
1.0
 76
     1
 77
     6
 78
     2
 67
     7
 79
     5
170
     0
171
     0
290
     0
174
     0
 93
        1
 44
0.0
173
     0
291
     1
 45
0.0
1001
ACAD
1000
AcDbSavedByObjectVersion
1070
     0
  0
VISUALSTYLE
  5
7C1
102
{ACAD_REACTORS
330
7B8
102
}
102
{ACAD_XDICTIONARY
360
9FC
102
}
330
7B8
100
AcDbVisualStyle
  2
Conceptual
 70
     9
 71
     3
 72
     2
 73
     0
 90
        0
 40
-0.6
 41
-30.0
 62
     5
 63
     7
 74
     2
 91
        2
 64
     7
 65
   256
 75
     1
175
     1
 42
40.0
 92
        8
 66
     7
 43
1.0
 76
     1
 77
     6
 78
     2
 67
     7
 79
     3
170
     0
171
     0
290
     0
174
     0
 93
        1
 44
0.0
173
     0
291
     0
 45
0.0
1001
ACAD
1000
AcDbSavedByObjectVersion
1070
     0
  0
VISUALSTYLE
  5
7C3
102
{ACAD_REACTORS
330
7B8
102
}
102
{ACAD_XDICTIONARY
360
9FE
102
}
330
7B8
100
AcDbVisualStyle
  2
Dim
 70
    11
 71
     2
 72
     2
 73
     0
 90
        0
 40
-0.6
 41
-30.0
 62
     5
 63
     7
 74
     1
 91
        4
 64
     7
 65
   256
 75
     1
175
     1
 42
1.0
 92
        8
 66
     7
 43
1.0
 76
     1
 77
     6
 78
     2
 67
     7
 79
     5
170
     0
171
     0
290
     0
174
     0
 93
        1
 44
-50.0
173
     0
291
     1
 45
0.0
1001
ACAD
1000
AcDbSavedByObjectVersion
1070
     0
  0
VISUALSTYLE
  5
7C7
102
{ACAD_REACTORS
330
7B8
102
}
102
{ACAD_XDICTIONARY
360
A00
102
}
330
7B8
100
AcDbVisualStyle
  2
Facepattern
 70
    15
 71
     2
 72
     2
 73
     0
 90
        0
 40
-0.6
 41
-30.0
 62
     5
 63
     7
 74
     1
 91
        4
 64
     7
 65
   256
 75
     1
175
     1
 42
1.0
 92
        8
 66
     7
 43
1.0
 76
     1
 77
     6
 78
     2
 67
     7
 79
     5
170
     0
171
     0
290
     0
174
     0
 93
        1
 44
0.0
173
     0
291
     1
 45
0.0
1001
ACAD
1000
AcDbSavedByObjectVersion
1070
     0
  0
VISUALSTYLE
  5
7B9
102
{ACAD_REACTORS
330
7B8
102
}
102
{ACAD_XDICTIONARY
360
A02
102
}
330
7B8
100
AcDbVisualStyle
  2
Flat
 70
     0
 71
     2
 72
     1
 73
     1
 90
        2
 40
-0.6
 41
30.0
 62
     5
 63
     7
 74
     0
 91
        4
 64
     7
 65
   256
 75
     1
175
     1
 42
1.0
 92
        8
 66
     7
 43
1.0
 76
     1
 77
     6
 78
     2
 67
     7
 79
     5
170
     0
171
     0
290
     0
174
     0
 93
       13
 44
0.0
173
     0
291
     1
 45
0.0
1001
ACAD
1000
AcDbSavedByObjectVersion
1070
     0
  0
VISUALSTYLE
  5
7BA
102
{ACAD_REACTORS
330
7B8
102
}
102
{ACAD_XDICTIONARY
360
A04
102
}
330
7B8
100
AcDbVisualStyle
  2
FlatWithEdges
 70
     1
 71
     2
 72
     1
 73
     1
 90
        2
 40
-0.6
 41
30.0
 62
     5
 63
     7
 74
     1
 91
        4
 64
     7
 65
   256
 75
     1
175
     1
 42
1.0
 92
        0
 66
   256
 43
1.0
 76
     1
 77
     6
 78
     2
 67
     7
 79
     5
170
     0
171
     0
290
     0
174
     0
 93
       13
 44
0.0
173
     0
291
     1
 45
0.0
1001
ACAD
1000
AcDbSavedByObjectVersion
1070
     0
  0
VISUALSTYLE
  5
7BB
102
{ACAD_REACTORS
330
7B8
102
}
102
{ACAD_XDICTIONARY
360
A06
102
}
330
7B8
100
AcDbVisualStyle
  2
Gouraud
 70
     2
 71
     2
 72
     2
 73
     1
 90
        2
 40
-0.6
 41
30.0
 62
     5
 63
     7
 74
     0
 91
        4
 64
     7
 65
   256
 75
     1
175
     1
 42
1.0
 92
        0
 66
     7
 43
1.0
 76
     1
 77
     6
 78
     2
 67
     7
 79
     5
170
     0
171
     0
290
     0
174
     0
 93
       13
 44
0.0
173
     0
291
     1
 45
0.0
1001
ACAD
1000
AcDbSavedByObjectVersion
1070
     0
  0
VISUALSTYLE
  5
7BC
102
{ACAD_REACTORS
330
7B8
102
}
102
{ACAD_XDICTIONARY
360
A08
102
}
330
7B8
100
AcDbVisualStyle
  2
GouraudWithEdges
 70
     3
 71
     2
 72
     2
 73
     1
 90
        2
 40
-0.6
 41
30.0
 62
     5
 63
     7
 74
     1
 91
        4
 64
     7
 65
   256
 75
     1
175
     1
 42
1.0
 92
        0
 66
   256
 43
1.0
 76
     1
 77
     6
 78
     2
 67
     7
 79
     5
170
     0
171
     0
290
     0
174
     0
 93
       13
 44
0.0
173
     0
291
     1
 45
0.0
1001
ACAD
1000
AcDbSavedByObjectVersion
1070
     0
  0
VISUALSTYLE
  5
7C6
102
{ACAD_REACTORS
330
7B8
102
}
102
{ACAD_XDICTIONARY
360
A0A
102
}
330
7B8
100
AcDbVisualStyle
  2
Linepattern
 70
    14
 71
     2
 72
     2
 73
     0
 90
        0
 40
-0.6
 41
-30.0
 62
     5
 63
     7
 74
     1
 91
        4
 64
     7
 65
   256
 75
     7
175
     7
 42
1.0
 92
        8
 66
     7
 43
1.0
 76
     1
 77
     6
 78
     2
 67
     7
 79
     5
170
     0
171
     0
290
     0
174
     0
 93
        1
 44
0.0
173
     0
291
     1
 45
0.0
1001
ACAD
1000
AcDbSavedByObjectVersion
1070
     0
  0
VISUALSTYLE
  5
7C2
102
{ACAD_REACTORS
330
7B8
102
}
102
{ACAD_XDICTIONARY
360
A0C
102
}
330
7B8
100
AcDbVisualStyle
  2
Realistic
 70
     8
 71
     2
 72
     2
 73
     0
 90
        0
 40
-0.6
 41
-30.0
 62
     5
 63
     7
 74
     1
 91
        0
 64
     7
 65
   256
 75
     1
175
     1
 42
1.0
 92
        8
 66
     8
 43
1.0
 76
     1
 77
     6
 78
     2
 67
     7
 79
     5
170
     0
171
     0
290
     0
174
     0
 93
       13
 44
0.0
173
     0
291
     0
 45
0.0
1001
ACAD
1000
AcDbSavedByObjectVersion
1070
     0
  0
VISUALSTYLE
  5
7C5
102
{ACAD_REACTORS
330
7B8
102
}
102
{ACAD_XDICTIONARY
360
A0E
102
}
330
7B8
100
AcDbVisualStyle
  2
Thicken
 70
    13
 71
     2
 72
     2
 73
     0
 90
        0
 40
-0.6
 41
-30.0
 62
     5
 63
     7
 74
     1
 91
        4
 64
     7
 65
   256
 75
     1
175
     1
 42
1.0
 92
       12
 66
     7
 43
1.0
 76
     1
 77
     6
 78
     2
 67
     7
 79
     5
170
     0
171
     0
290
     0
174
     0
 93
        1
 44
0.0
173
     0
291
     1
 45
0.0
1001
ACAD
1000
AcDbSavedByObjectVersion
1070
     0
  0
XRECORD
  5
9E6
102
{ACAD_REACTORS
330
9E5
102
}
330
9E5
100
AcDbXrecord
280
     1
340
7C9
  0
XRECORD
  5
9E7
102
{ACAD_REACTORS
330
9E5
102
}
330
9E5
100
AcDbXrecord
280
     1
340
7B4
  0
DICTIONARYVAR
  5
808
102
{ACAD_REACTORS
330
7D1
102
}
330
7D1
100
DictionaryVariables
280
     0
  1
1:1
  0
DICTIONARYVAR
  5
7D2
102
{ACAD_REACTORS
330
7D1
102
}
330
7D1
100
DictionaryVariables
280
     0
  1
Standard
  0
DICTIONARYVAR
  5
9E3
102
{ACAD_REACTORS
330
7D1
102
}
330
7D1
100
DictionaryVariables
280
     0
  1
1
  0
DICTIONARYVAR
  5
9E4
102
{ACAD_REACTORS
330
7D1
102
}
330
7D1
100
DictionaryVariables
280
     0
  1
0
  0
DICTIONARYVAR
  5
834
102
{ACAD_REACTORS
330
7D1
102
}
330
7D1
100
DictionaryVariables
280
     0
  1
0
  0
DICTIONARYVAR
  5
835
102
{ACAD_REACTORS
330
7D1
102
}
330
7D1
100
DictionaryVariables
280
     0
  1
0
  0
DICTIONARY
  5
9EA
330
7B6
100
AcDbDictionary
280
     1
281
     1
  3
ACAD_XREC_ROUNDTRIP
360
9EB
  0
DICTIONARY
  5
9EC
330
7B5
100
AcDbDictionary
280
     1
281
     1
  3
ACAD_XREC_ROUNDTRIP
360
9ED
  0
DICTIONARY
  5
9EE
330
7B7
100
AcDbDictionary
280
     1
281
     1
  3
ACAD_XREC_ROUNDTRIP
360
9EF
  0
DICTIONARY
  5
9F0
330
7BE
100
AcDbDictionary
280
     1
281
     1
  3
ACAD_XREC_ROUNDTRIP
360
9F1
  0
DICTIONARY
  5
9F2
330
7C0
100
AcDbDictionary
280
     1
281
     1
  3
ACAD_XREC_ROUNDTRIP
360
9F3
  0
DICTIONARY
  5
9F4
330
7BF
100
AcDbDictionary
280
     1
281
     1
  3
ACAD_XREC_ROUNDTRIP
360
9F5
  0
DICTIONARY
  5
9F6
330
7BD
100
AcDbDictionary
280
     1
281
     1
  3
ACAD_XREC_ROUNDTRIP
360
9F7
  0
DICTIONARY
  5
9F8
330
7C4
100
AcDbDictionary
280
     1
281
     1
  3
ACAD_XREC_ROUNDTRIP
360
9F9
  0
DICTIONARY
  5
9FA
330
7C8
100
AcDbDictionary
280
     1
281
     1
  3
ACAD_XREC_ROUNDTRIP
360
9FB
  0
DICTIONARY
  5
9FC
330
7C1
100
AcDbDictionary
280
     1
281
     1
  3
ACAD_XREC_ROUNDTRIP
360
9FD
  0
DICTIONARY
  5
9FE
330
7C3
100
AcDbDictionary
280
     1
281
     1
  3
ACAD_XREC_ROUNDTRIP
360
9FF
  0
DICTIONARY
  5
A00
330
7C7
100
AcDbDictionary
280
     1
281
     1
  3
ACAD_XREC_ROUNDTRIP
360
A01
  0
DICTIONARY
  5
A02
330
7B9
100
AcDbDictionary
280
     1
281
     1
  3
ACAD_XREC_ROUNDTRIP
360
A03
  0
DICTIONARY
  5
A04
330
7BA
100
AcDbDictionary
280
     1
281
     1
  3
ACAD_XREC_ROUNDTRIP
360
A05
  0
DICTIONARY
  5
A06
330
7BB
100
AcDbDictionary
280
     1
281
     1
  3
ACAD_XREC_ROUNDTRIP
360
A07
  0
DICTIONARY
  5
A08
330
7BC
100
AcDbDictionary
280
     1
281
     1
  3
ACAD_XREC_ROUNDTRIP
360
A09
  0
DICTIONARY
  5
A0A
330
7C6
100
AcDbDictionary
280
     1
281
     1
  3
ACAD_XREC_ROUNDTRIP
360
A0B
  0
DICTIONARY
  5
A0C
330
7C2
100
AcDbDictionary
280
     1
281
     1
  3
ACAD_XREC_ROUNDTRIP
360
A0D
  0
DICTIONARY
  5
A0E
330
7C5
100
AcDbDictionary
280
     1
281
     1
  3
ACAD_XREC_ROUNDTRIP
360
A0F
  0
XRECORD
  5
9EB
102
{ACAD_REACTORS
330
9EA
102
}
330
9EA
100
AcDbXrecord
280
     1
102
MATERIAL
148
0.0
149
0.0
149
0.0
 93
        0
 94
       63
282
     0
 72
     1
 77
     1
171
     1
175
     1
179
     1
273
     0
  0
XRECORD
  5
9ED
102
{ACAD_REACTORS
330
9EC
102
}
330
9EC
100
AcDbXrecord
280
     1
102
MATERIAL
148
0.0
149
0.0
149
0.0
 93
        0
 94
       63
282
     0
 72
     1
 77
     1
171
     1
175
     1
179
     1
273
     0
  0
XRECORD
  5
9EF
102
{ACAD_REACTORS
330
9EE
102
}
330
9EE
100
AcDbXrecord
280
     1
102
MATERIAL
148
0.0
149
0.0
149
0.0
 93
        0
 94
       63
282
     0
 72
     1
 77
     1
171
     1
175
     1
179
     1
273
     0
  0
XRECORD
  5
9F1
102
{ACAD_REACTORS
330
9F0
102
}
330
9F0
100
AcDbXrecord
280
     1
102
RTVSPropertyOp0
 70
     1
102
RTVSPropertyOp1
 70
     1
102
RTVSPropertyOp2
 70
     1
102
RTVSPropertyOp3
 70
     1
102
RTVSPropertyOp4
 70
     1
102
RTVSPropertyOp5
 70
     1
102
RTVSPropertyOp6
 70
     1
102
RTVSPropertyOp7
 70
     1
102
RTVSPropertyOp8
 70
     1
102
RTVSPropertyOp9
 70
     1
102
RTVSPropertyOp10
 70
     1
102
RTVSPropertyOp11
 70
     1
102
RTVSPropertyOp12
 70
     1
102
RTVSPropertyOp13
 70
     1
102
RTVSPropertyOp14
 70
     1
102
RTVSPropertyOp15
 70
     1
102
RTVSPropertyOp16
 70
     1
102
RTVSPropertyOp17
 70
     1
102
RTVSPropertyOp18
 70
     1
102
RTVSPropertyOp19
 70
     1
102
RTVSPropertyOp20
 70
     1
102
RTVSPropertyOp21
 70
     1
102
RTVSPropertyOp22
 70
     1
102
RTVSPropertyOp23
 70
     1
102
RTVSPropertyOp24
 70
     1
102
RTVSPropertyOp25
 70
     1
102
RTVSPropertyOp26
 70
     1
102
RTVSPropertyOp27
 70
     1
102
RTVSPropertyOp28
 70
     1
102
RTVSPropertyOp29
 70
     1
102
RTVSPropertyOp30
 70
     1
102
RTVSPropertyOp31
 70
     1
102
RTVSPropertyOp32
 70
     1
  0
XRECORD
  5
9F3
102
{ACAD_REACTORS
330
9F2
102
}
330
9F2
100
AcDbXrecord
280
     1
102
RTVSPropertyOp0
 70
     1
102
RTVSPropertyOp1
 70
     1
102
RTVSPropertyOp2
 70
     1
102
RTVSPropertyOp3
 70
     1
102
RTVSPropertyOp4
 70
     1
102
RTVSPropertyOp5
 70
     1
102
RTVSPropertyOp6
 70
     1
102
RTVSPropertyOp7
 70
     1
102
RTVSPropertyOp8
 70
     1
102
RTVSPropertyOp9
 70
     1
102
RTVSPropertyOp10
 70
     1
102
RTVSPropertyOp11
 70
     1
102
RTVSPropertyOp12
 70
     1
102
RTVSPropertyOp13
 70
     1
102
RTVSPropertyOp14
 70
     1
102
RTVSPropertyOp15
 70
     1
102
RTVSPropertyOp16
 70
     1
102
RTVSPropertyOp17
 70
     1
102
RTVSPropertyOp18
 70
     1
102
RTVSPropertyOp19
 70
     1
102
RTVSPropertyOp20
 70
     1
102
RTVSPropertyOp21
 70
     1
102
RTVSPropertyOp22
 70
     1
102
RTVSPropertyOp23
 70
     1
102
RTVSPropertyOp24
 70
     1
102
RTVSPropertyOp25
 70
     1
102
RTVSPropertyOp26
 70
     1
102
RTVSPropertyOp27
 70
     1
102
RTVSPropertyOp28
 70
     1
102
RTVSPropertyOp29
 70
     1
102
RTVSPropertyOp30
 70
     1
102
RTVSPropertyOp31
 70
     1
102
RTVSPropertyOp32
 70
     1
  0
XRECORD
  5
9F5
102
{ACAD_REACTORS
330
9F4
102
}
330
9F4
100
AcDbXrecord
280
     1
102
RTVSPropertyOp0
 70
     1
102
RTVSPropertyOp1
 70
     1
102
RTVSPropertyOp2
 70
     1
102
RTVSPropertyOp3
 70
     1
102
RTVSPropertyOp4
 70
     1
102
RTVSPropertyOp5
 70
     1
102
RTVSPropertyOp6
 70
     1
102
RTVSPropertyOp7
 70
     1
102
RTVSPropertyOp8
 70
     1
102
RTVSPropertyOp9
 70
     1
102
RTVSPropertyOp10
 70
     1
102
RTVSPropertyOp11
 70
     1
102
RTVSPropertyOp12
 70
     1
102
RTVSPropertyOp13
 70
     1
102
RTVSPropertyOp14
 70
     1
102
RTVSPropertyOp15
 70
     1
102
RTVSPropertyOp16
 70
     1
102
RTVSPropertyOp17
 70
     1
102
RTVSPropertyOp18
 70
     1
102
RTVSPropertyOp19
 70
     1
102
RTVSPropertyOp20
 70
     1
102
RTVSPropertyOp21
 70
     1
102
RTVSPropertyOp22
 70
     1
102
RTVSPropertyOp23
 70
     1
102
RTVSPropertyOp24
 70
     1
102
RTVSPropertyOp25
 70
     1
102
RTVSPropertyOp26
 70
     1
102
RTVSPropertyOp27
 70
     1
102
RTVSPropertyOp28
 70
     1
102
RTVSPropertyOp29
 70
     1
102
RTVSPropertyOp30
 70
     1
102
RTVSPropertyOp31
 70
     1
102
RTVSPropertyOp32
 70
     1
  0
XRECORD
  5
9F7
102
{ACAD_REACTORS
330
9F6
102
}
330
9F6
100
AcDbXrecord
280
     1
102
RTVSPropertyOp0
 70
     1
102
RTVSPropertyOp1
 70
     1
102
RTVSPropertyOp2
 70
     1
102
RTVSPropertyOp3
 70
     1
102
RTVSPropertyOp4
 70
     1
102
RTVSPropertyOp5
 70
     1
102
RTVSPropertyOp6
 70
     1
102
RTVSPropertyOp7
 70
     1
102
RTVSPropertyOp8
 70
     1
102
RTVSPropertyOp9
 70
     1
102
RTVSPropertyOp10
 70
     1
102
RTVSPropertyOp11
 70
     1
102
RTVSPropertyOp12
 70
     1
102
RTVSPropertyOp13
 70
     1
102
RTVSPropertyOp14
 70
     1
102
RTVSPropertyOp15
 70
     1
102
RTVSPropertyOp16
 70
     1
102
RTVSPropertyOp17
 70
     1
102
RTVSPropertyOp18
 70
     1
102
RTVSPropertyOp19
 70
     1
102
RTVSPropertyOp20
 70
     1
102
RTVSPropertyOp21
 70
     1
102
RTVSPropertyOp22
 70
     1
102
RTVSPropertyOp23
 70
     1
102
RTVSPropertyOp24
 70
     1
102
RTVSPropertyOp25
 70
     1
102
RTVSPropertyOp26
 70
     1
102
RTVSPropertyOp27
 70
     1
102
RTVSPropertyOp28
 70
     1
102
RTVSPropertyOp29
 70
     1
102
RTVSPropertyOp30
 70
     1
102
RTVSPropertyOp31
 70
     1
102
RTVSPropertyOp32
 70
     1
  0
XRECORD
  5
9F9
102
{ACAD_REACTORS
330
9F8
102
}
330
9F8
100
AcDbXrecord
280
     1
102
RTVSPropertyOp0
 70
     1
102
RTVSPropertyOp1
 70
     1
102
RTVSPropertyOp2
 70
     1
102
RTVSPropertyOp3
 70
     1
102
RTVSPropertyOp4
 70
     1
102
RTVSPropertyOp5
 70
     1
102
RTVSPropertyOp6
 70
     1
102
RTVSPropertyOp7
 70
     1
102
RTVSPropertyOp8
 70
     1
102
RTVSPropertyOp9
 70
     1
102
RTVSPropertyOp10
 70
     1
102
RTVSPropertyOp11
 70
     1
102
RTVSPropertyOp12
 70
     1
102
RTVSPropertyOp13
 70
     1
102
RTVSPropertyOp14
 70
     1
102
RTVSPropertyOp15
 70
     1
102
RTVSPropertyOp16
 70
     1
102
RTVSPropertyOp17
 70
     1
102
RTVSPropertyOp18
 70
     1
102
RTVSPropertyOp19
 70
     1
102
RTVSPropertyOp20
 70
     1
102
RTVSPropertyOp21
 70
     1
102
RTVSPropertyOp22
 70
     1
102
RTVSPropertyOp23
 70
     1
102
RTVSPropertyOp24
 70
     1
102
RTVSPropertyOp25
 70
     1
102
RTVSPropertyOp26
 70
     1
102
RTVSPropertyOp27
 70
     1
102
RTVSPropertyOp28
 70
     1
102
RTVSPropertyOp29
 70
     1
102
RTVSPropertyOp30
 70
     1
102
RTVSPropertyOp31
 70
     1
102
RTVSPropertyOp32
 70
     1
  0
XRECORD
  5
9FB
102
{ACAD_REACTORS
330
9FA
102
}
330
9FA
100
AcDbXrecord
280
     1
102
RTVSPropertyOp0
 70
     1
102
RTVSPropertyOp1
 70
     1
102
RTVSPropertyOp2
 70
     1
102
RTVSPropertyOp3
 70
     1
102
RTVSPropertyOp4
 70
     1
102
RTVSPropertyOp5
 70
     1
102
RTVSPropertyOp6
 70
     1
102
RTVSPropertyOp7
 70
     1
102
RTVSPropertyOp8
 70
     1
102
RTVSPropertyOp9
 70
     1
102
RTVSPropertyOp10
 70
     1
102
RTVSPropertyOp11
 70
     1
102
RTVSPropertyOp12
 70
     1
102
RTVSPropertyOp13
 70
     1
102
RTVSPropertyOp14
 70
     1
102
RTVSPropertyOp15
 70
     1
102
RTVSPropertyOp16
 70
     1
102
RTVSPropertyOp17
 70
     1
102
RTVSPropertyOp18
 70
     1
102
RTVSPropertyOp19
 70
     1
102
RTVSPropertyOp20
 70
     1
102
RTVSPropertyOp21
 70
     1
102
RTVSPropertyOp22
 70
     1
102
RTVSPropertyOp23
 70
     1
102
RTVSPropertyOp24
 70
     1
102
RTVSPropertyOp25
 70
     1
102
RTVSPropertyOp26
 70
     1
102
RTVSPropertyOp27
 70
     1
102
RTVSPropertyOp28
 70
     1
102
RTVSPropertyOp29
 70
     1
102
RTVSPropertyOp30
 70
     1
102
RTVSPropertyOp31
 70
     1
102
RTVSPropertyOp32
 70
     1
  0
XRECORD
  5
9FD
102
{ACAD_REACTORS
330
9FC
102
}
330
9FC
100
AcDbXrecord
280
     1
102
RTVSPropertyOp0
 70
     1
102
RTVSPropertyOp1
 70
     1
102
RTVSPropertyOp2
 70
     1
102
RTVSPropertyOp3
 70
     1
102
RTVSPropertyOp4
 70
     1
102
RTVSPropertyOp5
 70
     1
102
RTVSPropertyOp6
 70
     1
102
RTVSPropertyOp7
 70
     1
102
RTVSPropertyOp8
 70
     1
102
RTVSPropertyOp9
 70
     1
102
RTVSPropertyOp10
 70
     1
102
RTVSPropertyOp11
 70
     1
102
RTVSPropertyOp12
 70
     1
102
RTVSPropertyOp13
 70
     1
102
RTVSPropertyOp14
 70
     1
102
RTVSPropertyOp15
 70
     1
102
RTVSPropertyOp16
 70
     1
102
RTVSPropertyOp17
 70
     1
102
RTVSPropertyOp18
 70
     1
102
RTVSPropertyOp19
 70
     1
102
RTVSPropertyOp20
 70
     1
102
RTVSPropertyOp21
 70
     1
102
RTVSPropertyOp22
 70
     1
102
RTVSPropertyOp23
 70
     1
102
RTVSPropertyOp24
 70
     1
102
RTVSPropertyOp25
 70
     1
102
RTVSPropertyOp26
 70
     1
102
RTVSPropertyOp27
 70
     1
102
RTVSPropertyOp28
 70
     1
102
RTVSPropertyOp29
 70
     1
102
RTVSPropertyOp30
 70
     1
102
RTVSPropertyOp31
 70
     1
102
RTVSPropertyOp32
 70
     1
  0
XRECORD
  5
9FF
102
{ACAD_REACTORS
330
9FE
102
}
330
9FE
100
AcDbXrecord
280
     1
102
RTVSPropertyOp0
 70
     1
102
RTVSPropertyOp1
 70
     1
102
RTVSPropertyOp2
 70
     1
102
RTVSPropertyOp3
 70
     1
102
RTVSPropertyOp4
 70
     1
102
RTVSPropertyOp5
 70
     1
102
RTVSPropertyOp6
 70
     1
102
RTVSPropertyOp7
 70
     1
102
RTVSPropertyOp8
 70
     1
102
RTVSPropertyOp9
 70
     1
102
RTVSPropertyOp10
 70
     1
102
RTVSPropertyOp11
 70
     1
102
RTVSPropertyOp12
 70
     1
102
RTVSPropertyOp13
 70
     1
102
RTVSPropertyOp14
 70
     1
102
RTVSPropertyOp15
 70
     1
102
RTVSPropertyOp16
 70
     1
102
RTVSPropertyOp17
 70
     1
102
RTVSPropertyOp18
 70
     1
102
RTVSPropertyOp19
 70
     1
102
RTVSPropertyOp20
 70
     1
102
RTVSPropertyOp21
 70
     1
102
RTVSPropertyOp22
 70
     1
102
RTVSPropertyOp23
 70
     1
102
RTVSPropertyOp24
 70
     1
102
RTVSPropertyOp25
 70
     1
102
RTVSPropertyOp26
 70
     1
102
RTVSPropertyOp27
 70
     1
102
RTVSPropertyOp28
 70
     1
102
RTVSPropertyOp29
 70
     1
102
RTVSPropertyOp30
 70
     1
102
RTVSPropertyOp31
 70
     1
102
RTVSPropertyOp32
 70
     1
  0
XRECORD
  5
A01
102
{ACAD_REACTORS
330
A00
102
}
330
A00
100
AcDbXrecord
280
     1
102
RTVSPropertyOp0
 70
     1
102
RTVSPropertyOp1
 70
     1
102
RTVSPropertyOp2
 70
     1
102
RTVSPropertyOp3
 70
     1
102
RTVSPropertyOp4
 70
     1
102
RTVSPropertyOp5
 70
     1
102
RTVSPropertyOp6
 70
     1
102
RTVSPropertyOp7
 70
     1
102
RTVSPropertyOp8
 70
     1
102
RTVSPropertyOp9
 70
     1
102
RTVSPropertyOp10
 70
     1
102
RTVSPropertyOp11
 70
     1
102
RTVSPropertyOp12
 70
     1
102
RTVSPropertyOp13
 70
     1
102
RTVSPropertyOp14
 70
     1
102
RTVSPropertyOp15
 70
     1
102
RTVSPropertyOp16
 70
     1
102
RTVSPropertyOp17
 70
     1
102
RTVSPropertyOp18
 70
     1
102
RTVSPropertyOp19
 70
     1
102
RTVSPropertyOp20
 70
     1
102
RTVSPropertyOp21
 70
     1
102
RTVSPropertyOp22
 70
     1
102
RTVSPropertyOp23
 70
     1
102
RTVSPropertyOp24
 70
     1
102
RTVSPropertyOp25
 70
     1
102
RTVSPropertyOp26
 70
     1
102
RTVSPropertyOp27
 70
     1
102
RTVSPropertyOp28
 70
     1
102
RTVSPropertyOp29
 70
     1
102
RTVSPropertyOp30
 70
     1
102
RTVSPropertyOp31
 70
     1
102
RTVSPropertyOp32
 70
     1
  0
XRECORD
  5
A03
102
{ACAD_REACTORS
330
A02
102
}
330
A02
100
AcDbXrecord
280
     1
102
RTVSPropertyOp0
 70
     1
102
RTVSPropertyOp1
 70
     1
102
RTVSPropertyOp2
 70
     1
102
RTVSPropertyOp3
 70
     1
102
RTVSPropertyOp4
 70
     1
102
RTVSPropertyOp5
 70
     1
102
RTVSPropertyOp6
 70
     1
102
RTVSPropertyOp7
 70
     1
102
RTVSPropertyOp8
 70
     1
102
RTVSPropertyOp9
 70
     1
102
RTVSPropertyOp10
 70
     1
102
RTVSPropertyOp11
 70
     1
102
RTVSPropertyOp12
 70
     1
102
RTVSPropertyOp13
 70
     1
102
RTVSPropertyOp14
 70
     1
102
RTVSPropertyOp15
 70
     1
102
RTVSPropertyOp16
 70
     1
102
RTVSPropertyOp17
 70
     1
102
RTVSPropertyOp18
 70
     1
102
RTVSPropertyOp19
 70
     1
102
RTVSPropertyOp20
 70
     1
102
RTVSPropertyOp21
 70
     1
102
RTVSPropertyOp22
 70
     1
102
RTVSPropertyOp23
 70
     1
102
RTVSPropertyOp24
 70
     1
102
RTVSPropertyOp25
 70
     1
102
RTVSPropertyOp26
 70
     1
102
RTVSPropertyOp27
 70
     1
102
RTVSPropertyOp28
 70
     1
102
RTVSPropertyOp29
 70
     1
102
RTVSPropertyOp30
 70
     1
102
RTVSPropertyOp31
 70
     1
102
RTVSPropertyOp32
 70
     1
  0
XRECORD
  5
A05
102
{ACAD_REACTORS
330
A04
102
}
330
A04
100
AcDbXrecord
280
     1
102
RTVSPropertyOp0
 70
     1
102
RTVSPropertyOp1
 70
     1
102
RTVSPropertyOp2
 70
     1
102
RTVSPropertyOp3
 70
     1
102
RTVSPropertyOp4
 70
     1
102
RTVSPropertyOp5
 70
     1
102
RTVSPropertyOp6
 70
     1
102
RTVSPropertyOp7
 70
     1
102
RTVSPropertyOp8
 70
     1
102
RTVSPropertyOp9
 70
     1
102
RTVSPropertyOp10
 70
     1
102
RTVSPropertyOp11
 70
     1
102
RTVSPropertyOp12
 70
     1
102
RTVSPropertyOp13
 70
     1
102
RTVSPropertyOp14
 70
     1
102
RTVSPropertyOp15
 70
     1
102
RTVSPropertyOp16
 70
     1
102
RTVSPropertyOp17
 70
     1
102
RTVSPropertyOp18
 70
     1
102
RTVSPropertyOp19
 70
     1
102
RTVSPropertyOp20
 70
     1
102
RTVSPropertyOp21
 70
     1
102
RTVSPropertyOp22
 70
     1
102
RTVSPropertyOp23
 70
     1
102
RTVSPropertyOp24
 70
     1
102
RTVSPropertyOp25
 70
     1
102
RTVSPropertyOp26
 70
     1
102
RTVSPropertyOp27
 70
     1
102
RTVSPropertyOp28
 70
     1
102
RTVSPropertyOp29
 70
     1
102
RTVSPropertyOp30
 70
     1
102
RTVSPropertyOp31
 70
     1
102
RTVSPropertyOp32
 70
     1
  0
XRECORD
  5
A07
102
{ACAD_REACTORS
330
A06
102
}
330
A06
100
AcDbXrecord
280
     1
102
RTVSPropertyOp0
 70
     1
102
RTVSPropertyOp1
 70
     1
102
RTVSPropertyOp2
 70
     1
102
RTVSPropertyOp3
 70
     1
102
RTVSPropertyOp4
 70
     1
102
RTVSPropertyOp5
 70
     1
102
RTVSPropertyOp6
 70
     1
102
RTVSPropertyOp7
 70
     1
102
RTVSPropertyOp8
 70
     1
102
RTVSPropertyOp9
 70
     1
102
RTVSPropertyOp10
 70
     1
102
RTVSPropertyOp11
 70
     1
102
RTVSPropertyOp12
 70
     1
102
RTVSPropertyOp13
 70
     1
102
RTVSPropertyOp14
 70
     1
102
RTVSPropertyOp15
 70
     1
102
RTVSPropertyOp16
 70
     1
102
RTVSPropertyOp17
 70
     1
102
RTVSPropertyOp18
 70
     1
102
RTVSPropertyOp19
 70
     1
102
RTVSPropertyOp20
 70
     1
102
RTVSPropertyOp21
 70
     1
102
RTVSPropertyOp22
 70
     1
102
RTVSPropertyOp23
 70
     1
102
RTVSPropertyOp24
 70
     1
102
RTVSPropertyOp25
 70
     1
102
RTVSPropertyOp26
 70
     1
102
RTVSPropertyOp27
 70
     1
102
RTVSPropertyOp28
 70
     1
102
RTVSPropertyOp29
 70
     1
102
RTVSPropertyOp30
 70
     1
102
RTVSPropertyOp31
 70
     1
102
RTVSPropertyOp32
 70
     1
  0
XRECORD
  5
A09
102
{ACAD_REACTORS
330
A08
102
}
330
A08
100
AcDbXrecord
280
     1
102
RTVSPropertyOp0
 70
     1
102
RTVSPropertyOp1
 70
     1
102
RTVSPropertyOp2
 70
     1
102
RTVSPropertyOp3
 70
     1
102
RTVSPropertyOp4
 70
     1
102
RTVSPropertyOp5
 70
     1
102
RTVSPropertyOp6
 70
     1
102
RTVSPropertyOp7
 70
     1
102
RTVSPropertyOp8
 70
     1
102
RTVSPropertyOp9
 70
     1
102
RTVSPropertyOp10
 70
     1
102
RTVSPropertyOp11
 70
     1
102
RTVSPropertyOp12
 70
     1
102
RTVSPropertyOp13
 70
     1
102
RTVSPropertyOp14
 70
     1
102
RTVSPropertyOp15
 70
     1
102
RTVSPropertyOp16
 70
     1
102
RTVSPropertyOp17
 70
     1
102
RTVSPropertyOp18
 70
     1
102
RTVSPropertyOp19
 70
     1
102
RTVSPropertyOp20
 70
     1
102
RTVSPropertyOp21
 70
     1
102
RTVSPropertyOp22
 70
     1
102
RTVSPropertyOp23
 70
     1
102
RTVSPropertyOp24
 70
     1
102
RTVSPropertyOp25
 70
     1
102
RTVSPropertyOp26
 70
     1
102
RTVSPropertyOp27
 70
     1
102
RTVSPropertyOp28
 70
     1
102
RTVSPropertyOp29
 70
     1
102
RTVSPropertyOp30
 70
     1
102
RTVSPropertyOp31
 70
     1
102
RTVSPropertyOp32
 70
     1
  0
XRECORD
  5
A0B
102
{ACAD_REACTORS
330
A0A
102
}
330
A0A
100
AcDbXrecord
280
     1
102
RTVSPropertyOp0
 70
     1
102
RTVSPropertyOp1
 70
     1
102
RTVSPropertyOp2
 70
     1
102
RTVSPropertyOp3
 70
     1
102
RTVSPropertyOp4
 70
     1
102
RTVSPropertyOp5
 70
     1
102
RTVSPropertyOp6
 70
     1
102
RTVSPropertyOp7
 70
     1
102
RTVSPropertyOp8
 70
     1
102
RTVSPropertyOp9
 70
     1
102
RTVSPropertyOp10
 70
     1
102
RTVSPropertyOp11
 70
     1
102
RTVSPropertyOp12
 70
     1
102
RTVSPropertyOp13
 70
     1
102
RTVSPropertyOp14
 70
     1
102
RTVSPropertyOp15
 70
     1
102
RTVSPropertyOp16
 70
     1
102
RTVSPropertyOp17
 70
     1
102
RTVSPropertyOp18
 70
     1
102
RTVSPropertyOp19
 70
     1
102
RTVSPropertyOp20
 70
     1
102
RTVSPropertyOp21
 70
     1
102
RTVSPropertyOp22
 70
     1
102
RTVSPropertyOp23
 70
     1
102
RTVSPropertyOp24
 70
     1
102
RTVSPropertyOp25
 70
     1
102
RTVSPropertyOp26
 70
     1
102
RTVSPropertyOp27
 70
     1
102
RTVSPropertyOp28
 70
     1
102
RTVSPropertyOp29
 70
     1
102
RTVSPropertyOp30
 70
     1
102
RTVSPropertyOp31
 70
     1
102
RTVSPropertyOp32
 70
     1
  0
XRECORD
  5
A0D
102
{ACAD_REACTORS
330
A0C
102
}
330
A0C
100
AcDbXrecord
280
     1
102
RTVSPropertyOp0
 70
     1
102
RTVSPropertyOp1
 70
     1
102
RTVSPropertyOp2
 70
     1
102
RTVSPropertyOp3
 70
     1
102
RTVSPropertyOp4
 70
     1
102
RTVSPropertyOp5
 70
     1
102
RTVSPropertyOp6
 70
     1
102
RTVSPropertyOp7
 70
     1
102
RTVSPropertyOp8
 70
     1
102
RTVSPropertyOp9
 70
     1
102
RTVSPropertyOp10
 70
     1
102
RTVSPropertyOp11
 70
     1
102
RTVSPropertyOp12
 70
     1
102
RTVSPropertyOp13
 70
     1
102
RTVSPropertyOp14
 70
     1
102
RTVSPropertyOp15
 70
     1
102
RTVSPropertyOp16
 70
     1
102
RTVSPropertyOp17
 70
     1
102
RTVSPropertyOp18
 70
     1
102
RTVSPropertyOp19
 70
     1
102
RTVSPropertyOp20
 70
     1
102
RTVSPropertyOp21
 70
     1
102
RTVSPropertyOp22
 70
     1
102
RTVSPropertyOp23
 70
     1
102
RTVSPropertyOp24
 70
     1
102
RTVSPropertyOp25
 70
     1
102
RTVSPropertyOp26
 70
     1
102
RTVSPropertyOp27
 70
     1
102
RTVSPropertyOp28
 70
     1
102
RTVSPropertyOp29
 70
     1
102
RTVSPropertyOp30
 70
     1
102
RTVSPropertyOp31
 70
     1
102
RTVSPropertyOp32
 70
     1
  0
XRECORD
  5
A0F
102
{ACAD_REACTORS
330
A0E
102
}
330
A0E
100
AcDbXrecord
280
     1
102
RTVSPropertyOp0
 70
     1
102
RTVSPropertyOp1
 70
     1
102
RTVSPropertyOp2
 70
     1
102
RTVSPropertyOp3
 70
     1
102
RTVSPropertyOp4
 70
     1
102
RTVSPropertyOp5
 70
     1
102
RTVSPropertyOp6
 70
     1
102
RTVSPropertyOp7
 70
     1
102
RTVSPropertyOp8
 70
     1
102
RTVSPropertyOp9
 70
     1
102
RTVSPropertyOp10
 70
     1
102
RTVSPropertyOp11
 70
     1
102
RTVSPropertyOp12
 70
     1
102
RTVSPropertyOp13
 70
     1
102
RTVSPropertyOp14
 70
     1
102
RTVSPropertyOp15
 70
     1
102
RTVSPropertyOp16
 70
     1
102
RTVSPropertyOp17
 70
     1
102
RTVSPropertyOp18
 70
     1
102
RTVSPropertyOp19
 70
     1
102
RTVSPropertyOp20
 70
     1
102
RTVSPropertyOp21
 70
     1
102
RTVSPropertyOp22
 70
     1
102
RTVSPropertyOp23
 70
     1
102
RTVSPropertyOp24
 70
     1
102
RTVSPropertyOp25
 70
     1
102
RTVSPropertyOp26
 70
     1
102
RTVSPropertyOp27
 70
     1
102
RTVSPropertyOp28
 70
     1
102
RTVSPropertyOp29
 70
     1
102
RTVSPropertyOp30
 70
     1
102
RTVSPropertyOp31
 70
     1
102
RTVSPropertyOp32
 70
     1
  0
ENDSEC
  0
SECTION
  2
THUMBNAILIMAGE
 90
    16364
310
28000000B40000005500000001000800000000000000000000000000000000000000000000000000FFFFFF000000FF0000FFFF0000FF0000FFFF0000FF000000FF00FF000000000080808000C0C0C0000000FF007F7FFF000000A5005252A50000007F003F3F7F0000004C0026264C000000260013132600003FFF007F9FFF
310
000029A5005267A500001F7F003F4F7F0000134C00262F4C000009260013172600007FFF007FBFFF000052A500527CA500003F7F003F5F7F0000264C0026394C0000132600131C260000BFFF007FDFFF00007CA5005291A500005F7F003F6F7F0000394C0026424C00001C26001321260000FFFF007FFFFF0000A5A50052A5
310
A500007F7F003F7F7F00004C4C00264C4C00002626001326260000FFBF007FFFDF0000A57C0052A59100007F5F003F7F6F00004C3900264C420000261C001326210000FF7F007FFFBF0000A5520052A57C00007F3F003F7F5F00004C2600264C39000026130013261C0000FF3F007FFF9F0000A5290052A56700007F1F003F
310
7F4F00004C1300264C2F00002609001326170000FF00007FFF7F0000A5000052A55200007F00003F7F3F00004C0000264C260000260000132613003FFF00009FFF7F0029A5000067A552001F7F00004F7F3F00134C00002F4C260009260000172613007FFF0000BFFF7F0052A500007CA552003F7F00005F7F3F00264C0000
310
394C2600132600001C261300BFFF0000DFFF7F007CA5000091A552005F7F00006F7F3F00394C0000424C26001C26000021261300FFFF0000FFFF7F00A5A50000A5A552007F7F00007F7F3F004C4C00004C4C26002626000026261300FFBF0000FFDF7F00A57C0000A59152007F5F00007F6F3F004C3900004C422600261C00
310
0026211300FF7F0000FFBF7F00A5520000A57C52007F3F00007F5F3F004C2600004C39260026130000261C1300FF3F0000FF9F7F00A5290000A56752007F1F00007F4F3F004C1300004C2F26002609000026171300FF000000FF7F7F00A5000000A55252007F0000007F3F3F004C0000004C2626002600000026131300FF00
310
3F00FF7F9F00A5002900A55267007F001F007F3F4F004C0013004C262F002600090026131700FF007F00FF7FBF00A5005200A5527C007F003F007F3F5F004C0026004C2639002600130026131C00FF00BF00FF7FDF00A5007C00A55291007F005F007F3F6F004C0039004C26420026001C0026132100FF00FF00FF7FFF00A5
310
00A500A552A5007F007F007F3F7F004C004C004C264C002600260026132600BF00FF00DF7FFF007C00A5009152A5005F007F006F3F7F0039004C0042264C001C002600211326007F00FF00BF7FFF005200A5007C52A5003F007F005F3F7F0026004C0039264C00130026001C1326003F00FF009F7FFF002900A5006752A500
310
1F007F004F3F7F0013004C002F264C000900260017132600000000002D2D2D005B5B5B0089898900B7B7B700B3B3B30000000000000000000000000000000000000000000000000000000000000000000000000000000000000000000000000000000000000000000000000000000000000000000000000000000000000000
310
00000000000000000000000000000000000000000000000000000000000707000700000000070000000007000007070707070707070700000700000000000000000000000000000000000000000000000000000000000000000000000000000000000000000000000000000000000000000000000000000000000000000000
310
00000000000000000000000000000000000000000000000000000000000000000000000000000000000000000000000000000000000000000000000000000000000000000000000000000000000000000000070707000707070707070707000707000707070007070007070007070000000000000000000000000000000000
310
00000000000000000000000000000000000000000000000000000000000000000000000000000000000000000000000000000000000000000000000000000000000000000000000000000000000000000000000000000000000000000000000000000000000000000000000000000000000000000000000000000000000000
310
00000000000000000700070007070007070000000007070707070700070700070700070700000000000000000000000000000000000000000000000000000000000000000000000000000000000000000000000000000000000000000000000000000000000000000000000000000000000000000000000000000000000000
310
00000000000000000000000000000000000000000000000000000000000000000000000000000000000000000000000000000000000000000000000000070007000007000007000000000707000707000707070707070000070000000000000000000000000000000000000000000000000000000000000000000000000000
310
00000000000000000000000000000000000000000000000000000000000000000000000000000000000000000000000000000000000000000000000000000000000000000000000000000000000000000000000000000000000000000000000000000000000000000000000000000000000000000000000000000000000000
310
00000000000000000000000000000000000000000000000000000000000000000000000000000000000000000000000000000000000000000000000000000000000000000000000000000000000000000000000000000000000000000000000000000000000000000000000000000000000000000000000000000000000000
310
00000000000000000000000000000000000000000000000000000000000000000000000000000000070707070707070707000000070707070707070000000707000000000000000000000000000000000000000000000000000000000000000000000000000000000000000000000000000000000000000000000000000000
310
00000000000000000000000000000000000000000000000000000000000000000000000000000000000000000000000000000000000000000000000000000000000000000000000000000000000000000000000000000000000000000007000700070707070007070007070707070007070700000700000000000000000000
310
00000000000000000000000000000000000000000000000000000000000000000000000000000000000000000000000000000000000000000000000000000000000000000000000000000000000000000000000000000000000000000000000000000000000000000000000000000000000000000000000000000000000000
310
00000000000000000000000000000000000000070707070707070007000000070707070700070000000007000000000000000000000000000000000000000000000000000000000000000000000000000000000000000000000000000000000000000000000000000000000000000000000000000000000000000000000000
310
00000000000000000000000000000000000000000000000000000000000000000000000000000000000000000000000000000000000000000000000000000000000000000000000000000000000000000000000000000000000000000000000000000000000000000000000000000000000000000000000000000000000000
310
00000000000000000000000000000000000000000000000000000000000000000000000000000000000000000000000000000000000000000000000000000000000000000000000000000000000000000000000000000000000000000000000000000000000000000000000000000000000000000000000000000000000000
310
00000000000000000000000000000000000000000000000000000000000000000000000000000000000000000000000000000000000000000000000000000000000000000000000000000000000000000000000000000000000000000000000000000000000000000000000000000000000000000000000000000000000000
310
00000000000000000000000000000000000000000000000000000000000000000000000000000000000000000000000000000000000000000000000000000000000000000000000000000000000000000000000000000000000000000000000000000000000000000000000000000000000000000000000000000000000000
310
00000000000000000000000000000000000000000000000000000000000000000000000000000000000000000000000000000000000000000000000000000000000000000000000000000000000000000000000000000000000000000000000000000000000000000000000000000000000000000000000000000000000000
310
00000000000000000000000000000000000000000000000000000000000000000000000000000000000000000000000000000000000000000000000000000000000000000000000000000000000000000000000000000000000000000000000000000000000000000000000000000000000000000000000000000000000000
310
00000000000000000000000000000000000000000000000000000000000000000000000000000000000000000000000000000000000000000000000000000000000000000000000000000000000000000000000000000000000000000000000000000000000000000000000000000000000000000000000000000000000000
310
00000000000000000000000000000000000000000000000000000000000000000000000000000000000000000000000000000000000000000000000000000000000000000000000000000000000000000000000000000000000000000000000000000000000000000000000000000000000000000000000000000000000000
310
00000000000000000000000000000000000000000000000000000000000000000000000000000000000000000000000000000000000000000000000000000000000000000000000000000000000000000000000000000000000000000000000000000000000000000000000000000000000000000000000000000000000000
310
00000000000000000000000000000000000000000000000000000000000000000000000000000000000000000000000000000000000000000000000000000000000000000000000000000000000000000000000000000000000000000000000000000000000000000000000000000000000000000000000000000000000000
310
00000000000000000000000000000000000000000000000000000000000000000000000000000000000000000000000000000000000000000000000000000000000000000000000000000000000000000000000000000000000000000000000000000000000000000000000000000000000000000000000000000000000000
310
00000000000000000000000000000000000000000000000000000000000000000000000000000000000000000000000000000000000000000000000000000000000000000000000000000000000000000000000000000000000000000000000000000000000000000000000000000000000000000000000000000000000000
310
00000000000000000000000000000000000000000000000000000000000000000000000000000000000000000000000000000000000000000000000000000000000000000000000000000000000000000000000000000000000000000000000000000000000000000000000000000000000000000000000000000000000000
310
00000000000000000000000000000000000000000000000000000000000000000000000000000000000000000000000000000000000000000000000000000000000000000000000000000000000000000000000000000000000000000000000000000000000000000000000000000000000000000000000000000000000000
310
00000000000000000000000000000000000000000000000000000000000000000001010101010101010101010101010101010101010101000000000000000000000000000000000000000000000000000000000000000000000000000000000000000000000000000000000000000000000000000000000000000000000000
310
00000000000000000000000000000000000000000000000000000000000000000000000000000000000000000000000000000000000000000000000000000000000000000000000000000000000000000000000000000100000100000001000000000100000000000000000100000000000000000000000000000000000000
310
00000000000000000000000000000000000000000000000000000000000000000000000000000000000000000000000000000000000000000000000000000000000000000000000000000000000000000000000000000000000000000000000000000000000000000000000000000000000000000000000000000000000000
310
00000000000000000000000001070101070707010100070101070000000000000001000000000000000000000000000000000000000000000000000000000000000000000000000000000000000000000000000000000000000000000000000000000000000000000000000000000000000000000000000000000000000000
310
00000000000000000000000000000000000000000000000000000000000000000000000000000000000000000000000000000000000000000000000000000000000101070100000001000000000107010100000000000100000000000000000000000000000000000000000000000000000000000000000000000000000000
310
00000000000000000000000000000000000000000000000000000000000000000000000000000000000000000000000000000000000000000000000000000000000000000000000000000000000000000000000000000000000000000000000000000000000000000000000000000000000000000000010107000000000000
310
00000101010100000000000001000000000000000000000000000000000000000000000000000000000000000000000000000000000000000000000000000000000000000000000000000000000000000000000000000000000000000000000000000000000000000000000000000000000000000000000000000000000000
310
00000000000000000000000000000000000000000000000000000000000000000000000000000000000000070103030301070707070707010307030100000000000100000000000000000000000000000000000000000000000000000000000000000000000000000000000000000000000000000000000000000000000000
310
00000000000000000000000000000000000000000000000000000000000000000000000000000000000000000000000000000000000000000000000000000000000000000000000000000000000000000000000000000000000000000000000000010107000100000000000001010301010000000000010000000000000000
310
00000000000000000000000000000000000000000000000000000000000000000000000000000000000000000000000000000000000000000000000000000000000000000000000000000000000000000000000000000000000000000000000000000000000000000000000000000000000000000000000000000000000000
310
00000000000000000000000000000000000000000000000101010101000000000000010101010100000700000100000000000000000000000000000000000000000000000000000000000000000000000000000000000000000000000000000000000000000000000000000000000000000000000000000000000000000000
310
00000000000000000000000000000000000000000000000000000000000000000000000000000000000000000000000000000000000000000000000000000000000000000000000000000000010101010100000000000001010101010000070000010000000000000000000000000000000000000000000000000000000000
310
00000000000000000000000000000000000000000000000000000000000000000000000000000000000000000000000000000000000000000000000000000000000000000000000000000000000000000000000000000000000000000000000000000000000000000000000000000000000000000000000000000000000000
310
00000101010001010100000000010101000107070701000100000000000000000000000000000000000000000000000000000000000000000000000000000000000000000000000000000000000000000000000000000000000000000000000000000000000000000000000000000000000000000000000000000000000000
310
00000000000000000000000000000000000000000000000000000000000000000000000000000000000000000000000000000000000000010101010101010000000001010101010007070100010000000000000000000000000000000000000000000000000000000000000000000000000000000000000000000000000000
310
00000000000000000000000000000000000000000000000000000000000000000000000000000000000000000000000000000000000000000000000000000000000000000000000000000000000000000000000000000000000000000000000000000000000000000000000001010101010101000000000101010101070107
310
01000100000000000000000000000000000000000000000000000000000000000000000000000000000000000000000000000000000000000000000000000000000000000000000000000000000000000000000000000000000000000000000000000000000000000000000000000000000000000000000000000000000000
310
00000000000000000000000000000000000000000000000000000000000000000000010101000101010000000001010100010707070100010000000000000000000000000000000000000000000000000000000000000000000000000000000000000000000000000000000000000000000000000000000000000000000000
310
00000000000000000000000000000000000000000000000000000000000000000000000000000000000000000000000000000000000000000000000000000000000000000000000000000000000000000000000000000001010101010101000007000101010101000707010001000000000000000000000000000000000000
310
00000000000000000000000000000000000000000000000000000000000000000000000000000000000000000000000000000000000000000000000000000000000000000000000000000000000000000000000000000000000000000000000000000000000000000000000000000000000000000000000000000000000000
310
00000000000000000000000000010101010100070000000001010101010707070100010000000000000000000000000000000000000000000000000000000000000000000000000000000000000000000000000000000000000000000000000000000000000000000000000000000000000000000000000000000000000000
310
00000000000000000000000000000000000000000000000000000000000000000000000000000000000000000000000000000000000000000000000000000000000001010101010007000007010101010101070707010001000000000000000000000000000000000000000000000000000000000000000000000000000000
310
00000000000000000000000000000000000000000000000000000000000000000000000000000000000000000000000000000000000000000000000000000000000000000000000000000000000000000000000000000000000000000000000000000000000000000000000000000000000000000000070101010101070707
310
01070301010101010707070107010700000000000000000000000000000000000000000000000000000000000000000000000000000000000000000000000000000000000000000000000000000000000000000000000000000000000000000000000000000000000000000000000000000000000000000000000000000000
310
00000000000000000000000000000000000000000000000000000000000000000000000000000000000000000001010100010007000007000101010001070707010001000000000000000000000000000000000000000000000000000000000000000000000000000000000000000000000000000000000000000000000000
310
00000000000000000000000000000000000000000000000000000000000000000000000000000000000000000000000000000000000000000000000000000000000000000000000000000000000000000000000000000000000000000000000000000101010101000700000000010101010107070701000100000000000000
310
00000000000000000000000000000000000000000000000000000000000000000000000000000000000000000000000000000000000000000000000000000000000000000000000000000000000000000000000000000000000000000000000000000000000000000000000000000000000000000000000000000000000000
310
00000000000000000000000000000000000000000000000001010101010101000000000101010101070707010001000000000000000000000000000000000000000000000000000000000000000000000000000000000000000000000000000000000000000000000000000000000000000000000000000000000000000000
310
00000000000000000000000000000000000000000000000000000000000000000000000000000000000000000000000000000000000000000000000000000000000000000000000000000000000101010001010100000000010101000100010101000100000000000000000000000000000000000000000000000000000000
310
00000000000000000000000000000000000000000000000000000000000000000000000000000000000000000000000000000000000000000000000000000000000000000000000000000000000000000000000000000000000000000000000000000000000000000000000000000000000000000000000000000000000000
310
00000001010101010101000000000101010101070707010001000000000000000000000000000000000000000000000000000000000000000000000000000000000000000000000000000000000000000000000000000000000000000000000000000000000000000000000000000000000000000000000000000000000000
310
00000000000000000000000000000000000000000000000000000000000000000000000000000000000000000000000000000000000000000101010101010100000000010101010107070701000100000000000000000000000000000000000000000000000000000000000000000006060606060606060606060606060606
310
06060600000000000000000000000000000000000000000000000000000000000000000000000000000000000000000000000000000000000000000000000000000000000000000000000000000000000000000000000000000000000000000000000000000000000000000000010101010101010000000001010101010007
310
07010001000000000000000000000000000000000000000000000000000000000000000000060606060000000000000000000000060606060600000000000000000000000000000000000000000000000000000000000000000000000000000000000000000000000000000000000000000000000000000000000000000000
310
00000000000000000000000000000000000000000000000000000000000000000000000101010001000700000000010101000100070700000100000000000000000000000000000000000000000000000000000000000000000006060606000000000000000000000006060606060000000000000000000000000000000000
310
00000000000000000000000000000000000000000000000000000000000000000000000000000000000000000000000000000000000000000000000000000000000000000000000000000000000000000000000000000000010101010100000000000001010101010000070000010000000000000000000000000000000000
310
00000000000000000000000000000000000600000006060000000000000606000000060000000000000000000000000000000000000000000000000000000000000000000000000000000000000000000000000000000000000000000000000000000000000000000000000000000000000000000000000000000000000000
310
00000000000000000000000000000101010001000000000000010107010100000700000100000000000000000000000000000000000000000000000000000000000000000000060000000600000000000000060000000606000000000000000000000000000000000000000000000000000000000000000000000000000000
310
00000000000000000000000000000000000000000000000000000000000000000000000000000000000000000000000000000000000000000000000000000000000007010101010107070707070701070707010000000000010000000000000000000000000000000000000000000000000000000000000000000006000000
310
00000000000000000000000006060000000000000000000000000000000000000000000000000000000000000000000000000000000000000000000000000000000000000000000000000000000000000000000000000000000000000000000000000000000000000000000000000000000000000000000001000300010000
310
00000000010007000100000000000100000000000000000000000000000000000000000000000000000000000000000000060000000006060606060606060000000606000000000000000000000000000000000000000000000000000000000000000000000000000000000000000000000000000000000000000000000000
310
00000000000000000000000000000000000000000000000000000000000000000000000000000000000000000000010101010101010101010101010101010101010101000000000000000000000000000000000000000000000000000000000000000000000006000000000606060606060606000000060600000000000000
310
00000000000000000000000000000000000000000000000000000000000000000000000000000000000000000000000000000000000000000000000000000000000000000000000000000000000000000000000000000000000000000000000000000000000000000000000000000000000000000000000000000000000000
310
00000000000000000000000000000000000000000000000000000000060000000006000606060606060000000606000000000000000000000000000000000000000000000000000000000000000000000000000000000000000000000000000000000000000000000000000000000000000000000000000000000000000000
310
00000000000000000000000000000000000000000000000000000000000000000000000000000000000000000000000000000000000000000000000000000000000000000000000000000000000000000006060000000606060606060606000000060600000000000000000000000000000000000000000000000000000000
310
00000000000000000000000000000000000000000000000000000000000000000000000000000000000000000000000000000000000000000000000000000000000000000000000000000000000000000000000000000000000000000000000000000000000000000000000000000000000000000000000000000000000000
310
00000000000000060000000006060606060606060000030303000000000000000000000000000000000000000000000000000000000000000000000000000000000000000000000000000000000000000000000000000000000000000000000000000000000000000000000000000000000000000000000000000000000000
310
00000000000000000000000000000000000000000000000000000000000000000000000000000000000000000000000000000000000000000000000006000000000000000000000000030303000000000000000000000000000000000000000000000000000000000000000000000000000000000000000000000000000000
310
00000000000000000000000000000000000000000000000000000000000000000000000000000000000000000000000000000000000000000000000000000000000000000000000000000000000000000000000000000000000000000000000000000000000000000000000000000000000600000000000000000000000303
310
00000000000000000000000000000000000000000000000000000000000000000000000000000000000000000000000000000000000000000000000000000000000000000000000000000000000000000000000000000000000000000000000000000000000000000000000000000000000000000000000000000000000000
310
00000000000000000000000000000000000000000000000000000000000000000000000000000006060000000000000303030303000000000000000000000000000000000000000000000000000000000000000000000000000000000000000000000000000000000000000000000000000000000000000000000000000000
310
00000000000000000000000000000000000000000000000000000000000000000000000000000000000000000000000000000000000000000000000000000000000000000000000000000000000000000000000000000000000000000600000000000000030000000000000000000000000000000000000000000000000000
310
00000000000000000000000000000000000000000000000000000000000000000000000000000000000000000000000000000000000000000000000000000000000000000000000000000000000000000000000000000000000000000000000000000000000000000000000000000000000000000000000000000000000000
310
00000000000000000000000000000000000006000000000000030000000000000000000000000000000000000000000000000000000000000000000000000000000000000000000000000000000000000000000000000000000000000000000000000000000000000000000000000000000000000000000000000000000000
310
00000000000000000000000000000000000000000000000000000000000000000000000000000000000000000000000000000000000000000000000000000000000000000000000600000000000003000000000000000000000000000000000000000000000000000000000000000000000000000000000000000000000000
310
00000000000000000000000000000000000000000000000000000000000000000000000000000000000000000000000000000000000000000000000000000000000000000000000000000000000000000000000000000000030000000000000000000000000000000000000000000000000000000000000000000000060000
310
00000003030000000000000000000000000000000000000000000000000000000000000000000000000000000000000000000000000000000000000000000000000000000000000000000000000000000000000000000000000000000000000000000000000000000000000000000000000000000000000000000000000000
310
00000000000303030000000003030303030000000000000000000000000000000000000000000000000000000000000000000600000003030006060606000000000000000000000000000000000000000000000000000000000000000000000000000000000000000000000000000000000000000000000000000000000000
310
00000000000000000000000000000000000000000000000000000000000000000000000000000000000000000303030303030303000000000003060000030303030000000006030000000000000000000000000000000000000000000000000000000000000000060000030300000606060600000000000000000000000000
310
00000000000000000000000000000000000000000000000000000000000000000000000000000000000000000000000000000000000000000000000000000000000000000000000000000000000000000000000000000000000000000000000000000006060606060603030303030606060606060606060606060606000000
310
00000000000000000000000000000000000000000000000000000000000606060300000006060606000000000000000000000000000000000000000000000000000000000000000000000000000000000000000000000000000000000000000000000000000000000000000000000000000000000000000000000000000000
310
00000000000000000000000000000000000000000000000000000101010101000000060600010101010100000000000000000000000000000000000000000000000000000000000000000000000000000001070707030101010101010101010101010101000000000000000000000000000000000000000000000000000000
310
00000000000000000000000000000000000000000000000000000000000000000000000000000000000000000000000000000000000000000000000000000000000000000000000000000000000000010000000100000006060001000000010000000000000000000000000000000000000000000000000000000000000000
310
00000000000000010000070000000000000000000000000000000100000000000000000000000000000000000000000000000000000000000000000000000000000000000000000000000000000000000000000000000000000000000000000000000000000000000000000000000000000000000000000000000000000000
310
00000000000100000001000000060600010000000100000000000000000000000000000000000000000000000000000000000000000000000000000001070707000000000000000000000000000000010000000000000000000000000000000000000000000000000000000000000000000000000000000000000000000000
310
00000000000000000000000000000000000000000000000000000000000000000000000000000000000000000000000000000000000000000000010101010100010006060001010101010000000000000000000000000000000000000000000000000000000000000000000000000101010107070000070000000707070707
310
00000000000101010100000000000000000000000000000000000000000000000000000000000000000000000000000000000000000000000000000000000000000000000000000000000000000000000000000000000000000000000000000000000000000000000000000000000001000000010101000606000100000001
310
00000000000000000000000000000000000000000000000000000000000000000000000001000000070700000700070707070707070000000000000000010000000000000000000000000000000000000000000000000000000000000000000000000000000000000000000000000000000000000000000000000000000000
310
00000000000000000000000000000000000000000000000000000000000000000000000000010000000101010106060001000000010001000100000000000000000000000000000000000000000000000000000000000000000100000000010101070701070701070707010001000000000001010000000000000000000000
310
00000000000000000000000000000000000000000000000000000000000000000000000000000000000000000000000000000000000000000000000000000000000000000000000000000000000000000000000000000000000001010101010101010101010101010101010101010101000000000000000000000000000000
310
00000000000000000000000000000001010101010101010101010101010101010101010101010101010101010000000000000000000000000000000000000000000000000000000000000000000000000000000000000000000000000000000000000000000000000000000000000000000000000000000000000000000000
310
00000000000000000000000000000000010101010101010101010101010101010101010101000000000000000000000000000000000000000000000000000000000000000001010101010101010101010101010101010101010101010101010101000000000000000000000000000000000000000000000000000000000000
310
00000000000000000000000000000000000000000000000000000000000000000000000000000000000000000000000000000000000000000000000000000000000000000000010101000101000001010101010101000000000100000000000000000000000000000000000000000000000000000000000000010101010101
310
01010001010101010101010100010101010100010100010000000000000000000000000000000000000000000000000000000000000000000000000000000000000000000000000000000000000000000000000000000000000000000000000000000000000000000000000000000000000000000000000000000001000101
310
01010101010101010101010000000001000000000000000000000000000000000000000000000000000000000000000101010101010101000101010001010001010001010101010001010001000000000000000000000000000000000000000000000000000000000000000000000000000000000000000000000000000000
310
00000000000000000000000000000000000000000000000000000000000000000000000000000000000000000000000000010101010101010101010101010101000001010100000000000000000000000000000000000000000000000000000000000000010101000101010101010101010101010101010101010101000101
310
00010000000000000000000000000000000000000000000000000000000000000000000000000000000000000000000000000000000000000000000000000000000000000000000000000000000000000000000000000000000000000000000000000000000001010101010101010101010101010101010001010000000000
310
00000000000000000000000000000000000000000000000000000100010100000000000101000000000100000000000001000001000001000000000000000000000000000000000000000000000000000000000000000000000000000000000000000000000000000000000000000000000000000000000000000000000000
310
00000000000000000000000000000000000000000000000000000000010101010101010101010101010101000101010100000000000000000000000000000000000000000000000000000000000000010001010000000000010100000000010000000000000100000100000100000000000000000000000000000000000000
310
00000000000000000000000000000000000000000000000000000000000000000000000000000000000000000000000000000000000000000000000000000000000000000000000000000000000000000001010101010101010101010101010100010101010000000000000000000000000000000000000000000000000000
310
00000000000100010100000000000101000000000100000000000001000100000001000000000000000000000000000000000000000000000000000000000000000000000000000000000000000000000000000000000000000000000000000000000000000000000000000000000000000000000000000000000000000000
310
00000000000000010100010101010101010100010101000101010100000000000000000000000000000000000000000000000000000000000000010001010000000000010100000000010000000000000100010000000100000000000000000000000000000000000000000000000000000000000000000000000000000000
310
00000000000000000000000000000000000000000000000000000000000000000000000000000000000000000000000000000000000000000000000001000000010000000101000001000100010101010000000000000000000000000000000000000000000000000000000000000000010101010101010101010101010101
310
01010101010001000101010001000000000000000000000000000000000000000000000000000000000000000000000000000000000000000000000000000000000000000000000000000000000000000000000000000000000000000000000000000000000000000000000000000000000000000000000000000000000000
310
01010101010100000000000000000000000000000000000000000000000000000000000000000101010100000000000000000000000000000001000101000000000000000000000000000000000000000000000000000000000000000000000000000000000000000000000000000000000000000000000000000000000000
310
00000000000000000000000000000000000000000000000000000000000000000000000000000000000000000000000000000000000101010101010000000000000000000000000000000000000000000000000000000000000000000101010000000000000000000000000000000001010100000000000000000000000000
310
00000000000000000000000000000000000000000000000000000000000000000000000000000000000000000000000000000000000000000000000000000000000000000000000000000000000000000000000000000000000000000000000000000000000000000000000101010100000000000000000000000000000000
310
00000000000000000000000000000000000001000100000000000000000000000000000000010100000000000000000000000000000000000000000000000000000000000000000000000000000000000000000000000000000000000000000000000000000000000000000000000000000000000000000000000000000000
310
00000000000000000000000000000000000000000000000000000000000000000001000001000000000000000000000000000000000000000000000000000000000000000000000100010100000000000000000000000000010001010000000000000000000000000000000000000000000000000000000000000000000000
310
00000000000000000000000000000000000000000000000000000000000000000000000000000000000000000000000000000000000000000000000000000000000000000000000000000000000000000000000000000101010100000000000000000000000000000000000000000000000000000000000000000000010001
310
01000000000000000000000000000101010100000000000000000000000000000000000000000000000000000000000000000000000000000000000000000000000000000000000000000000000000000000000000000000000000000000000000000000000000000000000000000000000000000000000000000000000000
310
00000000000000000000000001000001000000000000000000000000000000000000000000000000000000000000000000000101010100000000000000000000000000000101010000000000000000000000000000000000000000000000000000000000000000000000000000000000000000000000000000000000000000
310
00000000000000000000000000000000000000000000000000000000000000000000000000000000000000000000000000000000000000000000000000000000000001010100000000000000000000000000000000000000000000000000000000000000000000010100000000000000000000000000000000000001010000
310
00000000000000000000000000000000000000000000000000000000000000000000000000000000000000000000000000000000000000000000000000000000000000000000000000000000000000000000000000000000000000000000000000000000000000000000000000000000000000000000000000000000000000
310
000000000000000000000000000000000000000000000000000000000000000000000000000000000000000000000000000000000000000000000000000000000000000000000000000000000000000000000000000000000000000000000000000000000000000000000000
  0
ENDSEC
  0
EOF
