  0
SECTION
  2
HEADER
  9
$ACADVER
  1
AC1015
  9
$ACADMAINTVER
 70
     6
  9
$DWGCODEPAGE
  3
ANSI_932
  9
$INSBASE
 10
0.0
 20
0.0
 30
0.0
  9
$EXTMIN
 10
-466.15458
 20
-0.000000000001
 30
0.0
  9
$EXTMAX
 10
0.0
 20
453.0
 30
0.0
  9
$LIMMIN
 10
-215.1752441406
 20
-3.175
  9
$LIMMAX
 10
3.175
 20
300.175
  9
$ORTHOMODE
 70
     0
  9
$REGENMODE
 70
     1
  9
$FILLMODE
 70
     1
  9
$QTEXTMODE
 70
     0
  9
$MIRRTEXT
 70
     0
  9
$LTSCALE
 40
1.0
  9
$ATTMODE
 70
     1
  9
$TEXTSIZE
 40
3.0
  9
$TRACEWID
 40
0.05
  9
$TEXTSTYLE
  7
STANDARD
  9
$CLAYER
  8
0
  9
$CELTYPE
  6
BYLAYER
  9
$CECOLOR
 62
     5
  9
$CELTSCALE
 40
1.0
  9
$DISPSILH
 70
     0
  9
$DIMSCALE
 40
1.0
  9
$DIMASZ
 40
1.972787846
  9
$DIMEXO
 40
2.5399999619
  9
$DIMDLI
 40
0.38
  9
$DIMRND
 40
0.0
  9
$DIMDLE
 40
0.0
  9
$DIMEXE
 40
3.8099999428
  9
$DIMTP
 40
0.0
  9
$DIMTM
 40
0.0
  9
$DIMTXT
 40
2.9999940395
  9
$DIMCEN
 40
0.09
  9
$DIMTSZ
 40
0.0
  9
$DIMTOL
 70
     0
  9
$DIMLIM
 70
     0
  9
$DIMTIH
 70
     0
  9
$DIMTOH
 70
     1
  9
$DIMSE1
 70
     0
  9
$DIMSE2
 70
     0
  9
$DIMTAD
 70
     0
  9
$DIMZIN
 70
     0
  9
$DIMBLK
  1

  9
$DIMASO
 70
     1
  9
$DIMSHO
 70
     0
  9
$DIMPOST
  1

  9
$DIMAPOST
  1

  9
$DIMALT
 70
     0
  9
$DIMALTD
 70
     2
  9
$DIMALTF
 40
25.4
  9
$DIMLFAC
 40
1.0
  9
$DIMTOFL
 70
     0
  9
$DIMTVP
 40
0.0
  9
$DIMTIX
 70
     0
  9
$DIMSOXD
 70
     0
  9
$DIMSAH
 70
     0
  9
$DIMBLK1
  1

  9
$DIMBLK2
  1

  9
$DIMSTYLE
  2
STANDARD
  9
$DIMCLRD
 70
     0
  9
$DIMCLRE
 70
     0
  9
$DIMCLRT
 70
     0
  9
$DIMTFAC
 40
1.0
  9
$DIMGAP
 40
0.09
  9
$DIMJUST
 70
     0
  9
$DIMSD1
 70
     0
  9
$DIMSD2
 70
     0
  9
$DIMTOLJ
 70
     1
  9
$DIMTZIN
 70
     0
  9
$DIMALTZ
 70
     0
  9
$DIMALTTZ
 70
     0
  9
$DIMUPT
 70
     0
  9
$DIMDEC
 70
     4
  9
$DIMTDEC
 70
     4
  9
$DIMALTU
 70
     2
  9
$DIMALTTD
 70
     2
  9
$DIMTXSTY
  7
STANDARD
  9
$DIMAUNIT
 70
     0
  9
$DIMADEC
 70
     0
  9
$DIMALTRND
 40
0.0
  9
$DIMAZIN
 70
     0
  9
$DIMDSEP
 70
    46
  9
$DIMATFIT
 70
     3
  9
$DIMFRAC
 70
     0
  9
$DIMLDRBLK
  1

  9
$DIMLUNIT
 70
     2
  9
$DIMLWD
 70
    -2
  9
$DIMLWE
 70
    -2
  9
$DIMTMOVE
 70
     0
  9
$LUNITS
 70
     2
  9
$LUPREC
 70
     3
  9
$SKETCHINC
 40
0.1
  9
$FILLETRAD
 40
0.0625
  9
$AUNITS
 70
     0
  9
$AUPREC
 70
     0
  9
$MENU
  1
ACAD
  9
$ELEVATION
 40
0.0
  9
$PELEVATION
 40
0.0
  9
$THICKNESS
 40
0.0
  9
$LIMCHECK
 70
     0
  9
$CHAMFERA
 40
0.0
  9
$CHAMFERB
 40
0.0
  9
$CHAMFERC
 40
0.0
  9
$CHAMFERD
 40
0.0
  9
$SKPOLY
 70
     0
  9
$TDCREATE
 40
2454838.494456007
  9
$TDUCREATE
 40
2454838.119456007
  9
$TDUPDATE
 40
2456258.552319479
  9
$TDUUPDATE
 40
2456258.177319479
  9
$TDINDWG
 40
0.0066307755
  9
$TDUSRTIMER
 40
0.0066307755
  9
$USRTIMER
 70
     1
  9
$ANGBASE
 50
0.0
  9
$ANGDIR
 70
     0
  9
$PDMODE
 70
     0
  9
$PDSIZE
 40
0.0
  9
$PLINEWID
 40
0.0
  9
$SPLFRAME
 70
     0
  9
$SPLINETYPE
 70
     6
  9
$SPLINESEGS
 70
     8
  9
$HANDSEED
  5
654
  9
$SURFTAB1
 70
     6
  9
$SURFTAB2
 70
     6
  9
$SURFTYPE
 70
     6
  9
$SURFU
 70
     6
  9
$SURFV
 70
     6
  9
$UCSBASE
  2

  9
$UCSNAME
  2

  9
$UCSORG
 10
0.0
 20
0.0
 30
0.0
  9
$UCSXDIR
 10
1.0
 20
0.0
 30
0.0
  9
$UCSYDIR
 10
0.0
 20
1.0
 30
0.0
  9
$UCSORTHOREF
  2

  9
$UCSORTHOVIEW
 70
     0
  9
$UCSORGTOP
 10
0.0
 20
0.0
 30
0.0
  9
$UCSORGBOTTOM
 10
0.0
 20
0.0
 30
0.0
  9
$UCSORGLEFT
 10
0.0
 20
0.0
 30
0.0
  9
$UCSORGRIGHT
 10
0.0
 20
0.0
 30
0.0
  9
$UCSORGFRONT
 10
0.0
 20
0.0
 30
0.0
  9
$UCSORGBACK
 10
0.0
 20
0.0
 30
0.0
  9
$PUCSBASE
  2

  9
$PUCSNAME
  2

  9
$PUCSORG
 10
0.0
 20
0.0
 30
0.0
  9
$PUCSXDIR
 10
1.0
 20
0.0
 30
0.0
  9
$PUCSYDIR
 10
0.0
 20
1.0
 30
0.0
  9
$PUCSORTHOREF
  2

  9
$PUCSORTHOVIEW
 70
     0
  9
$PUCSORGTOP
 10
0.0
 20
0.0
 30
0.0
  9
$PUCSORGBOTTOM
 10
0.0
 20
0.0
 30
0.0
  9
$PUCSORGLEFT
 10
0.0
 20
0.0
 30
0.0
  9
$PUCSORGRIGHT
 10
0.0
 20
0.0
 30
0.0
  9
$PUCSORGFRONT
 10
0.0
 20
0.0
 30
0.0
  9
$PUCSORGBACK
 10
0.0
 20
0.0
 30
0.0
  9
$USERI1
 70
     0
  9
$USERI2
 70
     0
  9
$USERI3
 70
     0
  9
$USERI4
 70
     0
  9
$USERI5
 70
     0
  9
$USERR1
 40
0.0
  9
$USERR2
 40
0.0
  9
$USERR3
 40
0.0
  9
$USERR4
 40
0.0
  9
$USERR5
 40
0.0
  9
$WORLDVIEW
 70
     1
  9
$SHADEDGE
 70
     3
  9
$SHADEDIF
 70
    70
  9
$TILEMODE
 70
     1
  9
$MAXACTVP
 70
    32
  9
$PINSBASE
 10
0.0
 20
0.0
 30
0.0
  9
$PLIMCHECK
 70
     0
  9
$PEXTMIN
 10
1.000000000000E+20
 20
1.000000000000E+20
 30
1.000000000000E+20
  9
$PEXTMAX
 10
-1.000000000000E+20
 20
-1.000000000000E+20
 30
-1.000000000000E+20
  9
$PLIMMIN
 10
-0.515625431379
 20
-0.515625013072
  9
$PLIMMAX
 10
11.171875143793
 20
8.515625431379
  9
$UNITMODE
 70
     0
  9
$VISRETAIN
 70
     0
  9
$PLINEGEN
 70
     0
  9
$PSLTSCALE
 70
     1
  9
$TREEDEPTH
 70
  3020
  9
$CMLSTYLE
  2
STANDARD
  9
$CMLJUST
 70
     0
  9
$CMLSCALE
 40
1.0
  9
$PROXYGRAPHICS
 70
     0
  9
$MEASUREMENT
 70
     0
  9
$CELWEIGHT
370
    -1
  9
$ENDCAPS
280
     0
  9
$JOINSTYLE
280
     0
  9
$LWDISPLAY
290
     0
  9
$INSUNITS
 70
     0
  9
$HYPERLINKBASE
  1

  9
$STYLESHEET
  1

  9
$XEDIT
290
     1
  9
$CEPSNTYPE
380
     0
  9
$PSTYLEMODE
290
     1
  9
$FINGERPRINTGUID
  2
{715AC715-ACF2-4C74-89E4-50FC14004721}
  9
$VERSIONGUID
  2
{B0C2B572-F634-446C-9411-68FC9072D76E}
  9
$EXTNAMES
290
     1
  9
$PSVPSCALE
 40
0.0
  9
$OLESTARTUP
290
     0
  0
ENDSEC
  0
SECTION
  2
CLASSES
  0
CLASS
  1
ACDBDICTIONARYWDFLT
  2
AcDbDictionaryWithDefault
  3
ObjectDBX Classes
 90
        0
280
     0
281
     0
  0
CLASS
  1
MATERIAL
  2
AcDbMaterial
  3
ObjectDBX Classes
 90
     1153
280
     0
281
     0
  0
CLASS
  1
VISUALSTYLE
  2
AcDbVisualStyle
  3
ObjectDBX Classes
 90
     4095
280
     0
281
     0
  0
CLASS
  1
TABLESTYLE
  2
AcDbTableStyle
  3
ObjectDBX Classes
 90
     4095
280
     0
281
     0
  0
CLASS
  1
DICTIONARYVAR
  2
AcDbDictionaryVar
  3
ObjectDBX Classes
 90
        0
280
     0
281
     0
  0
CLASS
  1
SCALE
  2
AcDbScale
  3
ObjectDBX Classes
 90
     1153
280
     0
281
     0
  0
CLASS
  1
ACDBPLACEHOLDER
  2
AcDbPlaceHolder
  3
ObjectDBX Classes
 90
        0
280
     0
281
     0
  0
CLASS
  1
LAYOUT
  2
AcDbLayout
  3
ObjectDBX Classes
 90
        0
280
     0
281
     0
  0
ENDSEC
  0
SECTION
  2
TABLES
  0
TABLE
  2
VPORT
  5
3
330
0
100
AcDbSymbolTable
 70
     1
  0
VPORT
  5
540
330
3
100
AcDbSymbolTableRecord
100
AcDbViewportTableRecord
  2
*Active
 70
     0
 10
0.0
 20
0.0
 11
1.0
 21
1.0
 12
-133.786404453527
 22
275.865101780209
 13
0.0
 23
0.0
 14
0.5
 24
0.5
 15
0.5
 25
0.5
 16
0.0
 26
0.0
 36
1.0
 17
0.0
 27
0.0
 37
0.0
 40
626.944974770175
 41
1.236559139785
 42
50.0
 43
0.0
 44
0.0
 50
0.0
 51
0.0
 71
    16
 72
   100
 73
     1
 74
     3
 75
     1
 76
     0
 77
     0
 78
     0
281
     0
 65
     1
110
0.0
120
0.0
130
0.0
111
1.0
121
0.0
131
0.0
112
0.0
122
1.0
132
0.0
 79
     0
146
0.0
  0
ENDTAB
  0
TABLE
  2
LTYPE
  5
4
330
0
100
AcDbSymbolTable
 70
     6
  0
LTYPE
  5
6
330
4
100
AcDbSymbolTableRecord
100
AcDbLinetypeTableRecord
  2
BYBLOCK
 70
     0
  3

 72
    65
 73
     0
 40
0.0
  0
LTYPE
  5
5
330
4
100
AcDbSymbolTableRecord
100
AcDbLinetypeTableRecord
  2
BYLAYER
 70
     0
  3

 72
    65
 73
     0
 40
0.0
  0
LTYPE
  5
2B
330
4
100
AcDbSymbolTableRecord
100
AcDbLinetypeTableRecord
  2
Continuous
 70
     0
  3
Solid line
 72
    65
 73
     0
 40
0.0
  0
LTYPE
  5
7
330
4
100
AcDbSymbolTableRecord
100
AcDbLinetypeTableRecord
  2
SOLID
 70
     0
  3
Solid
 72
    65
 73
     0
 40
0.0
  0
LTYPE
  5
8
330
4
100
AcDbSymbolTableRecord
100
AcDbLinetypeTableRecord
  2
CONSTRUCTION
 70
     0
  3
Construction
 72
    65
 73
     2
 40
1.016
 49
0.254
 74
     0
 49
-0.762
 74
     0
  0
LTYPE
  5
9
330
4
100
AcDbSymbolTableRecord
100
AcDbLinetypeTableRecord
  2
GAP
 70
     0
  3
Gap
 72
    65
 73
     3
 40
2540.9999980092
 49
0.0
 74
     0
 49
-0.9999980092
 74
     0
 49
2540.0
 74
     0
  0
LTYPE
  5
A
330
4
100
AcDbSymbolTableRecord
100
AcDbLinetypeTableRecord
  2
DASH
 70
     0
  3
Dash
 72
    65
 73
     2
 40
2.0
 49
1.0
 74
     0
 49
-1.0
 74
     0
  0
LTYPE
  5
B
330
4
100
AcDbSymbolTableRecord
100
AcDbLinetypeTableRecord
  2
CENTER
 70
     0
  3
Center
 72
    65
 73
     4
 40
9.1000000238
 49
6.5
 74
     0
 49
-0.8000000119
 74
     0
 49
1.0
 74
     0
 49
-0.8000000119
 74
     0
  0
ENDTAB
  0
TABLE
  2
LAYER
  5
C
330
0
100
AcDbSymbolTable
 70
     9
  0
LAYER
  5
D
330
C
100
AcDbSymbolTableRecord
100
AcDbLayerTableRecord
  2
0
 70
     0
 62
     7
  6
Continuous
370
    -3
390
520
  0
LAYER
  5
E
330
C
100
AcDbSymbolTableRecord
100
AcDbLayerTableRecord
  2
Layer6$C$L6$V_DRAWING
 70
     0
 62
    31
  6
SOLID
370
    -3
390
520
  0
LAYER
  5
F
330
C
100
AcDbSymbolTableRecord
100
AcDbLayerTableRecord
  2
Layer1$C$L1$V_PV
 70
     0
 62
     3
  6
SOLID
370
    -3
390
520
  0
LAYER
  5
10
330
C
100
AcDbSymbolTableRecord
100
AcDbLayerTableRecord
  2
Layer1$C$L1$V_PV$B
 70
     0
 62
    -3
  6
SOLID
370
    -3
390
520
  0
LAYER
  5
11
330
C
100
AcDbSymbolTableRecord
100
AcDbLayerTableRecord
  2
Layer6$C$L6$V_PV
 70
     0
 62
    31
  6
SOLID
370
    -3
390
520
  0
LAYER
  5
12
330
C
100
AcDbSymbolTableRecord
100
AcDbLayerTableRecord
  2
Layer8$C$L8$V_PV
 70
     0
 62
     7
  6
SOLID
370
    -3
390
520
  0
LAYER
  5
13
330
C
100
AcDbSymbolTableRecord
100
AcDbLayerTableRecord
  2
Layer9$C$L9$V_PV
 70
     0
 62
     2
  6
SOLID
370
    -3
390
520
  0
LAYER
  5
14
330
C
100
AcDbSymbolTableRecord
100
AcDbLayerTableRecord
  2
VIEWPORTS
 70
     1
 62
     7
  6
SOLID
370
    -3
390
520
  0
LAYER
  5
563
330
C
100
AcDbSymbolTableRecord
100
AcDbLayerTableRecord
  2
Defpoints
 70
     0
 62
     7
  6
Continuous
290
     0
370
    -3
390
520
  0
ENDTAB
  0
TABLE
  2
STYLE
  5
15
330
0
100
AcDbSymbolTable
 70
     2
  0
STYLE
  5
16
330
15
100
AcDbSymbolTableRecord
100
AcDbTextStyleTableRecord
  2
STANDARD
 70
     0
 40
0.0
 41
1.0
 50
0.0
 71
     0
 42
3.0
  3
txt
  4
extfont2
  0
STYLE
  5
5F9
330
15
100
AcDbSymbolTableRecord
100
AcDbTextStyleTableRecord
  2
DYN_DIM
 70
     0
 40
0.0
 41
1.0
 50
0.0
 71
     0
 42
3.0
  3
txt
  4
extfont2
  0
ENDTAB
  0
TABLE
  2
VIEW
  5
21
330
0
100
AcDbSymbolTable
 70
     0
  0
ENDTAB
  0
TABLE
  2
UCS
  5
22
330
0
100
AcDbSymbolTable
 70
     0
  0
ENDTAB
  0
TABLE
  2
APPID
  5
1F
330
0
100
AcDbSymbolTable
 70
     1
  0
APPID
  5
20
330
1F
100
AcDbSymbolTableRecord
100
AcDbRegAppTableRecord
  2
ACAD
 70
     0
  0
ENDTAB
  0
TABLE
  2
DIMSTYLE
  5
17
330
0
100
AcDbSymbolTable
 70
     7
100
AcDbDimStyleTable
  0
DIMSTYLE
105
18
330
17
100
AcDbSymbolTableRecord
100
AcDbDimStyleTableRecord
  2
STANDARD
 70
     0
 42
0.0
 44
0.0
 73
     0
 74
     0
 77
     3
140
0.156
143
1.0
147
0.078
171
     0
178
     0
271
     2
272
     2
275
     1
340
16
  0
DIMSTYLE
105
19
330
17
100
AcDbSymbolTableRecord
100
AcDbDimStyleTableRecord
  2
DIM1
 70
     0
 41
0.0
 42
2.5399999619
 44
3.8099999428
 77
     3
140
2.4999949932
143
1.0
147
1.2499974966
171
     0
178
     0
271
     1
272
     1
274
     0
275
     1
340
16
  0
DIMSTYLE
105
1A
330
17
100
AcDbSymbolTableRecord
100
AcDbDimStyleTableRecord
  2
DIM2
 70
     0
 41
0.0
 42
2.5399999619
 44
3.8099999428
 73
     0
 74
     0
 77
     3
140
2.4999949932
143
1.0
147
1.2499974966
171
     0
178
     0
271
     1
272
     1
274
     0
275
     1
340
16
  0
DIMSTYLE
105
1B
330
17
100
AcDbSymbolTableRecord
100
AcDbDimStyleTableRecord
  2
DIM3
 70
     0
 41
2.0
 42
2.5399999619
 44
3.8099999428
 77
     3
140
2.4999949932
143
1.0
147
1.2499974966
171
     0
178
     0
271
     1
272
     1
274
     0
275
     1
340
16
  0
DIMSTYLE
105
1C
330
17
100
AcDbSymbolTableRecord
100
AcDbDimStyleTableRecord
  2
DIM4
 70
     0
 41
2.0
 42
2.5399999619
 44
3.8099999428
 73
     0
 74
     0
 77
     3
140
2.4999949932
143
1.0
147
1.2499974966
171
     0
178
     0
271
     1
272
     1
274
     0
275
     1
340
16
  0
DIMSTYLE
105
1D
330
17
100
AcDbSymbolTableRecord
100
AcDbDimStyleTableRecord
  2
DIM5
 70
     0
 41
2.0
 42
2.5399999619
 44
3.8099999428
 77
     3
140
2.4999949932
143
1.0
147
1.2499974966
171
     0
178
     0
271
     0
272
     0
274
     0
275
     1
340
16
  0
DIMSTYLE
105
1E
330
17
100
AcDbSymbolTableRecord
100
AcDbDimStyleTableRecord
  2
DIM6
 70
     0
 41
2.0
 42
2.5399999619
 44
3.8099999428
 73
     0
 74
     0
 77
     3
140
2.4999949932
143
1.0
147
1.2499974966
171
     0
178
     0
271
     0
272
     0
274
     0
275
     1
340
16
  0
ENDTAB
  0
TABLE
  2
BLOCK_RECORD
  5
23
330
0
100
AcDbSymbolTable
 70
     9
  0
BLOCK_RECORD
  5
24
330
23
100
AcDbSymbolTableRecord
100
AcDbBlockTableRecord
  2
*MODEL_SPACE
340
53C
  0
BLOCK_RECORD
  5
25
330
23
100
AcDbSymbolTableRecord
100
AcDbBlockTableRecord
  2
*PAPER_SPACE
340
53D
  0
BLOCK_RECORD
  5
26
330
23
100
AcDbSymbolTableRecord
100
AcDbBlockTableRecord
  2
CADRA_NONE
340
0
  0
BLOCK_RECORD
  5
91
330
23
100
AcDbSymbolTableRecord
100
AcDbBlockTableRecord
  2
CADRA_ARROW15OPEN
340
0
  0
BLOCK_RECORD
  5
94
330
23
100
AcDbSymbolTableRecord
100
AcDbBlockTableRecord
  2
Cadra_attr_0
340
0
  0
BLOCK_RECORD
  5
9C
330
23
100
AcDbSymbolTableRecord
100
AcDbBlockTableRecord
  2
*X3
340
0
102
{BLKREFS
331
49B
102
}
  0
BLOCK_RECORD
  5
9D
330
23
100
AcDbSymbolTableRecord
100
AcDbBlockTableRecord
  2
Cadra_attr_1
340
0
  0
BLOCK_RECORD
  5
9E
330
23
100
AcDbSymbolTableRecord
100
AcDbBlockTableRecord
  2
Cadra_attr_2
340
0
  0
BLOCK_RECORD
  5
9F
330
23
100
AcDbSymbolTableRecord
100
AcDbBlockTableRecord
  2
Cadra_attr_3
340
0
  0
BLOCK_RECORD
  5
A0
330
23
100
AcDbSymbolTableRecord
100
AcDbBlockTableRecord
  2
Cadra_attr_4
340
0
  0
BLOCK_RECORD
  5
A1
330
23
100
AcDbSymbolTableRecord
100
AcDbBlockTableRecord
  2
Cadra_attr_5
340
0
  0
ENDTAB
  0
ENDSEC
  0
SECTION
  2
BLOCKS
  0
BLOCK
  5
A2
330
24
100
AcDbEntity
  8
0
100
AcDbBlockBegin
  2
*MODEL_SPACE
 70
     0
 10
0.0
 20
0.0
 30
0.0
  3
*MODEL_SPACE
  1
*MODEL_SPACE
  0
ENDBLK
  5
564
330
24
100
AcDbEntity
  8
0
100
AcDbBlockEnd
  0
BLOCK
  5
A4
330
25
100
AcDbEntity
 67
     1
  8
0
100
AcDbBlockBegin
  2
*PAPER_SPACE
 70
     0
 10
0.0
 20
0.0
 30
0.0
  3
*PAPER_SPACE
  1
*PAPER_SPACE
  0
ENDBLK
  5
A5
330
25
100
AcDbEntity
 67
     1
  8
0
100
AcDbBlockEnd
  0
BLOCK
  5
1
330
26
100
AcDbEntity
  8
0
100
AcDbBlockBegin
  2
CADRA_NONE
 70
     0
 10
0.0
 20
0.0
 30
0.0
  3
CADRA_NONE
  1
CADRA_NONE
  0
ENDBLK
  5
12B
330
26
100
AcDbEntity
  8
0
100
AcDbBlockEnd
  0
BLOCK
  5
2
330
91
100
AcDbEntity
  8
0
100
AcDbBlockBegin
  2
CADRA_ARROW15OPEN
 70
     0
 10
0.0
 20
0.0
 30
0.0
  3
CADRA_ARROW15OPEN
  1
CADRA_ARROW15OPEN
  0
LINE
  5
12C
330
91
100
AcDbEntity
  8
0
100
AcDbLine
 10
0.0
 20
0.0
 30
0.0
 11
-0.9914448614
 21
0.1305261922
 31
0.0
  0
LINE
  5
12D
330
91
100
AcDbEntity
  8
0
100
AcDbLine
 10
0.0
 20
0.0
 30
0.0
 11
-0.9914448614
 21
-0.1305261922
 31
0.0
  0
LINE
  5
12E
330
91
100
AcDbEntity
  8
0
100
AcDbLine
 10
0.0
 20
0.0
 30
0.0
 11
-0.9914448614
 21
0.0
 31
0.0
  0
ENDBLK
  5
12F
330
91
100
AcDbEntity
  8
0
100
AcDbBlockEnd
  0
BLOCK
  5
132
330
94
100
AcDbEntity
  8
0
100
AcDbBlockBegin
  2
Cadra_attr_0
 70
     2
 10
0.0
 20
0.0
 30
0.0
  3
Cadra_attr_0
  1
Cadra_attr_0
  0
TEXT
  5
133
330
94
100
AcDbEntity
  8
0
100
AcDbText
 10
-99.07729
 20
275.916414
 30
0.0
 40
4.167171
  1
ＤＤ９６－Ｆ３１Ｎ－Ｂフロントマウント形
 41
0.498091465295
 72
     5
 11
-51.270791
 21
275.916414
 31
0.0
100
AcDbText
  0
ATTDEF
  5
134
330
94
100
AcDbEntity
  8
0
100
AcDbText
 10
-75.174042
 20
278.0
 30
0.0
 40
0.156
  1
広>錆
100
AcDbAttributeDefinition
  3

  2
10
 70
     0
  0
ENDBLK
  5
135
330
94
100
AcDbEntity
  8
0
100
AcDbBlockEnd
  0
BLOCK
  5
130
330
9C
100
AcDbEntity
  8
0
100
AcDbBlockBegin
  2
*X3
 70
     1
 10
0.0
 20
0.0
 30
0.0
  3
*X3
  1
*X15
  0
ENDBLK
  5
131
330
9C
100
AcDbEntity
  8
0
100
AcDbBlockEnd
  0
BLOCK
  5
136
330
9D
100
AcDbEntity
  8
0
100
AcDbBlockBegin
  2
Cadra_attr_1
 70
     2
 10
0.0
 20
0.0
 30
0.0
  3
Cadra_attr_1
  1
Cadra_attr_1
  0
TEXT
  5
137
330
9D
100
AcDbEntity
  8
0
100
AcDbText
 10
-103.676656
 20
283.916414
 30
0.0
 40
4.167171
  1
ユニットディスプレイ
 41
0.859428456136
 72
     5
 11
-62.779546
 21
283.916414
 31
0.0
100
AcDbText
  0
ATTDEF
  5
138
330
9D
100
AcDbEntity
  8
0
100
AcDbText
 10
-83.228102
 20
286.0
 30
0.0
 40
0.156
  1
克E
100
AcDbAttributeDefinition
  3

  2
0
 70
     0
  0
ENDBLK
  5
139
330
9D
100
AcDbEntity
  8
0
100
AcDbBlockEnd
  0
BLOCK
  5
13A
330
9E
100
AcDbEntity
  8
0
100
AcDbBlockBegin
  2
Cadra_attr_2
 70
     2
 10
0.0
 20
0.0
 30
0.0
  3
Cadra_attr_2
  1
Cadra_attr_2
  0
TEXT
  5
13B
330
9E
100
AcDbEntity
  8
0
100
AcDbText
 10
-66.511744
 20
16.0
 30
0.0
 40
5.0
  1
ＭＡ４－Ｐ００２６６
 41
0.866773901425
 72
     5
 11
-17.441157
 21
16.0
 31
0.0
100
AcDbText
  0
ATTDEF
  5
13C
330
9E
100
AcDbEntity
  8
0
100
AcDbText
 10
-41.976449
 20
18.5
 30
0.0
 40
0.156
  1

100
AcDbAttributeDefinition
  3

  2
20
 70
     0
  0
ENDBLK
  5
13D
330
9E
100
AcDbEntity
  8
0
100
AcDbBlockEnd
  0
BLOCK
  5
13E
330
9F
100
AcDbEntity
  8
0
100
AcDbBlockBegin
  2
Cadra_attr_3
 70
     2
 10
0.0
 20
0.0
 30
0.0
  3
Cadra_attr_3
  1
Cadra_attr_3
  0
TEXT
  5
13F
330
9F
100
AcDbEntity
  8
0
100
AcDbText
 10
-66.173771
 20
3.42
 30
0.0
 40
4.16
  1
*
 41
1.297295738046
 72
     5
 11
-62.568442
 21
3.42
 31
0.0
100
AcDbText
  0
ATTDEF
  5
140
330
9F
100
AcDbEntity
  8
0
100
AcDbText
 10
-64.371105
 20
5.5
 30
0.0
 40
0.156
  1
克L
100
AcDbAttributeDefinition
  3

  2
110
 70
     0
  0
ENDBLK
  5
141
330
9F
100
AcDbEntity
  8
0
100
AcDbBlockEnd
  0
BLOCK
  5
142
330
A0
100
AcDbEntity
  8
0
100
AcDbBlockBegin
  2
Cadra_attr_4
 70
     2
 10
0.0
 20
0.0
 30
0.0
  3
Cadra_attr_4
  1
Cadra_attr_4
  0
TEXT
  5
143
330
A0
100
AcDbEntity
  8
0
100
AcDbText
 10
-168.804697
 20
4.5
 30
0.0
 40
2.0
  1
ＤＤ
 41
0.915644785714
 72
     5
 11
-165.083044
 21
4.5
 31
0.0
100
AcDbText
  0
ATTDEF
  5
144
330
A0
100
AcDbEntity
  8
0
100
AcDbText
 10
-166.943871
 20
5.5
 30
0.0
 40
0.156
  1
・f・
100
AcDbAttributeDefinition
  3

  2
50
 70
     0
  0
ENDBLK
  5
145
330
A0
100
AcDbEntity
  8
0
100
AcDbBlockEnd
  0
BLOCK
  5
146
330
A1
100
AcDbEntity
  8
0
100
AcDbBlockBegin
  2
Cadra_attr_5
 70
     2
 10
0.0
 20
0.0
 30
0.0
  3
Cadra_attr_5
  1
Cadra_attr_5
  0
TEXT
  5
147
330
A1
100
AcDbEntity
  8
0
100
AcDbText
 10
-176.804697
 20
4.5
 30
0.0
 40
2.0
  1
Ｓ
 41
0.995060388889
 72
     5
 11
-175.071366
 21
4.5
 31
0.0
100
AcDbText
  0
ATTDEF
  5
148
330
A1
100
AcDbEntity
  8
0
100
AcDbText
 10
-175.938034
 20
5.5
 30
0.0
 40
0.156
  1
・0・
100
AcDbAttributeDefinition
  3

  2
40
 70
     0
  0
ENDBLK
  5
149
330
A1
100
AcDbEntity
  8
0
100
AcDbBlockEnd
  0
ENDSEC
  0
SECTION
  2
ENTITIES
  0
LINE
  5
165
330
24
100
AcDbEntity
  8
Layer1$C$L1$V_PV
 62
   211
100
AcDbLine
 10
-169.3077921056
 20
299.1
 30
0.0
 11
-155.55
 21
299.1
 31
0.0
  0
LINE
  5
166
330
24
100
AcDbEntity
  8
Layer1$C$L1$V_PV
 62
   211
100
AcDbLine
 10
-299.55
 20
299.1
 30
0.0
 11
-173.3694985532
 21
299.1
 31
0.0
  0
LINE
  5
167
330
24
100
AcDbEntity
  8
Layer1$C$L1$V_PV
 62
   211
100
AcDbLine
 10
-169.395955596
 20
298.6
 30
0.0
 11
-155.55
 21
298.6
 31
0.0
  0
LINE
  5
168
330
24
100
AcDbEntity
  8
Layer1$C$L1$V_PV
 62
   211
100
AcDbLine
 10
-299.55
 20
298.6
 30
0.0
 11
-173.4576620436
 21
298.6
 31
0.0
  0
LINE
  5
169
330
24
100
AcDbEntity
  8
Layer1$C$L1$V_PV
 62
   211
100
AcDbLine
 10
-169.5722825768
 20
297.6
 30
0.0
 11
-155.55
 21
297.6
 31
0.0
  0
LINE
  5
16A
330
24
100
AcDbEntity
  8
Layer1$C$L1$V_PV
 62
   211
100
AcDbLine
 10
-299.55
 20
297.6
 30
0.0
 11
-173.6339890242
 21
297.6
 31
0.0
  0
LINE
  5
16B
330
24
100
AcDbEntity
  8
Layer1$C$L1$V_PV
 62
   211
100
AcDbLine
 10
-169.7486095574
 20
296.6
 30
0.0
 11
-155.55
 21
296.6
 31
0.0
  0
LINE
  5
16C
330
24
100
AcDbEntity
  8
Layer1$C$L1$V_PV
 62
   211
100
AcDbLine
 10
-299.55
 20
296.6
 30
0.0
 11
-173.810316005
 21
296.6
 31
0.0
  0
LINE
  5
16D
330
24
100
AcDbEntity
  8
Layer1$C$L1$V_PV
 62
   211
100
AcDbLine
 10
-169.7662422554
 20
296.5
 30
0.0
 11
-167.55
 21
296.5
 31
0.0
  0
LINE
  5
16E
330
24
100
AcDbEntity
  8
Layer1$C$L1$V_PV
 62
   211
100
AcDbLine
 10
-177.55
 20
296.5
 30
0.0
 11
-173.827948703
 21
296.5
 31
0.0
  0
LINE
  5
16F
330
24
100
AcDbEntity
  8
Layer1$C$L1$V_PV
 62
   211
100
AcDbLine
 10
-170.2246924054
 20
293.9
 30
0.0
 11
-167.45
 21
293.9
 31
0.0
  0
LINE
  5
170
330
24
100
AcDbEntity
  8
Layer1$C$L1$V_PV
 62
   211
100
AcDbLine
 10
-177.65
 20
293.9
 30
0.0
 11
-174.2863988528
 21
293.9
 31
0.0
  0
LINE
  5
171
330
24
100
AcDbEntity
  8
Layer1$C$L1$V_PV
 62
   211
100
AcDbLine
 10
-170.2070597072
 20
294.0
 30
0.0
 11
-167.55
 21
294.0
 31
0.0
  0
LINE
  5
172
330
24
100
AcDbEntity
  8
Layer1$C$L1$V_PV
 62
   211
100
AcDbLine
 10
-177.55
 20
294.0
 30
0.0
 11
-174.2687661548
 21
294.0
 31
0.0
  0
LINE
  5
173
330
24
100
AcDbEntity
  8
Layer1$C$L1$V_PV
 62
   211
100
AcDbLine
 10
-179.1001254262
 20
266.6
 30
0.0
 11
-225.55
 21
266.6
 31
0.0
  0
LINE
  5
174
330
24
100
AcDbEntity
  8
Layer1$C$L1$V_PV
 62
   211
100
AcDbLine
 10
-157.55
 20
266.6
 30
0.0
 11
-175.0384189786
 21
266.6
 31
0.0
  0
LINE
  5
175
330
24
100
AcDbEntity
  8
Layer1$C$L1$V_PV
 62
     7
100
AcDbLine
 10
-172.840517611
 20
302.1
 30
0.0
 11
-179.6291063684
 21
263.6
 31
0.0
  0
LINE
  5
176
330
24
100
AcDbEntity
  8
Layer1$C$L1$V_PV
 62
     7
100
AcDbLine
 10
-168.7788111636
 20
302.1
 30
0.0
 11
-175.5673999208
 21
263.6
 31
0.0
  0
LINE
  5
17C
330
24
100
AcDbEntity
  8
Layer1$C$L1$V_PV
 62
   211
100
AcDbLine
 10
-180.4402104796
 20
349.0
 30
0.0
 11
-299.55
 21
349.0
 31
0.0
  0
LINE
  5
17D
330
24
100
AcDbEntity
  8
Layer1$C$L1$V_PV
 62
   211
100
AcDbLine
 10
-155.55
 20
349.0
 30
0.0
 11
-176.378504032
 21
349.0
 31
0.0
  0
LINE
  5
17E
330
24
100
AcDbEntity
  8
Layer1$C$L1$V_PV
 62
   211
100
AcDbLine
 10
-179.3822485954
 20
355.0
 30
0.0
 11
-299.55
 21
355.0
 31
0.0
  0
LINE
  5
17F
330
24
100
AcDbEntity
  8
Layer1$C$L1$V_PV
 62
   211
100
AcDbLine
 10
-155.55
 20
355.0
 30
0.0
 11
-175.3205421478
 21
355.0
 31
0.0
  0
LINE
  5
180
330
24
100
AcDbEntity
  8
Layer1$C$L1$V_PV
 62
   211
100
AcDbLine
 10
-178.8532676532
 20
358.0
 30
0.0
 11
-299.55
 21
358.0
 31
0.0
  0
LINE
  5
181
330
24
100
AcDbEntity
  8
Layer1$C$L1$V_PV
 62
   211
100
AcDbLine
 10
-155.55
 20
358.0
 30
0.0
 11
-174.7915612056
 21
358.0
 31
0.0
  0
LINE
  5
182
330
24
100
AcDbEntity
  8
Layer1$C$L1$V_PV
 62
   211
100
AcDbLine
 10
-177.795305769
 20
364.0
 30
0.0
 11
-299.55
 21
364.0
 31
0.0
  0
LINE
  5
183
330
24
100
AcDbEntity
  8
Layer1$C$L1$V_PV
 62
   211
100
AcDbLine
 10
-155.55
 20
364.0
 30
0.0
 11
-173.7335993214
 21
364.0
 31
0.0
  0
LINE
  5
184
330
24
100
AcDbEntity
  8
Layer1$C$L1$V_PV
 62
   211
100
AcDbLine
 10
-163.5128203316
 20
445.0
 30
0.0
 11
-299.55
 21
445.0
 31
0.0
  0
LINE
  5
185
330
24
100
AcDbEntity
  8
Layer1$C$L1$V_PV
 62
   211
100
AcDbLine
 10
-155.55
 20
445.0
 30
0.0
 11
-159.451113884
 21
445.0
 31
0.0
  0
LINE
  5
186
330
24
100
AcDbEntity
  8
Layer1$C$L1$V_PV
 62
   211
100
AcDbLine
 10
-164.5707822158
 20
439.0
 30
0.0
 11
-299.55
 21
439.0
 31
0.0
  0
LINE
  5
187
330
24
100
AcDbEntity
  8
Layer1$C$L1$V_PV
 62
   211
100
AcDbLine
 10
-155.55
 20
439.0
 30
0.0
 11
-160.5090757682
 21
439.0
 31
0.0
  0
LINE
  5
188
330
24
100
AcDbEntity
  8
Layer1$C$L1$V_PV
 62
   211
100
AcDbLine
 10
-165.099763158
 20
436.0
 30
0.0
 11
-299.55
 21
436.0
 31
0.0
  0
LINE
  5
189
330
24
100
AcDbEntity
  8
Layer1$C$L1$V_PV
 62
   211
100
AcDbLine
 10
-155.55
 20
436.0
 30
0.0
 11
-161.0380567104
 21
436.0
 31
0.0
  0
LINE
  5
18A
330
24
100
AcDbEntity
  8
Layer1$C$L1$V_PV
 62
   211
100
AcDbLine
 10
-166.1577250422
 20
430.0
 30
0.0
 11
-299.55
 21
430.0
 31
0.0
  0
LINE
  5
18B
330
24
100
AcDbEntity
  8
Layer1$C$L1$V_PV
 62
   211
100
AcDbLine
 10
-155.55
 20
430.0
 30
0.0
 11
-162.0960185946
 21
430.0
 31
0.0
  0
LINE
  5
18C
330
24
100
AcDbEntity
  8
Layer1$C$L1$V_PV
 62
     7
100
AcDbLine
 10
-158.3931519998
 20
451.0
 30
0.0
 11
-177.4364659164
 21
343.0
 31
0.0
  0
LINE
  5
18D
330
24
100
AcDbEntity
  8
Layer1$C$L1$V_PV
 62
     7
100
AcDbLine
 10
-162.4548584474
 20
451.0
 30
0.0
 11
-181.4981723638
 21
343.0
 31
0.0
  0
LINE
  5
195
330
24
100
AcDbEntity
  8
Layer8$C$L8$V_PV
100
AcDbLine
 10
-307.583722404
 20
445.0
 30
0.0
 11
-309.1144561334
 21
448.69551813
 31
0.0
  0
LINE
  5
196
330
24
100
AcDbEntity
  8
Layer8$C$L8$V_PV
100
AcDbLine
 10
-307.583722404
 20
445.0
 30
0.0
 11
-310.01876812
 21
448.1734133612
 31
0.0
  0
LINE
  5
19D
330
24
100
AcDbEntity
  8
Layer1$C$L1$V_PV
  6
CENTER
 62
     7
100
AcDbLine
 10
-227.55
 20
453.0
 30
0.0
 11
-227.55
 21
341.0
 31
0.0
  0
LINE
  5
19E
330
24
100
AcDbEntity
  8
Layer1$C$L1$V_PV
 62
   211
100
AcDbLine
 10
-296.55
 20
282.1
 30
0.0
 11
-296.55
 21
280.6
 31
0.0
  0
LINE
  5
19F
330
24
100
AcDbEntity
  8
Layer1$C$L1$V_PV
 62
   211
100
AcDbLine
 10
-296.55
 20
292.6
 30
0.0
 11
-296.55
 21
292.1
 31
0.0
  0
LINE
  5
1A0
330
24
100
AcDbEntity
  8
Layer1$C$L1$V_PV
 62
   211
100
AcDbLine
 10
-298.55
 20
282.1
 30
0.0
 11
-298.55
 21
280.6
 31
0.0
  0
LINE
  5
1A1
330
24
100
AcDbEntity
  8
Layer1$C$L1$V_PV
 62
   211
100
AcDbLine
 10
-299.55
 20
282.1
 30
0.0
 11
-299.55
 21
282.0
 31
0.0
  0
LINE
  5
1A2
330
24
100
AcDbEntity
  8
Layer1$C$L1$V_PV
 62
   132
100
AcDbLine
 10
-306.7499969482
 20
299.1
 30
0.0
 11
-299.55
 21
299.1
 31
0.0
  0
LINE
  5
1A3
330
24
100
AcDbEntity
  8
Layer1$C$L1$V_PV
 62
   132
100
AcDbLine
 10
-306.7499969482
 20
298.6
 30
0.0
 11
-299.55
 21
298.6
 31
0.0
  0
LINE
  5
1A4
330
24
100
AcDbEntity
  8
Layer1$C$L1$V_PV
 62
   132
100
AcDbLine
 10
-306.7499969482
 20
299.1
 30
0.0
 11
-306.7499969482
 21
298.6
 31
0.0
  0
LINE
  5
1A5
330
24
100
AcDbEntity
  8
Layer1$C$L1$V_PV
 62
   132
100
AcDbLine
 10
-299.55
 20
299.1
 30
0.0
 11
-299.55
 21
296.6
 31
0.0
  0
LINE
  5
1A6
330
24
100
AcDbEntity
  8
Layer1$C$L1$V_PV
 62
   132
100
AcDbLine
 10
-311.55
 20
296.6
 30
0.0
 11
-298.55
 21
296.6
 31
0.0
  0
LINE
  5
1A7
330
24
100
AcDbEntity
  8
Layer1$C$L1$V_PV
 62
   132
100
AcDbLine
 10
-311.55
 20
297.6
 30
0.0
 11
-299.55
 21
297.6
 31
0.0
  0
LINE
  5
1A8
330
24
100
AcDbEntity
  8
Layer1$C$L1$V_PV
 62
   132
100
AcDbLine
 10
-311.55
 20
297.6
 30
0.0
 11
-311.55
 21
296.6
 31
0.0
  0
LINE
  5
1A9
330
24
100
AcDbEntity
  8
Layer1$C$L1$V_PV
 62
   132
100
AcDbLine
 10
-311.5499958836
 20
297.6000117316
 30
0.0
 11
-306.7499952416
 21
298.6000116948
 31
0.0
  0
LINE
  5
1AA
330
24
100
AcDbEntity
  8
Layer1$C$L1$V_PV
 62
   132
100
AcDbLine
 10
-308.55
 20
293.6
 30
0.0
 11
-298.55
 21
293.6
 31
0.0
  0
LINE
  5
1AB
330
24
100
AcDbEntity
  8
Layer1$C$L1$V_PV
 62
   132
100
AcDbLine
 10
-308.55
 20
280.6
 30
0.0
 11
-298.55
 21
280.6
 31
0.0
  0
LINE
  5
1AC
330
24
100
AcDbEntity
  8
Layer1$C$L1$V_PV
 62
   132
100
AcDbLine
 10
-308.55
 20
296.6
 30
0.0
 11
-308.55
 21
266.6
 31
0.0
  0
LINE
  5
1AD
330
24
100
AcDbEntity
  8
Layer1$C$L1$V_PV
 62
   132
100
AcDbLine
 10
-308.55
 20
266.6
 30
0.0
 11
-306.55
 21
266.6
 31
0.0
  0
LINE
  5
1AE
330
24
100
AcDbEntity
  8
Layer1$C$L1$V_PV
 62
   132
100
AcDbLine
 10
-302.8
 20
282.1
 30
0.0
 11
-293.55
 21
282.1
 31
0.0
  0
LINE
  5
1AF
330
24
100
AcDbEntity
  8
Layer1$C$L1$V_PV
 62
   132
100
AcDbLine
 10
-306.55
 20
267.6
 30
0.0
 11
-306.55
 21
266.6
 31
0.0
  0
LINE
  5
1B0
330
24
100
AcDbEntity
  8
Layer1$C$L1$V_PV
 62
   132
100
AcDbLine
 10
-298.55
 20
280.6
 30
0.0
 11
-298.55
 21
267.6
 31
0.0
  0
LINE
  5
1B1
330
24
100
AcDbEntity
  8
Layer1$C$L1$V_PV
 62
   132
100
AcDbLine
 10
-306.55
 20
267.6
 30
0.0
 11
-298.55
 21
267.6
 31
0.0
  0
LINE
  5
1B2
330
24
100
AcDbEntity
  8
Layer1$C$L1$V_PV
 62
   132
100
AcDbLine
 10
-306.54999393
 20
266.6000018726
 30
0.0
 11
-305.050002818
 21
267.5999959114
 31
0.0
  0
LINE
  5
1B3
330
24
100
AcDbEntity
  8
Layer1$C$L1$V_PV
 62
   132
100
AcDbLine
 10
-298.55
 20
296.6
 30
0.0
 11
-298.55
 21
293.6
 31
0.0
  0
LINE
  5
1B4
330
24
100
AcDbEntity
  8
Layer1$C$L1$V_PV
 62
   132
100
AcDbLine
 10
-302.8
 20
292.1
 30
0.0
 11
-293.55
 21
292.1
 31
0.0
  0
ARC
  5
1B5
330
24
100
AcDbEntity
  8
Layer1$C$L1$V_PV
 62
   132
100
AcDbCircle
 10
-302.8
 20
281.35
 30
0.0
 40
0.75
100
AcDbArc
 50
89.999982013901
 51
270.0000006832
  0
LINE
  5
1B6
330
24
100
AcDbEntity
  8
Layer1$C$L1$V_PV
 62
   132
100
AcDbLine
 10
-293.55
 20
292.1
 30
0.0
 11
-293.55
 21
282.1
 31
0.0
  0
ARC
  5
1B7
330
24
100
AcDbEntity
  8
Layer1$C$L1$V_PV
 62
   132
100
AcDbCircle
 10
-302.8
 20
292.85
 30
0.0
 40
0.75
100
AcDbArc
 50
89.999982013901
 51
270.0000006832
  0
LINE
  5
1B8
330
24
100
AcDbEntity
  8
Layer1$C$L1$V_PV
 62
   132
100
AcDbLine
 10
-309.55
 20
296.6
 30
0.0
 11
-309.55
 21
286.6
 31
0.0
  0
LINE
  5
1B9
330
24
100
AcDbEntity
  8
Layer1$C$L1$V_PV
 62
   132
100
AcDbLine
 10
-309.5499833622
 20
286.6000108342
 30
0.0
 11
-308.5499846192
 21
281.6000159038
 31
0.0
  0
LINE
  5
1BA
330
24
100
AcDbEntity
  8
Layer1$C$L1$V_PV
 62
   132
100
AcDbLine
 10
-312.7499969482
 20
293.1
 30
0.0
 11
-312.349987793
 21
293.1
 31
0.0
  0
LINE
  5
1BB
330
24
100
AcDbEntity
  8
Layer1$C$L1$V_PV
 62
   132
100
AcDbLine
 10
-312.349987793
 20
294.1
 30
0.0
 11
-311.9499938964
 21
294.1
 31
0.0
  0
ARC
  5
1BC
330
24
100
AcDbEntity
  8
Layer1$C$L1$V_PV
 62
   132
100
AcDbCircle
 10
-338.55
 20
274.6
 30
0.0
 40
30.0
100
AcDbArc
 50
0.0
 51
23.57817843
  0
LINE
  5
1BD
330
24
100
AcDbEntity
  8
Layer1$C$L1$V_PV
 62
   132
100
AcDbLine
 10
-311.55
 20
295.800012207
 30
0.0
 11
-311.55
 21
295.1
 31
0.0
  0
LINE
  5
1BE
330
24
100
AcDbEntity
  8
Layer1$C$L1$V_PV
 62
   132
100
AcDbLine
 10
-311.9499938964
 20
295.1
 30
0.0
 11
-311.55
 21
295.1
 31
0.0
  0
LINE
  5
1BF
330
24
100
AcDbEntity
  8
Layer1$C$L1$V_PV
 62
   132
100
AcDbLine
 10
-311.55
 20
295.800012207
 30
0.0
 11
-311.05
 21
295.800012207
 31
0.0
  0
LINE
  5
1C0
330
24
100
AcDbEntity
  8
Layer1$C$L1$V_PV
 62
   132
100
AcDbLine
 10
-313.1499908448
 20
292.1
 30
0.0
 11
-312.7499969482
 21
292.1
 31
0.0
  0
LINE
  5
1C1
330
24
100
AcDbEntity
  8
Layer1$C$L1$V_PV
 62
   132
100
AcDbLine
 10
-313.55
 20
291.1
 30
0.0
 11
-313.1499908448
 21
291.1
 31
0.0
  0
LINE
  5
1C2
330
24
100
AcDbEntity
  8
Layer1$C$L1$V_PV
 62
   132
100
AcDbLine
 10
-311.9499938964
 20
295.1
 30
0.0
 11
-311.9499938964
 21
294.1
 31
0.0
  0
LINE
  5
1C3
330
24
100
AcDbEntity
  8
Layer1$C$L1$V_PV
 62
   132
100
AcDbLine
 10
-312.7499969482
 20
293.1
 30
0.0
 11
-312.7499969482
 21
292.1
 31
0.0
  0
LINE
  5
1C4
330
24
100
AcDbEntity
  8
Layer1$C$L1$V_PV
 62
   132
100
AcDbLine
 10
-312.349987793
 20
294.1
 30
0.0
 11
-312.349987793
 21
293.1
 31
0.0
  0
LINE
  5
1C5
330
24
100
AcDbEntity
  8
Layer1$C$L1$V_PV
 62
   132
100
AcDbLine
 10
-313.1499908448
 20
292.1
 30
0.0
 11
-313.1499908448
 21
291.1
 31
0.0
  0
LINE
  5
1C6
330
24
100
AcDbEntity
  8
Layer1$C$L1$V_PV
 62
   132
100
AcDbLine
 10
-313.55
 20
291.1
 30
0.0
 11
-313.55
 21
289.6892944336
 31
0.0
  0
ARC
  5
1C7
330
24
100
AcDbEntity
  8
Layer1$C$L1$V_PV
 62
   132
100
AcDbCircle
 10
-334.55
 20
274.6
 30
0.0
 40
28.0
100
AcDbArc
 50
26.7654998666
 51
28.9550228729
  0
LINE
  5
1C8
330
24
100
AcDbEntity
  8
Layer1$C$L1$V_PV
 62
   132
100
AcDbLine
 10
-310.05
 20
294.7999969482
 30
0.0
 11
-310.05
 21
288.1554504394
 31
0.0
  0
ARC
  5
1C9
330
24
100
AcDbEntity
  8
Layer1$C$L1$V_PV
 62
   132
100
AcDbCircle
 10
-317.92840271
 20
283.6
 30
0.0
 40
7.5
100
AcDbArc
 50
23.57817843
 51
54.2825937494
  0
LINE
  5
1CA
330
24
100
AcDbEntity
  8
Layer1$C$L1$V_PV
 62
   132
100
AcDbLine
 10
-311.0499952856
 20
295.8000075666
 30
0.0
 11
-310.049994224
 21
294.8000064208
 31
0.0
  0
LINE
  5
1CB
330
24
100
AcDbEntity
  8
Layer1$C$L1$V_PV
 62
   211
100
AcDbLine
 10
-155.55
 20
293.6
 30
0.0
 11
-155.55
 21
292.1
 31
0.0
  0
LINE
  5
1CC
330
24
100
AcDbEntity
  8
Layer1$C$L1$V_PV
 62
   211
100
AcDbLine
 10
-155.55
 20
282.1
 30
0.0
 11
-155.55
 21
282.0
 31
0.0
  0
LINE
  5
1CD
330
24
100
AcDbEntity
  8
Layer1$C$L1$V_PV
 62
   211
100
AcDbLine
 10
-155.55
 20
299.1
 30
0.0
 11
-155.55
 21
296.6
 31
0.0
  0
LINE
  5
1CE
330
24
100
AcDbEntity
  8
Layer1$C$L1$V_PV
 62
   211
100
AcDbLine
 10
-156.55
 20
282.1
 30
0.0
 11
-156.55
 21
267.6
 31
0.0
  0
LINE
  5
1CF
330
24
100
AcDbEntity
  8
Layer1$C$L1$V_PV
 62
   211
100
AcDbLine
 10
-156.55
 20
296.6
 30
0.0
 11
-156.55
 21
292.1
 31
0.0
  0
LINE
  5
1D0
330
24
100
AcDbEntity
  8
Layer1$C$L1$V_PV
 62
   211
100
AcDbLine
 10
-158.55
 20
282.1
 30
0.0
 11
-158.55
 21
280.6
 31
0.0
  0
LINE
  5
1D1
330
24
100
AcDbEntity
  8
Layer1$C$L1$V_PV
 62
   211
100
AcDbLine
 10
-158.55
 20
292.6
 30
0.0
 11
-158.55
 21
292.1
 31
0.0
  0
LINE
  5
1D2
330
24
100
AcDbEntity
  8
Layer1$C$L1$V_PV
 62
   211
100
AcDbLine
 10
-294.55
 20
295.6
 30
0.0
 11
-292.55
 21
293.6
 31
0.0
  0
LINE
  5
1D3
330
24
100
AcDbEntity
  8
Layer1$C$L1$V_PV
 62
   211
100
AcDbLine
 10
-294.55
 20
296.6
 30
0.0
 11
-294.55
 21
295.6
 31
0.0
  0
LINE
  5
1D4
330
24
100
AcDbEntity
  8
Layer1$C$L1$V_PV
 62
   211
100
AcDbLine
 10
-234.55
 20
293.6
 30
0.0
 11
-229.15
 21
293.6
 31
0.0
  0
LINE
  5
1D5
330
24
100
AcDbEntity
  8
Layer1$C$L1$V_PV
 62
   211
100
AcDbLine
 10
-298.55
 20
292.6
 30
0.0
 11
-292.55
 21
292.6
 31
0.0
  0
LINE
  5
1D6
330
24
100
AcDbEntity
  8
Layer1$C$L1$V_PV
 62
   211
100
AcDbLine
 10
-298.55
 20
293.6
 30
0.0
 11
-292.55
 21
293.6
 31
0.0
  0
LINE
  5
1D7
330
24
100
AcDbEntity
  8
Layer1$C$L1$V_PV
 62
   211
100
AcDbLine
 10
-234.55
 20
292.6
 30
0.0
 11
-228.55
 21
292.6
 31
0.0
  0
LINE
  5
1D8
330
24
100
AcDbEntity
  8
Layer1$C$L1$V_PV
 62
   211
100
AcDbLine
 10
-234.55
 20
295.6
 30
0.0
 11
-232.55
 21
295.6
 31
0.0
  0
LINE
  5
1D9
330
24
100
AcDbEntity
  8
Layer1$C$L1$V_PV
 62
   211
100
AcDbLine
 10
-232.55
 20
296.6
 30
0.0
 11
-232.55
 21
294.6
 31
0.0
  0
LINE
  5
1DA
330
24
100
AcDbEntity
  8
Layer1$C$L1$V_PV
 62
   211
100
AcDbLine
 10
-229.15
 20
296.6
 30
0.0
 11
-229.15
 21
293.6
 31
0.0
  0
LINE
  5
1DB
330
24
100
AcDbEntity
  8
Layer1$C$L1$V_PV
 62
   211
100
AcDbLine
 10
-228.55
 20
296.0
 30
0.0
 11
-226.55
 21
296.0
 31
0.0
  0
LINE
  5
1DC
330
24
100
AcDbEntity
  8
Layer1$C$L1$V_PV
 62
   211
100
AcDbLine
 10
-232.55
 20
294.6
 30
0.0
 11
-229.15
 21
294.6
 31
0.0
  0
LINE
  5
1DD
330
24
100
AcDbEntity
  8
Layer1$C$L1$V_PV
 62
   211
100
AcDbLine
 10
-284.35
 20
266.6
 30
0.0
 11
-284.35
 21
264.6
 31
0.0
  0
LINE
  5
1DE
330
24
100
AcDbEntity
  8
Layer1$C$L1$V_PV
 62
   211
100
AcDbLine
 10
-284.35
 20
273.6
 30
0.0
 11
-284.35
 21
269.6
 31
0.0
  0
LINE
  5
1DF
330
24
100
AcDbEntity
  8
Layer1$C$L1$V_PV
 62
   211
100
AcDbLine
 10
-285.65
 20
266.6
 30
0.0
 11
-285.65
 21
261.0
 31
0.0
  0
LINE
  5
1E0
330
24
100
AcDbEntity
  8
Layer1$C$L1$V_PV
 62
   211
100
AcDbLine
 10
-285.65
 20
273.6
 30
0.0
 11
-285.65
 21
269.6
 31
0.0
  0
LINE
  5
1E1
330
24
100
AcDbEntity
  8
Layer1$C$L1$V_PV
 62
   211
100
AcDbLine
 10
-258.55
 20
280.4
 30
0.0
 11
-253.55
 21
280.4
 31
0.0
  0
LINE
  5
1E2
330
24
100
AcDbEntity
  8
Layer1$C$L1$V_PV
 62
   211
100
AcDbLine
 10
-273.55
 20
280.4
 30
0.0
 11
-268.55
 21
280.4
 31
0.0
  0
LINE
  5
1E3
330
24
100
AcDbEntity
  8
Layer1$C$L1$V_PV
 62
   211
100
AcDbLine
 10
-228.55
 20
282.0
 30
0.0
 11
-226.55
 21
282.0
 31
0.0
  0
LINE
  5
1E4
330
24
100
AcDbEntity
  8
Layer1$C$L1$V_PV
 62
   211
100
AcDbLine
 10
-258.55
 20
282.0
 30
0.0
 11
-253.55
 21
282.0
 31
0.0
  0
LINE
  5
1E5
330
24
100
AcDbEntity
  8
Layer1$C$L1$V_PV
 62
   211
100
AcDbLine
 10
-234.55
 20
280.6
 30
0.0
 11
-228.55
 21
280.6
 31
0.0
  0
LINE
  5
1E6
330
24
100
AcDbEntity
  8
Layer1$C$L1$V_PV
 62
   211
100
AcDbLine
 10
-298.55
 20
280.6
 30
0.0
 11
-292.55
 21
280.6
 31
0.0
  0
LINE
  5
1E7
330
24
100
AcDbEntity
  8
Layer1$C$L1$V_PV
 62
   211
100
AcDbLine
 10
-273.55
 20
282.0
 30
0.0
 11
-268.55
 21
282.0
 31
0.0
  0
LINE
  5
1E8
330
24
100
AcDbEntity
  8
Layer1$C$L1$V_PV
 62
   211
100
AcDbLine
 10
-299.55
 20
282.0
 30
0.0
 11
-298.55
 21
282.0
 31
0.0
  0
LINE
  5
1E9
330
24
100
AcDbEntity
  8
Layer1$C$L1$V_PV
 62
   211
100
AcDbLine
 10
-238.75
 20
293.9
 30
0.0
 11
-235.25
 21
293.9
 31
0.0
  0
LINE
  5
1EA
330
24
100
AcDbEntity
  8
Layer1$C$L1$V_PV
 62
   211
100
AcDbLine
 10
-249.65
 20
293.9
 30
0.0
 11
-239.45
 21
293.9
 31
0.0
  0
LINE
  5
1EB
330
24
100
AcDbEntity
  8
Layer1$C$L1$V_PV
 62
   211
100
AcDbLine
 10
-252.75
 20
293.9
 30
0.0
 11
-250.35
 21
293.9
 31
0.0
  0
LINE
  5
1EC
330
24
100
AcDbEntity
  8
Layer1$C$L1$V_PV
 62
   211
100
AcDbLine
 10
-288.35
 20
293.9
 30
0.0
 11
-291.85
 21
293.9
 31
0.0
  0
LINE
  5
1ED
330
24
100
AcDbEntity
  8
Layer1$C$L1$V_PV
 62
   211
100
AcDbLine
 10
-287.65
 20
293.9
 30
0.0
 11
-277.45
 21
293.9
 31
0.0
  0
LINE
  5
1EE
330
24
100
AcDbEntity
  8
Layer1$C$L1$V_PV
 62
   211
100
AcDbLine
 10
-276.75
 20
293.9
 30
0.0
 11
-274.35
 21
293.9
 31
0.0
  0
LINE
  5
1EF
330
24
100
AcDbEntity
  8
Layer1$C$L1$V_PV
 62
   211
100
AcDbLine
 10
-238.75
 20
295.6
 30
0.0
 11
-235.25
 21
295.6
 31
0.0
  0
LINE
  5
1F0
330
24
100
AcDbEntity
  8
Layer1$C$L1$V_PV
 62
   211
100
AcDbLine
 10
-291.85
 20
295.6
 30
0.0
 11
-288.35
 21
295.6
 31
0.0
  0
LINE
  5
1F1
330
24
100
AcDbEntity
  8
Layer1$C$L1$V_PV
 62
   211
100
AcDbLine
 10
-291.85
 20
296.6
 30
0.0
 11
-291.85
 21
293.9
 31
0.0
  0
LINE
  5
1F2
330
24
100
AcDbEntity
  8
Layer1$C$L1$V_PV
 62
   211
100
AcDbLine
 10
-235.25
 20
296.6
 30
0.0
 11
-235.25
 21
293.9
 31
0.0
  0
LINE
  5
1F3
330
24
100
AcDbEntity
  8
Layer1$C$L1$V_PV
 62
   211
100
AcDbLine
 10
-252.75
 20
295.6
 30
0.0
 11
-250.35
 21
295.6
 31
0.0
  0
LINE
  5
1F4
330
24
100
AcDbEntity
  8
Layer1$C$L1$V_PV
 62
   211
100
AcDbLine
 10
-276.75
 20
295.6
 30
0.0
 11
-274.35
 21
295.6
 31
0.0
  0
LINE
  5
1F5
330
24
100
AcDbEntity
  8
Layer1$C$L1$V_PV
 62
   211
100
AcDbLine
 10
-287.55
 20
296.5
 30
0.0
 11
-277.55
 21
296.5
 31
0.0
  0
LINE
  5
1F6
330
24
100
AcDbEntity
  8
Layer1$C$L1$V_PV
 62
   211
100
AcDbLine
 10
-249.55
 20
296.5
 30
0.0
 11
-239.55
 21
296.5
 31
0.0
  0
LINE
  5
1F7
330
24
100
AcDbEntity
  8
Layer1$C$L1$V_PV
 62
   211
100
AcDbLine
 10
-239.45
 20
293.9
 30
0.0
 11
-239.45
 21
296.6
 31
0.0
  0
LINE
  5
1F8
330
24
100
AcDbEntity
  8
Layer1$C$L1$V_PV
 62
   211
100
AcDbLine
 10
-249.65
 20
296.6
 30
0.0
 11
-249.65
 21
293.9
 31
0.0
  0
LINE
  5
1F9
330
24
100
AcDbEntity
  8
Layer1$C$L1$V_PV
 62
   211
100
AcDbLine
 10
-277.45
 20
296.6
 30
0.0
 11
-277.45
 21
293.9
 31
0.0
  0
LINE
  5
1FA
330
24
100
AcDbEntity
  8
Layer1$C$L1$V_PV
 62
   211
100
AcDbLine
 10
-287.65
 20
296.6
 30
0.0
 11
-287.65
 21
293.9
 31
0.0
  0
LINE
  5
1FB
330
24
100
AcDbEntity
  8
Layer1$C$L1$V_PV
 62
   211
100
AcDbLine
 10
-288.35
 20
296.6
 30
0.0
 11
-288.35
 21
293.9
 31
0.0
  0
LINE
  5
1FC
330
24
100
AcDbEntity
  8
Layer1$C$L1$V_PV
 62
   211
100
AcDbLine
 10
-238.75
 20
293.9
 30
0.0
 11
-238.75
 21
296.6
 31
0.0
  0
LINE
  5
1FD
330
24
100
AcDbEntity
  8
Layer1$C$L1$V_PV
 62
   211
100
AcDbLine
 10
-250.35
 20
296.6
 30
0.0
 11
-250.35
 21
293.9
 31
0.0
  0
LINE
  5
1FE
330
24
100
AcDbEntity
  8
Layer1$C$L1$V_PV
 62
   211
100
AcDbLine
 10
-276.75
 20
296.6
 30
0.0
 11
-276.75
 21
293.9
 31
0.0
  0
LINE
  5
1FF
330
24
100
AcDbEntity
  8
Layer1$C$L1$V_PV
 62
   211
100
AcDbLine
 10
-274.35
 20
293.9
 30
0.0
 11
-274.35
 21
296.6
 31
0.0
  0
LINE
  5
200
330
24
100
AcDbEntity
  8
Layer1$C$L1$V_PV
 62
   211
100
AcDbLine
 10
-252.75
 20
293.9
 30
0.0
 11
-252.75
 21
296.6
 31
0.0
  0
LINE
  5
201
330
24
100
AcDbEntity
  8
Layer1$C$L1$V_PV
 62
   211
100
AcDbLine
 10
-268.55
 20
292.3
 30
0.0
 11
-258.55
 21
292.3
 31
0.0
  0
LINE
  5
202
330
24
100
AcDbEntity
  8
Layer1$C$L1$V_PV
 62
   211
100
AcDbLine
 10
-268.55
 20
293.0
 30
0.0
 11
-258.55
 21
293.0
 31
0.0
  0
LINE
  5
203
330
24
100
AcDbEntity
  8
Layer1$C$L1$V_PV
 62
   211
100
AcDbLine
 10
-268.55
 20
293.7
 30
0.0
 11
-258.55
 21
293.7
 31
0.0
  0
LINE
  5
204
330
24
100
AcDbEntity
  8
Layer1$C$L1$V_PV
 62
   211
100
AcDbLine
 10
-268.55
 20
294.4
 30
0.0
 11
-258.55
 21
294.4
 31
0.0
  0
LINE
  5
205
330
24
100
AcDbEntity
  8
Layer1$C$L1$V_PV
 62
   211
100
AcDbLine
 10
-268.55
 20
295.1
 30
0.0
 11
-258.55
 21
295.1
 31
0.0
  0
LINE
  5
206
330
24
100
AcDbEntity
  8
Layer1$C$L1$V_PV
 62
   211
100
AcDbLine
 10
-268.55
 20
290.4
 30
0.0
 11
-258.55
 21
290.4
 31
0.0
  0
LINE
  5
207
330
24
100
AcDbEntity
  8
Layer1$C$L1$V_PV
 62
   211
100
AcDbLine
 10
-268.55
 20
291.5
 30
0.0
 11
-258.55
 21
291.5
 31
0.0
  0
LINE
  5
208
330
24
100
AcDbEntity
  8
Layer1$C$L1$V_PV
 62
   211
100
AcDbLine
 10
-253.55
 20
296.0
 30
0.0
 11
-273.55
 21
296.0
 31
0.0
  0
LINE
  5
209
330
24
100
AcDbEntity
  8
Layer1$C$L1$V_PV
 62
   211
100
AcDbLine
 10
-268.55
 20
295.8
 30
0.0
 11
-258.55
 21
295.8
 31
0.0
  0
LINE
  5
20A
330
24
100
AcDbEntity
  8
Layer1$C$L1$V_PV
 62
   211
100
AcDbLine
 10
-283.55
 20
273.6
 30
0.0
 11
-293.55
 21
273.6
 31
0.0
  0
LINE
  5
20B
330
24
100
AcDbEntity
  8
Layer1$C$L1$V_PV
 62
   211
100
AcDbLine
 10
-233.55
 20
273.6
 30
0.0
 11
-243.55
 21
273.6
 31
0.0
  0
LINE
  5
20C
330
24
100
AcDbEntity
  8
Layer1$C$L1$V_PV
 62
   211
100
AcDbLine
 10
-283.55
 20
269.6
 30
0.0
 11
-293.55
 21
269.6
 31
0.0
  0
LINE
  5
20D
330
24
100
AcDbEntity
  8
Layer1$C$L1$V_PV
 62
   211
100
AcDbLine
 10
-233.55
 20
269.6
 30
0.0
 11
-243.55
 21
269.6
 31
0.0
  0
LINE
  5
20E
330
24
100
AcDbEntity
  8
Layer1$C$L1$V_PV
 62
   211
100
AcDbLine
 10
-293.55
 20
269.6
 30
0.0
 11
-293.55
 21
273.6
 31
0.0
  0
LINE
  5
20F
330
24
100
AcDbEntity
  8
Layer1$C$L1$V_PV
 62
   211
100
AcDbLine
 10
-283.55
 20
269.6
 30
0.0
 11
-283.55
 21
273.6
 31
0.0
  0
LINE
  5
210
330
24
100
AcDbEntity
  8
Layer1$C$L1$V_PV
 62
   211
100
AcDbLine
 10
-243.55
 20
269.6
 30
0.0
 11
-243.55
 21
273.6
 31
0.0
  0
LINE
  5
211
330
24
100
AcDbEntity
  8
Layer1$C$L1$V_PV
 62
   211
100
AcDbLine
 10
-233.55
 20
269.6
 30
0.0
 11
-233.55
 21
273.6
 31
0.0
  0
LINE
  5
212
330
24
100
AcDbEntity
  8
Layer1$C$L1$V_PV
 62
   211
100
AcDbLine
 10
-230.55
 20
292.6
 30
0.0
 11
-230.55
 21
280.6
 31
0.0
  0
LINE
  5
213
330
24
100
AcDbEntity
  8
Layer1$C$L1$V_PV
 62
   211
100
AcDbLine
 10
-236.55
 20
286.6
 30
0.0
 11
-234.55
 21
286.6
 31
0.0
  0
LINE
  5
214
330
24
100
AcDbEntity
  8
Layer1$C$L1$V_PV
 62
   211
100
AcDbLine
 10
-253.55
 20
286.6
 30
0.0
 11
-251.55
 21
286.6
 31
0.0
  0
LINE
  5
215
330
24
100
AcDbEntity
  8
Layer1$C$L1$V_PV
 62
   211
100
AcDbLine
 10
-275.55
 20
286.6
 30
0.0
 11
-273.55
 21
286.6
 31
0.0
  0
LINE
  5
216
330
24
100
AcDbEntity
  8
Layer1$C$L1$V_PV
 62
   211
100
AcDbLine
 10
-292.55
 20
286.6
 30
0.0
 11
-290.55
 21
286.6
 31
0.0
  0
LINE
  5
217
330
24
100
AcDbEntity
  8
Layer1$C$L1$V_PV
 62
   211
100
AcDbLine
 10
-275.55
 20
281.6
 30
0.0
 11
-273.55
 21
281.6
 31
0.0
  0
LINE
  5
218
330
24
100
AcDbEntity
  8
Layer1$C$L1$V_PV
 62
   211
100
AcDbLine
 10
-292.55
 20
281.6
 30
0.0
 11
-290.55
 21
281.6
 31
0.0
  0
LINE
  5
219
330
24
100
AcDbEntity
  8
Layer1$C$L1$V_PV
 62
   211
100
AcDbLine
 10
-290.55
 20
293.9
 30
0.0
 11
-290.55
 21
281.6
 31
0.0
  0
LINE
  5
21A
330
24
100
AcDbEntity
  8
Layer1$C$L1$V_PV
 62
   211
100
AcDbLine
 10
-292.55
 20
296.6
 30
0.0
 11
-292.55
 21
280.6
 31
0.0
  0
LINE
  5
21B
330
24
100
AcDbEntity
  8
Layer1$C$L1$V_PV
 62
   211
100
AcDbLine
 10
-236.55
 20
293.9
 30
0.0
 11
-236.55
 21
281.6
 31
0.0
  0
LINE
  5
21C
330
24
100
AcDbEntity
  8
Layer1$C$L1$V_PV
 62
   211
100
AcDbLine
 10
-234.55
 20
296.6
 30
0.0
 11
-234.55
 21
280.6
 31
0.0
  0
LINE
  5
21D
330
24
100
AcDbEntity
  8
Layer1$C$L1$V_PV
 62
   211
100
AcDbLine
 10
-236.55
 20
281.6
 30
0.0
 11
-234.55
 21
281.6
 31
0.0
  0
LINE
  5
21E
330
24
100
AcDbEntity
  8
Layer1$C$L1$V_PV
 62
   211
100
AcDbLine
 10
-253.55
 20
281.6
 30
0.0
 11
-251.55
 21
281.6
 31
0.0
  0
LINE
  5
21F
330
24
100
AcDbEntity
  8
Layer1$C$L1$V_PV
 62
   211
100
AcDbLine
 10
-251.55
 20
281.6
 30
0.0
 11
-251.55
 21
293.9
 31
0.0
  0
LINE
  5
220
330
24
100
AcDbEntity
  8
Layer1$C$L1$V_PV
 62
   211
100
AcDbLine
 10
-275.55
 20
281.6
 30
0.0
 11
-275.55
 21
293.9
 31
0.0
  0
ARC
  5
221
330
24
100
AcDbEntity
  8
Layer1$C$L1$V_PV
 62
   211
100
AcDbCircle
 10
-256.05
 20
274.6
 30
0.0
 40
2.5
100
AcDbArc
 50
180.0
 51
0.0
  0
ARC
  5
222
330
24
100
AcDbEntity
  8
Layer1$C$L1$V_PV
 62
   211
100
AcDbCircle
 10
-271.05
 20
274.6
 30
0.0
 40
2.5
100
AcDbArc
 50
180.0
 51
0.0
  0
LINE
  5
223
330
24
100
AcDbEntity
  8
Layer1$C$L1$V_PV
 62
   211
100
AcDbLine
 10
-253.55
 20
274.6
 30
0.0
 11
-253.55
 21
296.6
 31
0.0
  0
LINE
  5
224
330
24
100
AcDbEntity
  8
Layer1$C$L1$V_PV
 62
   211
100
AcDbLine
 10
-258.55
 20
274.6
 30
0.0
 11
-258.55
 21
295.8
 31
0.0
  0
LINE
  5
225
330
24
100
AcDbEntity
  8
Layer1$C$L1$V_PV
 62
   211
100
AcDbLine
 10
-273.55
 20
274.6
 30
0.0
 11
-273.55
 21
296.6
 31
0.0
  0
LINE
  5
226
330
24
100
AcDbEntity
  8
Layer1$C$L1$V_PV
 62
   211
100
AcDbLine
 10
-268.55
 20
274.6
 30
0.0
 11
-268.55
 21
295.8
 31
0.0
  0
ARC
  5
227
330
24
100
AcDbEntity
  8
Layer1$C$L1$V_PV
 62
   211
100
AcDbCircle
 10
-297.55
 20
267.6
 30
0.0
 40
1.0
100
AcDbArc
 50
180.0
 51
270.0
  0
ARC
  5
228
330
24
100
AcDbEntity
  8
Layer1$C$L1$V_PV
 62
   211
100
AcDbCircle
 10
-229.55
 20
267.6
 30
0.0
 40
1.0
100
AcDbArc
 50
270.0
 51
0.0
  0
LINE
  5
229
330
24
100
AcDbEntity
  8
Layer1$C$L1$V_PV
 62
   211
100
AcDbLine
 10
-229.55
 20
266.6
 30
0.0
 11
-297.55
 21
266.6
 31
0.0
  0
LINE
  5
22A
330
24
100
AcDbEntity
  8
Layer1$C$L1$V_PV
 62
   211
100
AcDbLine
 10
-228.55
 20
296.6
 30
0.0
 11
-228.55
 21
267.6
 31
0.0
  0
LINE
  5
22B
330
24
100
AcDbEntity
  8
Layer1$C$L1$V_PV
 62
   211
100
AcDbLine
 10
-298.55
 20
280.4
 30
0.0
 11
-298.55
 21
267.6
 31
0.0
  0
LINE
  5
22C
330
24
100
AcDbEntity
  8
Layer1$C$L1$V_PV
 62
   211
100
AcDbLine
 10
-249.55
 20
294.0
 30
0.0
 11
-239.55
 21
294.0
 31
0.0
  0
LINE
  5
22D
330
24
100
AcDbEntity
  8
Layer1$C$L1$V_PV
 62
   211
100
AcDbLine
 10
-299.55
 20
299.1
 30
0.0
 11
-299.55
 21
296.6
 31
0.0
  0
LINE
  5
22E
330
24
100
AcDbEntity
  8
Layer1$C$L1$V_PV
 62
   211
100
AcDbLine
 10
-227.55
 20
299.1
 30
0.0
 11
-227.55
 21
282.0
 31
0.0
  0
LINE
  5
22F
330
24
100
AcDbEntity
  8
Layer1$C$L1$V_PV
 62
   211
100
AcDbLine
 10
-287.55
 20
296.6
 30
0.0
 11
-287.55
 21
294.0
 31
0.0
  0
LINE
  5
230
330
24
100
AcDbEntity
  8
Layer1$C$L1$V_PV
 62
   211
100
AcDbLine
 10
-277.55
 20
296.6
 30
0.0
 11
-277.55
 21
294.0
 31
0.0
  0
LINE
  5
231
330
24
100
AcDbEntity
  8
Layer1$C$L1$V_PV
 62
   211
100
AcDbLine
 10
-249.55
 20
296.6
 30
0.0
 11
-249.55
 21
294.0
 31
0.0
  0
LINE
  5
232
330
24
100
AcDbEntity
  8
Layer1$C$L1$V_PV
 62
   211
100
AcDbLine
 10
-239.55
 20
294.0
 30
0.0
 11
-239.55
 21
296.6
 31
0.0
  0
LINE
  5
233
330
24
100
AcDbEntity
  8
Layer1$C$L1$V_PV
 62
   211
100
AcDbLine
 10
-287.55
 20
294.0
 30
0.0
 11
-277.55
 21
294.0
 31
0.0
  0
LINE
  5
234
330
24
100
AcDbEntity
  8
Layer1$C$L1$V_PV
 62
   211
100
AcDbLine
 10
-298.55
 20
293.6
 30
0.0
 11
-298.55
 21
292.1
 31
0.0
  0
LINE
  5
235
330
24
100
AcDbEntity
  8
Layer1$C$L1$V_PV
 62
   211
100
AcDbLine
 10
-285.55
 20
260.9
 30
0.0
 11
-277.55
 21
260.9
 31
0.0
  0
LINE
  5
236
330
24
100
AcDbEntity
  8
Layer1$C$L1$V_PV
 62
   211
100
AcDbLine
 10
-283.4
 20
256.2
 30
0.0
 11
-283.4
 21
260.9
 31
0.0
  0
LINE
  5
237
330
24
100
AcDbEntity
  8
Layer1$C$L1$V_PV
 62
   211
100
AcDbLine
 10
-282.9
 20
256.2
 30
0.0
 11
-282.9
 21
260.9
 31
0.0
  0
LINE
  5
238
330
24
100
AcDbEntity
  8
Layer1$C$L1$V_PV
 62
   211
100
AcDbLine
 10
-280.2
 20
256.2
 30
0.0
 11
-280.2
 21
260.9
 31
0.0
  0
LINE
  5
239
330
24
100
AcDbEntity
  8
Layer1$C$L1$V_PV
 62
   211
100
AcDbLine
 10
-279.7
 20
256.2
 30
0.0
 11
-279.7
 21
260.9
 31
0.0
  0
ARC
  5
23A
330
24
100
AcDbEntity
  8
Layer1$C$L1$V_PV
 62
   211
100
AcDbCircle
 10
-283.1
 20
256.2
 30
0.0
 40
0.3
100
AcDbArc
 50
180.0
 51
260.405931773104
  0
ARC
  5
23B
330
24
100
AcDbEntity
  8
Layer1$C$L1$V_PV
 62
   211
100
AcDbCircle
 10
-283.2
 20
256.2
 30
0.0
 40
0.3
100
AcDbArc
 50
279.594068226896
 51
0.0
  0
ARC
  5
23C
330
24
100
AcDbEntity
  8
Layer1$C$L1$V_PV
 62
   211
100
AcDbCircle
 10
-279.9
 20
256.2
 30
0.0
 40
0.3
100
AcDbArc
 50
180.0
 51
260.405931773104
  0
ARC
  5
23D
330
24
100
AcDbEntity
  8
Layer1$C$L1$V_PV
 62
   211
100
AcDbCircle
 10
-280.0
 20
256.2
 30
0.0
 40
0.3
100
AcDbArc
 50
279.594068226896
 51
0.0
  0
LINE
  5
23E
330
24
100
AcDbEntity
  8
Layer1$C$L1$V_PV
 62
   211
100
AcDbLine
 10
-285.65
 20
266.4
 30
0.0
 11
-284.35
 21
266.4
 31
0.0
  0
LINE
  5
23F
330
24
100
AcDbEntity
  8
Layer1$C$L1$V_PV
 62
   211
100
AcDbLine
 10
-277.45
 20
266.6
 30
0.0
 11
-277.45
 21
261.0
 31
0.0
  0
LINE
  5
240
330
24
100
AcDbEntity
  8
Layer1$C$L1$V_PV
 62
   211
100
AcDbLine
 10
-278.75
 20
266.6
 30
0.0
 11
-278.75
 21
264.6
 31
0.0
  0
LINE
  5
241
330
24
100
AcDbEntity
  8
Layer1$C$L1$V_PV
 62
   211
100
AcDbLine
 10
-278.75
 20
264.6
 30
0.0
 11
-284.35
 21
264.6
 31
0.0
  0
LINE
  5
242
330
24
100
AcDbEntity
  8
Layer1$C$L1$V_PV
 62
   211
100
AcDbLine
 10
-277.45
 20
266.4
 30
0.0
 11
-278.75
 21
266.4
 31
0.0
  0
LINE
  5
243
330
24
100
AcDbEntity
  8
Layer1$C$L1$V_PV
 62
   211
100
AcDbLine
 10
-281.2601020514
 20
259.9
 30
0.0
 11
-281.8398979486
 21
259.9
 31
0.0
  0
LINE
  5
244
330
24
100
AcDbEntity
  8
Layer1$C$L1$V_PV
 62
   211
100
AcDbLine
 10
-281.25
 20
259.9
 30
0.0
 11
-281.25
 21
259.6
 31
0.0
  0
LINE
  5
245
330
24
100
AcDbEntity
  8
Layer1$C$L1$V_PV
 62
   211
100
AcDbLine
 10
-281.85
 20
259.9
 30
0.0
 11
-281.85
 21
259.600051027
 31
0.0
  0
ARC
  5
246
330
24
100
AcDbEntity
  8
Layer1$C$L1$V_PV
 62
   211
100
AcDbCircle
 10
-282.65
 20
260.7
 30
0.0
 40
0.2
100
AcDbArc
 50
90.0
 51
180.0
  0
ARC
  5
247
330
24
100
AcDbEntity
  8
Layer1$C$L1$V_PV
 62
   211
100
AcDbCircle
 10
-280.45
 20
260.7
 30
0.0
 40
0.2
100
AcDbArc
 50
0.0
 51
90.0
  0
ARC
  5
248
330
24
100
AcDbEntity
  8
Layer1$C$L1$V_PV
 62
   211
100
AcDbCircle
 10
-281.8398979486
 20
260.6
 30
0.0
 40
1.0
100
AcDbArc
 50
191.536959032802
 51
270.0
  0
ARC
  5
249
330
24
100
AcDbEntity
  8
Layer1$C$L1$V_PV
 62
   211
100
AcDbCircle
 10
-281.2601020514
 20
260.6
 30
0.0
 40
1.0
100
AcDbArc
 50
270.0
 51
348.463040967198
  0
LINE
  5
24A
330
24
100
AcDbEntity
  8
Layer1$C$L1$V_PV
 62
   211
100
AcDbLine
 10
-281.2601020514
 20
259.6
 30
0.0
 11
-281.8398979486
 21
259.6
 31
0.0
  0
ARC
  5
24B
330
24
100
AcDbEntity
  8
Layer1$C$L1$V_PV
 62
   211
100
AcDbCircle
 10
-281.35
 20
260.7
 30
0.0
 40
1.5
100
AcDbArc
 50
180.0
 51
191.5369590328
  0
ARC
  5
24C
330
24
100
AcDbEntity
  8
Layer1$C$L1$V_PV
 62
   211
100
AcDbCircle
 10
-281.75
 20
260.7
 30
0.0
 40
1.5
100
AcDbArc
 50
348.4630409672
 51
0.0
  0
ARC
  5
24D
330
24
100
AcDbEntity
  8
Layer1$C$L1$V_PV
 62
   211
100
AcDbCircle
 10
-285.55
 20
261.0
 30
0.0
 40
0.1
100
AcDbArc
 50
180.0
 51
270.0
  0
ARC
  5
24E
330
24
100
AcDbEntity
  8
Layer1$C$L1$V_PV
 62
   211
100
AcDbCircle
 10
-277.55
 20
261.0
 30
0.0
 40
0.1
100
AcDbArc
 50
270.0
 51
0.0
  0
LINE
  5
24F
330
24
100
AcDbEntity
  8
Layer1$C$L1$V_PV
  6
CENTER
 62
     7
100
AcDbLine
 10
-263.55
 20
302.1
 30
0.0
 11
-263.55
 21
263.6
 31
0.0
  0
LINE
  5
250
330
24
100
AcDbEntity
  8
Layer1$C$L1$V_PV
 62
   132
100
AcDbLine
 10
-104.2392944336
 20
427.0
 30
0.0
 11
-104.2392944336
 21
417.0
 31
0.0
  0
LINE
  5
251
330
24
100
AcDbEntity
  8
Layer1$C$L1$V_PV
 62
   132
100
AcDbLine
 10
-104.2392944336
 20
367.0
 30
0.0
 11
-104.2392944336
 21
377.0
 31
0.0
  0
LINE
  5
252
330
24
100
AcDbEntity
  8
Layer1$C$L1$V_PV
 62
   132
100
AcDbLine
 10
-106.65
 20
438.5
 30
0.0
 11
-96.65
 21
438.5
 31
0.0
  0
LINE
  5
253
330
24
100
AcDbEntity
  8
Layer1$C$L1$V_PV
 62
   132
100
AcDbLine
 10
-96.65
 20
440.0
 30
0.0
 11
-96.65
 21
435.0
 31
0.0
  0
LINE
  5
254
330
24
100
AcDbEntity
  8
Layer1$C$L1$V_PV
 62
   132
100
AcDbLine
 10
-106.65
 20
440.0
 30
0.0
 11
-106.65
 21
435.0
 31
0.0
  0
LINE
  5
255
330
24
100
AcDbEntity
  8
Layer1$C$L1$V_PV
 62
   132
100
AcDbLine
 10
-106.65
 20
435.0
 30
0.0
 11
-96.65
 21
435.0
 31
0.0
  0
LINE
  5
256
330
24
100
AcDbEntity
  8
Layer1$C$L1$V_PV
 62
   132
100
AcDbLine
 10
-106.65
 20
440.0
 30
0.0
 11
-96.65
 21
440.0
 31
0.0
  0
LINE
  5
257
330
24
100
AcDbEntity
  8
Layer1$C$L1$V_PV
 62
   132
100
AcDbLine
 10
-108.15
 20
380.0
 30
0.0
 11
-108.15
 21
414.0
 31
0.0
  0
LINE
  5
258
330
24
100
AcDbEntity
  8
Layer1$C$L1$V_PV
 62
   132
100
AcDbLine
 10
-110.15
 20
380.0
 30
0.0
 11
-110.15
 21
414.0
 31
0.0
  0
LINE
  5
259
330
24
100
AcDbEntity
  8
Layer1$C$L1$V_PV
 62
   132
100
AcDbLine
 10
-111.15
 20
380.0
 30
0.0
 11
-108.15
 21
380.0
 31
0.0
  0
LINE
  5
25A
330
24
100
AcDbEntity
  8
Layer1$C$L1$V_PV
 62
   132
100
AcDbLine
 10
-111.15
 20
414.0
 30
0.0
 11
-108.15
 21
414.0
 31
0.0
  0
LINE
  5
25B
330
24
100
AcDbEntity
  8
Layer1$C$L1$V_PV
 62
   132
100
AcDbLine
 10
-106.65
 20
355.5
 30
0.0
 11
-96.65
 21
355.5
 31
0.0
  0
LINE
  5
25C
330
24
100
AcDbEntity
  8
Layer1$C$L1$V_PV
 62
   132
100
AcDbLine
 10
-96.65
 20
354.0
 30
0.0
 11
-96.65
 21
359.0
 31
0.0
  0
LINE
  5
25D
330
24
100
AcDbEntity
  8
Layer1$C$L1$V_PV
 62
   132
100
AcDbLine
 10
-106.65
 20
354.0
 30
0.0
 11
-96.65
 21
354.0
 31
0.0
  0
LINE
  5
25E
330
24
100
AcDbEntity
  8
Layer1$C$L1$V_PV
 62
   132
100
AcDbLine
 10
-106.65
 20
359.0
 30
0.0
 11
-96.65
 21
359.0
 31
0.0
  0
LINE
  5
25F
330
24
100
AcDbEntity
  8
Layer1$C$L1$V_PV
 62
   132
100
AcDbLine
 10
-106.65
 20
427.0
 30
0.0
 11
-106.65
 21
417.0
 31
0.0
  0
LINE
  5
260
330
24
100
AcDbEntity
  8
Layer1$C$L1$V_PV
 62
   132
100
AcDbLine
 10
-107.65
 20
427.0
 30
0.0
 11
-107.65
 21
417.0
 31
0.0
  0
LINE
  5
261
330
24
100
AcDbEntity
  8
Layer1$C$L1$V_PV
 62
   132
100
AcDbLine
 10
-108.65
 20
427.0
 30
0.0
 11
-108.65
 21
417.0
 31
0.0
  0
LINE
  5
262
330
24
100
AcDbEntity
  8
Layer1$C$L1$V_PV
 62
   132
100
AcDbLine
 10
-109.65
 20
427.0
 30
0.0
 11
-109.65
 21
417.0
 31
0.0
  0
LINE
  5
263
330
24
100
AcDbEntity
  8
Layer1$C$L1$V_PV
 62
   132
100
AcDbLine
 10
-110.350012207
 20
427.0
 30
0.0
 11
-110.350012207
 21
417.0
 31
0.0
  0
LINE
  5
264
330
24
100
AcDbEntity
  8
Layer1$C$L1$V_PV
 62
   132
100
AcDbLine
 10
-96.15
 20
429.0
 30
0.0
 11
-96.15
 21
431.0
 31
0.0
  0
LINE
  5
265
330
24
100
AcDbEntity
  8
Layer1$C$L1$V_PV
 62
   132
100
AcDbLine
 10
-101.15
 20
429.0
 30
0.0
 11
-101.15
 21
431.0
 31
0.0
  0
LINE
  5
266
330
24
100
AcDbEntity
  8
Layer1$C$L1$V_PV
 62
   132
100
AcDbLine
 10
-108.15
 20
431.0
 30
0.0
 11
-96.15
 21
431.0
 31
0.0
  0
LINE
  5
267
330
24
100
AcDbEntity
  8
Layer1$C$L1$V_PV
 62
   132
100
AcDbLine
 10
-96.15
 20
415.0
 30
0.0
 11
-96.15
 21
413.0
 31
0.0
  0
LINE
  5
268
330
24
100
AcDbEntity
  8
Layer1$C$L1$V_PV
 62
   132
100
AcDbLine
 10
-101.15
 20
415.0
 30
0.0
 11
-101.15
 21
413.0
 31
0.0
  0
LINE
  5
269
330
24
100
AcDbEntity
  8
Layer1$C$L1$V_PV
 62
   132
100
AcDbLine
 10
-111.15
 20
439.6999969482
 30
0.0
 11
-108.15
 21
439.6999969482
 31
0.0
  0
LINE
  5
26A
330
24
100
AcDbEntity
  8
Layer1$C$L1$V_PV
 62
   132
100
AcDbLine
 10
-111.15
 20
430.0
 30
0.0
 11
-108.15
 21
430.0
 31
0.0
  0
LINE
  5
26B
330
24
100
AcDbEntity
  8
Layer1$C$L1$V_PV
 62
   132
100
AcDbLine
 10
-111.15
 20
429.0
 30
0.0
 11
-89.15
 21
429.0
 31
0.0
  0
LINE
  5
26C
330
24
100
AcDbEntity
  8
Layer1$C$L1$V_PV
 62
   132
100
AcDbLine
 10
-110.350012207
 20
427.0
 30
0.0
 11
-89.15
 21
427.0
 31
0.0
  0
LINE
  5
26D
330
24
100
AcDbEntity
  8
Layer1$C$L1$V_PV
 62
   132
100
AcDbLine
 10
-110.350012207
 20
417.0
 30
0.0
 11
-89.15
 21
417.0
 31
0.0
  0
LINE
  5
26E
330
24
100
AcDbEntity
  8
Layer1$C$L1$V_PV
 62
   132
100
AcDbLine
 10
-111.15
 20
415.0
 30
0.0
 11
-89.15
 21
415.0
 31
0.0
  0
LINE
  5
26F
330
24
100
AcDbEntity
  8
Layer1$C$L1$V_PV
 62
   132
100
AcDbLine
 10
-108.15
 20
413.0
 30
0.0
 11
-96.15
 21
413.0
 31
0.0
  0
LINE
  5
270
330
24
100
AcDbEntity
  8
Layer1$C$L1$V_PV
 62
   132
100
AcDbLine
 10
-110.15
 20
439.6999969482
 30
0.0
 11
-110.15
 21
430.0
 31
0.0
  0
LINE
  5
271
330
24
100
AcDbEntity
  8
Layer1$C$L1$V_PV
 62
   132
100
AcDbLine
 10
-108.15
 20
439.6999969482
 30
0.0
 11
-108.15
 21
430.0
 31
0.0
  0
LINE
  5
272
330
24
100
AcDbEntity
  8
Layer1$C$L1$V_PV
 62
   132
100
AcDbLine
 10
-95.15
 20
442.0
 30
0.0
 11
-82.15
 21
442.0
 31
0.0
  0
LINE
  5
273
330
24
100
AcDbEntity
  8
Layer1$C$L1$V_PV
 62
   132
100
AcDbLine
 10
-95.15
 20
442.0
 30
0.0
 11
-95.15
 21
441.0
 31
0.0
  0
LINE
  5
274
330
24
100
AcDbEntity
  8
Layer1$C$L1$V_PV
 62
   132
100
AcDbLine
 10
-108.15
 20
442.0
 30
0.0
 11
-108.15
 21
441.0
 31
0.0
  0
LINE
  5
275
330
24
100
AcDbEntity
  8
Layer1$C$L1$V_PV
 62
   132
100
AcDbLine
 10
-108.15
 20
441.0
 30
0.0
 11
-95.15
 21
441.0
 31
0.0
  0
LINE
  5
276
330
24
100
AcDbEntity
  8
Layer1$C$L1$V_PV
 62
   132
100
AcDbLine
 10
-111.15
 20
442.0
 30
0.0
 11
-108.15
 21
442.0
 31
0.0
  0
LINE
  5
277
330
24
100
AcDbEntity
  8
Layer1$C$L1$V_PV
 62
   132
100
AcDbLine
 10
-112.150009072
 20
445.0000083184
 30
0.0
 11
-113.1500091436
 21
439.0000071638
 31
0.0
  0
LINE
  5
278
330
24
100
AcDbEntity
  8
Layer1$C$L1$V_PV
 62
   132
100
AcDbLine
 10
-112.15
 20
445.0
 30
0.0
 11
-111.15
 21
445.0
 31
0.0
  0
ARC
  5
279
330
24
100
AcDbEntity
  8
Layer1$C$L1$V_PV
 62
   132
100
AcDbCircle
 10
-89.15
 20
416.0
 30
0.0
 40
1.0
100
AcDbArc
 50
270.0000359722
 51
90.0
  0
ARC
  5
27A
330
24
100
AcDbEntity
  8
Layer1$C$L1$V_PV
 62
   132
100
AcDbCircle
 10
-89.15
 20
428.0
 30
0.0
 40
1.0
100
AcDbArc
 50
270.0000359722
 51
90.0
  0
ARC
  5
27B
330
24
100
AcDbEntity
  8
Layer1$C$L1$V_PV
 62
   132
100
AcDbCircle
 10
-82.15
 20
441.0
 30
0.0
 40
1.0
100
AcDbArc
 50
0.000017990127
 51
90.0
  0
LINE
  5
27C
330
24
100
AcDbEntity
  8
Layer1$C$L1$V_PV
 62
   132
100
AcDbLine
 10
-113.65
 20
439.0
 30
0.0
 11
-113.15
 21
439.0
 31
0.0
  0
LINE
  5
27D
330
24
100
AcDbEntity
  8
Layer1$C$L1$V_PV
 62
   132
100
AcDbLine
 10
-105.65
 20
427.0
 30
0.0
 11
-105.65
 21
417.0
 31
0.0
  0
LINE
  5
27E
330
24
100
AcDbEntity
  8
Layer1$C$L1$V_PV
 62
   132
100
AcDbLine
 10
-106.65
 20
354.0
 30
0.0
 11
-106.65
 21
359.0
 31
0.0
  0
LINE
  5
27F
330
24
100
AcDbEntity
  8
Layer1$C$L1$V_PV
 62
   132
100
AcDbLine
 10
-81.15
 20
353.0
 30
0.0
 11
-81.15
 21
441.0
 31
0.0
  0
ARC
  5
280
330
24
100
AcDbEntity
  8
Layer1$C$L1$V_PV
 62
   132
100
AcDbCircle
 10
-82.15
 20
353.0
 30
0.0
 40
1.0
100
AcDbArc
 50
270.0000359722
 51
0.000017990127
  0
LINE
  5
281
330
24
100
AcDbEntity
  8
Layer1$C$L1$V_PV
 62
   132
100
AcDbLine
 10
-105.65
 20
367.0
 30
0.0
 11
-105.65
 21
377.0
 31
0.0
  0
LINE
  5
282
330
24
100
AcDbEntity
  8
Layer1$C$L1$V_PV
 62
   132
100
AcDbLine
 10
-106.65
 20
367.0
 30
0.0
 11
-106.65
 21
377.0
 31
0.0
  0
LINE
  5
283
330
24
100
AcDbEntity
  8
Layer1$C$L1$V_PV
 62
   132
100
AcDbLine
 10
-107.65
 20
367.0
 30
0.0
 11
-107.65
 21
377.0
 31
0.0
  0
LINE
  5
284
330
24
100
AcDbEntity
  8
Layer1$C$L1$V_PV
 62
   132
100
AcDbLine
 10
-108.65
 20
367.0
 30
0.0
 11
-108.65
 21
377.0
 31
0.0
  0
LINE
  5
285
330
24
100
AcDbEntity
  8
Layer1$C$L1$V_PV
 62
   132
100
AcDbLine
 10
-96.15
 20
365.0
 30
0.0
 11
-96.15
 21
363.0
 31
0.0
  0
LINE
  5
286
330
24
100
AcDbEntity
  8
Layer1$C$L1$V_PV
 62
   132
100
AcDbLine
 10
-101.15
 20
365.0
 30
0.0
 11
-101.15
 21
363.0
 31
0.0
  0
LINE
  5
287
330
24
100
AcDbEntity
  8
Layer1$C$L1$V_PV
 62
   132
100
AcDbLine
 10
-108.15
 20
363.0
 30
0.0
 11
-96.15
 21
363.0
 31
0.0
  0
LINE
  5
288
330
24
100
AcDbEntity
  8
Layer1$C$L1$V_PV
 62
   132
100
AcDbLine
 10
-109.65
 20
367.0
 30
0.0
 11
-109.65
 21
377.0
 31
0.0
  0
LINE
  5
289
330
24
100
AcDbEntity
  8
Layer1$C$L1$V_PV
 62
   132
100
AcDbLine
 10
-96.15
 20
379.0
 30
0.0
 11
-96.15
 21
381.0
 31
0.0
  0
ARC
  5
28A
330
24
100
AcDbEntity
  8
Layer1$C$L1$V_PV
 62
   132
100
AcDbCircle
 10
-89.15
 20
366.0
 30
0.0
 40
1.0
100
AcDbArc
 50
270.0000359722
 51
90.0
  0
LINE
  5
28B
330
24
100
AcDbEntity
  8
Layer1$C$L1$V_PV
 62
   132
100
AcDbLine
 10
-101.15
 20
379.0
 30
0.0
 11
-101.15
 21
381.0
 31
0.0
  0
LINE
  5
28C
330
24
100
AcDbEntity
  8
Layer1$C$L1$V_PV
 62
   132
100
AcDbLine
 10
-111.15
 20
354.3000030518
 30
0.0
 11
-108.15
 21
354.3000030518
 31
0.0
  0
ARC
  5
28D
330
24
100
AcDbEntity
  8
Layer1$C$L1$V_PV
 62
   132
100
AcDbCircle
 10
-89.15
 20
378.0
 30
0.0
 40
1.0
100
AcDbArc
 50
270.0000359722
 51
90.0
  0
LINE
  5
28E
330
24
100
AcDbEntity
  8
Layer1$C$L1$V_PV
 62
   132
100
AcDbLine
 10
-111.15
 20
364.0
 30
0.0
 11
-108.15
 21
364.0
 31
0.0
  0
LINE
  5
28F
330
24
100
AcDbEntity
  8
Layer1$C$L1$V_PV
 62
   132
100
AcDbLine
 10
-110.350012207
 20
367.0
 30
0.0
 11
-110.350012207
 21
377.0
 31
0.0
  0
LINE
  5
290
330
24
100
AcDbEntity
  8
Layer1$C$L1$V_PV
 62
   132
100
AcDbLine
 10
-111.15
 20
365.0
 30
0.0
 11
-89.15
 21
365.0
 31
0.0
  0
LINE
  5
291
330
24
100
AcDbEntity
  8
Layer1$C$L1$V_PV
 62
   132
100
AcDbLine
 10
-110.350012207
 20
367.0
 30
0.0
 11
-89.15
 21
367.0
 31
0.0
  0
LINE
  5
292
330
24
100
AcDbEntity
  8
Layer1$C$L1$V_PV
 62
   132
100
AcDbLine
 10
-110.350012207
 20
377.0
 30
0.0
 11
-89.15
 21
377.0
 31
0.0
  0
LINE
  5
293
330
24
100
AcDbEntity
  8
Layer1$C$L1$V_PV
 62
   132
100
AcDbLine
 10
-111.15
 20
379.0
 30
0.0
 11
-89.15
 21
379.0
 31
0.0
  0
LINE
  5
294
330
24
100
AcDbEntity
  8
Layer1$C$L1$V_PV
 62
   132
100
AcDbLine
 10
-108.15
 20
381.0
 30
0.0
 11
-96.15
 21
381.0
 31
0.0
  0
LINE
  5
295
330
24
100
AcDbEntity
  8
Layer1$C$L1$V_PV
 62
   132
100
AcDbLine
 10
-110.15
 20
354.3000030518
 30
0.0
 11
-110.15
 21
364.0
 31
0.0
  0
LINE
  5
296
330
24
100
AcDbEntity
  8
Layer1$C$L1$V_PV
 62
   132
100
AcDbLine
 10
-108.15
 20
354.3000030518
 30
0.0
 11
-108.15
 21
364.0
 31
0.0
  0
LINE
  5
297
330
24
100
AcDbEntity
  8
Layer1$C$L1$V_PV
 62
   132
100
AcDbLine
 10
-111.15
 20
352.0
 30
0.0
 11
-108.15
 21
352.0
 31
0.0
  0
LINE
  5
298
330
24
100
AcDbEntity
  8
Layer1$C$L1$V_PV
 62
   132
100
AcDbLine
 10
-108.15
 20
353.0
 30
0.0
 11
-95.15
 21
353.0
 31
0.0
  0
LINE
  5
299
330
24
100
AcDbEntity
  8
Layer1$C$L1$V_PV
 62
   132
100
AcDbLine
 10
-108.15
 20
352.0
 30
0.0
 11
-108.15
 21
353.0
 31
0.0
  0
LINE
  5
29A
330
24
100
AcDbEntity
  8
Layer1$C$L1$V_PV
 62
   132
100
AcDbLine
 10
-95.15
 20
352.0
 30
0.0
 11
-95.15
 21
353.0
 31
0.0
  0
LINE
  5
29B
330
24
100
AcDbEntity
  8
Layer1$C$L1$V_PV
 62
   132
100
AcDbLine
 10
-95.15
 20
352.0
 30
0.0
 11
-82.15
 21
352.0
 31
0.0
  0
LINE
  5
29C
330
24
100
AcDbEntity
  8
Layer1$C$L1$V_PV
 62
   132
100
AcDbLine
 10
-112.1500136672
 20
348.9999961608
 30
0.0
 11
-113.1500137388
 21
354.9999973154
 31
0.0
  0
LINE
  5
29D
330
24
100
AcDbEntity
  8
Layer1$C$L1$V_PV
 62
   132
100
AcDbLine
 10
-112.15
 20
349.0
 30
0.0
 11
-111.15
 21
349.0
 31
0.0
  0
LINE
  5
29E
330
24
100
AcDbEntity
  8
Layer1$C$L1$V_PV
 62
   132
100
AcDbLine
 10
-112.15
 20
349.0
 30
0.0
 11
-112.15
 21
445.0
 31
0.0
  0
LINE
  5
29F
330
24
100
AcDbEntity
  8
Layer1$C$L1$V_PV
 62
   132
100
AcDbLine
 10
-113.65
 20
355.0
 30
0.0
 11
-113.65
 21
439.0
 31
0.0
  0
LINE
  5
2A0
330
24
100
AcDbEntity
  8
Layer1$C$L1$V_PV
 62
   132
100
AcDbLine
 10
-113.65
 20
355.0
 30
0.0
 11
-113.15
 21
355.0
 31
0.0
  0
LINE
  5
2A1
330
24
100
AcDbEntity
  8
Layer1$C$L1$V_PV
 62
   132
100
AcDbLine
 10
-113.15
 20
355.0
 30
0.0
 11
-113.15
 21
439.0
 31
0.0
  0
LINE
  5
2A2
330
24
100
AcDbEntity
  8
Layer1$C$L1$V_PV
 62
   132
100
AcDbLine
 10
-111.15
 20
349.0
 30
0.0
 11
-111.15
 21
445.0
 31
0.0
  0
LINE
  5
2A3
330
24
100
AcDbEntity
  8
Layer1$C$L1$V_PV
 62
   211
100
AcDbLine
 10
-82.15
 20
352.0
 30
0.0
 11
-81.15
 21
352.0
 31
0.0
  0
LINE
  5
2A4
330
24
100
AcDbEntity
  8
Layer1$C$L1$V_PV
 62
   211
100
AcDbLine
 10
-82.15
 20
442.0
 30
0.0
 11
-81.15
 21
442.0
 31
0.0
  0
LINE
  5
2A5
330
24
100
AcDbEntity
  8
Layer1$C$L1$V_PV
 62
   132
100
AcDbLine
 10
-312.3500030518
 20
377.0
 30
0.0
 11
-312.3500030518
 21
367.0
 31
0.0
  0
LINE
  5
2A6
330
24
100
AcDbEntity
  8
Layer1$C$L1$V_PV
 62
   132
100
AcDbLine
 10
-311.55
 20
427.0
 30
0.0
 11
-313.55
 21
427.0
 31
0.0
  0
LINE
  5
2A7
330
24
100
AcDbEntity
  8
Layer1$C$L1$V_PV
 62
   132
100
AcDbLine
 10
-299.55
 20
355.0
 30
0.0
 11
-306.750012207
 21
355.0
 31
0.0
  0
LINE
  5
2A8
330
24
100
AcDbEntity
  8
Layer1$C$L1$V_PV
 62
   132
100
AcDbLine
 10
-299.55
 20
358.0
 30
0.0
 11
-304.3500030518
 21
358.0
 31
0.0
  0
LINE
  5
2A9
330
24
100
AcDbEntity
  8
Layer1$C$L1$V_PV
 62
   132
100
AcDbLine
 10
-299.55
 20
349.0
 30
0.0
 11
-311.55
 21
349.0
 31
0.0
  0
LINE
  5
2AA
330
24
100
AcDbEntity
  8
Layer1$C$L1$V_PV
 62
   132
100
AcDbLine
 10
-311.5499977968
 20
348.9999920822
 30
0.0
 11
-299.5499976268
 21
363.9999922946
 31
0.0
  0
LINE
  5
2AB
330
24
100
AcDbEntity
  8
Layer1$C$L1$V_PV
 62
   132
100
AcDbLine
 10
-313.55
 20
417.0
 30
0.0
 11
-313.55
 21
427.0
 31
0.0
  0
LINE
  5
2AC
330
24
100
AcDbEntity
  8
Layer1$C$L1$V_PV
 62
   132
100
AcDbLine
 10
-313.1500061036
 20
417.0
 30
0.0
 11
-313.1500061036
 21
427.0
 31
0.0
  0
LINE
  5
2AD
330
24
100
AcDbEntity
  8
Layer1$C$L1$V_PV
 62
   132
100
AcDbLine
 10
-312.750012207
 20
417.0
 30
0.0
 11
-312.750012207
 21
427.0
 31
0.0
  0
LINE
  5
2AE
330
24
100
AcDbEntity
  8
Layer1$C$L1$V_PV
 62
   132
100
AcDbLine
 10
-312.750012207
 20
377.0
 30
0.0
 11
-312.750012207
 21
367.0
 31
0.0
  0
LINE
  5
2AF
330
24
100
AcDbEntity
  8
Layer1$C$L1$V_PV
 62
   132
100
AcDbLine
 10
-312.3500030518
 20
417.0
 30
0.0
 11
-312.3500030518
 21
427.0
 31
0.0
  0
LINE
  5
2B0
330
24
100
AcDbEntity
  8
Layer1$C$L1$V_PV
 62
   132
100
AcDbLine
 10
-311.9500091552
 20
417.0
 30
0.0
 11
-311.9500091552
 21
427.0
 31
0.0
  0
LINE
  5
2B1
330
24
100
AcDbEntity
  8
Layer1$C$L1$V_PV
 62
   132
100
AcDbLine
 10
-311.9500091552
 20
377.0
 30
0.0
 11
-311.9500091552
 21
367.0
 31
0.0
  0
LINE
  5
2B2
330
24
100
AcDbEntity
  8
Layer1$C$L1$V_PV
 62
   132
100
AcDbLine
 10
-311.55
 20
377.0
 30
0.0
 11
-313.55
 21
377.0
 31
0.0
  0
LINE
  5
2B3
330
24
100
AcDbEntity
  8
Layer1$C$L1$V_PV
 62
   132
100
AcDbLine
 10
-311.55
 20
367.0
 30
0.0
 11
-313.55
 21
367.0
 31
0.0
  0
LINE
  5
2B4
330
24
100
AcDbEntity
  8
Layer1$C$L1$V_PV
 62
   132
100
AcDbLine
 10
-313.55
 20
377.0
 30
0.0
 11
-313.55
 21
367.0
 31
0.0
  0
LINE
  5
2B5
330
24
100
AcDbEntity
  8
Layer1$C$L1$V_PV
 62
   132
100
AcDbLine
 10
-313.1500061036
 20
377.0
 30
0.0
 11
-313.1500061036
 21
367.0
 31
0.0
  0
LINE
  5
2B6
330
24
100
AcDbEntity
  8
Layer1$C$L1$V_PV
 62
   132
100
AcDbLine
 10
-299.55
 20
349.0
 30
0.0
 11
-299.55
 21
445.0
 31
0.0
  0
LINE
  5
2B7
330
24
100
AcDbEntity
  8
Layer1$C$L1$V_PV
 62
   132
100
AcDbLine
 10
-311.55
 20
349.0
 30
0.0
 11
-311.55
 21
445.0
 31
0.0
  0
LINE
  5
2B8
330
24
100
AcDbEntity
  8
Layer1$C$L1$V_PV
 62
   132
100
AcDbLine
 10
-306.750012207
 20
355.0
 30
0.0
 11
-306.750012207
 21
439.0
 31
0.0
  0
LINE
  5
2B9
330
24
100
AcDbEntity
  8
Layer1$C$L1$V_PV
 62
   132
100
AcDbLine
 10
-304.3500030518
 20
358.0
 30
0.0
 11
-304.3500030518
 21
436.0
 31
0.0
  0
LINE
  5
2BA
330
24
100
AcDbEntity
  8
Layer1$C$L1$V_PV
 62
   132
100
AcDbLine
 10
-299.55
 20
445.0
 30
0.0
 11
-311.55
 21
445.0
 31
0.0
  0
LINE
  5
2BB
330
24
100
AcDbEntity
  8
Layer1$C$L1$V_PV
 62
   132
100
AcDbLine
 10
-299.55
 20
439.0
 30
0.0
 11
-306.750012207
 21
439.0
 31
0.0
  0
LINE
  5
2BC
330
24
100
AcDbEntity
  8
Layer1$C$L1$V_PV
 62
   132
100
AcDbLine
 10
-311.5499983924
 20
444.9999956754
 30
0.0
 11
-299.5500023928
 21
430.0000006758
 31
0.0
  0
LINE
  5
2BD
330
24
100
AcDbEntity
  8
Layer1$C$L1$V_PV
 62
   132
100
AcDbLine
 10
-299.55
 20
436.0
 30
0.0
 11
-304.3500030518
 21
436.0
 31
0.0
  0
LINE
  5
2BE
330
24
100
AcDbEntity
  8
Layer1$C$L1$V_PV
 62
   132
100
AcDbLine
 10
-311.55
 20
417.0
 30
0.0
 11
-313.55
 21
417.0
 31
0.0
  0
LINE
  5
2BF
330
24
100
AcDbEntity
  8
Layer1$C$L1$V_PV
 62
   211
100
AcDbLine
 10
-258.55
 20
347.0
 30
0.0
 11
-258.55
 21
349.0
 31
0.0
  0
LINE
  5
2C0
330
24
100
AcDbEntity
  8
Layer1$C$L1$V_PV
 62
   211
100
AcDbLine
 10
-268.55
 20
347.0
 30
0.0
 11
-268.55
 21
349.0
 31
0.0
  0
LINE
  5
2C1
330
24
100
AcDbEntity
  8
Layer1$C$L1$V_PV
 62
   211
100
AcDbLine
 10
-258.55
 20
347.0
 30
0.0
 11
-268.55
 21
347.0
 31
0.0
  0
LINE
  5
2C2
330
24
100
AcDbEntity
  8
Layer1$C$L1$V_PV
 62
   211
100
AcDbLine
 10
-258.55
 20
347.4
 30
0.0
 11
-268.55
 21
347.4
 31
0.0
  0
LINE
  5
2C3
330
24
100
AcDbEntity
  8
Layer1$C$L1$V_PV
 62
   211
100
AcDbLine
 10
-258.55
 20
347.8
 30
0.0
 11
-268.55
 21
347.8
 31
0.0
  0
LINE
  5
2C4
330
24
100
AcDbEntity
  8
Layer1$C$L1$V_PV
 62
   211
100
AcDbLine
 10
-258.55
 20
348.2
 30
0.0
 11
-268.55
 21
348.2
 31
0.0
  0
LINE
  5
2C5
330
24
100
AcDbEntity
  8
Layer1$C$L1$V_PV
 62
   211
100
AcDbLine
 10
-258.55
 20
348.6
 30
0.0
 11
-268.55
 21
348.6
 31
0.0
  0
LINE
  5
2C6
330
24
100
AcDbEntity
  8
Layer1$C$L1$V_PV
 62
   211
100
AcDbLine
 10
-268.55
 20
445.0
 30
0.0
 11
-268.55
 21
447.0
 31
0.0
  0
LINE
  5
2C7
330
24
100
AcDbEntity
  8
Layer1$C$L1$V_PV
 62
   211
100
AcDbLine
 10
-258.55
 20
445.0
 30
0.0
 11
-258.55
 21
447.0
 31
0.0
  0
LINE
  5
2C8
330
24
100
AcDbEntity
  8
Layer1$C$L1$V_PV
 62
   211
100
AcDbLine
 10
-258.55
 20
445.8
 30
0.0
 11
-268.55
 21
445.8
 31
0.0
  0
LINE
  5
2C9
330
24
100
AcDbEntity
  8
Layer1$C$L1$V_PV
 62
   211
100
AcDbLine
 10
-258.55
 20
446.2
 30
0.0
 11
-268.55
 21
446.2
 31
0.0
  0
LINE
  5
2CA
330
24
100
AcDbEntity
  8
Layer1$C$L1$V_PV
 62
   211
100
AcDbLine
 10
-258.55
 20
446.6
 30
0.0
 11
-268.55
 21
446.6
 31
0.0
  0
LINE
  5
2CB
330
24
100
AcDbEntity
  8
Layer1$C$L1$V_PV
 62
   211
100
AcDbLine
 10
-258.55
 20
447.0
 30
0.0
 11
-268.55
 21
447.0
 31
0.0
  0
LINE
  5
2CC
330
24
100
AcDbEntity
  8
Layer1$C$L1$V_PV
 62
   211
100
AcDbLine
 10
-258.55
 20
445.4
 30
0.0
 11
-268.55
 21
445.4
 31
0.0
  0
LINE
  5
2CD
330
24
100
AcDbEntity
  8
Layer1$C$L1$V_PV
  6
DASH
 62
   211
100
AcDbLine
 10
-251.7612475452
 20
396.65
 30
0.0
 11
-249.388028571
 21
396.65
 31
0.0
  0
LINE
  5
2CE
330
24
100
AcDbEntity
  8
Layer1$C$L1$V_PV
  6
DASH
 62
   211
100
AcDbLine
 10
-251.7379452738
 20
397.35
 30
0.0
 11
-249.2645996844
 21
397.35
 31
0.0
  0
LINE
  5
2CF
330
24
100
AcDbEntity
  8
Layer1$C$L1$V_PV
  6
DASH
 62
   211
100
AcDbLine
 10
-277.711971429
 20
397.35
 30
0.0
 11
-275.3387524548
 21
397.35
 31
0.0
  0
LINE
  5
2D0
330
24
100
AcDbEntity
  8
Layer1$C$L1$V_PV
  6
DASH
 62
   211
100
AcDbLine
 10
-277.8354003156
 20
396.65
 30
0.0
 11
-275.3620547262
 21
396.65
 31
0.0
  0
LINE
  5
2D1
330
24
100
AcDbEntity
  8
Layer1$C$L1$V_PV
  6
DASH
 62
   211
100
AcDbLine
 10
-275.7463164084
 20
376.6
 30
0.0
 11
-258.4585351622
 21
376.6
 31
0.0
  0
LINE
  5
2D2
330
24
100
AcDbEntity
  8
Layer1$C$L1$V_PV
  6
DASH
 62
   211
100
AcDbLine
 10
-253.8895897946
 20
399.9142300878
 30
0.0
 11
-250.900484926
 21
416.866286186
 31
0.0
  0
LINE
  5
2D3
330
24
100
AcDbEntity
  8
Layer1$C$L1$V_PV
  6
DASH
 62
   211
100
AcDbLine
 10
-272.1653086162
 20
400.0128355544
 30
0.0
 11
-269.1786744318
 21
416.9508797064
 31
0.0
  0
LINE
  5
2D4
330
24
100
AcDbEntity
  8
Layer1$C$L1$V_PV
  6
DASH
 62
   211
100
AcDbLine
 10
-255.0846616724
 20
372.762486846
 30
0.0
 11
-258.4585351622
 21
376.6
 31
0.0
  0
LINE
  5
2D5
330
24
100
AcDbEntity
  8
Layer1$C$L1$V_PV
  6
DASH
 62
   211
100
AcDbLine
 10
-254.5702281866
 20
373.237513154
 30
0.0
 11
-257.9213255682
 21
377.0491202936
 31
0.0
  0
LINE
  5
2D6
330
24
100
AcDbEntity
  8
Layer1$C$L1$V_PV
  6
DASH
 62
   211
100
AcDbLine
 10
-280.9429401776
 20
373.2830192014
 30
0.0
 11
-276.199515074
 21
377.133713814
 31
0.0
  0
LINE
  5
2D7
330
24
100
AcDbEntity
  8
Layer1$C$L1$V_PV
  6
DASH
 62
   211
100
AcDbLine
 10
-280.5295601114
 20
372.7169807986
 30
0.0
 11
-275.7463164084
 21
376.6
 31
0.0
  0
LINE
  5
2D8
330
24
100
AcDbEntity
  8
Layer1$C$L1$V_PV
  6
DASH
 62
   211
100
AcDbLine
 10
-269.1786744318
 20
416.9508797064
 30
0.0
 11
-272.5297718134
 21
420.762486846
 31
0.0
  0
LINE
  5
2D9
330
24
100
AcDbEntity
  8
Layer1$C$L1$V_PV
  6
DASH
 62
   211
100
AcDbLine
 10
-268.6414648378
 20
417.4
 30
0.0
 11
-272.0153383276
 21
421.237513154
 31
0.0
  0
LINE
  5
2DA
330
24
100
AcDbEntity
  8
Layer1$C$L1$V_PV
  6
DASH
 62
   211
100
AcDbLine
 10
-250.900484926
 20
416.866286186
 30
0.0
 11
-246.1570598224
 21
420.7169807986
 31
0.0
  0
LINE
  5
2DB
330
24
100
AcDbEntity
  8
Layer1$C$L1$V_PV
  6
DASH
 62
   211
100
AcDbLine
 10
-251.3536835916
 20
417.4
 30
0.0
 11
-246.5704398886
 21
421.2830192014
 31
0.0
  0
LINE
  5
2DC
330
24
100
AcDbEntity
  8
Layer1$C$L1$V_PV
  6
DASH
 62
   211
100
AcDbLine
 10
-274.7109270656
 20
396.96302295
 30
0.0
 11
-272.6442054166
 21
394.5
 31
0.0
  0
LINE
  5
2DD
330
24
100
AcDbEntity
  8
Layer1$C$L1$V_PV
  6
DASH
 62
   211
100
AcDbLine
 10
-252.3890729344
 20
397.03697705
 30
0.0
 11
-255.4125244482
 21
394.5
 31
0.0
  0
LINE
  5
2DE
330
24
100
AcDbEntity
  8
Layer1$C$L1$V_PV
  6
DASH
 62
   211
100
AcDbLine
 10
-252.3890729344
 20
397.03697705
 30
0.0
 11
-254.4557945834
 21
399.5
 31
0.0
  0
LINE
  5
2DF
330
24
100
AcDbEntity
  8
Layer1$C$L1$V_PV
  6
DASH
 62
   211
100
AcDbLine
 10
-271.6874755518
 20
399.5
 30
0.0
 11
-274.7109270656
 21
396.96302295
 31
0.0
  0
LINE
  5
2E0
330
24
100
AcDbEntity
  8
Layer1$C$L1$V_PV
  6
DASH
 62
   211
100
AcDbLine
 10
-271.6874755518
 20
399.5
 30
0.0
 11
-254.4557945834
 21
399.5
 31
0.0
  0
LINE
  5
2E1
330
24
100
AcDbEntity
  8
Layer1$C$L1$V_PV
  6
DASH
 62
   211
100
AcDbLine
 10
-272.6442054166
 20
394.5
 30
0.0
 11
-255.4125244482
 21
394.5
 31
0.0
  0
LINE
  5
2E2
330
24
100
AcDbEntity
  8
Layer1$C$L1$V_PV
  6
DASH
 62
   211
100
AcDbLine
 10
-251.7612475452
 20
396.65
 30
0.0
 11
-254.9346913838
 21
393.9871644456
 31
0.0
  0
LINE
  5
2E3
330
24
100
AcDbEntity
  8
Layer1$C$L1$V_PV
  6
DASH
 62
   211
100
AcDbLine
 10
-275.3620547262
 20
396.65
 30
0.0
 11
-273.2104102054
 21
394.0857699122
 31
0.0
  0
LINE
  5
2E4
330
24
100
AcDbEntity
  8
Layer1$C$L1$V_PV
  6
DASH
 62
   211
100
AcDbLine
 10
-251.7379452738
 20
397.35
 30
0.0
 11
-253.8895897946
 21
399.9142300878
 31
0.0
  0
LINE
  5
2E5
330
24
100
AcDbEntity
  8
Layer1$C$L1$V_PV
  6
DASH
 62
   211
100
AcDbLine
 10
-272.1653086162
 20
400.0128355544
 30
0.0
 11
-275.3387524548
 21
397.35
 31
0.0
  0
LINE
  5
2E6
330
24
100
AcDbEntity
  8
Layer1$C$L1$V_PV
  6
DASH
 62
   211
100
AcDbLine
 10
-257.9213255682
 20
377.0491202936
 30
0.0
 11
-254.9346913838
 21
393.9871644456
 31
0.0
  0
LINE
  5
2E7
330
24
100
AcDbEntity
  8
Layer1$C$L1$V_PV
  6
DASH
 62
   211
100
AcDbLine
 10
-276.199515074
 20
377.133713814
 30
0.0
 11
-273.2104102054
 21
394.0857699122
 31
0.0
  0
LINE
  5
2E8
330
24
100
AcDbEntity
  8
Layer1$C$L1$V_PV
  6
DASH
 62
   211
100
AcDbLine
 10
-268.6414648378
 20
417.4
 30
0.0
 11
-251.3536835916
 21
417.4
 31
0.0
  0
LINE
  5
2E9
330
24
100
AcDbEntity
  8
Layer1$C$L1$V_PV
  6
DASH
 62
   211
100
AcDbLine
 10
-254.5702281866
 20
373.237513154
 30
0.0
 11
-253.3113038916
 21
374.4
 31
0.0
  0
LINE
  5
2EA
330
24
100
AcDbEntity
  8
Layer1$C$L1$V_PV
  6
DASH
 62
   211
100
AcDbLine
 10
-280.5295601114
 20
372.7169807986
 30
0.0
 11
-279.7138246526
 21
371.6
 31
0.0
  0
LINE
  5
2EB
330
24
100
AcDbEntity
  8
Layer1$C$L1$V_PV
  6
DASH
 62
   211
100
AcDbLine
 10
-272.5297718134
 20
420.762486846
 30
0.0
 11
-273.7886961084
 21
419.6
 31
0.0
  0
LINE
  5
2EC
330
24
100
AcDbEntity
  8
Layer1$C$L1$V_PV
  6
DASH
 62
   211
100
AcDbLine
 10
-246.5704398886
 20
421.2830192014
 30
0.0
 11
-247.3861753474
 21
422.4
 31
0.0
  0
LINE
  5
2ED
330
24
100
AcDbEntity
  8
Layer1$C$L1$V_PV
  6
DASH
 62
   211
100
AcDbLine
 10
-245.3413243636
 20
419.6
 30
0.0
 11
-249.2645996844
 21
397.35
 31
0.0
  0
LINE
  5
2EE
330
24
100
AcDbEntity
  8
Layer1$C$L1$V_PV
  6
DASH
 62
   211
100
AcDbLine
 10
-273.7886961084
 20
419.6
 30
0.0
 11
-277.711971429
 21
397.35
 31
0.0
  0
LINE
  5
2EF
330
24
100
AcDbEntity
  8
Layer1$C$L1$V_PV
  6
DASH
 62
   211
100
AcDbLine
 10
-279.7138246526
 20
371.6
 30
0.0
 11
-256.3435859674
 21
371.6
 31
0.0
  0
LINE
  5
2F0
330
24
100
AcDbEntity
  8
Layer1$C$L1$V_PV
  6
DASH
 62
   211
100
AcDbLine
 10
-270.7564140326
 20
422.4
 30
0.0
 11
-247.3861753474
 21
422.4
 31
0.0
  0
LINE
  5
2F1
330
24
100
AcDbEntity
  8
Layer1$C$L1$V_PV
  6
DASH
 62
   211
100
AcDbLine
 10
-245.3413243636
 20
419.6
 30
0.0
 11
-246.1570598224
 21
420.7169807986
 31
0.0
  0
LINE
  5
2F2
330
24
100
AcDbEntity
  8
Layer1$C$L1$V_PV
  6
DASH
 62
   211
100
AcDbLine
 10
-270.7564140326
 20
422.4
 30
0.0
 11
-272.0153383276
 21
421.237513154
 31
0.0
  0
LINE
  5
2F3
330
24
100
AcDbEntity
  8
Layer1$C$L1$V_PV
  6
DASH
 62
   211
100
AcDbLine
 10
-256.3435859674
 20
371.6
 30
0.0
 11
-255.0846616724
 21
372.762486846
 31
0.0
  0
LINE
  5
2F4
330
24
100
AcDbEntity
  8
Layer1$C$L1$V_PV
  6
DASH
 62
   211
100
AcDbLine
 10
-281.7586756364
 20
374.4
 30
0.0
 11
-280.9429401776
 21
373.2830192014
 31
0.0
  0
LINE
  5
2F5
330
24
100
AcDbEntity
  8
Layer1$C$L1$V_PV
  6
DASH
 62
   211
100
AcDbLine
 10
-277.8354003156
 20
396.65
 30
0.0
 11
-281.7586756364
 21
374.4
 31
0.0
  0
LINE
  5
2F6
330
24
100
AcDbEntity
  8
Layer1$C$L1$V_PV
  6
DASH
 62
   211
100
AcDbLine
 10
-249.388028571
 20
396.65
 30
0.0
 11
-253.3113038916
 21
374.4
 31
0.0
  0
LINE
  5
2F7
330
24
100
AcDbEntity
  8
Layer1$C$L1$V_PV
 62
   211
100
AcDbLine
 10
-299.55
 20
349.0
 30
0.0
 11
-299.55
 21
445.0
 31
0.0
  0
CIRCLE
  5
2F8
330
24
100
AcDbEntity
  8
Layer1$C$L1$V_PV
  6
DASH
 62
   211
100
AcDbCircle
 10
-233.55
 20
371.25
 30
0.0
 40
3.0
  0
LINE
  5
2F9
330
24
100
AcDbEntity
  8
Layer1$C$L1$V_PV
  6
CENTER
 62
     7
100
AcDbLine
 10
-263.55
 20
450.0
 30
0.0
 11
-263.55
 21
344.0
 31
0.0
  0
LINE
  5
2FA
330
24
100
AcDbEntity
  8
Layer1$C$L1$V_PV
  6
CENTER
 62
     7
100
AcDbLine
 10
-314.55
 20
397.0
 30
0.0
 11
-138.7429626464
 21
397.0
 31
0.0
  0
LINE
  5
2FB
330
24
100
AcDbEntity
  8
Layer1$C$L1$V_PV
  6
CENTER
 62
     7
100
AcDbLine
 10
-191.55
 20
302.1
 30
0.0
 11
-191.55
 21
263.6
 31
0.0
  0
LINE
  5
2FC
330
24
100
AcDbEntity
  8
Layer1$C$L1$V_PV
  6
CENTER
 62
     7
100
AcDbLine
 10
-116.65
 20
397.0
 30
0.0
 11
-67.45
 21
397.0
 31
0.0
  0
LINE
  5
2FD
330
24
100
AcDbEntity
  8
Layer1$C$L1$V_PV
  6
CENTER
 62
     7
100
AcDbLine
 10
-191.55
 20
450.0
 30
0.0
 11
-191.55
 21
344.0
 31
0.0
  0
ARC
  5
2FE
330
24
100
AcDbEntity
  8
Layer1$C$L1$V_PV
 62
   211
100
AcDbCircle
 10
-205.55
 20
261.0
 30
0.0
 40
0.1
100
AcDbArc
 50
270.0
 51
0.0
  0
ARC
  5
2FF
330
24
100
AcDbEntity
  8
Layer1$C$L1$V_PV
 62
   211
100
AcDbCircle
 10
-213.55
 20
261.0
 30
0.0
 40
0.1
100
AcDbArc
 50
180.0
 51
270.0
  0
ARC
  5
300
330
24
100
AcDbEntity
  8
Layer1$C$L1$V_PV
 62
   211
100
AcDbCircle
 10
-209.75
 20
260.7
 30
0.0
 40
1.5
100
AcDbArc
 50
348.4630409672
 51
0.0
  0
ARC
  5
301
330
24
100
AcDbEntity
  8
Layer1$C$L1$V_PV
 62
   211
100
AcDbCircle
 10
-209.35
 20
260.7
 30
0.0
 40
1.5
100
AcDbArc
 50
180.0
 51
191.5369590328
  0
LINE
  5
302
330
24
100
AcDbEntity
  8
Layer1$C$L1$V_PV
 62
   211
100
AcDbLine
 10
-209.2601020514
 20
259.6
 30
0.0
 11
-209.8398979486
 21
259.6
 31
0.0
  0
ARC
  5
303
330
24
100
AcDbEntity
  8
Layer1$C$L1$V_PV
 62
   211
100
AcDbCircle
 10
-209.2601020514
 20
260.6
 30
0.0
 40
1.0
100
AcDbArc
 50
270.0
 51
348.463040967198
  0
ARC
  5
304
330
24
100
AcDbEntity
  8
Layer1$C$L1$V_PV
 62
   211
100
AcDbCircle
 10
-209.8398979486
 20
260.6
 30
0.0
 40
1.0
100
AcDbArc
 50
191.536959032802
 51
270.0
  0
ARC
  5
305
330
24
100
AcDbEntity
  8
Layer1$C$L1$V_PV
 62
   211
100
AcDbCircle
 10
-208.45
 20
260.7
 30
0.0
 40
0.2
100
AcDbArc
 50
0.0
 51
90.0
  0
ARC
  5
306
330
24
100
AcDbEntity
  8
Layer1$C$L1$V_PV
 62
   211
100
AcDbCircle
 10
-210.65
 20
260.7
 30
0.0
 40
0.2
100
AcDbArc
 50
90.0
 51
180.0
  0
LINE
  5
307
330
24
100
AcDbEntity
  8
Layer1$C$L1$V_PV
 62
   211
100
AcDbLine
 10
-213.55
 20
260.9
 30
0.0
 11
-205.55
 21
260.9
 31
0.0
  0
LINE
  5
308
330
24
100
AcDbEntity
  8
Layer1$C$L1$V_PV
 62
   211
100
AcDbLine
 10
-209.85
 20
259.9
 30
0.0
 11
-209.85
 21
259.600051027
 31
0.0
  0
LINE
  5
309
330
24
100
AcDbEntity
  8
Layer1$C$L1$V_PV
 62
   211
100
AcDbLine
 10
-209.25
 20
259.9
 30
0.0
 11
-209.25
 21
259.6
 31
0.0
  0
LINE
  5
30A
330
24
100
AcDbEntity
  8
Layer1$C$L1$V_PV
 62
   211
100
AcDbLine
 10
-209.2601020514
 20
259.9
 30
0.0
 11
-209.8398979486
 21
259.9
 31
0.0
  0
LINE
  5
30B
330
24
100
AcDbEntity
  8
Layer1$C$L1$V_PV
 62
   211
100
AcDbLine
 10
-205.45
 20
266.4
 30
0.0
 11
-206.75
 21
266.4
 31
0.0
  0
LINE
  5
30C
330
24
100
AcDbEntity
  8
Layer1$C$L1$V_PV
 62
   211
100
AcDbLine
 10
-206.75
 20
264.6
 30
0.0
 11
-212.35
 21
264.6
 31
0.0
  0
LINE
  5
30D
330
24
100
AcDbEntity
  8
Layer1$C$L1$V_PV
 62
   211
100
AcDbLine
 10
-206.75
 20
266.6
 30
0.0
 11
-206.75
 21
264.6
 31
0.0
  0
LINE
  5
30E
330
24
100
AcDbEntity
  8
Layer1$C$L1$V_PV
 62
   211
100
AcDbLine
 10
-205.45
 20
266.6
 30
0.0
 11
-205.45
 21
261.0
 31
0.0
  0
LINE
  5
30F
330
24
100
AcDbEntity
  8
Layer1$C$L1$V_PV
 62
   211
100
AcDbLine
 10
-213.65
 20
266.4
 30
0.0
 11
-212.35
 21
266.4
 31
0.0
  0
ARC
  5
310
330
24
100
AcDbEntity
  8
Layer1$C$L1$V_PV
 62
   211
100
AcDbCircle
 10
-208.0
 20
256.2
 30
0.0
 40
0.3
100
AcDbArc
 50
279.594068226902
 51
0.0
  0
ARC
  5
311
330
24
100
AcDbEntity
  8
Layer1$C$L1$V_PV
 62
   211
100
AcDbCircle
 10
-207.9
 20
256.2
 30
0.0
 40
0.3
100
AcDbArc
 50
180.0
 51
260.405931773098
  0
ARC
  5
312
330
24
100
AcDbEntity
  8
Layer1$C$L1$V_PV
 62
   211
100
AcDbCircle
 10
-211.2
 20
256.2
 30
0.0
 40
0.3
100
AcDbArc
 50
279.594068226902
 51
0.0
  0
ARC
  5
313
330
24
100
AcDbEntity
  8
Layer1$C$L1$V_PV
 62
   211
100
AcDbCircle
 10
-211.1
 20
256.2
 30
0.0
 40
0.3
100
AcDbArc
 50
180.0
 51
260.405931773098
  0
LINE
  5
314
330
24
100
AcDbEntity
  8
Layer1$C$L1$V_PV
 62
   211
100
AcDbLine
 10
-207.7
 20
256.2
 30
0.0
 11
-207.7
 21
260.9
 31
0.0
  0
LINE
  5
315
330
24
100
AcDbEntity
  8
Layer1$C$L1$V_PV
 62
   211
100
AcDbLine
 10
-208.2
 20
256.2
 30
0.0
 11
-208.2
 21
260.9
 31
0.0
  0
LINE
  5
316
330
24
100
AcDbEntity
  8
Layer1$C$L1$V_PV
 62
   211
100
AcDbLine
 10
-210.9
 20
256.2
 30
0.0
 11
-210.9
 21
260.9
 31
0.0
  0
LINE
  5
317
330
24
100
AcDbEntity
  8
Layer1$C$L1$V_PV
 62
   211
100
AcDbLine
 10
-211.4
 20
256.2
 30
0.0
 11
-211.4
 21
260.9
 31
0.0
  0
LINE
  5
318
330
24
100
AcDbEntity
  8
Layer1$C$L1$V_PV
 62
   211
100
AcDbLine
 10
-226.55
 20
296.6
 30
0.0
 11
-226.55
 21
267.6
 31
0.0
  0
LINE
  5
319
330
24
100
AcDbEntity
  8
Layer1$C$L1$V_PV
 62
   211
100
AcDbLine
 10
-220.55
 20
280.6
 30
0.0
 11
-220.55
 21
296.6
 31
0.0
  0
LINE
  5
31A
330
24
100
AcDbEntity
  8
Layer1$C$L1$V_PV
 62
   211
100
AcDbLine
 10
-215.55
 20
294.0
 30
0.0
 11
-205.55
 21
294.0
 31
0.0
  0
LINE
  5
31B
330
24
100
AcDbEntity
  8
Layer1$C$L1$V_PV
 62
   211
100
AcDbLine
 10
-167.55
 20
294.0
 30
0.0
 11
-167.55
 21
296.6
 31
0.0
  0
LINE
  5
31C
330
24
100
AcDbEntity
  8
Layer1$C$L1$V_PV
 62
   211
100
AcDbLine
 10
-177.55
 20
296.6
 30
0.0
 11
-177.55
 21
294.0
 31
0.0
  0
LINE
  5
31D
330
24
100
AcDbEntity
  8
Layer1$C$L1$V_PV
 62
   211
100
AcDbLine
 10
-205.55
 20
296.6
 30
0.0
 11
-205.55
 21
294.0
 31
0.0
  0
LINE
  5
31E
330
24
100
AcDbEntity
  8
Layer1$C$L1$V_PV
 62
   211
100
AcDbLine
 10
-215.55
 20
296.6
 30
0.0
 11
-215.55
 21
294.0
 31
0.0
  0
LINE
  5
31F
330
24
100
AcDbEntity
  8
Layer1$C$L1$V_PV
 62
   211
100
AcDbLine
 10
-70.45
 20
388.15
 30
0.0
 11
-70.45
 21
387.65
 31
0.0
  0
LINE
  5
320
330
24
100
AcDbEntity
  8
Layer1$C$L1$V_PV
 62
   211
100
AcDbLine
 10
-75.15
 20
388.65
 30
0.0
 11
-70.95
 21
388.65
 31
0.0
  0
LINE
  5
321
330
24
100
AcDbEntity
  8
Layer1$C$L1$V_PV
 62
   211
100
AcDbLine
 10
-75.15
 20
387.15
 30
0.0
 11
-70.95
 21
387.15
 31
0.0
  0
LINE
  5
322
330
24
100
AcDbEntity
  8
Layer1$C$L1$V_PV
 62
   211
100
AcDbLine
 10
-76.45
 20
388.4
 30
0.0
 11
-75.6373397172
 21
388.4
 31
0.0
  0
LINE
  5
323
330
24
100
AcDbEntity
  8
Layer1$C$L1$V_PV
 62
   211
100
AcDbLine
 10
-76.45
 20
387.4
 30
0.0
 11
-75.6373397172
 21
387.4
 31
0.0
  0
ARC
  5
324
330
24
100
AcDbEntity
  8
Layer1$C$L1$V_PV
 62
   211
100
AcDbCircle
 10
-70.95
 20
388.15
 30
0.0
 40
0.5
100
AcDbArc
 50
0.0
 51
90.0
  0
ARC
  5
325
330
24
100
AcDbEntity
  8
Layer1$C$L1$V_PV
 62
   211
100
AcDbCircle
 10
-70.95
 20
387.65
 30
0.0
 40
0.5
100
AcDbArc
 50
270.0
 51
0.0
  0
ARC
  5
326
330
24
100
AcDbEntity
  8
Layer1$C$L1$V_PV
 62
   211
100
AcDbCircle
 10
-75.15
 20
387.25
 30
0.0
 40
0.1
100
AcDbArc
 50
215.685334712696
 51
270.0
  0
ARC
  5
327
330
24
100
AcDbEntity
  8
Layer1$C$L1$V_PV
 62
   211
100
AcDbCircle
 10
-75.15
 20
388.55
 30
0.0
 40
0.1
100
AcDbArc
 50
90.0
 51
144.314665287304
  0
ARC
  5
328
330
24
100
AcDbEntity
  8
Layer1$C$L1$V_PV
 62
   211
100
AcDbCircle
 10
-75.6373397172
 20
388.9
 30
0.0
 40
0.5
100
AcDbArc
 50
270.0
 51
324.314665287298
  0
ARC
  5
329
330
24
100
AcDbEntity
  8
Layer1$C$L1$V_PV
 62
   211
100
AcDbCircle
 10
-75.6373397172
 20
386.9
 30
0.0
 40
0.5
100
AcDbArc
 50
35.685334712702
 51
90.0
  0
LINE
  5
32A
330
24
100
AcDbEntity
  8
Layer1$C$L1$V_PV
 62
   211
100
AcDbLine
 10
-71.6
 20
387.95
 30
0.0
 11
-71.6
 21
387.85
 31
0.0
  0
LINE
  5
32B
330
24
100
AcDbEntity
  8
Layer1$C$L1$V_PV
 62
   211
100
AcDbLine
 10
-73.45
 20
387.95
 30
0.0
 11
-73.45
 21
387.85
 31
0.0
  0
LINE
  5
32C
330
24
100
AcDbEntity
  8
Layer1$C$L1$V_PV
 62
   211
100
AcDbLine
 10
-73.25
 20
387.65
 30
0.0
 11
-71.8
 21
387.65
 31
0.0
  0
LINE
  5
32D
330
24
100
AcDbEntity
  8
Layer1$C$L1$V_PV
 62
   211
100
AcDbLine
 10
-73.25
 20
388.15
 30
0.0
 11
-71.8
 21
388.15
 31
0.0
  0
ARC
  5
32E
330
24
100
AcDbEntity
  8
Layer1$C$L1$V_PV
 62
   211
100
AcDbCircle
 10
-73.25
 20
387.95
 30
0.0
 40
0.2
100
AcDbArc
 50
90.0
 51
180.0
  0
ARC
  5
32F
330
24
100
AcDbEntity
  8
Layer1$C$L1$V_PV
 62
   211
100
AcDbCircle
 10
-73.25
 20
387.85
 30
0.0
 40
0.2
100
AcDbArc
 50
180.0
 51
270.0
  0
ARC
  5
330
330
24
100
AcDbEntity
  8
Layer1$C$L1$V_PV
 62
   211
100
AcDbCircle
 10
-71.8
 20
387.95
 30
0.0
 40
0.2
100
AcDbArc
 50
0.0
 51
90.0
  0
ARC
  5
331
330
24
100
AcDbEntity
  8
Layer1$C$L1$V_PV
 62
   211
100
AcDbCircle
 10
-71.8
 20
387.85
 30
0.0
 40
0.2
100
AcDbArc
 50
270.0
 51
0.0
  0
ARC
  5
332
330
24
100
AcDbEntity
  8
Layer1$C$L1$V_PV
 62
   211
100
AcDbCircle
 10
-71.8
 20
390.45
 30
0.0
 40
0.2
100
AcDbArc
 50
270.0
 51
0.0
  0
ARC
  5
333
330
24
100
AcDbEntity
  8
Layer1$C$L1$V_PV
 62
   211
100
AcDbCircle
 10
-71.8
 20
390.55
 30
0.0
 40
0.2
100
AcDbArc
 50
0.0
 51
90.0
  0
ARC
  5
334
330
24
100
AcDbEntity
  8
Layer1$C$L1$V_PV
 62
   211
100
AcDbCircle
 10
-73.25
 20
390.45
 30
0.0
 40
0.2
100
AcDbArc
 50
180.0
 51
270.0
  0
ARC
  5
335
330
24
100
AcDbEntity
  8
Layer1$C$L1$V_PV
 62
   211
100
AcDbCircle
 10
-73.25
 20
390.55
 30
0.0
 40
0.2
100
AcDbArc
 50
90.0
 51
180.0
  0
LINE
  5
336
330
24
100
AcDbEntity
  8
Layer1$C$L1$V_PV
 62
   211
100
AcDbLine
 10
-73.25
 20
390.75
 30
0.0
 11
-71.8
 21
390.75
 31
0.0
  0
LINE
  5
337
330
24
100
AcDbEntity
  8
Layer1$C$L1$V_PV
 62
   211
100
AcDbLine
 10
-73.25
 20
390.25
 30
0.0
 11
-71.8
 21
390.25
 31
0.0
  0
LINE
  5
338
330
24
100
AcDbEntity
  8
Layer1$C$L1$V_PV
 62
   211
100
AcDbLine
 10
-73.45
 20
390.55
 30
0.0
 11
-73.45
 21
390.45
 31
0.0
  0
LINE
  5
339
330
24
100
AcDbEntity
  8
Layer1$C$L1$V_PV
 62
   211
100
AcDbLine
 10
-71.6
 20
390.55
 30
0.0
 11
-71.6
 21
390.45
 31
0.0
  0
ARC
  5
33A
330
24
100
AcDbEntity
  8
Layer1$C$L1$V_PV
 62
   211
100
AcDbCircle
 10
-75.6373397172
 20
389.5
 30
0.0
 40
0.5
100
AcDbArc
 50
35.685334712702
 51
90.0
  0
ARC
  5
33B
330
24
100
AcDbEntity
  8
Layer1$C$L1$V_PV
 62
   211
100
AcDbCircle
 10
-75.6373397172
 20
391.5
 30
0.0
 40
0.5
100
AcDbArc
 50
270.0
 51
324.314665287298
  0
ARC
  5
33C
330
24
100
AcDbEntity
  8
Layer1$C$L1$V_PV
 62
   211
100
AcDbCircle
 10
-75.15
 20
391.15
 30
0.0
 40
0.1
100
AcDbArc
 50
90.0
 51
144.314665287304
  0
ARC
  5
33D
330
24
100
AcDbEntity
  8
Layer1$C$L1$V_PV
 62
   211
100
AcDbCircle
 10
-75.15
 20
389.85
 30
0.0
 40
0.1
100
AcDbArc
 50
215.685334712696
 51
270.0
  0
ARC
  5
33E
330
24
100
AcDbEntity
  8
Layer1$C$L1$V_PV
 62
   211
100
AcDbCircle
 10
-70.95
 20
390.25
 30
0.0
 40
0.5
100
AcDbArc
 50
270.0
 51
0.0
  0
ARC
  5
33F
330
24
100
AcDbEntity
  8
Layer1$C$L1$V_PV
 62
   211
100
AcDbCircle
 10
-70.95
 20
390.75
 30
0.0
 40
0.5
100
AcDbArc
 50
0.0
 51
90.0
  0
LINE
  5
340
330
24
100
AcDbEntity
  8
Layer1$C$L1$V_PV
 62
   211
100
AcDbLine
 10
-76.45
 20
390.0
 30
0.0
 11
-75.6373397172
 21
390.0
 31
0.0
  0
LINE
  5
341
330
24
100
AcDbEntity
  8
Layer1$C$L1$V_PV
 62
   211
100
AcDbLine
 10
-76.45
 20
391.0
 30
0.0
 11
-75.6373397172
 21
391.0
 31
0.0
  0
LINE
  5
342
330
24
100
AcDbEntity
  8
Layer1$C$L1$V_PV
 62
   211
100
AcDbLine
 10
-75.15
 20
389.75
 30
0.0
 11
-70.95
 21
389.75
 31
0.0
  0
LINE
  5
343
330
24
100
AcDbEntity
  8
Layer1$C$L1$V_PV
 62
   211
100
AcDbLine
 10
-75.15
 20
391.25
 30
0.0
 11
-70.95
 21
391.25
 31
0.0
  0
LINE
  5
344
330
24
100
AcDbEntity
  8
Layer1$C$L1$V_PV
 62
   211
100
AcDbLine
 10
-70.45
 20
390.75
 30
0.0
 11
-70.45
 21
390.25
 31
0.0
  0
LINE
  5
345
330
24
100
AcDbEntity
  8
Layer1$C$L1$V_PV
 62
   211
100
AcDbLine
 10
-70.45
 20
393.35
 30
0.0
 11
-70.45
 21
392.85
 31
0.0
  0
LINE
  5
346
330
24
100
AcDbEntity
  8
Layer1$C$L1$V_PV
 62
   211
100
AcDbLine
 10
-75.15
 20
393.85
 30
0.0
 11
-70.95
 21
393.85
 31
0.0
  0
LINE
  5
347
330
24
100
AcDbEntity
  8
Layer1$C$L1$V_PV
 62
   211
100
AcDbLine
 10
-75.15
 20
392.35
 30
0.0
 11
-70.95
 21
392.35
 31
0.0
  0
LINE
  5
348
330
24
100
AcDbEntity
  8
Layer1$C$L1$V_PV
 62
   211
100
AcDbLine
 10
-76.45
 20
393.6
 30
0.0
 11
-75.6373397172
 21
393.6
 31
0.0
  0
LINE
  5
349
330
24
100
AcDbEntity
  8
Layer1$C$L1$V_PV
 62
   211
100
AcDbLine
 10
-76.45
 20
392.6
 30
0.0
 11
-75.6373397172
 21
392.6
 31
0.0
  0
ARC
  5
34A
330
24
100
AcDbEntity
  8
Layer1$C$L1$V_PV
 62
   211
100
AcDbCircle
 10
-70.95
 20
393.35
 30
0.0
 40
0.5
100
AcDbArc
 50
0.0
 51
90.0
  0
ARC
  5
34B
330
24
100
AcDbEntity
  8
Layer1$C$L1$V_PV
 62
   211
100
AcDbCircle
 10
-70.95
 20
392.85
 30
0.0
 40
0.5
100
AcDbArc
 50
270.0
 51
0.0
  0
ARC
  5
34C
330
24
100
AcDbEntity
  8
Layer1$C$L1$V_PV
 62
   211
100
AcDbCircle
 10
-75.15
 20
392.45
 30
0.0
 40
0.1
100
AcDbArc
 50
215.685334712696
 51
270.0
  0
ARC
  5
34D
330
24
100
AcDbEntity
  8
Layer1$C$L1$V_PV
 62
   211
100
AcDbCircle
 10
-75.15
 20
393.75
 30
0.0
 40
0.1
100
AcDbArc
 50
90.0
 51
144.314665287304
  0
ARC
  5
34E
330
24
100
AcDbEntity
  8
Layer1$C$L1$V_PV
 62
   211
100
AcDbCircle
 10
-75.6373397172
 20
394.1
 30
0.0
 40
0.5
100
AcDbArc
 50
270.0
 51
324.314665287298
  0
ARC
  5
34F
330
24
100
AcDbEntity
  8
Layer1$C$L1$V_PV
 62
   211
100
AcDbCircle
 10
-75.6373397172
 20
392.1
 30
0.0
 40
0.5
100
AcDbArc
 50
35.685334712702
 51
90.0
  0
LINE
  5
350
330
24
100
AcDbEntity
  8
Layer1$C$L1$V_PV
 62
   211
100
AcDbLine
 10
-71.6
 20
393.15
 30
0.0
 11
-71.6
 21
393.05
 31
0.0
  0
LINE
  5
351
330
24
100
AcDbEntity
  8
Layer1$C$L1$V_PV
 62
   211
100
AcDbLine
 10
-73.45
 20
393.15
 30
0.0
 11
-73.45
 21
393.05
 31
0.0
  0
LINE
  5
352
330
24
100
AcDbEntity
  8
Layer1$C$L1$V_PV
 62
   211
100
AcDbLine
 10
-73.25
 20
392.85
 30
0.0
 11
-71.8
 21
392.85
 31
0.0
  0
LINE
  5
353
330
24
100
AcDbEntity
  8
Layer1$C$L1$V_PV
 62
   211
100
AcDbLine
 10
-73.25
 20
393.35
 30
0.0
 11
-71.8
 21
393.35
 31
0.0
  0
ARC
  5
354
330
24
100
AcDbEntity
  8
Layer1$C$L1$V_PV
 62
   211
100
AcDbCircle
 10
-73.25
 20
393.15
 30
0.0
 40
0.2
100
AcDbArc
 50
90.0
 51
180.0
  0
ARC
  5
355
330
24
100
AcDbEntity
  8
Layer1$C$L1$V_PV
 62
   211
100
AcDbCircle
 10
-73.25
 20
393.05
 30
0.0
 40
0.2
100
AcDbArc
 50
180.0
 51
270.0
  0
ARC
  5
356
330
24
100
AcDbEntity
  8
Layer1$C$L1$V_PV
 62
   211
100
AcDbCircle
 10
-71.8
 20
393.15
 30
0.0
 40
0.2
100
AcDbArc
 50
0.0
 51
90.0
  0
ARC
  5
357
330
24
100
AcDbEntity
  8
Layer1$C$L1$V_PV
 62
   211
100
AcDbCircle
 10
-71.8
 20
393.05
 30
0.0
 40
0.2
100
AcDbArc
 50
270.0
 51
0.0
  0
ARC
  5
358
330
24
100
AcDbEntity
  8
Layer1$C$L1$V_PV
 62
   211
100
AcDbCircle
 10
-71.8
 20
395.65
 30
0.0
 40
0.2
100
AcDbArc
 50
270.0
 51
0.0
  0
ARC
  5
359
330
24
100
AcDbEntity
  8
Layer1$C$L1$V_PV
 62
   211
100
AcDbCircle
 10
-71.8
 20
395.75
 30
0.0
 40
0.2
100
AcDbArc
 50
0.0
 51
90.0
  0
ARC
  5
35A
330
24
100
AcDbEntity
  8
Layer1$C$L1$V_PV
 62
   211
100
AcDbCircle
 10
-73.25
 20
395.65
 30
0.0
 40
0.2
100
AcDbArc
 50
180.0
 51
270.0
  0
ARC
  5
35B
330
24
100
AcDbEntity
  8
Layer1$C$L1$V_PV
 62
   211
100
AcDbCircle
 10
-73.25
 20
395.75
 30
0.0
 40
0.2
100
AcDbArc
 50
90.0
 51
180.0
  0
LINE
  5
35C
330
24
100
AcDbEntity
  8
Layer1$C$L1$V_PV
 62
   211
100
AcDbLine
 10
-73.25
 20
395.95
 30
0.0
 11
-71.8
 21
395.95
 31
0.0
  0
LINE
  5
35D
330
24
100
AcDbEntity
  8
Layer1$C$L1$V_PV
 62
   211
100
AcDbLine
 10
-73.25
 20
395.45
 30
0.0
 11
-71.8
 21
395.45
 31
0.0
  0
LINE
  5
35E
330
24
100
AcDbEntity
  8
Layer1$C$L1$V_PV
 62
   211
100
AcDbLine
 10
-73.45
 20
395.75
 30
0.0
 11
-73.45
 21
395.65
 31
0.0
  0
LINE
  5
35F
330
24
100
AcDbEntity
  8
Layer1$C$L1$V_PV
 62
   211
100
AcDbLine
 10
-71.6
 20
395.75
 30
0.0
 11
-71.6
 21
395.65
 31
0.0
  0
ARC
  5
360
330
24
100
AcDbEntity
  8
Layer1$C$L1$V_PV
 62
   211
100
AcDbCircle
 10
-75.6373397172
 20
394.7
 30
0.0
 40
0.5
100
AcDbArc
 50
35.685334712702
 51
90.0
  0
ARC
  5
361
330
24
100
AcDbEntity
  8
Layer1$C$L1$V_PV
 62
   211
100
AcDbCircle
 10
-75.6373397172
 20
396.7
 30
0.0
 40
0.5
100
AcDbArc
 50
270.0
 51
324.314665287298
  0
ARC
  5
362
330
24
100
AcDbEntity
  8
Layer1$C$L1$V_PV
 62
   211
100
AcDbCircle
 10
-75.15
 20
396.35
 30
0.0
 40
0.1
100
AcDbArc
 50
90.0
 51
144.314665287304
  0
ARC
  5
363
330
24
100
AcDbEntity
  8
Layer1$C$L1$V_PV
 62
   211
100
AcDbCircle
 10
-75.15
 20
395.05
 30
0.0
 40
0.1
100
AcDbArc
 50
215.685334712696
 51
270.0
  0
ARC
  5
364
330
24
100
AcDbEntity
  8
Layer1$C$L1$V_PV
 62
   211
100
AcDbCircle
 10
-70.95
 20
395.45
 30
0.0
 40
0.5
100
AcDbArc
 50
270.0
 51
0.0
  0
ARC
  5
365
330
24
100
AcDbEntity
  8
Layer1$C$L1$V_PV
 62
   211
100
AcDbCircle
 10
-70.95
 20
395.95
 30
0.0
 40
0.5
100
AcDbArc
 50
0.0
 51
90.0
  0
LINE
  5
366
330
24
100
AcDbEntity
  8
Layer1$C$L1$V_PV
 62
   211
100
AcDbLine
 10
-76.45
 20
395.2
 30
0.0
 11
-75.6373397172
 21
395.2
 31
0.0
  0
LINE
  5
367
330
24
100
AcDbEntity
  8
Layer1$C$L1$V_PV
 62
   211
100
AcDbLine
 10
-76.45
 20
396.2
 30
0.0
 11
-75.6373397172
 21
396.2
 31
0.0
  0
LINE
  5
368
330
24
100
AcDbEntity
  8
Layer1$C$L1$V_PV
 62
   211
100
AcDbLine
 10
-75.15
 20
394.95
 30
0.0
 11
-70.95
 21
394.95
 31
0.0
  0
LINE
  5
369
330
24
100
AcDbEntity
  8
Layer1$C$L1$V_PV
 62
   211
100
AcDbLine
 10
-75.15
 20
396.45
 30
0.0
 11
-70.95
 21
396.45
 31
0.0
  0
LINE
  5
36A
330
24
100
AcDbEntity
  8
Layer1$C$L1$V_PV
 62
   211
100
AcDbLine
 10
-70.45
 20
395.95
 30
0.0
 11
-70.45
 21
395.45
 31
0.0
  0
LINE
  5
36B
330
24
100
AcDbEntity
  8
Layer1$C$L1$V_PV
 62
   211
100
AcDbLine
 10
-70.45
 20
398.55
 30
0.0
 11
-70.45
 21
398.05
 31
0.0
  0
LINE
  5
36C
330
24
100
AcDbEntity
  8
Layer1$C$L1$V_PV
 62
   211
100
AcDbLine
 10
-75.15
 20
399.05
 30
0.0
 11
-70.95
 21
399.05
 31
0.0
  0
LINE
  5
36D
330
24
100
AcDbEntity
  8
Layer1$C$L1$V_PV
 62
   211
100
AcDbLine
 10
-75.15
 20
397.55
 30
0.0
 11
-70.95
 21
397.55
 31
0.0
  0
LINE
  5
36E
330
24
100
AcDbEntity
  8
Layer1$C$L1$V_PV
 62
   211
100
AcDbLine
 10
-76.45
 20
398.8
 30
0.0
 11
-75.6373397172
 21
398.8
 31
0.0
  0
LINE
  5
36F
330
24
100
AcDbEntity
  8
Layer1$C$L1$V_PV
 62
   211
100
AcDbLine
 10
-76.45
 20
397.8
 30
0.0
 11
-75.6373397172
 21
397.8
 31
0.0
  0
ARC
  5
370
330
24
100
AcDbEntity
  8
Layer1$C$L1$V_PV
 62
   211
100
AcDbCircle
 10
-70.95
 20
398.55
 30
0.0
 40
0.5
100
AcDbArc
 50
0.0
 51
90.0
  0
ARC
  5
371
330
24
100
AcDbEntity
  8
Layer1$C$L1$V_PV
 62
   211
100
AcDbCircle
 10
-70.95
 20
398.05
 30
0.0
 40
0.5
100
AcDbArc
 50
270.0
 51
0.0
  0
ARC
  5
372
330
24
100
AcDbEntity
  8
Layer1$C$L1$V_PV
 62
   211
100
AcDbCircle
 10
-75.15
 20
397.65
 30
0.0
 40
0.1
100
AcDbArc
 50
215.685334712696
 51
270.0
  0
ARC
  5
373
330
24
100
AcDbEntity
  8
Layer1$C$L1$V_PV
 62
   211
100
AcDbCircle
 10
-75.15
 20
398.95
 30
0.0
 40
0.1
100
AcDbArc
 50
90.0
 51
144.314665287304
  0
ARC
  5
374
330
24
100
AcDbEntity
  8
Layer1$C$L1$V_PV
 62
   211
100
AcDbCircle
 10
-75.6373397172
 20
399.3
 30
0.0
 40
0.5
100
AcDbArc
 50
270.0
 51
324.314665287298
  0
ARC
  5
375
330
24
100
AcDbEntity
  8
Layer1$C$L1$V_PV
 62
   211
100
AcDbCircle
 10
-75.6373397172
 20
397.3
 30
0.0
 40
0.5
100
AcDbArc
 50
35.685334712702
 51
90.0
  0
LINE
  5
376
330
24
100
AcDbEntity
  8
Layer1$C$L1$V_PV
 62
   211
100
AcDbLine
 10
-71.6
 20
398.35
 30
0.0
 11
-71.6
 21
398.25
 31
0.0
  0
LINE
  5
377
330
24
100
AcDbEntity
  8
Layer1$C$L1$V_PV
 62
   211
100
AcDbLine
 10
-73.45
 20
398.35
 30
0.0
 11
-73.45
 21
398.25
 31
0.0
  0
LINE
  5
378
330
24
100
AcDbEntity
  8
Layer1$C$L1$V_PV
 62
   211
100
AcDbLine
 10
-73.25
 20
398.05
 30
0.0
 11
-71.8
 21
398.05
 31
0.0
  0
LINE
  5
379
330
24
100
AcDbEntity
  8
Layer1$C$L1$V_PV
 62
   211
100
AcDbLine
 10
-73.25
 20
398.55
 30
0.0
 11
-71.8
 21
398.55
 31
0.0
  0
ARC
  5
37A
330
24
100
AcDbEntity
  8
Layer1$C$L1$V_PV
 62
   211
100
AcDbCircle
 10
-73.25
 20
398.35
 30
0.0
 40
0.2
100
AcDbArc
 50
90.0
 51
180.0
  0
ARC
  5
37B
330
24
100
AcDbEntity
  8
Layer1$C$L1$V_PV
 62
   211
100
AcDbCircle
 10
-73.25
 20
398.25
 30
0.0
 40
0.2
100
AcDbArc
 50
180.0
 51
270.0
  0
ARC
  5
37C
330
24
100
AcDbEntity
  8
Layer1$C$L1$V_PV
 62
   211
100
AcDbCircle
 10
-71.8
 20
398.35
 30
0.0
 40
0.2
100
AcDbArc
 50
0.0
 51
90.0
  0
ARC
  5
37D
330
24
100
AcDbEntity
  8
Layer1$C$L1$V_PV
 62
   211
100
AcDbCircle
 10
-71.8
 20
398.25
 30
0.0
 40
0.2
100
AcDbArc
 50
270.0
 51
0.0
  0
ARC
  5
37E
330
24
100
AcDbEntity
  8
Layer1$C$L1$V_PV
 62
   211
100
AcDbCircle
 10
-71.8
 20
400.85
 30
0.0
 40
0.2
100
AcDbArc
 50
270.0
 51
0.0
  0
ARC
  5
37F
330
24
100
AcDbEntity
  8
Layer1$C$L1$V_PV
 62
   211
100
AcDbCircle
 10
-71.8
 20
400.95
 30
0.0
 40
0.2
100
AcDbArc
 50
0.0
 51
90.0
  0
ARC
  5
380
330
24
100
AcDbEntity
  8
Layer1$C$L1$V_PV
 62
   211
100
AcDbCircle
 10
-73.25
 20
400.85
 30
0.0
 40
0.2
100
AcDbArc
 50
180.0
 51
270.0
  0
ARC
  5
381
330
24
100
AcDbEntity
  8
Layer1$C$L1$V_PV
 62
   211
100
AcDbCircle
 10
-73.25
 20
400.95
 30
0.0
 40
0.2
100
AcDbArc
 50
90.0
 51
180.0
  0
LINE
  5
382
330
24
100
AcDbEntity
  8
Layer1$C$L1$V_PV
 62
   211
100
AcDbLine
 10
-73.25
 20
401.15
 30
0.0
 11
-71.8
 21
401.15
 31
0.0
  0
LINE
  5
383
330
24
100
AcDbEntity
  8
Layer1$C$L1$V_PV
 62
   211
100
AcDbLine
 10
-73.25
 20
400.65
 30
0.0
 11
-71.8
 21
400.65
 31
0.0
  0
LINE
  5
384
330
24
100
AcDbEntity
  8
Layer1$C$L1$V_PV
 62
   211
100
AcDbLine
 10
-73.45
 20
400.95
 30
0.0
 11
-73.45
 21
400.85
 31
0.0
  0
LINE
  5
385
330
24
100
AcDbEntity
  8
Layer1$C$L1$V_PV
 62
   211
100
AcDbLine
 10
-71.6
 20
400.95
 30
0.0
 11
-71.6
 21
400.85
 31
0.0
  0
ARC
  5
386
330
24
100
AcDbEntity
  8
Layer1$C$L1$V_PV
 62
   211
100
AcDbCircle
 10
-75.6373397172
 20
399.9
 30
0.0
 40
0.5
100
AcDbArc
 50
35.685334712702
 51
90.0
  0
ARC
  5
387
330
24
100
AcDbEntity
  8
Layer1$C$L1$V_PV
 62
   211
100
AcDbCircle
 10
-75.6373397172
 20
401.9
 30
0.0
 40
0.5
100
AcDbArc
 50
270.0
 51
324.314665287298
  0
ARC
  5
388
330
24
100
AcDbEntity
  8
Layer1$C$L1$V_PV
 62
   211
100
AcDbCircle
 10
-75.15
 20
401.55
 30
0.0
 40
0.1
100
AcDbArc
 50
90.0
 51
144.314665287304
  0
ARC
  5
389
330
24
100
AcDbEntity
  8
Layer1$C$L1$V_PV
 62
   211
100
AcDbCircle
 10
-75.15
 20
400.25
 30
0.0
 40
0.1
100
AcDbArc
 50
215.685334712696
 51
270.0
  0
ARC
  5
38A
330
24
100
AcDbEntity
  8
Layer1$C$L1$V_PV
 62
   211
100
AcDbCircle
 10
-70.95
 20
400.65
 30
0.0
 40
0.5
100
AcDbArc
 50
270.0
 51
0.0
  0
ARC
  5
38B
330
24
100
AcDbEntity
  8
Layer1$C$L1$V_PV
 62
   211
100
AcDbCircle
 10
-70.95
 20
401.15
 30
0.0
 40
0.5
100
AcDbArc
 50
0.0
 51
90.0
  0
LINE
  5
38C
330
24
100
AcDbEntity
  8
Layer1$C$L1$V_PV
 62
   211
100
AcDbLine
 10
-76.45
 20
400.4
 30
0.0
 11
-75.6373397172
 21
400.4
 31
0.0
  0
LINE
  5
38D
330
24
100
AcDbEntity
  8
Layer1$C$L1$V_PV
 62
   211
100
AcDbLine
 10
-76.45
 20
401.4
 30
0.0
 11
-75.6373397172
 21
401.4
 31
0.0
  0
LINE
  5
38E
330
24
100
AcDbEntity
  8
Layer1$C$L1$V_PV
 62
   211
100
AcDbLine
 10
-75.15
 20
400.15
 30
0.0
 11
-70.95
 21
400.15
 31
0.0
  0
LINE
  5
38F
330
24
100
AcDbEntity
  8
Layer1$C$L1$V_PV
 62
   211
100
AcDbLine
 10
-75.15
 20
401.65
 30
0.0
 11
-70.95
 21
401.65
 31
0.0
  0
LINE
  5
390
330
24
100
AcDbEntity
  8
Layer1$C$L1$V_PV
 62
   211
100
AcDbLine
 10
-70.45
 20
401.15
 30
0.0
 11
-70.45
 21
400.65
 31
0.0
  0
LINE
  5
391
330
24
100
AcDbEntity
  8
Layer1$C$L1$V_PV
 62
   211
100
AcDbLine
 10
-70.45
 20
403.75
 30
0.0
 11
-70.45
 21
403.25
 31
0.0
  0
LINE
  5
392
330
24
100
AcDbEntity
  8
Layer1$C$L1$V_PV
 62
   211
100
AcDbLine
 10
-75.15
 20
404.25
 30
0.0
 11
-70.95
 21
404.25
 31
0.0
  0
LINE
  5
393
330
24
100
AcDbEntity
  8
Layer1$C$L1$V_PV
 62
   211
100
AcDbLine
 10
-75.15
 20
402.75
 30
0.0
 11
-70.95
 21
402.75
 31
0.0
  0
LINE
  5
394
330
24
100
AcDbEntity
  8
Layer1$C$L1$V_PV
 62
   211
100
AcDbLine
 10
-76.45
 20
404.0
 30
0.0
 11
-75.6373397172
 21
404.0
 31
0.0
  0
LINE
  5
395
330
24
100
AcDbEntity
  8
Layer1$C$L1$V_PV
 62
   211
100
AcDbLine
 10
-76.45
 20
403.0
 30
0.0
 11
-75.6373397172
 21
403.0
 31
0.0
  0
ARC
  5
396
330
24
100
AcDbEntity
  8
Layer1$C$L1$V_PV
 62
   211
100
AcDbCircle
 10
-70.95
 20
403.75
 30
0.0
 40
0.5
100
AcDbArc
 50
0.0
 51
90.0
  0
ARC
  5
397
330
24
100
AcDbEntity
  8
Layer1$C$L1$V_PV
 62
   211
100
AcDbCircle
 10
-70.95
 20
403.25
 30
0.0
 40
0.5
100
AcDbArc
 50
270.0
 51
0.0
  0
ARC
  5
398
330
24
100
AcDbEntity
  8
Layer1$C$L1$V_PV
 62
   211
100
AcDbCircle
 10
-75.15
 20
402.85
 30
0.0
 40
0.1
100
AcDbArc
 50
215.685334712696
 51
270.0
  0
ARC
  5
399
330
24
100
AcDbEntity
  8
Layer1$C$L1$V_PV
 62
   211
100
AcDbCircle
 10
-75.15
 20
404.15
 30
0.0
 40
0.1
100
AcDbArc
 50
90.0
 51
144.314665287304
  0
ARC
  5
39A
330
24
100
AcDbEntity
  8
Layer1$C$L1$V_PV
 62
   211
100
AcDbCircle
 10
-75.6373397172
 20
404.5
 30
0.0
 40
0.5
100
AcDbArc
 50
270.0
 51
324.314665287298
  0
ARC
  5
39B
330
24
100
AcDbEntity
  8
Layer1$C$L1$V_PV
 62
   211
100
AcDbCircle
 10
-75.6373397172
 20
402.5
 30
0.0
 40
0.5
100
AcDbArc
 50
35.685334712702
 51
90.0
  0
LINE
  5
39C
330
24
100
AcDbEntity
  8
Layer1$C$L1$V_PV
 62
   211
100
AcDbLine
 10
-71.6
 20
403.55
 30
0.0
 11
-71.6
 21
403.45
 31
0.0
  0
LINE
  5
39D
330
24
100
AcDbEntity
  8
Layer1$C$L1$V_PV
 62
   211
100
AcDbLine
 10
-73.45
 20
403.55
 30
0.0
 11
-73.45
 21
403.45
 31
0.0
  0
LINE
  5
39E
330
24
100
AcDbEntity
  8
Layer1$C$L1$V_PV
 62
   211
100
AcDbLine
 10
-73.25
 20
403.25
 30
0.0
 11
-71.8
 21
403.25
 31
0.0
  0
LINE
  5
39F
330
24
100
AcDbEntity
  8
Layer1$C$L1$V_PV
 62
   211
100
AcDbLine
 10
-73.25
 20
403.75
 30
0.0
 11
-71.8
 21
403.75
 31
0.0
  0
ARC
  5
3A0
330
24
100
AcDbEntity
  8
Layer1$C$L1$V_PV
 62
   211
100
AcDbCircle
 10
-73.25
 20
403.55
 30
0.0
 40
0.2
100
AcDbArc
 50
90.0
 51
180.0
  0
ARC
  5
3A1
330
24
100
AcDbEntity
  8
Layer1$C$L1$V_PV
 62
   211
100
AcDbCircle
 10
-73.25
 20
403.45
 30
0.0
 40
0.2
100
AcDbArc
 50
180.0
 51
270.0
  0
ARC
  5
3A2
330
24
100
AcDbEntity
  8
Layer1$C$L1$V_PV
 62
   211
100
AcDbCircle
 10
-71.8
 20
403.55
 30
0.0
 40
0.2
100
AcDbArc
 50
0.0
 51
90.0
  0
ARC
  5
3A3
330
24
100
AcDbEntity
  8
Layer1$C$L1$V_PV
 62
   211
100
AcDbCircle
 10
-71.8
 20
403.45
 30
0.0
 40
0.2
100
AcDbArc
 50
270.0
 51
0.0
  0
ARC
  5
3A4
330
24
100
AcDbEntity
  8
Layer1$C$L1$V_PV
 62
   211
100
AcDbCircle
 10
-71.8
 20
406.05
 30
0.0
 40
0.2
100
AcDbArc
 50
270.0
 51
0.0
  0
ARC
  5
3A5
330
24
100
AcDbEntity
  8
Layer1$C$L1$V_PV
 62
   211
100
AcDbCircle
 10
-71.8
 20
406.15
 30
0.0
 40
0.2
100
AcDbArc
 50
0.0
 51
90.0
  0
ARC
  5
3A6
330
24
100
AcDbEntity
  8
Layer1$C$L1$V_PV
 62
   211
100
AcDbCircle
 10
-73.25
 20
406.05
 30
0.0
 40
0.2
100
AcDbArc
 50
180.0
 51
270.0
  0
ARC
  5
3A7
330
24
100
AcDbEntity
  8
Layer1$C$L1$V_PV
 62
   211
100
AcDbCircle
 10
-73.25
 20
406.15
 30
0.0
 40
0.2
100
AcDbArc
 50
90.0
 51
180.0
  0
LINE
  5
3A8
330
24
100
AcDbEntity
  8
Layer1$C$L1$V_PV
 62
   211
100
AcDbLine
 10
-73.25
 20
406.35
 30
0.0
 11
-71.8
 21
406.35
 31
0.0
  0
LINE
  5
3A9
330
24
100
AcDbEntity
  8
Layer1$C$L1$V_PV
 62
   211
100
AcDbLine
 10
-73.25
 20
405.85
 30
0.0
 11
-71.8
 21
405.85
 31
0.0
  0
LINE
  5
3AA
330
24
100
AcDbEntity
  8
Layer1$C$L1$V_PV
 62
   211
100
AcDbLine
 10
-73.45
 20
406.15
 30
0.0
 11
-73.45
 21
406.05
 31
0.0
  0
LINE
  5
3AB
330
24
100
AcDbEntity
  8
Layer1$C$L1$V_PV
 62
   211
100
AcDbLine
 10
-71.6
 20
406.15
 30
0.0
 11
-71.6
 21
406.05
 31
0.0
  0
ARC
  5
3AC
330
24
100
AcDbEntity
  8
Layer1$C$L1$V_PV
 62
   211
100
AcDbCircle
 10
-75.6373397172
 20
405.1
 30
0.0
 40
0.5
100
AcDbArc
 50
35.685334712702
 51
90.0
  0
ARC
  5
3AD
330
24
100
AcDbEntity
  8
Layer1$C$L1$V_PV
 62
   211
100
AcDbCircle
 10
-75.6373397172
 20
407.1
 30
0.0
 40
0.5
100
AcDbArc
 50
270.0
 51
324.314665287298
  0
ARC
  5
3AE
330
24
100
AcDbEntity
  8
Layer1$C$L1$V_PV
 62
   211
100
AcDbCircle
 10
-75.15
 20
406.75
 30
0.0
 40
0.1
100
AcDbArc
 50
90.0
 51
144.314665287304
  0
ARC
  5
3AF
330
24
100
AcDbEntity
  8
Layer1$C$L1$V_PV
 62
   211
100
AcDbCircle
 10
-75.15
 20
405.45
 30
0.0
 40
0.1
100
AcDbArc
 50
215.685334712696
 51
270.0
  0
ARC
  5
3B0
330
24
100
AcDbEntity
  8
Layer1$C$L1$V_PV
 62
   211
100
AcDbCircle
 10
-70.95
 20
405.85
 30
0.0
 40
0.5
100
AcDbArc
 50
270.0
 51
0.0
  0
ARC
  5
3B1
330
24
100
AcDbEntity
  8
Layer1$C$L1$V_PV
 62
   211
100
AcDbCircle
 10
-70.95
 20
406.35
 30
0.0
 40
0.5
100
AcDbArc
 50
0.0
 51
90.0
  0
LINE
  5
3B2
330
24
100
AcDbEntity
  8
Layer1$C$L1$V_PV
 62
   211
100
AcDbLine
 10
-76.45
 20
405.6
 30
0.0
 11
-75.6373397172
 21
405.6
 31
0.0
  0
LINE
  5
3B3
330
24
100
AcDbEntity
  8
Layer1$C$L1$V_PV
 62
   211
100
AcDbLine
 10
-76.45
 20
406.6
 30
0.0
 11
-75.6373397172
 21
406.6
 31
0.0
  0
LINE
  5
3B4
330
24
100
AcDbEntity
  8
Layer1$C$L1$V_PV
 62
   211
100
AcDbLine
 10
-75.15
 20
405.35
 30
0.0
 11
-70.95
 21
405.35
 31
0.0
  0
LINE
  5
3B5
330
24
100
AcDbEntity
  8
Layer1$C$L1$V_PV
 62
   211
100
AcDbLine
 10
-75.15
 20
406.85
 30
0.0
 11
-70.95
 21
406.85
 31
0.0
  0
LINE
  5
3B6
330
24
100
AcDbEntity
  8
Layer1$C$L1$V_PV
 62
   211
100
AcDbLine
 10
-70.45
 20
406.35
 30
0.0
 11
-70.45
 21
405.85
 31
0.0
  0
LINE
  5
3B7
330
24
100
AcDbEntity
  8
Layer1$C$L1$V_PV
 62
   211
100
AcDbLine
 10
-74.45
 20
414.45
 30
0.0
 11
-74.15
 21
414.45
 31
0.0
  0
LINE
  5
3B8
330
24
100
AcDbEntity
  8
Layer1$C$L1$V_PV
 62
   211
100
AcDbLine
 10
-74.45
 20
415.05
 30
0.0
 11
-74.15
 21
415.05
 31
0.0
  0
LINE
  5
3B9
330
24
100
AcDbEntity
  8
Layer1$C$L1$V_PV
 62
   211
100
AcDbLine
 10
-74.45
 20
415.0398979486
 30
0.0
 11
-74.45
 21
414.4601020514
 31
0.0
  0
LINE
  5
3BA
330
24
100
AcDbEntity
  8
Layer1$C$L1$V_PV
 62
   211
100
AcDbLine
 10
-75.45
 20
416.9
 30
0.0
 11
-75.45
 21
413.0
 31
0.0
  0
ARC
  5
3BB
330
24
100
AcDbEntity
  8
Layer1$C$L1$V_PV
 62
   211
100
AcDbCircle
 10
-75.25
 20
413.65
 30
0.0
 40
0.2
100
AcDbArc
 50
180.0
 51
270.0
  0
ARC
  5
3BC
330
24
100
AcDbEntity
  8
Layer1$C$L1$V_PV
 62
   211
100
AcDbCircle
 10
-75.25
 20
415.85
 30
0.0
 40
0.2
100
AcDbArc
 50
90.0
 51
180.0
  0
ARC
  5
3BD
330
24
100
AcDbEntity
  8
Layer1$C$L1$V_PV
 62
   211
100
AcDbCircle
 10
-75.15
 20
415.0398979486
 30
0.0
 40
1.0
100
AcDbArc
 50
0.0
 51
78.4630409672
  0
ARC
  5
3BE
330
24
100
AcDbEntity
  8
Layer1$C$L1$V_PV
 62
   211
100
AcDbCircle
 10
-75.15
 20
414.4601020514
 30
0.0
 40
1.0
100
AcDbArc
 50
281.5369590328
 51
0.0
  0
LINE
  5
3BF
330
24
100
AcDbEntity
  8
Layer1$C$L1$V_PV
 62
   211
100
AcDbLine
 10
-74.45
 20
379.5398979486
 30
0.0
 11
-74.45
 21
378.9601020514
 31
0.0
  0
LINE
  5
3C0
330
24
100
AcDbEntity
  8
Layer1$C$L1$V_PV
 62
   211
100
AcDbLine
 10
-74.45
 20
379.55
 30
0.0
 11
-74.15
 21
379.55
 31
0.0
  0
LINE
  5
3C1
330
24
100
AcDbEntity
  8
Layer1$C$L1$V_PV
 62
   211
100
AcDbLine
 10
-74.45
 20
378.95
 30
0.0
 11
-74.150051027
 21
378.95
 31
0.0
  0
LINE
  5
3C2
330
24
100
AcDbEntity
  8
Layer1$C$L1$V_PV
 62
   211
100
AcDbLine
 10
-75.45
 20
377.1
 30
0.0
 11
-75.45
 21
381.0
 31
0.0
  0
ARC
  5
3C3
330
24
100
AcDbEntity
  8
Layer1$C$L1$V_PV
 62
   211
100
AcDbCircle
 10
-75.25
 20
378.15
 30
0.0
 40
0.2
100
AcDbArc
 50
180.0
 51
270.0
  0
ARC
  5
3C4
330
24
100
AcDbEntity
  8
Layer1$C$L1$V_PV
 62
   211
100
AcDbCircle
 10
-75.25
 20
380.35
 30
0.0
 40
0.2
100
AcDbArc
 50
90.0
 51
180.0
  0
ARC
  5
3C5
330
24
100
AcDbEntity
  8
Layer1$C$L1$V_PV
 62
   211
100
AcDbCircle
 10
-75.15
 20
378.9601020514
 30
0.0
 40
1.0
100
AcDbArc
 50
281.5369590328
 51
0.0
  0
ARC
  5
3C6
330
24
100
AcDbEntity
  8
Layer1$C$L1$V_PV
 62
   211
100
AcDbCircle
 10
-75.15
 20
379.5398979486
 30
0.0
 40
1.0
100
AcDbArc
 50
0.0
 51
78.4630409672
  0
LINE
  5
3C7
330
24
100
AcDbEntity
  8
Layer1$C$L1$V_PV
 62
   211
100
AcDbLine
 10
-74.15
 20
379.5398979486
 30
0.0
 11
-74.15
 21
378.9601020514
 31
0.0
  0
LINE
  5
3C8
330
24
100
AcDbEntity
  8
Layer1$C$L1$V_PV
 62
   211
100
AcDbLine
 10
-74.15
 20
415.0398979486
 30
0.0
 11
-74.15
 21
414.4601020514
 31
0.0
  0
ARC
  5
3C9
330
24
100
AcDbEntity
  8
Layer1$C$L1$V_PV
 62
   211
100
AcDbCircle
 10
-75.25
 20
414.95
 30
0.0
 40
1.5
100
AcDbArc
 50
270.0
 51
281.5369590328
  0
ARC
  5
3CA
330
24
100
AcDbEntity
  8
Layer1$C$L1$V_PV
 62
   211
100
AcDbCircle
 10
-75.25
 20
414.55
 30
0.0
 40
1.5
100
AcDbArc
 50
78.4630409672
 51
90.0
  0
ARC
  5
3CB
330
24
100
AcDbEntity
  8
Layer1$C$L1$V_PV
 62
   211
100
AcDbCircle
 10
-75.25
 20
379.45
 30
0.0
 40
1.5
100
AcDbArc
 50
270.0
 51
281.5369590328
  0
ARC
  5
3CC
330
24
100
AcDbEntity
  8
Layer1$C$L1$V_PV
 62
   211
100
AcDbCircle
 10
-75.25
 20
379.05
 30
0.0
 40
1.5
100
AcDbArc
 50
78.4630409672
 51
90.0
  0
ARC
  5
3CD
330
24
100
AcDbEntity
  8
Layer1$C$L1$V_PV
 62
   211
100
AcDbCircle
 10
-75.95
 20
381.0
 30
0.0
 40
0.5
100
AcDbArc
 50
0.0
 51
90.0
  0
ARC
  5
3CE
330
24
100
AcDbEntity
  8
Layer1$C$L1$V_PV
 62
   211
100
AcDbCircle
 10
-75.55
 20
377.1
 30
0.0
 40
0.1
100
AcDbArc
 50
270.0
 51
0.0
  0
ARC
  5
3CF
330
24
100
AcDbEntity
  8
Layer1$C$L1$V_PV
 62
   211
100
AcDbCircle
 10
-75.55
 20
416.9
 30
0.0
 40
0.1
100
AcDbArc
 50
0.0
 51
90.0
  0
ARC
  5
3D0
330
24
100
AcDbEntity
  8
Layer1$C$L1$V_PV
 62
   211
100
AcDbCircle
 10
-75.95
 20
413.0
 30
0.0
 40
0.5
100
AcDbArc
 50
270.0
 51
0.0
  0
ARC
  5
3D1
330
24
100
AcDbEntity
  8
Layer1$C$L1$V_PV
 62
   211
100
AcDbCircle
 10
-75.95
 20
382.0
 30
0.0
 40
0.5
100
AcDbArc
 50
180.0
 51
270.0
  0
ARC
  5
3D2
330
24
100
AcDbEntity
  8
Layer1$C$L1$V_PV
 62
   211
100
AcDbCircle
 10
-75.95
 20
412.0
 30
0.0
 40
0.5
100
AcDbArc
 50
90.0
 51
180.0
  0
LINE
  5
3D3
330
24
100
AcDbEntity
  8
Layer1$C$L1$V_PV
 62
   211
100
AcDbLine
 10
-76.45
 20
412.0
 30
0.0
 11
-76.45
 21
382.0
 31
0.0
  0
LINE
  5
3D4
330
24
100
AcDbEntity
  8
Layer1$C$L1$V_PV
 62
   211
100
AcDbLine
 10
-80.95
 20
377.0
 30
0.0
 11
-80.95
 21
382.0
 31
0.0
  0
LINE
  5
3D5
330
24
100
AcDbEntity
  8
Layer1$C$L1$V_PV
 62
   211
100
AcDbLine
 10
-80.95
 20
417.0
 30
0.0
 11
-80.95
 21
412.0
 31
0.0
  0
CIRCLE
  5
3D6
330
24
100
AcDbEntity
  8
Layer1$C$L1$V_PV
  6
DASH
 62
   211
100
AcDbCircle
 10
-161.55
 20
371.25
 30
0.0
 40
3.0
  0
LINE
  5
3D7
330
24
100
AcDbEntity
  8
Layer1$C$L1$V_PV
 62
   211
100
AcDbLine
 10
-227.55
 20
349.0
 30
0.0
 11
-227.55
 21
445.0
 31
0.0
  0
LINE
  5
3D8
330
24
100
AcDbEntity
  8
Layer1$C$L1$V_PV
 62
   211
100
AcDbLine
 10
-155.55
 20
445.0
 30
0.0
 11
-155.55
 21
349.0
 31
0.0
  0
LINE
  5
3D9
330
24
100
AcDbEntity
  8
Layer1$C$L1$V_PV
  6
DASH
 62
   211
100
AcDbLine
 10
-177.388028571
 20
396.65
 30
0.0
 11
-181.3113038916
 21
374.4
 31
0.0
  0
LINE
  5
3DA
330
24
100
AcDbEntity
  8
Layer1$C$L1$V_PV
  6
DASH
 62
   211
100
AcDbLine
 10
-205.8354003156
 20
396.65
 30
0.0
 11
-209.7586756364
 21
374.4
 31
0.0
  0
LINE
  5
3DB
330
24
100
AcDbEntity
  8
Layer1$C$L1$V_PV
  6
DASH
 62
   211
100
AcDbLine
 10
-209.7586756364
 20
374.4
 30
0.0
 11
-208.9429401776
 21
373.2830192014
 31
0.0
  0
LINE
  5
3DC
330
24
100
AcDbEntity
  8
Layer1$C$L1$V_PV
  6
DASH
 62
   211
100
AcDbLine
 10
-184.3435859674
 20
371.6
 30
0.0
 11
-183.0846616724
 21
372.762486846
 31
0.0
  0
LINE
  5
3DD
330
24
100
AcDbEntity
  8
Layer1$C$L1$V_PV
  6
DASH
 62
   211
100
AcDbLine
 10
-198.7564140326
 20
422.4
 30
0.0
 11
-200.0153383276
 21
421.237513154
 31
0.0
  0
LINE
  5
3DE
330
24
100
AcDbEntity
  8
Layer1$C$L1$V_PV
  6
DASH
 62
   211
100
AcDbLine
 10
-173.3413243636
 20
419.6
 30
0.0
 11
-174.1570598224
 21
420.7169807986
 31
0.0
  0
LINE
  5
3DF
330
24
100
AcDbEntity
  8
Layer1$C$L1$V_PV
  6
DASH
 62
   211
100
AcDbLine
 10
-198.7564140326
 20
422.4
 30
0.0
 11
-175.3861753474
 21
422.4
 31
0.0
  0
LINE
  5
3E0
330
24
100
AcDbEntity
  8
Layer1$C$L1$V_PV
  6
DASH
 62
   211
100
AcDbLine
 10
-207.7138246526
 20
371.6
 30
0.0
 11
-184.3435859674
 21
371.6
 31
0.0
  0
LINE
  5
3E1
330
24
100
AcDbEntity
  8
Layer1$C$L1$V_PV
  6
DASH
 62
   211
100
AcDbLine
 10
-201.7886961084
 20
419.6
 30
0.0
 11
-205.711971429
 21
397.35
 31
0.0
  0
LINE
  5
3E2
330
24
100
AcDbEntity
  8
Layer1$C$L1$V_PV
  6
DASH
 62
   211
100
AcDbLine
 10
-173.3413243636
 20
419.6
 30
0.0
 11
-177.2645996844
 21
397.35
 31
0.0
  0
LINE
  5
3E3
330
24
100
AcDbEntity
  8
Layer1$C$L1$V_PV
  6
DASH
 62
   211
100
AcDbLine
 10
-174.5704398886
 20
421.2830192014
 30
0.0
 11
-175.3861753474
 21
422.4
 31
0.0
  0
LINE
  5
3E4
330
24
100
AcDbEntity
  8
Layer1$C$L1$V_PV
  6
DASH
 62
   211
100
AcDbLine
 10
-200.5297718134
 20
420.762486846
 30
0.0
 11
-201.7886961084
 21
419.6
 31
0.0
  0
LINE
  5
3E5
330
24
100
AcDbEntity
  8
Layer1$C$L1$V_PV
  6
DASH
 62
   211
100
AcDbLine
 10
-208.5295601114
 20
372.7169807986
 30
0.0
 11
-207.7138246526
 21
371.6
 31
0.0
  0
LINE
  5
3E6
330
24
100
AcDbEntity
  8
Layer1$C$L1$V_PV
  6
DASH
 62
   211
100
AcDbLine
 10
-182.5702281866
 20
373.237513154
 30
0.0
 11
-181.3113038916
 21
374.4
 31
0.0
  0
LINE
  5
3E7
330
24
100
AcDbEntity
  8
Layer1$C$L1$V_PV
  6
DASH
 62
   211
100
AcDbLine
 10
-196.6414648378
 20
417.4
 30
0.0
 11
-179.3536835916
 21
417.4
 31
0.0
  0
LINE
  5
3E8
330
24
100
AcDbEntity
  8
Layer1$C$L1$V_PV
  6
DASH
 62
   211
100
AcDbLine
 10
-204.199515074
 20
377.133713814
 30
0.0
 11
-201.2104102054
 21
394.0857699122
 31
0.0
  0
LINE
  5
3E9
330
24
100
AcDbEntity
  8
Layer1$C$L1$V_PV
  6
DASH
 62
   211
100
AcDbLine
 10
-185.9213255682
 20
377.0491202936
 30
0.0
 11
-182.9346913838
 21
393.9871644456
 31
0.0
  0
LINE
  5
3EA
330
24
100
AcDbEntity
  8
Layer1$C$L1$V_PV
  6
DASH
 62
   211
100
AcDbLine
 10
-200.1653086162
 20
400.0128355544
 30
0.0
 11
-203.3387524548
 21
397.35
 31
0.0
  0
LINE
  5
3EB
330
24
100
AcDbEntity
  8
Layer1$C$L1$V_PV
  6
DASH
 62
   211
100
AcDbLine
 10
-179.7379452738
 20
397.35
 30
0.0
 11
-181.8895897946
 21
399.9142300878
 31
0.0
  0
LINE
  5
3EC
330
24
100
AcDbEntity
  8
Layer1$C$L1$V_PV
  6
DASH
 62
   211
100
AcDbLine
 10
-203.3620547262
 20
396.65
 30
0.0
 11
-201.2104102054
 21
394.0857699122
 31
0.0
  0
LINE
  5
3ED
330
24
100
AcDbEntity
  8
Layer1$C$L1$V_PV
  6
DASH
 62
   211
100
AcDbLine
 10
-179.7612475452
 20
396.65
 30
0.0
 11
-182.9346913838
 21
393.9871644456
 31
0.0
  0
LINE
  5
3EE
330
24
100
AcDbEntity
  8
Layer1$C$L1$V_PV
  6
DASH
 62
   211
100
AcDbLine
 10
-200.6442054166
 20
394.5
 30
0.0
 11
-183.4125244482
 21
394.5
 31
0.0
  0
LINE
  5
3EF
330
24
100
AcDbEntity
  8
Layer1$C$L1$V_PV
  6
DASH
 62
   211
100
AcDbLine
 10
-199.6874755518
 20
399.5
 30
0.0
 11
-182.4557945834
 21
399.5
 31
0.0
  0
LINE
  5
3F0
330
24
100
AcDbEntity
  8
Layer1$C$L1$V_PV
  6
DASH
 62
   211
100
AcDbLine
 10
-199.6874755518
 20
399.5
 30
0.0
 11
-202.7109270656
 21
396.96302295
 31
0.0
  0
LINE
  5
3F1
330
24
100
AcDbEntity
  8
Layer1$C$L1$V_PV
  6
DASH
 62
   211
100
AcDbLine
 10
-180.3890729344
 20
397.03697705
 30
0.0
 11
-182.4557945834
 21
399.5
 31
0.0
  0
LINE
  5
3F2
330
24
100
AcDbEntity
  8
Layer1$C$L1$V_PV
  6
DASH
 62
   211
100
AcDbLine
 10
-180.3890729344
 20
397.03697705
 30
0.0
 11
-183.4125244482
 21
394.5
 31
0.0
  0
LINE
  5
3F3
330
24
100
AcDbEntity
  8
Layer1$C$L1$V_PV
  6
DASH
 62
   211
100
AcDbLine
 10
-202.7109270656
 20
396.96302295
 30
0.0
 11
-200.6442054166
 21
394.5
 31
0.0
  0
LINE
  5
3F4
330
24
100
AcDbEntity
  8
Layer1$C$L1$V_PV
  6
DASH
 62
   211
100
AcDbLine
 10
-179.3536835916
 20
417.4
 30
0.0
 11
-174.5704398886
 21
421.2830192014
 31
0.0
  0
LINE
  5
3F5
330
24
100
AcDbEntity
  8
Layer1$C$L1$V_PV
  6
DASH
 62
   211
100
AcDbLine
 10
-178.900484926
 20
416.866286186
 30
0.0
 11
-174.1570598224
 21
420.7169807986
 31
0.0
  0
LINE
  5
3F6
330
24
100
AcDbEntity
  8
Layer1$C$L1$V_PV
  6
DASH
 62
   211
100
AcDbLine
 10
-196.6414648378
 20
417.4
 30
0.0
 11
-200.0153383276
 21
421.237513154
 31
0.0
  0
LINE
  5
3F7
330
24
100
AcDbEntity
  8
Layer1$C$L1$V_PV
  6
DASH
 62
   211
100
AcDbLine
 10
-197.1786744318
 20
416.9508797064
 30
0.0
 11
-200.5297718134
 21
420.762486846
 31
0.0
  0
LINE
  5
3F8
330
24
100
AcDbEntity
  8
Layer1$C$L1$V_PV
  6
DASH
 62
   211
100
AcDbLine
 10
-208.5295601114
 20
372.7169807986
 30
0.0
 11
-203.7463164084
 21
376.6
 31
0.0
  0
LINE
  5
3F9
330
24
100
AcDbEntity
  8
Layer1$C$L1$V_PV
  6
DASH
 62
   211
100
AcDbLine
 10
-208.9429401776
 20
373.2830192014
 30
0.0
 11
-204.199515074
 21
377.133713814
 31
0.0
  0
LINE
  5
3FA
330
24
100
AcDbEntity
  8
Layer1$C$L1$V_PV
  6
DASH
 62
   211
100
AcDbLine
 10
-182.5702281866
 20
373.237513154
 30
0.0
 11
-185.9213255682
 21
377.0491202936
 31
0.0
  0
LINE
  5
3FB
330
24
100
AcDbEntity
  8
Layer1$C$L1$V_PV
  6
DASH
 62
   211
100
AcDbLine
 10
-183.0846616724
 20
372.762486846
 30
0.0
 11
-186.4585351622
 21
376.6
 31
0.0
  0
LINE
  5
3FC
330
24
100
AcDbEntity
  8
Layer1$C$L1$V_PV
  6
DASH
 62
   211
100
AcDbLine
 10
-200.1653086162
 20
400.0128355544
 30
0.0
 11
-197.1786744318
 21
416.9508797064
 31
0.0
  0
LINE
  5
3FD
330
24
100
AcDbEntity
  8
Layer1$C$L1$V_PV
  6
DASH
 62
   211
100
AcDbLine
 10
-181.8895897946
 20
399.9142300878
 30
0.0
 11
-178.900484926
 21
416.866286186
 31
0.0
  0
LINE
  5
3FE
330
24
100
AcDbEntity
  8
Layer1$C$L1$V_PV
  6
DASH
 62
   211
100
AcDbLine
 10
-203.7463164084
 20
376.6
 30
0.0
 11
-186.4585351622
 21
376.6
 31
0.0
  0
LINE
  5
3FF
330
24
100
AcDbEntity
  8
Layer1$C$L1$V_PV
  6
DASH
 62
   211
100
AcDbLine
 10
-205.8354003156
 20
396.65
 30
0.0
 11
-203.3620547262
 21
396.65
 31
0.0
  0
LINE
  5
400
330
24
100
AcDbEntity
  8
Layer1$C$L1$V_PV
  6
DASH
 62
   211
100
AcDbLine
 10
-205.711971429
 20
397.35
 30
0.0
 11
-203.3387524548
 21
397.35
 31
0.0
  0
LINE
  5
401
330
24
100
AcDbEntity
  8
Layer1$C$L1$V_PV
  6
DASH
 62
   211
100
AcDbLine
 10
-179.7379452738
 20
397.35
 30
0.0
 11
-177.2645996844
 21
397.35
 31
0.0
  0
LINE
  5
402
330
24
100
AcDbEntity
  8
Layer1$C$L1$V_PV
  6
DASH
 62
   211
100
AcDbLine
 10
-179.7612475452
 20
396.65
 30
0.0
 11
-177.388028571
 21
396.65
 31
0.0
  0
ARC
  5
403
330
24
100
AcDbEntity
  8
Layer1$C$L1$V_PV
 62
   211
100
AcDbCircle
 10
-106.274213284
 20
443.9789400858
 30
0.0
 40
1.5
100
AcDbArc
 50
54.5155625387
 51
127.658440422799
  0
LINE
  5
404
330
24
100
AcDbEntity
  8
Layer1$C$L1$V_PV
 62
   211
100
AcDbLine
 10
-107.1906427304
 20
445.166440431
 30
0.0
 11
-109.35
 21
443.5
 31
0.0
  0
LINE
  5
405
330
24
100
AcDbEntity
  8
Layer1$C$L1$V_PV
 62
   211
100
AcDbLine
 10
-110.35
 20
444.5
 30
0.0
 11
-109.35
 21
443.5
 31
0.0
  0
LINE
  5
406
330
24
100
AcDbEntity
  8
Layer1$C$L1$V_PV
 62
   211
100
AcDbLine
 10
-109.35
 20
443.5
 30
0.0
 11
-102.7054417118
 21
443.5
 31
0.0
  0
LINE
  5
407
330
24
100
AcDbEntity
  8
Layer1$C$L1$V_PV
 62
   211
100
AcDbLine
 10
-106.85
 20
446.6
 30
0.0
 11
-106.85
 21
447.0
 31
0.0
  0
LINE
  5
408
330
24
100
AcDbEntity
  8
Layer1$C$L1$V_PV
 62
   211
100
AcDbLine
 10
-107.55
 20
446.2
 30
0.0
 11
-107.55
 21
446.6
 31
0.0
  0
LINE
  5
409
330
24
100
AcDbEntity
  8
Layer1$C$L1$V_PV
 62
   211
100
AcDbLine
 10
-108.25
 20
445.8
 30
0.0
 11
-108.25
 21
446.2
 31
0.0
  0
LINE
  5
40A
330
24
100
AcDbEntity
  8
Layer1$C$L1$V_PV
 62
   211
100
AcDbLine
 10
-108.95
 20
445.4
 30
0.0
 11
-108.95
 21
445.8
 31
0.0
  0
LINE
  5
40B
330
24
100
AcDbEntity
  8
Layer1$C$L1$V_PV
 62
   211
100
AcDbLine
 10
-109.65
 20
445.0
 30
0.0
 11
-109.65
 21
445.4
 31
0.0
  0
LINE
  5
40C
330
24
100
AcDbEntity
  8
Layer1$C$L1$V_PV
 62
   211
100
AcDbLine
 10
-106.85
 20
447.0
 30
0.0
 11
-105.7331239518
 21
447.0
 31
0.0
  0
LINE
  5
40D
330
24
100
AcDbEntity
  8
Layer1$C$L1$V_PV
 62
   211
100
AcDbLine
 10
-107.55
 20
446.6
 30
0.0
 11
-106.85
 21
446.6
 31
0.0
  0
LINE
  5
40E
330
24
100
AcDbEntity
  8
Layer1$C$L1$V_PV
 62
   211
100
AcDbLine
 10
-108.25
 20
446.2
 30
0.0
 11
-107.55
 21
446.2
 31
0.0
  0
LINE
  5
40F
330
24
100
AcDbEntity
  8
Layer1$C$L1$V_PV
 62
   211
100
AcDbLine
 10
-108.95
 20
445.8
 30
0.0
 11
-108.25
 21
445.8
 31
0.0
  0
LINE
  5
410
330
24
100
AcDbEntity
  8
Layer1$C$L1$V_PV
 62
   211
100
AcDbLine
 10
-109.65
 20
445.4
 30
0.0
 11
-108.95
 21
445.4
 31
0.0
  0
LINE
  5
411
330
24
100
AcDbEntity
  8
Layer1$C$L1$V_PV
 62
   211
100
AcDbLine
 10
-110.35
 20
445.0
 30
0.0
 11
-109.65
 21
445.0
 31
0.0
  0
LINE
  5
412
330
24
100
AcDbEntity
  8
Layer1$C$L1$V_PV
 62
   211
100
AcDbLine
 10
-110.35
 20
444.5
 30
0.0
 11
-110.35
 21
445.0
 31
0.0
  0
LINE
  5
413
330
24
100
AcDbEntity
  8
Layer1$C$L1$V_PV
 62
   211
100
AcDbLine
 10
-101.15
 20
443.0
 30
0.0
 11
-111.15
 21
443.0
 31
0.0
  0
ARC
  5
414
330
24
100
AcDbEntity
  8
Layer1$C$L1$V_PV
 62
   211
100
AcDbCircle
 10
-89.15
 20
468.0
 30
0.0
 40
28.0
100
AcDbArc
 50
234.5155625387
 51
243.2344994232
  0
ARC
  5
415
330
24
100
AcDbEntity
  8
Layer1$C$L1$V_PV
 62
   211
100
AcDbCircle
 10
-89.15
 20
472.0
 30
0.0
 40
30.0
100
AcDbArc
 50
236.4426902381
 51
270.0
  0
LINE
  5
416
330
24
100
AcDbEntity
  8
Layer1$C$L1$V_PV
 62
   211
100
AcDbLine
 10
-81.15
 20
441.0
 30
0.0
 11
-81.15
 21
442.0
 31
0.0
  0
LINE
  5
417
330
24
100
AcDbEntity
  8
Layer1$C$L1$V_PV
 62
   211
100
AcDbLine
 10
-96.15
 20
442.0
 30
0.0
 11
-95.15
 21
442.0
 31
0.0
  0
LINE
  5
418
330
24
100
AcDbEntity
  8
Layer1$C$L1$V_PV
 62
   211
100
AcDbLine
 10
-108.15
 20
442.0
 30
0.0
 11
-107.15
 21
442.0
 31
0.0
  0
LINE
  5
419
330
24
100
AcDbEntity
  8
Layer1$C$L1$V_PV
 62
   211
100
AcDbLine
 10
-101.15
 20
443.0
 30
0.0
 11
-96.15
 21
442.0
 31
0.0
  0
LINE
  5
41A
330
24
100
AcDbEntity
  8
Layer1$C$L1$V_PV
 62
   211
100
AcDbLine
 10
-107.15
 20
441.0
 30
0.0
 11
-107.15
 21
442.0
 31
0.0
  0
LINE
  5
41B
330
24
100
AcDbEntity
  8
Layer1$C$L1$V_PV
 62
   211
100
AcDbLine
 10
-96.15
 20
441.0
 30
0.0
 11
-96.15
 21
442.0
 31
0.0
  0
LINE
  5
41C
330
24
100
AcDbEntity
  8
Layer1$C$L1$V_PV
 62
   211
100
AcDbLine
 10
-96.15
 20
353.0
 30
0.0
 11
-96.15
 21
352.0
 31
0.0
  0
LINE
  5
41D
330
24
100
AcDbEntity
  8
Layer1$C$L1$V_PV
 62
   211
100
AcDbLine
 10
-107.15
 20
353.0
 30
0.0
 11
-107.15
 21
352.0
 31
0.0
  0
LINE
  5
41E
330
24
100
AcDbEntity
  8
Layer1$C$L1$V_PV
 62
   211
100
AcDbLine
 10
-101.15
 20
351.0
 30
0.0
 11
-96.15
 21
352.0
 31
0.0
  0
LINE
  5
41F
330
24
100
AcDbEntity
  8
Layer1$C$L1$V_PV
 62
   211
100
AcDbLine
 10
-108.15
 20
352.0
 30
0.0
 11
-107.15
 21
352.0
 31
0.0
  0
LINE
  5
420
330
24
100
AcDbEntity
  8
Layer1$C$L1$V_PV
 62
   211
100
AcDbLine
 10
-96.15
 20
352.0
 30
0.0
 11
-95.15
 21
352.0
 31
0.0
  0
LINE
  5
421
330
24
100
AcDbEntity
  8
Layer1$C$L1$V_PV
 62
   211
100
AcDbLine
 10
-81.15
 20
353.0
 30
0.0
 11
-81.15
 21
352.0
 31
0.0
  0
ARC
  5
422
330
24
100
AcDbEntity
  8
Layer1$C$L1$V_PV
 62
   211
100
AcDbCircle
 10
-89.15
 20
322.0
 30
0.0
 40
30.0
100
AcDbArc
 50
90.0
 51
123.5573097619
  0
ARC
  5
423
330
24
100
AcDbEntity
  8
Layer1$C$L1$V_PV
 62
   211
100
AcDbCircle
 10
-89.15
 20
326.0
 30
0.0
 40
28.0
100
AcDbArc
 50
116.7655005768
 51
125.4844374613
  0
LINE
  5
424
330
24
100
AcDbEntity
  8
Layer1$C$L1$V_PV
 62
   211
100
AcDbLine
 10
-101.15
 20
351.0
 30
0.0
 11
-111.15
 21
351.0
 31
0.0
  0
LINE
  5
425
330
24
100
AcDbEntity
  8
Layer1$C$L1$V_PV
 62
   211
100
AcDbLine
 10
-110.35
 20
349.5
 30
0.0
 11
-110.35
 21
349.0
 31
0.0
  0
LINE
  5
426
330
24
100
AcDbEntity
  8
Layer1$C$L1$V_PV
 62
   211
100
AcDbLine
 10
-110.35
 20
349.0
 30
0.0
 11
-109.65
 21
349.0
 31
0.0
  0
LINE
  5
427
330
24
100
AcDbEntity
  8
Layer1$C$L1$V_PV
 62
   211
100
AcDbLine
 10
-109.65
 20
348.6
 30
0.0
 11
-108.95
 21
348.6
 31
0.0
  0
LINE
  5
428
330
24
100
AcDbEntity
  8
Layer1$C$L1$V_PV
 62
   211
100
AcDbLine
 10
-108.95
 20
348.2
 30
0.0
 11
-108.25
 21
348.2
 31
0.0
  0
LINE
  5
429
330
24
100
AcDbEntity
  8
Layer1$C$L1$V_PV
 62
   211
100
AcDbLine
 10
-108.25
 20
347.8
 30
0.0
 11
-107.55
 21
347.8
 31
0.0
  0
LINE
  5
42A
330
24
100
AcDbEntity
  8
Layer1$C$L1$V_PV
 62
   211
100
AcDbLine
 10
-107.55
 20
347.4
 30
0.0
 11
-106.85
 21
347.4
 31
0.0
  0
LINE
  5
42B
330
24
100
AcDbEntity
  8
Layer1$C$L1$V_PV
 62
   211
100
AcDbLine
 10
-106.85
 20
347.0
 30
0.0
 11
-105.7331239518
 21
347.0
 31
0.0
  0
LINE
  5
42C
330
24
100
AcDbEntity
  8
Layer1$C$L1$V_PV
 62
   211
100
AcDbLine
 10
-109.65
 20
349.0
 30
0.0
 11
-109.65
 21
348.6
 31
0.0
  0
LINE
  5
42D
330
24
100
AcDbEntity
  8
Layer1$C$L1$V_PV
 62
   211
100
AcDbLine
 10
-108.95
 20
348.6
 30
0.0
 11
-108.95
 21
348.2
 31
0.0
  0
LINE
  5
42E
330
24
100
AcDbEntity
  8
Layer1$C$L1$V_PV
 62
   211
100
AcDbLine
 10
-108.25
 20
348.2
 30
0.0
 11
-108.25
 21
347.8
 31
0.0
  0
LINE
  5
42F
330
24
100
AcDbEntity
  8
Layer1$C$L1$V_PV
 62
   211
100
AcDbLine
 10
-107.55
 20
347.8
 30
0.0
 11
-107.55
 21
347.4
 31
0.0
  0
LINE
  5
430
330
24
100
AcDbEntity
  8
Layer1$C$L1$V_PV
 62
   211
100
AcDbLine
 10
-106.85
 20
347.4
 30
0.0
 11
-106.85
 21
347.0
 31
0.0
  0
LINE
  5
431
330
24
100
AcDbEntity
  8
Layer1$C$L1$V_PV
 62
   211
100
AcDbLine
 10
-109.35
 20
350.5
 30
0.0
 11
-102.7054417118
 21
350.5
 31
0.0
  0
LINE
  5
432
330
24
100
AcDbEntity
  8
Layer1$C$L1$V_PV
 62
   211
100
AcDbLine
 10
-110.35
 20
349.5
 30
0.0
 11
-109.35
 21
350.5
 31
0.0
  0
LINE
  5
433
330
24
100
AcDbEntity
  8
Layer1$C$L1$V_PV
 62
   211
100
AcDbLine
 10
-107.1906427304
 20
348.833559569
 30
0.0
 11
-109.35
 21
350.5
 31
0.0
  0
ARC
  5
434
330
24
100
AcDbEntity
  8
Layer1$C$L1$V_PV
 62
   211
100
AcDbCircle
 10
-106.274213284
 20
350.0210599142
 30
0.0
 40
1.5
100
AcDbArc
 50
232.341559577201
 51
305.4844374613
  0
LINE
  5
435
330
24
100
AcDbEntity
  8
Layer1$C$L1$V_PV
 62
   211
100
AcDbLine
 10
-81.15
 20
417.0
 30
0.0
 11
-75.55
 21
417.0
 31
0.0
  0
LINE
  5
436
330
24
100
AcDbEntity
  8
Layer1$C$L1$V_PV
 62
   211
100
AcDbLine
 10
-80.95
 20
412.7
 30
0.0
 11
-81.15
 21
412.7
 31
0.0
  0
LINE
  5
437
330
24
100
AcDbEntity
  8
Layer1$C$L1$V_PV
 62
   211
100
AcDbLine
 10
-80.95
 20
412.0
 30
0.0
 11
-81.15
 21
412.0
 31
0.0
  0
LINE
  5
438
330
24
100
AcDbEntity
  8
Layer1$C$L1$V_PV
 62
   211
100
AcDbLine
 10
-80.95
 20
382.0
 30
0.0
 11
-81.15
 21
382.0
 31
0.0
  0
LINE
  5
439
330
24
100
AcDbEntity
  8
Layer1$C$L1$V_PV
 62
   211
100
AcDbLine
 10
-80.95
 20
381.3
 30
0.0
 11
-81.15
 21
381.3
 31
0.0
  0
LINE
  5
43A
330
24
100
AcDbEntity
  8
Layer1$C$L1$V_PV
 62
   211
100
AcDbLine
 10
-81.15
 20
377.0
 30
0.0
 11
-75.55
 21
377.0
 31
0.0
  0
LINE
  5
43B
330
24
100
AcDbEntity
  8
Layer1$C$L1$V_PV
 62
   211
100
AcDbLine
 10
-186.55
 20
445.4
 30
0.0
 11
-196.55
 21
445.4
 31
0.0
  0
LINE
  5
43C
330
24
100
AcDbEntity
  8
Layer1$C$L1$V_PV
 62
   211
100
AcDbLine
 10
-186.55
 20
447.0
 30
0.0
 11
-196.55
 21
447.0
 31
0.0
  0
LINE
  5
43D
330
24
100
AcDbEntity
  8
Layer1$C$L1$V_PV
 62
   211
100
AcDbLine
 10
-186.55
 20
446.6
 30
0.0
 11
-196.55
 21
446.6
 31
0.0
  0
LINE
  5
43E
330
24
100
AcDbEntity
  8
Layer1$C$L1$V_PV
 62
   211
100
AcDbLine
 10
-186.55
 20
446.2
 30
0.0
 11
-196.55
 21
446.2
 31
0.0
  0
LINE
  5
43F
330
24
100
AcDbEntity
  8
Layer1$C$L1$V_PV
 62
   211
100
AcDbLine
 10
-186.55
 20
445.8
 30
0.0
 11
-196.55
 21
445.8
 31
0.0
  0
LINE
  5
440
330
24
100
AcDbEntity
  8
Layer1$C$L1$V_PV
 62
   211
100
AcDbLine
 10
-186.55
 20
445.0
 30
0.0
 11
-186.55
 21
447.0
 31
0.0
  0
LINE
  5
441
330
24
100
AcDbEntity
  8
Layer1$C$L1$V_PV
 62
   211
100
AcDbLine
 10
-196.55
 20
445.0
 30
0.0
 11
-196.55
 21
447.0
 31
0.0
  0
LINE
  5
442
330
24
100
AcDbEntity
  8
Layer1$C$L1$V_PV
 62
   211
100
AcDbLine
 10
-186.55
 20
348.6
 30
0.0
 11
-196.55
 21
348.6
 31
0.0
  0
LINE
  5
443
330
24
100
AcDbEntity
  8
Layer1$C$L1$V_PV
 62
   211
100
AcDbLine
 10
-186.55
 20
348.2
 30
0.0
 11
-196.55
 21
348.2
 31
0.0
  0
LINE
  5
444
330
24
100
AcDbEntity
  8
Layer1$C$L1$V_PV
 62
   211
100
AcDbLine
 10
-186.55
 20
347.8
 30
0.0
 11
-196.55
 21
347.8
 31
0.0
  0
LINE
  5
445
330
24
100
AcDbEntity
  8
Layer1$C$L1$V_PV
 62
   211
100
AcDbLine
 10
-186.55
 20
347.4
 30
0.0
 11
-196.55
 21
347.4
 31
0.0
  0
LINE
  5
446
330
24
100
AcDbEntity
  8
Layer1$C$L1$V_PV
 62
   211
100
AcDbLine
 10
-186.55
 20
347.0
 30
0.0
 11
-196.55
 21
347.0
 31
0.0
  0
LINE
  5
447
330
24
100
AcDbEntity
  8
Layer1$C$L1$V_PV
 62
   211
100
AcDbLine
 10
-196.55
 20
347.0
 30
0.0
 11
-196.55
 21
349.0
 31
0.0
  0
LINE
  5
448
330
24
100
AcDbEntity
  8
Layer1$C$L1$V_PV
 62
   211
100
AcDbLine
 10
-186.55
 20
347.0
 30
0.0
 11
-186.55
 21
349.0
 31
0.0
  0
ARC
  5
449
330
24
100
AcDbEntity
  8
Layer1$C$L1$V_PV
 62
   211
100
AcDbCircle
 10
-157.55
 20
267.6
 30
0.0
 40
1.0
100
AcDbArc
 50
270.0
 51
0.0
  0
ARC
  5
44A
330
24
100
AcDbEntity
  8
Layer1$C$L1$V_PV
 62
   211
100
AcDbCircle
 10
-225.55
 20
267.6
 30
0.0
 40
1.0
100
AcDbArc
 50
180.0
 51
270.0
  0
LINE
  5
44B
330
24
100
AcDbEntity
  8
Layer1$C$L1$V_PV
 62
   211
100
AcDbLine
 10
-196.55
 20
274.6
 30
0.0
 11
-196.55
 21
295.8
 31
0.0
  0
LINE
  5
44C
330
24
100
AcDbEntity
  8
Layer1$C$L1$V_PV
 62
   211
100
AcDbLine
 10
-201.55
 20
274.6
 30
0.0
 11
-201.55
 21
296.6
 31
0.0
  0
LINE
  5
44D
330
24
100
AcDbEntity
  8
Layer1$C$L1$V_PV
 62
   211
100
AcDbLine
 10
-186.55
 20
274.6
 30
0.0
 11
-186.55
 21
295.8
 31
0.0
  0
LINE
  5
44E
330
24
100
AcDbEntity
  8
Layer1$C$L1$V_PV
 62
   211
100
AcDbLine
 10
-181.55
 20
274.6
 30
0.0
 11
-181.55
 21
296.6
 31
0.0
  0
ARC
  5
44F
330
24
100
AcDbEntity
  8
Layer1$C$L1$V_PV
 62
   211
100
AcDbCircle
 10
-199.05
 20
274.6
 30
0.0
 40
2.5
100
AcDbArc
 50
180.0
 51
0.0
  0
ARC
  5
450
330
24
100
AcDbEntity
  8
Layer1$C$L1$V_PV
 62
   211
100
AcDbCircle
 10
-184.05
 20
274.6
 30
0.0
 40
2.5
100
AcDbArc
 50
180.0
 51
0.0
  0
LINE
  5
451
330
24
100
AcDbEntity
  8
Layer1$C$L1$V_PV
 62
   211
100
AcDbLine
 10
-203.55
 20
281.6
 30
0.0
 11
-203.55
 21
293.9
 31
0.0
  0
LINE
  5
452
330
24
100
AcDbEntity
  8
Layer1$C$L1$V_PV
 62
   211
100
AcDbLine
 10
-179.55
 20
281.6
 30
0.0
 11
-179.55
 21
293.9
 31
0.0
  0
LINE
  5
453
330
24
100
AcDbEntity
  8
Layer1$C$L1$V_PV
 62
   211
100
AcDbLine
 10
-181.55
 20
281.6
 30
0.0
 11
-179.55
 21
281.6
 31
0.0
  0
LINE
  5
454
330
24
100
AcDbEntity
  8
Layer1$C$L1$V_PV
 62
   211
100
AcDbLine
 10
-164.55
 20
281.6
 30
0.0
 11
-162.55
 21
281.6
 31
0.0
  0
LINE
  5
455
330
24
100
AcDbEntity
  8
Layer1$C$L1$V_PV
 62
   211
100
AcDbLine
 10
-162.55
 20
296.6
 30
0.0
 11
-162.55
 21
280.6
 31
0.0
  0
LINE
  5
456
330
24
100
AcDbEntity
  8
Layer1$C$L1$V_PV
 62
   211
100
AcDbLine
 10
-164.55
 20
293.9
 30
0.0
 11
-164.55
 21
281.6
 31
0.0
  0
LINE
  5
457
330
24
100
AcDbEntity
  8
Layer1$C$L1$V_PV
 62
   211
100
AcDbLine
 10
-218.55
 20
293.9
 30
0.0
 11
-218.55
 21
281.6
 31
0.0
  0
LINE
  5
458
330
24
100
AcDbEntity
  8
Layer1$C$L1$V_PV
 62
   211
100
AcDbLine
 10
-220.55
 20
281.6
 30
0.0
 11
-218.55
 21
281.6
 31
0.0
  0
LINE
  5
459
330
24
100
AcDbEntity
  8
Layer1$C$L1$V_PV
 62
   211
100
AcDbLine
 10
-203.55
 20
281.6
 30
0.0
 11
-201.55
 21
281.6
 31
0.0
  0
LINE
  5
45A
330
24
100
AcDbEntity
  8
Layer1$C$L1$V_PV
 62
   211
100
AcDbLine
 10
-220.55
 20
286.6
 30
0.0
 11
-218.55
 21
286.6
 31
0.0
  0
LINE
  5
45B
330
24
100
AcDbEntity
  8
Layer1$C$L1$V_PV
 62
   211
100
AcDbLine
 10
-203.55
 20
286.6
 30
0.0
 11
-201.55
 21
286.6
 31
0.0
  0
LINE
  5
45C
330
24
100
AcDbEntity
  8
Layer1$C$L1$V_PV
 62
   211
100
AcDbLine
 10
-181.55
 20
286.6
 30
0.0
 11
-179.55
 21
286.6
 31
0.0
  0
LINE
  5
45D
330
24
100
AcDbEntity
  8
Layer1$C$L1$V_PV
 62
   211
100
AcDbLine
 10
-164.55
 20
286.6
 30
0.0
 11
-162.55
 21
286.6
 31
0.0
  0
LINE
  5
45E
330
24
100
AcDbEntity
  8
Layer1$C$L1$V_PV
 62
   211
100
AcDbLine
 10
-224.55
 20
292.6
 30
0.0
 11
-224.55
 21
280.6
 31
0.0
  0
LINE
  5
45F
330
24
100
AcDbEntity
  8
Layer1$C$L1$V_PV
 62
   211
100
AcDbLine
 10
-161.55
 20
269.6
 30
0.0
 11
-161.55
 21
273.6
 31
0.0
  0
LINE
  5
460
330
24
100
AcDbEntity
  8
Layer1$C$L1$V_PV
 62
   211
100
AcDbLine
 10
-171.55
 20
269.6
 30
0.0
 11
-171.55
 21
273.6
 31
0.0
  0
LINE
  5
461
330
24
100
AcDbEntity
  8
Layer1$C$L1$V_PV
 62
   211
100
AcDbLine
 10
-211.55
 20
269.6
 30
0.0
 11
-211.55
 21
273.6
 31
0.0
  0
LINE
  5
462
330
24
100
AcDbEntity
  8
Layer1$C$L1$V_PV
 62
   211
100
AcDbLine
 10
-221.55
 20
269.6
 30
0.0
 11
-221.55
 21
273.6
 31
0.0
  0
LINE
  5
463
330
24
100
AcDbEntity
  8
Layer1$C$L1$V_PV
 62
   211
100
AcDbLine
 10
-161.55
 20
269.6
 30
0.0
 11
-171.55
 21
269.6
 31
0.0
  0
LINE
  5
464
330
24
100
AcDbEntity
  8
Layer1$C$L1$V_PV
 62
   211
100
AcDbLine
 10
-211.55
 20
269.6
 30
0.0
 11
-221.55
 21
269.6
 31
0.0
  0
LINE
  5
465
330
24
100
AcDbEntity
  8
Layer1$C$L1$V_PV
 62
   211
100
AcDbLine
 10
-161.55
 20
273.6
 30
0.0
 11
-171.55
 21
273.6
 31
0.0
  0
LINE
  5
466
330
24
100
AcDbEntity
  8
Layer1$C$L1$V_PV
 62
   211
100
AcDbLine
 10
-211.55
 20
273.6
 30
0.0
 11
-221.55
 21
273.6
 31
0.0
  0
LINE
  5
467
330
24
100
AcDbEntity
  8
Layer1$C$L1$V_PV
 62
   211
100
AcDbLine
 10
-196.55
 20
295.8
 30
0.0
 11
-186.55
 21
295.8
 31
0.0
  0
LINE
  5
468
330
24
100
AcDbEntity
  8
Layer1$C$L1$V_PV
 62
   211
100
AcDbLine
 10
-181.55
 20
296.0
 30
0.0
 11
-201.55
 21
296.0
 31
0.0
  0
LINE
  5
469
330
24
100
AcDbEntity
  8
Layer1$C$L1$V_PV
 62
   211
100
AcDbLine
 10
-196.55
 20
291.5
 30
0.0
 11
-186.55
 21
291.5
 31
0.0
  0
LINE
  5
46A
330
24
100
AcDbEntity
  8
Layer1$C$L1$V_PV
 62
   211
100
AcDbLine
 10
-196.55
 20
290.4
 30
0.0
 11
-186.55
 21
290.4
 31
0.0
  0
LINE
  5
46B
330
24
100
AcDbEntity
  8
Layer1$C$L1$V_PV
 62
   211
100
AcDbLine
 10
-196.55
 20
295.1
 30
0.0
 11
-186.55
 21
295.1
 31
0.0
  0
LINE
  5
46C
330
24
100
AcDbEntity
  8
Layer1$C$L1$V_PV
 62
   211
100
AcDbLine
 10
-196.55
 20
294.4
 30
0.0
 11
-186.55
 21
294.4
 31
0.0
  0
LINE
  5
46D
330
24
100
AcDbEntity
  8
Layer1$C$L1$V_PV
 62
   211
100
AcDbLine
 10
-196.55
 20
293.7
 30
0.0
 11
-186.55
 21
293.7
 31
0.0
  0
LINE
  5
46E
330
24
100
AcDbEntity
  8
Layer1$C$L1$V_PV
 62
   211
100
AcDbLine
 10
-196.55
 20
293.0
 30
0.0
 11
-186.55
 21
293.0
 31
0.0
  0
LINE
  5
46F
330
24
100
AcDbEntity
  8
Layer1$C$L1$V_PV
 62
   211
100
AcDbLine
 10
-196.55
 20
292.3
 30
0.0
 11
-186.55
 21
292.3
 31
0.0
  0
LINE
  5
470
330
24
100
AcDbEntity
  8
Layer1$C$L1$V_PV
 62
   211
100
AcDbLine
 10
-180.75
 20
293.9
 30
0.0
 11
-180.75
 21
296.6
 31
0.0
  0
LINE
  5
471
330
24
100
AcDbEntity
  8
Layer1$C$L1$V_PV
 62
   211
100
AcDbLine
 10
-202.35
 20
293.9
 30
0.0
 11
-202.35
 21
296.6
 31
0.0
  0
LINE
  5
472
330
24
100
AcDbEntity
  8
Layer1$C$L1$V_PV
 62
   211
100
AcDbLine
 10
-204.75
 20
296.6
 30
0.0
 11
-204.75
 21
293.9
 31
0.0
  0
LINE
  5
473
330
24
100
AcDbEntity
  8
Layer1$C$L1$V_PV
 62
   211
100
AcDbLine
 10
-178.35
 20
296.6
 30
0.0
 11
-178.35
 21
293.9
 31
0.0
  0
LINE
  5
474
330
24
100
AcDbEntity
  8
Layer1$C$L1$V_PV
 62
   211
100
AcDbLine
 10
-166.75
 20
293.9
 30
0.0
 11
-166.75
 21
296.6
 31
0.0
  0
LINE
  5
475
330
24
100
AcDbEntity
  8
Layer1$C$L1$V_PV
 62
   211
100
AcDbLine
 10
-216.35
 20
296.6
 30
0.0
 11
-216.35
 21
293.9
 31
0.0
  0
LINE
  5
476
330
24
100
AcDbEntity
  8
Layer1$C$L1$V_PV
 62
   211
100
AcDbLine
 10
-215.65
 20
296.6
 30
0.0
 11
-215.65
 21
293.9
 31
0.0
  0
LINE
  5
477
330
24
100
AcDbEntity
  8
Layer1$C$L1$V_PV
 62
   211
100
AcDbLine
 10
-205.45
 20
296.6
 30
0.0
 11
-205.45
 21
293.9
 31
0.0
  0
LINE
  5
478
330
24
100
AcDbEntity
  8
Layer1$C$L1$V_PV
 62
   211
100
AcDbLine
 10
-177.65
 20
296.6
 30
0.0
 11
-177.65
 21
293.9
 31
0.0
  0
LINE
  5
479
330
24
100
AcDbEntity
  8
Layer1$C$L1$V_PV
 62
   211
100
AcDbLine
 10
-167.45
 20
293.9
 30
0.0
 11
-167.45
 21
296.6
 31
0.0
  0
LINE
  5
47A
330
24
100
AcDbEntity
  8
Layer1$C$L1$V_PV
 62
   211
100
AcDbLine
 10
-215.55
 20
296.5
 30
0.0
 11
-205.55
 21
296.5
 31
0.0
  0
LINE
  5
47B
330
24
100
AcDbEntity
  8
Layer1$C$L1$V_PV
 62
   211
100
AcDbLine
 10
-204.75
 20
295.6
 30
0.0
 11
-202.35
 21
295.6
 31
0.0
  0
LINE
  5
47C
330
24
100
AcDbEntity
  8
Layer1$C$L1$V_PV
 62
   211
100
AcDbLine
 10
-180.75
 20
295.6
 30
0.0
 11
-178.35
 21
295.6
 31
0.0
  0
LINE
  5
47D
330
24
100
AcDbEntity
  8
Layer1$C$L1$V_PV
 62
   211
100
AcDbLine
 10
-163.25
 20
296.6
 30
0.0
 11
-163.25
 21
293.9
 31
0.0
  0
LINE
  5
47E
330
24
100
AcDbEntity
  8
Layer1$C$L1$V_PV
 62
   211
100
AcDbLine
 10
-219.85
 20
296.6
 30
0.0
 11
-219.85
 21
293.9
 31
0.0
  0
LINE
  5
47F
330
24
100
AcDbEntity
  8
Layer1$C$L1$V_PV
 62
   211
100
AcDbLine
 10
-219.85
 20
295.6
 30
0.0
 11
-216.35
 21
295.6
 31
0.0
  0
LINE
  5
480
330
24
100
AcDbEntity
  8
Layer1$C$L1$V_PV
 62
   211
100
AcDbLine
 10
-166.75
 20
295.6
 30
0.0
 11
-163.25
 21
295.6
 31
0.0
  0
LINE
  5
481
330
24
100
AcDbEntity
  8
Layer1$C$L1$V_PV
 62
   211
100
AcDbLine
 10
-204.75
 20
293.9
 30
0.0
 11
-202.35
 21
293.9
 31
0.0
  0
LINE
  5
482
330
24
100
AcDbEntity
  8
Layer1$C$L1$V_PV
 62
   211
100
AcDbLine
 10
-215.65
 20
293.9
 30
0.0
 11
-205.45
 21
293.9
 31
0.0
  0
LINE
  5
483
330
24
100
AcDbEntity
  8
Layer1$C$L1$V_PV
 62
   211
100
AcDbLine
 10
-216.35
 20
293.9
 30
0.0
 11
-219.85
 21
293.9
 31
0.0
  0
LINE
  5
484
330
24
100
AcDbEntity
  8
Layer1$C$L1$V_PV
 62
   211
100
AcDbLine
 10
-180.75
 20
293.9
 30
0.0
 11
-178.35
 21
293.9
 31
0.0
  0
LINE
  5
485
330
24
100
AcDbEntity
  8
Layer1$C$L1$V_PV
 62
   211
100
AcDbLine
 10
-166.75
 20
293.9
 30
0.0
 11
-163.25
 21
293.9
 31
0.0
  0
LINE
  5
486
330
24
100
AcDbEntity
  8
Layer1$C$L1$V_PV
 62
   211
100
AcDbLine
 10
-201.55
 20
282.0
 30
0.0
 11
-196.55
 21
282.0
 31
0.0
  0
LINE
  5
487
330
24
100
AcDbEntity
  8
Layer1$C$L1$V_PV
 62
   211
100
AcDbLine
 10
-226.55
 20
280.6
 30
0.0
 11
-220.55
 21
280.6
 31
0.0
  0
LINE
  5
488
330
24
100
AcDbEntity
  8
Layer1$C$L1$V_PV
 62
   211
100
AcDbLine
 10
-162.55
 20
280.6
 30
0.0
 11
-156.55
 21
280.6
 31
0.0
  0
LINE
  5
489
330
24
100
AcDbEntity
  8
Layer1$C$L1$V_PV
 62
   211
100
AcDbLine
 10
-186.55
 20
282.0
 30
0.0
 11
-181.55
 21
282.0
 31
0.0
  0
LINE
  5
48A
330
24
100
AcDbEntity
  8
Layer1$C$L1$V_PV
 62
   211
100
AcDbLine
 10
-156.55
 20
282.0
 30
0.0
 11
-155.55
 21
282.0
 31
0.0
  0
LINE
  5
48B
330
24
100
AcDbEntity
  8
Layer1$C$L1$V_PV
 62
   211
100
AcDbLine
 10
-201.55
 20
280.4
 30
0.0
 11
-196.55
 21
280.4
 31
0.0
  0
LINE
  5
48C
330
24
100
AcDbEntity
  8
Layer1$C$L1$V_PV
 62
   211
100
AcDbLine
 10
-186.55
 20
280.4
 30
0.0
 11
-181.55
 21
280.4
 31
0.0
  0
LINE
  5
48D
330
24
100
AcDbEntity
  8
Layer1$C$L1$V_PV
 62
   211
100
AcDbLine
 10
-213.65
 20
273.6
 30
0.0
 11
-213.65
 21
269.6
 31
0.0
  0
LINE
  5
48E
330
24
100
AcDbEntity
  8
Layer1$C$L1$V_PV
 62
   211
100
AcDbLine
 10
-213.65
 20
266.6
 30
0.0
 11
-213.65
 21
261.0
 31
0.0
  0
LINE
  5
48F
330
24
100
AcDbEntity
  8
Layer1$C$L1$V_PV
 62
   211
100
AcDbLine
 10
-212.35
 20
273.6
 30
0.0
 11
-212.35
 21
269.6
 31
0.0
  0
LINE
  5
490
330
24
100
AcDbEntity
  8
Layer1$C$L1$V_PV
 62
   211
100
AcDbLine
 10
-212.35
 20
266.6
 30
0.0
 11
-212.35
 21
264.6
 31
0.0
  0
LINE
  5
491
330
24
100
AcDbEntity
  8
Layer1$C$L1$V_PV
 62
   211
100
AcDbLine
 10
-160.55
 20
294.6
 30
0.0
 11
-157.15
 21
294.6
 31
0.0
  0
LINE
  5
492
330
24
100
AcDbEntity
  8
Layer1$C$L1$V_PV
 62
   211
100
AcDbLine
 10
-157.15
 20
296.6
 30
0.0
 11
-157.15
 21
293.6
 31
0.0
  0
LINE
  5
493
330
24
100
AcDbEntity
  8
Layer1$C$L1$V_PV
 62
   211
100
AcDbLine
 10
-160.55
 20
296.6
 30
0.0
 11
-160.55
 21
294.6
 31
0.0
  0
LINE
  5
494
330
24
100
AcDbEntity
  8
Layer1$C$L1$V_PV
 62
   211
100
AcDbLine
 10
-162.55
 20
295.6
 30
0.0
 11
-160.55
 21
295.6
 31
0.0
  0
LINE
  5
495
330
24
100
AcDbEntity
  8
Layer1$C$L1$V_PV
 62
   211
100
AcDbLine
 10
-162.55
 20
292.6
 30
0.0
 11
-156.55
 21
292.6
 31
0.0
  0
LINE
  5
496
330
24
100
AcDbEntity
  8
Layer1$C$L1$V_PV
 62
   211
100
AcDbLine
 10
-226.55
 20
293.6
 30
0.0
 11
-220.55
 21
293.6
 31
0.0
  0
LINE
  5
497
330
24
100
AcDbEntity
  8
Layer1$C$L1$V_PV
 62
   211
100
AcDbLine
 10
-226.55
 20
292.6
 30
0.0
 11
-220.55
 21
292.6
 31
0.0
  0
LINE
  5
498
330
24
100
AcDbEntity
  8
Layer1$C$L1$V_PV
 62
   211
100
AcDbLine
 10
-162.55
 20
293.6
 30
0.0
 11
-157.15
 21
293.6
 31
0.0
  0
LINE
  5
499
330
24
100
AcDbEntity
  8
Layer1$C$L1$V_PV
 62
   211
100
AcDbLine
 10
-222.55
 20
296.6
 30
0.0
 11
-222.55
 21
295.6
 31
0.0
  0
LINE
  5
49A
330
24
100
AcDbEntity
  8
Layer1$C$L1$V_PV
 62
   211
100
AcDbLine
 10
-222.55
 20
295.6
 30
0.0
 11
-220.55
 21
293.6
 31
0.0
  0
INSERT
  5
49B
330
24
100
AcDbEntity
  8
Layer1$C$L1$V_PV$B
100
AcDbBlockReference
  2
*X3
 10
0.0
 20
0.0
 30
0.0
  0
LINE
  5
49C
330
24
100
AcDbEntity
  8
Layer1$C$L1$V_PV
 62
   132
100
AcDbLine
 10
-143.55
 20
417.0
 30
0.0
 11
-141.55
 21
417.0
 31
0.0
  0
LINE
  5
49D
330
24
100
AcDbEntity
  8
Layer1$C$L1$V_PV
 62
   132
100
AcDbLine
 10
-144.0500047144
 20
295.8000075666
 30
0.0
 11
-145.050005776
 21
294.8000064208
 31
0.0
  0
ARC
  5
49E
330
24
100
AcDbEntity
  8
Layer1$C$L1$V_PV
 62
   132
100
AcDbCircle
 10
-137.17159729
 20
283.6
 30
0.0
 40
7.5
100
AcDbArc
 50
125.7174062506
 51
156.42182157
  0
LINE
  5
49F
330
24
100
AcDbEntity
  8
Layer1$C$L1$V_PV
 62
   132
100
AcDbLine
 10
-145.05
 20
294.7999969482
 30
0.0
 11
-145.05
 21
288.1554504394
 31
0.0
  0
ARC
  5
4A0
330
24
100
AcDbEntity
  8
Layer1$C$L1$V_PV
 62
   132
100
AcDbCircle
 10
-120.55
 20
274.6
 30
0.0
 40
28.0
100
AcDbArc
 50
151.0449771271
 51
153.2345001334
  0
LINE
  5
4A1
330
24
100
AcDbEntity
  8
Layer1$C$L1$V_PV
 62
   132
100
AcDbLine
 10
-141.55
 20
291.1
 30
0.0
 11
-141.55
 21
289.6892944336
 31
0.0
  0
LINE
  5
4A2
330
24
100
AcDbEntity
  8
Layer1$C$L1$V_PV
 62
   132
100
AcDbLine
 10
-141.9500091552
 20
292.1
 30
0.0
 11
-141.9500091552
 21
291.1
 31
0.0
  0
LINE
  5
4A3
330
24
100
AcDbEntity
  8
Layer1$C$L1$V_PV
 62
   132
100
AcDbLine
 10
-142.750012207
 20
294.1
 30
0.0
 11
-142.750012207
 21
293.1
 31
0.0
  0
LINE
  5
4A4
330
24
100
AcDbEntity
  8
Layer1$C$L1$V_PV
 62
   132
100
AcDbLine
 10
-142.3500030518
 20
293.1
 30
0.0
 11
-142.3500030518
 21
292.1
 31
0.0
  0
LINE
  5
4A5
330
24
100
AcDbEntity
  8
Layer1$C$L1$V_PV
 62
   132
100
AcDbLine
 10
-143.1500061036
 20
295.1
 30
0.0
 11
-143.1500061036
 21
294.1
 31
0.0
  0
LINE
  5
4A6
330
24
100
AcDbEntity
  8
Layer1$C$L1$V_PV
 62
   132
100
AcDbLine
 10
-141.55
 20
291.1
 30
0.0
 11
-141.9500091552
 21
291.1
 31
0.0
  0
LINE
  5
4A7
330
24
100
AcDbEntity
  8
Layer1$C$L1$V_PV
 62
   132
100
AcDbLine
 10
-141.9500091552
 20
292.1
 30
0.0
 11
-142.3500030518
 21
292.1
 31
0.0
  0
LINE
  5
4A8
330
24
100
AcDbEntity
  8
Layer1$C$L1$V_PV
 62
   132
100
AcDbLine
 10
-143.55
 20
295.800012207
 30
0.0
 11
-144.05
 21
295.800012207
 31
0.0
  0
LINE
  5
4A9
330
24
100
AcDbEntity
  8
Layer1$C$L1$V_PV
 62
   132
100
AcDbLine
 10
-143.1500061036
 20
295.1
 30
0.0
 11
-143.55
 21
295.1
 31
0.0
  0
LINE
  5
4AA
330
24
100
AcDbEntity
  8
Layer1$C$L1$V_PV
 62
   132
100
AcDbLine
 10
-143.55
 20
295.800012207
 30
0.0
 11
-143.55
 21
295.1
 31
0.0
  0
ARC
  5
4AB
330
24
100
AcDbEntity
  8
Layer1$C$L1$V_PV
 62
   132
100
AcDbCircle
 10
-116.55
 20
274.6
 30
0.0
 40
30.0
100
AcDbArc
 50
156.42182157
 51
180.0
  0
LINE
  5
4AC
330
24
100
AcDbEntity
  8
Layer1$C$L1$V_PV
 62
   132
100
AcDbLine
 10
-142.750012207
 20
294.1
 30
0.0
 11
-143.1500061036
 21
294.1
 31
0.0
  0
LINE
  5
4AD
330
24
100
AcDbEntity
  8
Layer1$C$L1$V_PV
 62
   132
100
AcDbLine
 10
-142.3500030518
 20
293.1
 30
0.0
 11
-142.750012207
 21
293.1
 31
0.0
  0
LINE
  5
4AE
330
24
100
AcDbEntity
  8
Layer1$C$L1$V_PV
 62
   132
100
AcDbLine
 10
-145.5500166378
 20
286.6000108342
 30
0.0
 11
-146.5500153808
 21
281.6000159038
 31
0.0
  0
LINE
  5
4AF
330
24
100
AcDbEntity
  8
Layer1$C$L1$V_PV
 62
   132
100
AcDbLine
 10
-145.55
 20
296.6
 30
0.0
 11
-145.55
 21
286.6
 31
0.0
  0
ARC
  5
4B0
330
24
100
AcDbEntity
  8
Layer1$C$L1$V_PV
 62
   132
100
AcDbCircle
 10
-152.3
 20
292.85
 30
0.0
 40
0.75
100
AcDbArc
 50
269.9999993168
 51
90.000017986101
  0
LINE
  5
4B1
330
24
100
AcDbEntity
  8
Layer1$C$L1$V_PV
 62
   132
100
AcDbLine
 10
-161.55
 20
292.1
 30
0.0
 11
-161.55
 21
282.1
 31
0.0
  0
ARC
  5
4B2
330
24
100
AcDbEntity
  8
Layer1$C$L1$V_PV
 62
   132
100
AcDbCircle
 10
-152.3
 20
281.35
 30
0.0
 40
0.75
100
AcDbArc
 50
269.9999993168
 51
90.000017986101
  0
LINE
  5
4B3
330
24
100
AcDbEntity
  8
Layer1$C$L1$V_PV
 62
   132
100
AcDbLine
 10
-152.3
 20
292.1
 30
0.0
 11
-161.55
 21
292.1
 31
0.0
  0
LINE
  5
4B4
330
24
100
AcDbEntity
  8
Layer1$C$L1$V_PV
 62
   132
100
AcDbLine
 10
-156.55
 20
296.6
 30
0.0
 11
-156.55
 21
293.6
 31
0.0
  0
LINE
  5
4B5
330
24
100
AcDbEntity
  8
Layer1$C$L1$V_PV
 62
   132
100
AcDbLine
 10
-148.55000607
 20
266.6000018726
 30
0.0
 11
-150.049997182
 21
267.5999959114
 31
0.0
  0
LINE
  5
4B6
330
24
100
AcDbEntity
  8
Layer1$C$L1$V_PV
 62
   132
100
AcDbLine
 10
-148.55
 20
267.6
 30
0.0
 11
-156.55
 21
267.6
 31
0.0
  0
LINE
  5
4B7
330
24
100
AcDbEntity
  8
Layer1$C$L1$V_PV
 62
   132
100
AcDbLine
 10
-156.55
 20
280.6
 30
0.0
 11
-156.55
 21
267.6
 31
0.0
  0
LINE
  5
4B8
330
24
100
AcDbEntity
  8
Layer1$C$L1$V_PV
 62
   132
100
AcDbLine
 10
-148.55
 20
267.6
 30
0.0
 11
-148.55
 21
266.6
 31
0.0
  0
LINE
  5
4B9
330
24
100
AcDbEntity
  8
Layer1$C$L1$V_PV
 62
   132
100
AcDbLine
 10
-152.3
 20
282.1
 30
0.0
 11
-161.55
 21
282.1
 31
0.0
  0
LINE
  5
4BA
330
24
100
AcDbEntity
  8
Layer1$C$L1$V_PV
 62
   132
100
AcDbLine
 10
-146.55
 20
266.6
 30
0.0
 11
-148.55
 21
266.6
 31
0.0
  0
LINE
  5
4BB
330
24
100
AcDbEntity
  8
Layer1$C$L1$V_PV
 62
   132
100
AcDbLine
 10
-146.55
 20
296.6
 30
0.0
 11
-146.55
 21
266.6
 31
0.0
  0
LINE
  5
4BC
330
24
100
AcDbEntity
  8
Layer1$C$L1$V_PV
 62
   132
100
AcDbLine
 10
-146.55
 20
280.6
 30
0.0
 11
-156.55
 21
280.6
 31
0.0
  0
LINE
  5
4BD
330
24
100
AcDbEntity
  8
Layer1$C$L1$V_PV
 62
   132
100
AcDbLine
 10
-146.55
 20
293.6
 30
0.0
 11
-156.55
 21
293.6
 31
0.0
  0
LINE
  5
4BE
330
24
100
AcDbEntity
  8
Layer1$C$L1$V_PV
 62
   132
100
AcDbLine
 10
-143.5500041164
 20
297.6000117316
 30
0.0
 11
-148.3500047584
 21
298.6000116948
 31
0.0
  0
LINE
  5
4BF
330
24
100
AcDbEntity
  8
Layer1$C$L1$V_PV
 62
   132
100
AcDbLine
 10
-143.55
 20
297.6
 30
0.0
 11
-143.55
 21
296.6
 31
0.0
  0
LINE
  5
4C0
330
24
100
AcDbEntity
  8
Layer1$C$L1$V_PV
 62
   132
100
AcDbLine
 10
-143.55
 20
297.6
 30
0.0
 11
-155.55
 21
297.6
 31
0.0
  0
LINE
  5
4C1
330
24
100
AcDbEntity
  8
Layer1$C$L1$V_PV
 62
   132
100
AcDbLine
 10
-143.55
 20
296.6
 30
0.0
 11
-156.55
 21
296.6
 31
0.0
  0
LINE
  5
4C2
330
24
100
AcDbEntity
  8
Layer1$C$L1$V_PV
 62
   132
100
AcDbLine
 10
-155.55
 20
299.1
 30
0.0
 11
-155.55
 21
296.6
 31
0.0
  0
LINE
  5
4C3
330
24
100
AcDbEntity
  8
Layer1$C$L1$V_PV
 62
   132
100
AcDbLine
 10
-148.3500030518
 20
299.1
 30
0.0
 11
-148.3500030518
 21
298.6
 31
0.0
  0
LINE
  5
4C4
330
24
100
AcDbEntity
  8
Layer1$C$L1$V_PV
 62
   132
100
AcDbLine
 10
-148.3500030518
 20
298.6
 30
0.0
 11
-155.55
 21
298.6
 31
0.0
  0
LINE
  5
4C5
330
24
100
AcDbEntity
  8
Layer1$C$L1$V_PV
 62
   132
100
AcDbLine
 10
-155.55
 20
436.0
 30
0.0
 11
-150.7499969482
 21
436.0
 31
0.0
  0
LINE
  5
4C6
330
24
100
AcDbEntity
  8
Layer1$C$L1$V_PV
 62
   132
100
AcDbLine
 10
-143.5500016076
 20
444.9999956754
 30
0.0
 11
-155.5499976072
 21
430.0000006758
 31
0.0
  0
LINE
  5
4C7
330
24
100
AcDbEntity
  8
Layer1$C$L1$V_PV
 62
   132
100
AcDbLine
 10
-155.55
 20
439.0
 30
0.0
 11
-148.349987793
 21
439.0
 31
0.0
  0
LINE
  5
4C8
330
24
100
AcDbEntity
  8
Layer1$C$L1$V_PV
 62
   132
100
AcDbLine
 10
-155.55
 20
445.0
 30
0.0
 11
-143.55
 21
445.0
 31
0.0
  0
LINE
  5
4C9
330
24
100
AcDbEntity
  8
Layer1$C$L1$V_PV
 62
   132
100
AcDbLine
 10
-150.7499969482
 20
358.0
 30
0.0
 11
-150.7499969482
 21
436.0
 31
0.0
  0
LINE
  5
4CA
330
24
100
AcDbEntity
  8
Layer1$C$L1$V_PV
 62
   132
100
AcDbLine
 10
-148.349987793
 20
355.0
 30
0.0
 11
-148.349987793
 21
439.0
 31
0.0
  0
LINE
  5
4CB
330
24
100
AcDbEntity
  8
Layer1$C$L1$V_PV
 62
   132
100
AcDbLine
 10
-143.55
 20
349.0
 30
0.0
 11
-143.55
 21
445.0
 31
0.0
  0
LINE
  5
4CC
330
24
100
AcDbEntity
  8
Layer1$C$L1$V_PV
 62
   132
100
AcDbLine
 10
-155.55
 20
349.0
 30
0.0
 11
-155.55
 21
445.0
 31
0.0
  0
LINE
  5
4CD
330
24
100
AcDbEntity
  8
Layer1$C$L1$V_PV
 62
   132
100
AcDbLine
 10
-148.3500030518
 20
299.1
 30
0.0
 11
-155.55
 21
299.1
 31
0.0
  0
LINE
  5
4CE
330
24
100
AcDbEntity
  8
Layer1$C$L1$V_PV
 62
   132
100
AcDbLine
 10
-141.9499938964
 20
377.0
 30
0.0
 11
-141.9499938964
 21
367.0
 31
0.0
  0
LINE
  5
4CF
330
24
100
AcDbEntity
  8
Layer1$C$L1$V_PV
 62
   132
100
AcDbLine
 10
-141.55
 20
377.0
 30
0.0
 11
-141.55
 21
367.0
 31
0.0
  0
LINE
  5
4D0
330
24
100
AcDbEntity
  8
Layer1$C$L1$V_PV
 62
   132
100
AcDbLine
 10
-143.55
 20
367.0
 30
0.0
 11
-141.55
 21
367.0
 31
0.0
  0
LINE
  5
4D1
330
24
100
AcDbEntity
  8
Layer1$C$L1$V_PV
 62
   132
100
AcDbLine
 10
-143.55
 20
377.0
 30
0.0
 11
-141.55
 21
377.0
 31
0.0
  0
LINE
  5
4D2
330
24
100
AcDbEntity
  8
Layer1$C$L1$V_PV
 62
   132
100
AcDbLine
 10
-143.1499908448
 20
377.0
 30
0.0
 11
-143.1499908448
 21
367.0
 31
0.0
  0
LINE
  5
4D3
330
24
100
AcDbEntity
  8
Layer1$C$L1$V_PV
 62
   132
100
AcDbLine
 10
-143.1499908448
 20
417.0
 30
0.0
 11
-143.1499908448
 21
427.0
 31
0.0
  0
LINE
  5
4D4
330
24
100
AcDbEntity
  8
Layer1$C$L1$V_PV
 62
   132
100
AcDbLine
 10
-142.7499969482
 20
417.0
 30
0.0
 11
-142.7499969482
 21
427.0
 31
0.0
  0
LINE
  5
4D5
330
24
100
AcDbEntity
  8
Layer1$C$L1$V_PV
 62
   132
100
AcDbLine
 10
-142.349987793
 20
377.0
 30
0.0
 11
-142.349987793
 21
367.0
 31
0.0
  0
LINE
  5
4D6
330
24
100
AcDbEntity
  8
Layer1$C$L1$V_PV
 62
   132
100
AcDbLine
 10
-142.349987793
 20
417.0
 30
0.0
 11
-142.349987793
 21
427.0
 31
0.0
  0
LINE
  5
4D7
330
24
100
AcDbEntity
  8
Layer1$C$L1$V_PV
 62
   132
100
AcDbLine
 10
-141.9499938964
 20
417.0
 30
0.0
 11
-141.9499938964
 21
427.0
 31
0.0
  0
LINE
  5
4D8
330
24
100
AcDbEntity
  8
Layer1$C$L1$V_PV
 62
   132
100
AcDbLine
 10
-141.55
 20
417.0
 30
0.0
 11
-141.55
 21
427.0
 31
0.0
  0
LINE
  5
4D9
330
24
100
AcDbEntity
  8
Layer1$C$L1$V_PV
 62
   132
100
AcDbLine
 10
-143.5500022032
 20
348.9999920822
 30
0.0
 11
-155.5500023732
 21
363.9999922946
 31
0.0
  0
LINE
  5
4DA
330
24
100
AcDbEntity
  8
Layer1$C$L1$V_PV
 62
   132
100
AcDbLine
 10
-155.55
 20
349.0
 30
0.0
 11
-143.55
 21
349.0
 31
0.0
  0
LINE
  5
4DB
330
24
100
AcDbEntity
  8
Layer1$C$L1$V_PV
 62
   132
100
AcDbLine
 10
-155.55
 20
358.0
 30
0.0
 11
-150.7499969482
 21
358.0
 31
0.0
  0
LINE
  5
4DC
330
24
100
AcDbEntity
  8
Layer1$C$L1$V_PV
 62
   132
100
AcDbLine
 10
-155.55
 20
355.0
 30
0.0
 11
-148.349987793
 21
355.0
 31
0.0
  0
LINE
  5
4DD
330
24
100
AcDbEntity
  8
Layer1$C$L1$V_PV
 62
   132
100
AcDbLine
 10
-143.55
 20
427.0
 30
0.0
 11
-141.55
 21
427.0
 31
0.0
  0
LINE
  5
4DE
330
24
100
AcDbEntity
  8
Layer1$C$L1$V_PV
 62
   132
100
AcDbLine
 10
-142.7499969482
 20
377.0
 30
0.0
 11
-142.7499969482
 21
367.0
 31
0.0
  0
LINE
  5
4FA
330
24
100
AcDbEntity
  8
Layer6$C$L6$V_PV
  6
CONSTRUCTION
100
AcDbLine
 10
0.0
 20
297.0
 30
0.0
 11
0.0
 21
0.0
 31
0.0
  0
TEXT
  5
5F7
330
24
100
AcDbEntity
  8
0
 62
     5
100
AcDbText
 10
-125.023488
 20
21.0
 30
0.0
 40
10.0
  1
ＭＡ４－Ｐ００２６６
 41
0.866773901425
 72
     5
 11
-26.882314
 21
21.0
 31
0.0
100
AcDbText
  0
TEXT
  5
5FA
330
24
100
AcDbEntity
  8
0
100
AcDbText
 10
-274.913236185267
 20
208.618911512386
 30
0.0
 40
8.334342
  1
DD96－F31N-B
 41
1.092376426925
 72
     5
 11
-179.300238185267
 21
208.618911512386
 31
0.0
100
AcDbText
  0
TEXT
  5
628
330
24
100
AcDbEntity
  8
0
100
AcDbText
 10
-466.15458
 20
373.254860415562
 30
0.0
 40
8.334342
  1
DD96-W-B
 41
1.432694826766
 72
     5
 11
-370.541582
 21
373.254860415562
 31
0.0
100
AcDbText
  0
VIEWPORT
  5
14A
330
25
100
AcDbEntity
 67
     1
  8
0
  6
SOLID
100
AcDbViewport
 10
-106.000122
 20
148.5
 30
0.0
 40
218.350244
 41
303.35
 68
     2
 69
     1
 12
-106.000122
 22
148.5
 13
0.0
 23
0.0
 14
1.0
 24
1.0
 15
0.0
 25
0.0
 16
0.0
 26
0.0
 36
1.0
 17
0.0
 27
0.0
 37
0.0
 42
0.0
 43
0.0
 44
0.0
 45
303.35
 50
0.0
 51
0.0
 72
   100
341
F
341
10
341
11
341
12
341
13
 90
      160
  1

281
     0
 71
     1
 74
     0
110
0.0
120
0.0
130
0.0
111
1.0
121
0.0
131
0.0
112
0.0
122
1.0
132
0.0
 79
     0
146
0.0
  0
VIEWPORT
  5
51A
330
25
100
AcDbEntity
 67
     1
  8
VIEWPORTS
  6
SOLID
100
AcDbViewport
 10
-106.0001220703
 20
148.5
 30
0.0
 40
218.3502441406
 41
303.35
 68
     1
 69
     2
 12
-106.0001220703
 22
148.5
 13
0.0
 23
0.0
 14
1.0
 24
1.0
 15
0.0
 25
0.0
 16
0.0
 26
0.0
 36
1.0
 17
0.0
 27
0.0
 37
0.0
 42
0.0
 43
0.0
 44
0.0
 45
303.35
 50
0.0
 51
0.0
 72
   100
341
E
 90
      160
  1

281
     0
 71
     1
 74
     0
110
0.0
120
0.0
130
0.0
111
1.0
121
0.0
131
0.0
112
0.0
122
1.0
132
0.0
 79
     0
146
0.0
  0
ENDSEC
  0
SECTION
  2
OBJECTS
  0
DICTIONARY
  5
51B
330
0
100
AcDbDictionary
281
     1
  3
ACAD_COLOR
350
536
  3
ACAD_GROUP
350
51C
  3
ACAD_LAYOUT
350
53B
  3
ACAD_MATERIAL
350
521
  3
ACAD_MLEADERSTYLE
350
5F2
  3
ACAD_MLINESTYLE
350
51D
  3
ACAD_PLOTSETTINGS
350
53A
  3
ACAD_PLOTSTYLENAME
350
51F
  3
ACAD_SCALELIST
350
541
  3
ACAD_TABLESTYLE
350
537
  3
ACAD_VISUALSTYLE
350
525
  3
ACDBHEADERROUNDTRIPXREC
350
62A
  3
AcDbVariableDictionary
350
53E
  3
DWGPROPS
350
62D
  0
DICTIONARY
  5
536
102
{ACAD_REACTORS
330
51B
102
}
330
51B
100
AcDbDictionary
281
     1
  0
DICTIONARY
  5
51C
102
{ACAD_REACTORS
330
51B
102
}
330
51B
100
AcDbDictionary
281
     1
  0
DICTIONARY
  5
53B
102
{ACAD_REACTORS
330
51B
102
}
330
51B
100
AcDbDictionary
281
     1
  3
Model
350
53C
  3
レイアウト1
350
53D
  0
DICTIONARY
  5
521
102
{ACAD_REACTORS
330
51B
102
}
330
51B
100
AcDbDictionary
281
     1
  3
ByBlock
350
523
  3
ByLayer
350
522
  3
Global
350
524
  0
DICTIONARY
  5
5F2
102
{ACAD_REACTORS
330
51B
102
}
330
51B
100
AcDbDictionary
281
     1
  0
DICTIONARY
  5
51D
102
{ACAD_REACTORS
330
51B
102
}
330
51B
100
AcDbDictionary
281
     1
  3
STANDARD
350
51E
  0
DICTIONARY
  5
53A
102
{ACAD_REACTORS
330
51B
102
}
330
51B
100
AcDbDictionary
281
     1
  0
ACDBDICTIONARYWDFLT
  5
51F
102
{ACAD_REACTORS
330
51B
102
}
330
51B
100
AcDbDictionary
281
     1
  3
Normal
350
520
100
AcDbDictionaryWithDefault
340
520
  0
DICTIONARY
  5
541
102
{ACAD_REACTORS
330
51B
102
}
330
51B
100
AcDbDictionary
281
     1
  3
A0
350
542
  3
A1
350
543
  3
A2
350
544
  3
A3
350
545
  3
A4
350
546
  3
A5
350
547
  3
A6
350
548
  3
A7
350
549
  3
A8
350
54A
  3
A9
350
54B
  3
B0
350
54C
  3
B1
350
54D
  3
B2
350
54E
  3
B3
350
54F
  3
B4
350
550
  3
B5
350
551
  3
B6
350
552
  3
B7
350
553
  3
B8
350
554
  3
B9
350
555
  3
C0
350
556
  3
C1
350
557
  3
C2
350
558
  3
C3
350
559
  3
C4
350
55A
  3
C5
350
55B
  3
C6
350
55C
  3
C7
350
55D
  3
C8
350
55E
  3
C9
350
55F
  3
D0
350
560
  3
D1
350
561
  3
D2
350
562
  0
DICTIONARY
  5
537
102
{ACAD_REACTORS
330
51B
102
}
330
51B
100
AcDbDictionary
281
     1
  3
Standard
350
538
  0
DICTIONARY
  5
525
102
{ACAD_REACTORS
330
51B
102
}
330
51B
100
AcDbDictionary
281
     1
  3
2dWireframe
350
52B
  3
3D Hidden
350
52D
  3
3dWireframe
350
52C
  3
Basic
350
52A
  3
Brighten
350
531
  3
ColorChange
350
535
  3
Conceptual
350
52E
  3
Dim
350
530
  3
Facepattern
350
534
  3
Flat
350
526
  3
FlatWithEdges
350
527
  3
Gouraud
350
528
  3
GouraudWithEdges
350
529
  3
Linepattern
350
533
  3
Realistic
350
52F
  3
Thicken
350
532
  0
DICTIONARY
  5
62A
102
{ACAD_REACTORS
330
51B
102
}
330
51B
100
AcDbDictionary
281
     1
  3
COLORDICT
350
62B
  3
MATERIALDICT
350
62C
  0
DICTIONARY
  5
53E
102
{ACAD_REACTORS
330
51B
102
}
330
51B
100
AcDbDictionary
281
     1
  3
CANNOSCALE
350
629
  3
CTABLESTYLE
350
53F
  3
DIMASSOC
350
5FC
  3
HIDETEXT
350
5FD
  3
MSLTSCALE
350
5F3
  3
XCLIPFRAME
350
5F4
  0
XRECORD
  5
62D
102
{ACAD_REACTORS
330
51B
102
}
330
51B
100
AcDbXrecord
280
     1
  1
DWGPROPS COOKIE
  2

  3

  4

  6

  7

  8
2606
  9

300
=
301
=
302
=
303
=
304
=
305
=
306
=
307
=
308
=
309
=
 40
0.0
 41
2454838.119456007
 42
2456258.177319479
  1

 90
        0
  0
LAYOUT
  5
53C
102
{ACAD_REACTORS
330
53B
102
}
330
53B
100
AcDbPlotSettings
  1

  2
\\s-w03-hon002\FX DocuWide 2050 (本社7F)
  4

  6

 40
0.0
 41
0.0
 42
0.0
 43
0.0
 44
0.0
 45
0.0
 46
0.0
 47
0.0
 48
0.0
 49
0.0
140
0.0
141
0.0
142
1.0
143
1.0
 70
  1712
 72
     0
 73
     0
 74
     0
  7

 75
     0
147
1.0
148
0.0
149
0.0
100
AcDbLayout
  1
Model
 70
     1
 71
     0
 10
0.0
 20
0.0
 11
12.0
 21
9.0
 12
0.0
 22
0.0
 32
0.0
 14
-466.15458
 24
-0.000000000001
 34
0.0
 15
0.0
 25
453.0
 35
0.0
146
0.0
 13
0.0
 23
0.0
 33
0.0
 16
1.0
 26
0.0
 36
0.0
 17
0.0
 27
1.0
 37
0.0
 76
     0
330
24
331
540
  0
LAYOUT
  5
53D
102
{ACAD_REACTORS
330
53B
102
}
330
53B
100
AcDbPlotSettings
  1

  2
none_device
  4
Letter_(8.50_x_11.00_Inches)
  6

 40
6.35
 41
6.35
 42
6.35001
 43
6.35001
 44
215.9
 45
279.4
 46
0.0
 47
0.0
 48
0.0
 49
0.0
140
0.0
141
0.0
142
1.0
143
1.062500052288
 70
   688
 72
     0
 73
     1
 74
     1
  7

 75
     0
147
0.94117642427
148
6.35
149
6.35
100
AcDbLayout
  1
レイアウト1
 70
     1
 71
     1
 10
-0.515625431379
 20
-0.515625013072
 11
11.171875143793
 21
8.515625431379
 12
0.0
 22
0.0
 32
0.0
 14
1.000000000000E+20
 24
1.000000000000E+20
 34
1.000000000000E+20
 15
-1.000000000000E+20
 25
-1.000000000000E+20
 35
-1.000000000000E+20
146
0.0
 13
0.0
 23
0.0
 33
0.0
 16
1.0
 26
0.0
 36
0.0
 17
0.0
 27
1.0
 37
0.0
 76
     0
330
25
331
51A
  0
MATERIAL
  5
523
102
{ACAD_REACTORS
330
521
102
}
102
{ACAD_XDICTIONARY
360
62E
102
}
330
521
100
AcDbMaterial
  1
ByBlock
  0
MATERIAL
  5
522
102
{ACAD_REACTORS
330
521
102
}
102
{ACAD_XDICTIONARY
360
630
102
}
330
521
100
AcDbMaterial
  1
ByLayer
  0
MATERIAL
  5
524
102
{ACAD_REACTORS
330
521
102
}
102
{ACAD_XDICTIONARY
360
632
102
}
330
521
100
AcDbMaterial
  1
Global
  0
MLINESTYLE
  5
51E
102
{ACAD_REACTORS
330
51D
102
}
330
51D
100
AcDbMlineStyle
  2
STANDARD
 70
     0
  3

 62
   256
 51
90.0
 52
90.0
 71
     2
 49
1.5
 62
   256
  6
Continuous
 49
0.5
 62
   256
  6
Continuous
  0
ACDBPLACEHOLDER
  5
520
102
{ACAD_REACTORS
330
51F
102
}
330
51F
  0
SCALE
  5
542
102
{ACAD_REACTORS
330
541
102
}
330
541
100
AcDbScale
 70
     0
300
1:1
140
1.0
141
1.0
290
     1
  0
SCALE
  5
543
102
{ACAD_REACTORS
330
541
102
}
330
541
100
AcDbScale
 70
     0
300
1:2
140
1.0
141
2.0
290
     0
  0
SCALE
  5
544
102
{ACAD_REACTORS
330
541
102
}
330
541
100
AcDbScale
 70
     0
300
1:4
140
1.0
141
4.0
290
     0
  0
SCALE
  5
545
102
{ACAD_REACTORS
330
541
102
}
330
541
100
AcDbScale
 70
     0
300
1:5
140
1.0
141
5.0
290
     0
  0
SCALE
  5
546
102
{ACAD_REACTORS
330
541
102
}
330
541
100
AcDbScale
 70
     0
300
1:8
140
1.0
141
8.0
290
     0
  0
SCALE
  5
547
102
{ACAD_REACTORS
330
541
102
}
330
541
100
AcDbScale
 70
     0
300
1:10
140
1.0
141
10.0
290
     0
  0
SCALE
  5
548
102
{ACAD_REACTORS
330
541
102
}
330
541
100
AcDbScale
 70
     0
300
1:16
140
1.0
141
16.0
290
     0
  0
SCALE
  5
549
102
{ACAD_REACTORS
330
541
102
}
330
541
100
AcDbScale
 70
     0
300
1:20
140
1.0
141
20.0
290
     0
  0
SCALE
  5
54A
102
{ACAD_REACTORS
330
541
102
}
330
541
100
AcDbScale
 70
     0
300
1:30
140
1.0
141
30.0
290
     0
  0
SCALE
  5
54B
102
{ACAD_REACTORS
330
541
102
}
330
541
100
AcDbScale
 70
     0
300
1:40
140
1.0
141
40.0
290
     0
  0
SCALE
  5
54C
102
{ACAD_REACTORS
330
541
102
}
330
541
100
AcDbScale
 70
     0
300
1:50
140
1.0
141
50.0
290
     0
  0
SCALE
  5
54D
102
{ACAD_REACTORS
330
541
102
}
330
541
100
AcDbScale
 70
     0
300
1:100
140
1.0
141
100.0
290
     0
  0
SCALE
  5
54E
102
{ACAD_REACTORS
330
541
102
}
330
541
100
AcDbScale
 70
     0
300
2:1
140
2.0
141
1.0
290
     0
  0
SCALE
  5
54F
102
{ACAD_REACTORS
330
541
102
}
330
541
100
AcDbScale
 70
     0
300
4:1
140
4.0
141
1.0
290
     0
  0
SCALE
  5
550
102
{ACAD_REACTORS
330
541
102
}
330
541
100
AcDbScale
 70
     0
300
8:1
140
8.0
141
1.0
290
     0
  0
SCALE
  5
551
102
{ACAD_REACTORS
330
541
102
}
330
541
100
AcDbScale
 70
     0
300
10:1
140
10.0
141
1.0
290
     0
  0
SCALE
  5
552
102
{ACAD_REACTORS
330
541
102
}
330
541
100
AcDbScale
 70
     0
300
100:1
140
100.0
141
1.0
290
     0
  0
SCALE
  5
553
102
{ACAD_REACTORS
330
541
102
}
330
541
100
AcDbScale
 70
     0
300
1/128" = 1'-0"
140
0.0078125
141
12.0
290
     0
  0
SCALE
  5
554
102
{ACAD_REACTORS
330
541
102
}
330
541
100
AcDbScale
 70
     0
300
1/64" = 1'-0"
140
0.015625
141
12.0
290
     0
  0
SCALE
  5
555
102
{ACAD_REACTORS
330
541
102
}
330
541
100
AcDbScale
 70
     0
300
1/32" = 1'-0"
140
0.03125
141
12.0
290
     0
  0
SCALE
  5
556
102
{ACAD_REACTORS
330
541
102
}
330
541
100
AcDbScale
 70
     0
300
1/16" = 1'-0"
140
0.0625
141
12.0
290
     0
  0
SCALE
  5
557
102
{ACAD_REACTORS
330
541
102
}
330
541
100
AcDbScale
 70
     0
300
3/32" = 1'-0"
140
0.09375
141
12.0
290
     0
  0
SCALE
  5
558
102
{ACAD_REACTORS
330
541
102
}
330
541
100
AcDbScale
 70
     0
300
1/8" = 1'-0"
140
0.125
141
12.0
290
     0
  0
SCALE
  5
559
102
{ACAD_REACTORS
330
541
102
}
330
541
100
AcDbScale
 70
     0
300
3/16" = 1'-0"
140
0.1875
141
12.0
290
     0
  0
SCALE
  5
55A
102
{ACAD_REACTORS
330
541
102
}
330
541
100
AcDbScale
 70
     0
300
1/4" = 1'-0"
140
0.25
141
12.0
290
     0
  0
SCALE
  5
55B
102
{ACAD_REACTORS
330
541
102
}
330
541
100
AcDbScale
 70
     0
300
3/8" = 1'-0"
140
0.375
141
12.0
290
     0
  0
SCALE
  5
55C
102
{ACAD_REACTORS
330
541
102
}
330
541
100
AcDbScale
 70
     0
300
1/2" = 1'-0"
140
0.5
141
12.0
290
     0
  0
SCALE
  5
55D
102
{ACAD_REACTORS
330
541
102
}
330
541
100
AcDbScale
 70
     0
300
3/4" = 1'-0"
140
0.75
141
12.0
290
     0
  0
SCALE
  5
55E
102
{ACAD_REACTORS
330
541
102
}
330
541
100
AcDbScale
 70
     0
300
1" = 1'-0"
140
1.0
141
12.0
290
     0
  0
SCALE
  5
55F
102
{ACAD_REACTORS
330
541
102
}
330
541
100
AcDbScale
 70
     0
300
1-1/2" = 1'-0"
140
1.5
141
12.0
290
     0
  0
SCALE
  5
560
102
{ACAD_REACTORS
330
541
102
}
330
541
100
AcDbScale
 70
     0
300
3" = 1'-0"
140
3.0
141
12.0
290
     0
  0
SCALE
  5
561
102
{ACAD_REACTORS
330
541
102
}
330
541
100
AcDbScale
 70
     0
300
6" = 1'-0"
140
6.0
141
12.0
290
     0
  0
SCALE
  5
562
102
{ACAD_REACTORS
330
541
102
}
330
541
100
AcDbScale
 70
     0
300
1'-0" = 1'-0"
140
12.0
141
12.0
290
     0
  0
TABLESTYLE
  5
538
102
{ACAD_REACTORS
330
537
102
}
330
537
100
AcDbTableStyle
  3
Standard
 70
     0
 71
     0
 40
0.06
 41
0.06
280
     0
281
     0
  7
STANDARD
140
0.18
170
     2
 62
     0
 63
   256
283
     0
274
    -2
284
     1
 64
     0
275
    -2
285
     1
 65
     0
276
    -2
286
     1
 66
     0
277
    -2
287
     1
 67
     0
278
    -2
288
     1
 68
     0
279
    -2
289
     1
 69
     0
  7
STANDARD
140
0.25
170
     5
 62
     0
 63
   256
283
     0
274
    -2
284
     1
 64
     0
275
    -2
285
     1
 65
     0
276
    -2
286
     1
 66
     0
277
    -2
287
     1
 67
     0
278
    -2
288
     1
 68
     0
279
    -2
289
     1
 69
     0
  7
STANDARD
140
0.18
170
     5
 62
     0
 63
   256
283
     0
274
    -2
284
     1
 64
     0
275
    -2
285
     1
 65
     0
276
    -2
286
     1
 66
     0
277
    -2
287
     1
 67
     0
278
    -2
288
     1
 68
     0
279
    -2
289
     1
 69
     0
  0
VISUALSTYLE
  5
52B
102
{ACAD_REACTORS
330
525
102
}
102
{ACAD_XDICTIONARY
360
634
102
}
330
525
100
AcDbVisualStyle
  2
2dWireframe
 70
     4
 71
     0
 72
     2
 73
     0
 90
        0
 40
-0.6
 41
-30.0
 62
     5
 63
     7
 74
     1
 91
        4
 64
     7
 65
   256
 75
     1
175
     1
 42
1.0
 92
        0
 66
   256
 43
1.0
 76
     1
 77
     6
 78
     2
 67
     7
 79
     5
170
     0
171
     0
290
     0
174
     0
 93
        1
 44
0.0
173
     0
291
     0
 45
0.0
1001
ACAD
1000
AcDbSavedByObjectVersion
1070
     0
  0
VISUALSTYLE
  5
52D
102
{ACAD_REACTORS
330
525
102
}
102
{ACAD_XDICTIONARY
360
636
102
}
330
525
100
AcDbVisualStyle
  2
3D Hidden
 70
     6
 71
     1
 72
     2
 73
     2
 90
        0
 40
-0.6
 41
-30.0
 62
     5
 63
     7
 74
     2
 91
        2
 64
     7
 65
   256
 75
     2
175
     1
 42
40.0
 92
        0
 66
   256
 43
1.0
 76
     1
 77
     6
 78
     2
 67
     7
 79
     3
170
     0
171
     0
290
     0
174
     0
 93
        1
 44
0.0
173
     0
291
     0
 45
0.0
1001
ACAD
1000
AcDbSavedByObjectVersion
1070
     0
  0
VISUALSTYLE
  5
52C
102
{ACAD_REACTORS
330
525
102
}
102
{ACAD_XDICTIONARY
360
638
102
}
330
525
100
AcDbVisualStyle
  2
3dWireframe
 70
     5
 71
     0
 72
     2
 73
     0
 90
        0
 40
-0.6
 41
-30.0
 62
     5
 63
     7
 74
     1
 91
        4
 64
     7
 65
   256
 75
     1
175
     1
 42
1.0
 92
        0
 66
   256
 43
1.0
 76
     1
 77
     6
 78
     2
 67
     7
 79
     5
170
     0
171
     0
290
     0
174
     0
 93
        1
 44
0.0
173
     0
291
     0
 45
0.0
1001
ACAD
1000
AcDbSavedByObjectVersion
1070
     0
  0
VISUALSTYLE
  5
52A
102
{ACAD_REACTORS
330
525
102
}
102
{ACAD_XDICTIONARY
360
63A
102
}
330
525
100
AcDbVisualStyle
  2
Basic
 70
     7
 71
     1
 72
     0
 73
     1
 90
        0
 40
-0.6
 41
-30.0
 62
     5
 63
     7
 74
     0
 91
        4
 64
     7
 65
   256
 75
     1
175
     1
 42
1.0
 92
        8
 66
     7
 43
1.0
 76
     1
 77
     6
 78
     2
 67
     7
 79
     5
170
     0
171
     0
290
     0
174
     0
 93
        1
 44
0.0
173
     0
291
     1
 45
0.0
1001
ACAD
1000
AcDbSavedByObjectVersion
1070
     0
  0
VISUALSTYLE
  5
531
102
{ACAD_REACTORS
330
525
102
}
102
{ACAD_XDICTIONARY
360
63C
102
}
330
525
100
AcDbVisualStyle
  2
Brighten
 70
    12
 71
     2
 72
     2
 73
     0
 90
        0
 40
-0.6
 41
-30.0
 62
     5
 63
     7
 74
     1
 91
        4
 64
     7
 65
   256
 75
     1
175
     1
 42
1.0
 92
        8
 66
     7
 43
1.0
 76
     1
 77
     6
 78
     2
 67
     7
 79
     5
170
     0
171
     0
290
     0
174
     0
 93
        1
 44
50.0
173
     0
291
     1
 45
0.0
1001
ACAD
1000
AcDbSavedByObjectVersion
1070
     0
  0
VISUALSTYLE
  5
535
102
{ACAD_REACTORS
330
525
102
}
102
{ACAD_XDICTIONARY
360
63E
102
}
330
525
100
AcDbVisualStyle
  2
ColorChange
 70
    16
 71
     2
 72
     2
 73
     3
 90
        0
 40
-0.6
 41
-30.0
 62
     5
 63
     8
 74
     1
 91
        4
 64
     7
 65
   256
 75
     1
175
     1
 42
1.0
 92
        8
 66
     8
 43
1.0
 76
     1
 77
     6
 78
     2
 67
     7
 79
     5
170
     0
171
     0
290
     0
174
     0
 93
        1
 44
0.0
173
     0
291
     1
 45
0.0
1001
ACAD
1000
AcDbSavedByObjectVersion
1070
     0
  0
VISUALSTYLE
  5
52E
102
{ACAD_REACTORS
330
525
102
}
102
{ACAD_XDICTIONARY
360
640
102
}
330
525
100
AcDbVisualStyle
  2
Conceptual
 70
     9
 71
     3
 72
     2
 73
     0
 90
        0
 40
-0.6
 41
-30.0
 62
     5
 63
     7
 74
     2
 91
        2
 64
     7
 65
   256
 75
     1
175
     1
 42
40.0
 92
        8
 66
     7
 43
1.0
 76
     1
 77
     6
 78
     2
 67
     7
 79
     3
170
     0
171
     0
290
     0
174
     0
 93
        1
 44
0.0
173
     0
291
     0
 45
0.0
1001
ACAD
1000
AcDbSavedByObjectVersion
1070
     0
  0
VISUALSTYLE
  5
530
102
{ACAD_REACTORS
330
525
102
}
102
{ACAD_XDICTIONARY
360
642
102
}
330
525
100
AcDbVisualStyle
  2
Dim
 70
    11
 71
     2
 72
     2
 73
     0
 90
        0
 40
-0.6
 41
-30.0
 62
     5
 63
     7
 74
     1
 91
        4
 64
     7
 65
   256
 75
     1
175
     1
 42
1.0
 92
        8
 66
     7
 43
1.0
 76
     1
 77
     6
 78
     2
 67
     7
 79
     5
170
     0
171
     0
290
     0
174
     0
 93
        1
 44
-50.0
173
     0
291
     1
 45
0.0
1001
ACAD
1000
AcDbSavedByObjectVersion
1070
     0
  0
VISUALSTYLE
  5
534
102
{ACAD_REACTORS
330
525
102
}
102
{ACAD_XDICTIONARY
360
644
102
}
330
525
100
AcDbVisualStyle
  2
Facepattern
 70
    15
 71
     2
 72
     2
 73
     0
 90
        0
 40
-0.6
 41
-30.0
 62
     5
 63
     7
 74
     1
 91
        4
 64
     7
 65
   256
 75
     1
175
     1
 42
1.0
 92
        8
 66
     7
 43
1.0
 76
     1
 77
     6
 78
     2
 67
     7
 79
     5
170
     0
171
     0
290
     0
174
     0
 93
        1
 44
0.0
173
     0
291
     1
 45
0.0
1001
ACAD
1000
AcDbSavedByObjectVersion
1070
     0
  0
VISUALSTYLE
  5
526
102
{ACAD_REACTORS
330
525
102
}
102
{ACAD_XDICTIONARY
360
646
102
}
330
525
100
AcDbVisualStyle
  2
Flat
 70
     0
 71
     2
 72
     1
 73
     1
 90
        2
 40
-0.6
 41
30.0
 62
     5
 63
     7
 74
     0
 91
        4
 64
     7
 65
   256
 75
     1
175
     1
 42
1.0
 92
        8
 66
     7
 43
1.0
 76
     1
 77
     6
 78
     2
 67
     7
 79
     5
170
     0
171
     0
290
     0
174
     0
 93
       13
 44
0.0
173
     0
291
     1
 45
0.0
1001
ACAD
1000
AcDbSavedByObjectVersion
1070
     0
  0
VISUALSTYLE
  5
527
102
{ACAD_REACTORS
330
525
102
}
102
{ACAD_XDICTIONARY
360
648
102
}
330
525
100
AcDbVisualStyle
  2
FlatWithEdges
 70
     1
 71
     2
 72
     1
 73
     1
 90
        2
 40
-0.6
 41
30.0
 62
     5
 63
     7
 74
     1
 91
        4
 64
     7
 65
   256
 75
     1
175
     1
 42
1.0
 92
        0
 66
   256
 43
1.0
 76
     1
 77
     6
 78
     2
 67
     7
 79
     5
170
     0
171
     0
290
     0
174
     0
 93
       13
 44
0.0
173
     0
291
     1
 45
0.0
1001
ACAD
1000
AcDbSavedByObjectVersion
1070
     0
  0
VISUALSTYLE
  5
528
102
{ACAD_REACTORS
330
525
102
}
102
{ACAD_XDICTIONARY
360
64A
102
}
330
525
100
AcDbVisualStyle
  2
Gouraud
 70
     2
 71
     2
 72
     2
 73
     1
 90
        2
 40
-0.6
 41
30.0
 62
     5
 63
     7
 74
     0
 91
        4
 64
     7
 65
   256
 75
     1
175
     1
 42
1.0
 92
        0
 66
     7
 43
1.0
 76
     1
 77
     6
 78
     2
 67
     7
 79
     5
170
     0
171
     0
290
     0
174
     0
 93
       13
 44
0.0
173
     0
291
     1
 45
0.0
1001
ACAD
1000
AcDbSavedByObjectVersion
1070
     0
  0
VISUALSTYLE
  5
529
102
{ACAD_REACTORS
330
525
102
}
102
{ACAD_XDICTIONARY
360
64C
102
}
330
525
100
AcDbVisualStyle
  2
GouraudWithEdges
 70
     3
 71
     2
 72
     2
 73
     1
 90
        2
 40
-0.6
 41
30.0
 62
     5
 63
     7
 74
     1
 91
        4
 64
     7
 65
   256
 75
     1
175
     1
 42
1.0
 92
        0
 66
   256
 43
1.0
 76
     1
 77
     6
 78
     2
 67
     7
 79
     5
170
     0
171
     0
290
     0
174
     0
 93
       13
 44
0.0
173
     0
291
     1
 45
0.0
1001
ACAD
1000
AcDbSavedByObjectVersion
1070
     0
  0
VISUALSTYLE
  5
533
102
{ACAD_REACTORS
330
525
102
}
102
{ACAD_XDICTIONARY
360
64E
102
}
330
525
100
AcDbVisualStyle
  2
Linepattern
 70
    14
 71
     2
 72
     2
 73
     0
 90
        0
 40
-0.6
 41
-30.0
 62
     5
 63
     7
 74
     1
 91
        4
 64
     7
 65
   256
 75
     7
175
     7
 42
1.0
 92
        8
 66
     7
 43
1.0
 76
     1
 77
     6
 78
     2
 67
     7
 79
     5
170
     0
171
     0
290
     0
174
     0
 93
        1
 44
0.0
173
     0
291
     1
 45
0.0
1001
ACAD
1000
AcDbSavedByObjectVersion
1070
     0
  0
VISUALSTYLE
  5
52F
102
{ACAD_REACTORS
330
525
102
}
102
{ACAD_XDICTIONARY
360
650
102
}
330
525
100
AcDbVisualStyle
  2
Realistic
 70
     8
 71
     2
 72
     2
 73
     0
 90
        0
 40
-0.6
 41
-30.0
 62
     5
 63
     7
 74
     1
 91
        0
 64
     7
 65
   256
 75
     1
175
     1
 42
1.0
 92
        8
 66
     8
 43
1.0
 76
     1
 77
     6
 78
     2
 67
     7
 79
     5
170
     0
171
     0
290
     0
174
     0
 93
       13
 44
0.0
173
     0
291
     0
 45
0.0
1001
ACAD
1000
AcDbSavedByObjectVersion
1070
     0
  0
VISUALSTYLE
  5
532
102
{ACAD_REACTORS
330
525
102
}
102
{ACAD_XDICTIONARY
360
652
102
}
330
525
100
AcDbVisualStyle
  2
Thicken
 70
    13
 71
     2
 72
     2
 73
     0
 90
        0
 40
-0.6
 41
-30.0
 62
     5
 63
     7
 74
     1
 91
        4
 64
     7
 65
   256
 75
     1
175
     1
 42
1.0
 92
       12
 66
     7
 43
1.0
 76
     1
 77
     6
 78
     2
 67
     7
 79
     5
170
     0
171
     0
290
     0
174
     0
 93
        1
 44
0.0
173
     0
291
     1
 45
0.0
1001
ACAD
1000
AcDbSavedByObjectVersion
1070
     0
  0
XRECORD
  5
62B
102
{ACAD_REACTORS
330
62A
102
}
330
62A
100
AcDbXrecord
280
     1
340
536
  0
XRECORD
  5
62C
102
{ACAD_REACTORS
330
62A
102
}
330
62A
100
AcDbXrecord
280
     1
340
521
  0
DICTIONARYVAR
  5
629
102
{ACAD_REACTORS
330
53E
102
}
330
53E
100
DictionaryVariables
280
     0
  1
1:1
  0
DICTIONARYVAR
  5
53F
102
{ACAD_REACTORS
330
53E
102
}
330
53E
100
DictionaryVariables
280
     0
  1
Standard
  0
DICTIONARYVAR
  5
5FC
102
{ACAD_REACTORS
330
53E
102
}
330
53E
100
DictionaryVariables
280
     0
  1
1
  0
DICTIONARYVAR
  5
5FD
102
{ACAD_REACTORS
330
53E
102
}
330
53E
100
DictionaryVariables
280
     0
  1
0
  0
DICTIONARYVAR
  5
5F3
102
{ACAD_REACTORS
330
53E
102
}
330
53E
100
DictionaryVariables
280
     0
  1
0
  0
DICTIONARYVAR
  5
5F4
102
{ACAD_REACTORS
330
53E
102
}
330
53E
100
DictionaryVariables
280
     0
  1
0
  0
DICTIONARY
  5
62E
330
523
100
AcDbDictionary
280
     1
281
     1
  3
ACAD_XREC_ROUNDTRIP
360
62F
  0
DICTIONARY
  5
630
330
522
100
AcDbDictionary
280
     1
281
     1
  3
ACAD_XREC_ROUNDTRIP
360
631
  0
DICTIONARY
  5
632
330
524
100
AcDbDictionary
280
     1
281
     1
  3
ACAD_XREC_ROUNDTRIP
360
633
  0
DICTIONARY
  5
634
330
52B
100
AcDbDictionary
280
     1
281
     1
  3
ACAD_XREC_ROUNDTRIP
360
635
  0
DICTIONARY
  5
636
330
52D
100
AcDbDictionary
280
     1
281
     1
  3
ACAD_XREC_ROUNDTRIP
360
637
  0
DICTIONARY
  5
638
330
52C
100
AcDbDictionary
280
     1
281
     1
  3
ACAD_XREC_ROUNDTRIP
360
639
  0
DICTIONARY
  5
63A
330
52A
100
AcDbDictionary
280
     1
281
     1
  3
ACAD_XREC_ROUNDTRIP
360
63B
  0
DICTIONARY
  5
63C
330
531
100
AcDbDictionary
280
     1
281
     1
  3
ACAD_XREC_ROUNDTRIP
360
63D
  0
DICTIONARY
  5
63E
330
535
100
AcDbDictionary
280
     1
281
     1
  3
ACAD_XREC_ROUNDTRIP
360
63F
  0
DICTIONARY
  5
640
330
52E
100
AcDbDictionary
280
     1
281
     1
  3
ACAD_XREC_ROUNDTRIP
360
641
  0
DICTIONARY
  5
642
330
530
100
AcDbDictionary
280
     1
281
     1
  3
ACAD_XREC_ROUNDTRIP
360
643
  0
DICTIONARY
  5
644
330
534
100
AcDbDictionary
280
     1
281
     1
  3
ACAD_XREC_ROUNDTRIP
360
645
  0
DICTIONARY
  5
646
330
526
100
AcDbDictionary
280
     1
281
     1
  3
ACAD_XREC_ROUNDTRIP
360
647
  0
DICTIONARY
  5
648
330
527
100
AcDbDictionary
280
     1
281
     1
  3
ACAD_XREC_ROUNDTRIP
360
649
  0
DICTIONARY
  5
64A
330
528
100
AcDbDictionary
280
     1
281
     1
  3
ACAD_XREC_ROUNDTRIP
360
64B
  0
DICTIONARY
  5
64C
330
529
100
AcDbDictionary
280
     1
281
     1
  3
ACAD_XREC_ROUNDTRIP
360
64D
  0
DICTIONARY
  5
64E
330
533
100
AcDbDictionary
280
     1
281
     1
  3
ACAD_XREC_ROUNDTRIP
360
64F
  0
DICTIONARY
  5
650
330
52F
100
AcDbDictionary
280
     1
281
     1
  3
ACAD_XREC_ROUNDTRIP
360
651
  0
DICTIONARY
  5
652
330
532
100
AcDbDictionary
280
     1
281
     1
  3
ACAD_XREC_ROUNDTRIP
360
653
  0
XRECORD
  5
62F
102
{ACAD_REACTORS
330
62E
102
}
330
62E
100
AcDbXrecord
280
     1
102
MATERIAL
148
0.0
149
0.0
149
0.0
 93
        0
 94
       63
282
     0
 72
     1
 77
     1
171
     1
175
     1
179
     1
273
     0
  0
XRECORD
  5
631
102
{ACAD_REACTORS
330
630
102
}
330
630
100
AcDbXrecord
280
     1
102
MATERIAL
148
0.0
149
0.0
149
0.0
 93
        0
 94
       63
282
     0
 72
     1
 77
     1
171
     1
175
     1
179
     1
273
     0
  0
XRECORD
  5
633
102
{ACAD_REACTORS
330
632
102
}
330
632
100
AcDbXrecord
280
     1
102
MATERIAL
148
0.0
149
0.0
149
0.0
 93
        0
 94
       63
282
     0
 72
     1
 77
     1
171
     1
175
     1
179
     1
273
     0
  0
XRECORD
  5
635
102
{ACAD_REACTORS
330
634
102
}
330
634
100
AcDbXrecord
280
     1
102
RTVSPropertyOp0
 70
     1
102
RTVSPropertyOp1
 70
     1
102
RTVSPropertyOp2
 70
     1
102
RTVSPropertyOp3
 70
     1
102
RTVSPropertyOp4
 70
     1
102
RTVSPropertyOp5
 70
     1
102
RTVSPropertyOp6
 70
     1
102
RTVSPropertyOp7
 70
     1
102
RTVSPropertyOp8
 70
     1
102
RTVSPropertyOp9
 70
     1
102
RTVSPropertyOp10
 70
     1
102
RTVSPropertyOp11
 70
     1
102
RTVSPropertyOp12
 70
     1
102
RTVSPropertyOp13
 70
     1
102
RTVSPropertyOp14
 70
     1
102
RTVSPropertyOp15
 70
     1
102
RTVSPropertyOp16
 70
     1
102
RTVSPropertyOp17
 70
     1
102
RTVSPropertyOp18
 70
     1
102
RTVSPropertyOp19
 70
     1
102
RTVSPropertyOp20
 70
     1
102
RTVSPropertyOp21
 70
     1
102
RTVSPropertyOp22
 70
     1
102
RTVSPropertyOp23
 70
     1
102
RTVSPropertyOp24
 70
     1
102
RTVSPropertyOp25
 70
     1
102
RTVSPropertyOp26
 70
     1
102
RTVSPropertyOp27
 70
     1
102
RTVSPropertyOp28
 70
     1
102
RTVSPropertyOp29
 70
     1
102
RTVSPropertyOp30
 70
     1
102
RTVSPropertyOp31
 70
     1
102
RTVSPropertyOp32
 70
     1
  0
XRECORD
  5
637
102
{ACAD_REACTORS
330
636
102
}
330
636
100
AcDbXrecord
280
     1
102
RTVSPropertyOp0
 70
     1
102
RTVSPropertyOp1
 70
     1
102
RTVSPropertyOp2
 70
     1
102
RTVSPropertyOp3
 70
     1
102
RTVSPropertyOp4
 70
     1
102
RTVSPropertyOp5
 70
     1
102
RTVSPropertyOp6
 70
     1
102
RTVSPropertyOp7
 70
     1
102
RTVSPropertyOp8
 70
     1
102
RTVSPropertyOp9
 70
     1
102
RTVSPropertyOp10
 70
     1
102
RTVSPropertyOp11
 70
     1
102
RTVSPropertyOp12
 70
     1
102
RTVSPropertyOp13
 70
     1
102
RTVSPropertyOp14
 70
     1
102
RTVSPropertyOp15
 70
     1
102
RTVSPropertyOp16
 70
     1
102
RTVSPropertyOp17
 70
     1
102
RTVSPropertyOp18
 70
     1
102
RTVSPropertyOp19
 70
     1
102
RTVSPropertyOp20
 70
     1
102
RTVSPropertyOp21
 70
     1
102
RTVSPropertyOp22
 70
     1
102
RTVSPropertyOp23
 70
     1
102
RTVSPropertyOp24
 70
     1
102
RTVSPropertyOp25
 70
     1
102
RTVSPropertyOp26
 70
     1
102
RTVSPropertyOp27
 70
     1
102
RTVSPropertyOp28
 70
     1
102
RTVSPropertyOp29
 70
     1
102
RTVSPropertyOp30
 70
     1
102
RTVSPropertyOp31
 70
     1
102
RTVSPropertyOp32
 70
     1
  0
XRECORD
  5
639
102
{ACAD_REACTORS
330
638
102
}
330
638
100
AcDbXrecord
280
     1
102
RTVSPropertyOp0
 70
     1
102
RTVSPropertyOp1
 70
     1
102
RTVSPropertyOp2
 70
     1
102
RTVSPropertyOp3
 70
     1
102
RTVSPropertyOp4
 70
     1
102
RTVSPropertyOp5
 70
     1
102
RTVSPropertyOp6
 70
     1
102
RTVSPropertyOp7
 70
     1
102
RTVSPropertyOp8
 70
     1
102
RTVSPropertyOp9
 70
     1
102
RTVSPropertyOp10
 70
     1
102
RTVSPropertyOp11
 70
     1
102
RTVSPropertyOp12
 70
     1
102
RTVSPropertyOp13
 70
     1
102
RTVSPropertyOp14
 70
     1
102
RTVSPropertyOp15
 70
     1
102
RTVSPropertyOp16
 70
     1
102
RTVSPropertyOp17
 70
     1
102
RTVSPropertyOp18
 70
     1
102
RTVSPropertyOp19
 70
     1
102
RTVSPropertyOp20
 70
     1
102
RTVSPropertyOp21
 70
     1
102
RTVSPropertyOp22
 70
     1
102
RTVSPropertyOp23
 70
     1
102
RTVSPropertyOp24
 70
     1
102
RTVSPropertyOp25
 70
     1
102
RTVSPropertyOp26
 70
     1
102
RTVSPropertyOp27
 70
     1
102
RTVSPropertyOp28
 70
     1
102
RTVSPropertyOp29
 70
     1
102
RTVSPropertyOp30
 70
     1
102
RTVSPropertyOp31
 70
     1
102
RTVSPropertyOp32
 70
     1
  0
XRECORD
  5
63B
102
{ACAD_REACTORS
330
63A
102
}
330
63A
100
AcDbXrecord
280
     1
102
RTVSPropertyOp0
 70
     1
102
RTVSPropertyOp1
 70
     1
102
RTVSPropertyOp2
 70
     1
102
RTVSPropertyOp3
 70
     1
102
RTVSPropertyOp4
 70
     1
102
RTVSPropertyOp5
 70
     1
102
RTVSPropertyOp6
 70
     1
102
RTVSPropertyOp7
 70
     1
102
RTVSPropertyOp8
 70
     1
102
RTVSPropertyOp9
 70
     1
102
RTVSPropertyOp10
 70
     1
102
RTVSPropertyOp11
 70
     1
102
RTVSPropertyOp12
 70
     1
102
RTVSPropertyOp13
 70
     1
102
RTVSPropertyOp14
 70
     1
102
RTVSPropertyOp15
 70
     1
102
RTVSPropertyOp16
 70
     1
102
RTVSPropertyOp17
 70
     1
102
RTVSPropertyOp18
 70
     1
102
RTVSPropertyOp19
 70
     1
102
RTVSPropertyOp20
 70
     1
102
RTVSPropertyOp21
 70
     1
102
RTVSPropertyOp22
 70
     1
102
RTVSPropertyOp23
 70
     1
102
RTVSPropertyOp24
 70
     1
102
RTVSPropertyOp25
 70
     1
102
RTVSPropertyOp26
 70
     1
102
RTVSPropertyOp27
 70
     1
102
RTVSPropertyOp28
 70
     1
102
RTVSPropertyOp29
 70
     1
102
RTVSPropertyOp30
 70
     1
102
RTVSPropertyOp31
 70
     1
102
RTVSPropertyOp32
 70
     1
  0
XRECORD
  5
63D
102
{ACAD_REACTORS
330
63C
102
}
330
63C
100
AcDbXrecord
280
     1
102
RTVSPropertyOp0
 70
     1
102
RTVSPropertyOp1
 70
     1
102
RTVSPropertyOp2
 70
     1
102
RTVSPropertyOp3
 70
     1
102
RTVSPropertyOp4
 70
     1
102
RTVSPropertyOp5
 70
     1
102
RTVSPropertyOp6
 70
     1
102
RTVSPropertyOp7
 70
     1
102
RTVSPropertyOp8
 70
     1
102
RTVSPropertyOp9
 70
     1
102
RTVSPropertyOp10
 70
     1
102
RTVSPropertyOp11
 70
     1
102
RTVSPropertyOp12
 70
     1
102
RTVSPropertyOp13
 70
     1
102
RTVSPropertyOp14
 70
     1
102
RTVSPropertyOp15
 70
     1
102
RTVSPropertyOp16
 70
     1
102
RTVSPropertyOp17
 70
     1
102
RTVSPropertyOp18
 70
     1
102
RTVSPropertyOp19
 70
     1
102
RTVSPropertyOp20
 70
     1
102
RTVSPropertyOp21
 70
     1
102
RTVSPropertyOp22
 70
     1
102
RTVSPropertyOp23
 70
     1
102
RTVSPropertyOp24
 70
     1
102
RTVSPropertyOp25
 70
     1
102
RTVSPropertyOp26
 70
     1
102
RTVSPropertyOp27
 70
     1
102
RTVSPropertyOp28
 70
     1
102
RTVSPropertyOp29
 70
     1
102
RTVSPropertyOp30
 70
     1
102
RTVSPropertyOp31
 70
     1
102
RTVSPropertyOp32
 70
     1
  0
XRECORD
  5
63F
102
{ACAD_REACTORS
330
63E
102
}
330
63E
100
AcDbXrecord
280
     1
102
RTVSPropertyOp0
 70
     1
102
RTVSPropertyOp1
 70
     1
102
RTVSPropertyOp2
 70
     1
102
RTVSPropertyOp3
 70
     1
102
RTVSPropertyOp4
 70
     1
102
RTVSPropertyOp5
 70
     1
102
RTVSPropertyOp6
 70
     1
102
RTVSPropertyOp7
 70
     1
102
RTVSPropertyOp8
 70
     1
102
RTVSPropertyOp9
 70
     1
102
RTVSPropertyOp10
 70
     1
102
RTVSPropertyOp11
 70
     1
102
RTVSPropertyOp12
 70
     1
102
RTVSPropertyOp13
 70
     1
102
RTVSPropertyOp14
 70
     1
102
RTVSPropertyOp15
 70
     1
102
RTVSPropertyOp16
 70
     1
102
RTVSPropertyOp17
 70
     1
102
RTVSPropertyOp18
 70
     1
102
RTVSPropertyOp19
 70
     1
102
RTVSPropertyOp20
 70
     1
102
RTVSPropertyOp21
 70
     1
102
RTVSPropertyOp22
 70
     1
102
RTVSPropertyOp23
 70
     1
102
RTVSPropertyOp24
 70
     1
102
RTVSPropertyOp25
 70
     1
102
RTVSPropertyOp26
 70
     1
102
RTVSPropertyOp27
 70
     1
102
RTVSPropertyOp28
 70
     1
102
RTVSPropertyOp29
 70
     1
102
RTVSPropertyOp30
 70
     1
102
RTVSPropertyOp31
 70
     1
102
RTVSPropertyOp32
 70
     1
  0
XRECORD
  5
641
102
{ACAD_REACTORS
330
640
102
}
330
640
100
AcDbXrecord
280
     1
102
RTVSPropertyOp0
 70
     1
102
RTVSPropertyOp1
 70
     1
102
RTVSPropertyOp2
 70
     1
102
RTVSPropertyOp3
 70
     1
102
RTVSPropertyOp4
 70
     1
102
RTVSPropertyOp5
 70
     1
102
RTVSPropertyOp6
 70
     1
102
RTVSPropertyOp7
 70
     1
102
RTVSPropertyOp8
 70
     1
102
RTVSPropertyOp9
 70
     1
102
RTVSPropertyOp10
 70
     1
102
RTVSPropertyOp11
 70
     1
102
RTVSPropertyOp12
 70
     1
102
RTVSPropertyOp13
 70
     1
102
RTVSPropertyOp14
 70
     1
102
RTVSPropertyOp15
 70
     1
102
RTVSPropertyOp16
 70
     1
102
RTVSPropertyOp17
 70
     1
102
RTVSPropertyOp18
 70
     1
102
RTVSPropertyOp19
 70
     1
102
RTVSPropertyOp20
 70
     1
102
RTVSPropertyOp21
 70
     1
102
RTVSPropertyOp22
 70
     1
102
RTVSPropertyOp23
 70
     1
102
RTVSPropertyOp24
 70
     1
102
RTVSPropertyOp25
 70
     1
102
RTVSPropertyOp26
 70
     1
102
RTVSPropertyOp27
 70
     1
102
RTVSPropertyOp28
 70
     1
102
RTVSPropertyOp29
 70
     1
102
RTVSPropertyOp30
 70
     1
102
RTVSPropertyOp31
 70
     1
102
RTVSPropertyOp32
 70
     1
  0
XRECORD
  5
643
102
{ACAD_REACTORS
330
642
102
}
330
642
100
AcDbXrecord
280
     1
102
RTVSPropertyOp0
 70
     1
102
RTVSPropertyOp1
 70
     1
102
RTVSPropertyOp2
 70
     1
102
RTVSPropertyOp3
 70
     1
102
RTVSPropertyOp4
 70
     1
102
RTVSPropertyOp5
 70
     1
102
RTVSPropertyOp6
 70
     1
102
RTVSPropertyOp7
 70
     1
102
RTVSPropertyOp8
 70
     1
102
RTVSPropertyOp9
 70
     1
102
RTVSPropertyOp10
 70
     1
102
RTVSPropertyOp11
 70
     1
102
RTVSPropertyOp12
 70
     1
102
RTVSPropertyOp13
 70
     1
102
RTVSPropertyOp14
 70
     1
102
RTVSPropertyOp15
 70
     1
102
RTVSPropertyOp16
 70
     1
102
RTVSPropertyOp17
 70
     1
102
RTVSPropertyOp18
 70
     1
102
RTVSPropertyOp19
 70
     1
102
RTVSPropertyOp20
 70
     1
102
RTVSPropertyOp21
 70
     1
102
RTVSPropertyOp22
 70
     1
102
RTVSPropertyOp23
 70
     1
102
RTVSPropertyOp24
 70
     1
102
RTVSPropertyOp25
 70
     1
102
RTVSPropertyOp26
 70
     1
102
RTVSPropertyOp27
 70
     1
102
RTVSPropertyOp28
 70
     1
102
RTVSPropertyOp29
 70
     1
102
RTVSPropertyOp30
 70
     1
102
RTVSPropertyOp31
 70
     1
102
RTVSPropertyOp32
 70
     1
  0
XRECORD
  5
645
102
{ACAD_REACTORS
330
644
102
}
330
644
100
AcDbXrecord
280
     1
102
RTVSPropertyOp0
 70
     1
102
RTVSPropertyOp1
 70
     1
102
RTVSPropertyOp2
 70
     1
102
RTVSPropertyOp3
 70
     1
102
RTVSPropertyOp4
 70
     1
102
RTVSPropertyOp5
 70
     1
102
RTVSPropertyOp6
 70
     1
102
RTVSPropertyOp7
 70
     1
102
RTVSPropertyOp8
 70
     1
102
RTVSPropertyOp9
 70
     1
102
RTVSPropertyOp10
 70
     1
102
RTVSPropertyOp11
 70
     1
102
RTVSPropertyOp12
 70
     1
102
RTVSPropertyOp13
 70
     1
102
RTVSPropertyOp14
 70
     1
102
RTVSPropertyOp15
 70
     1
102
RTVSPropertyOp16
 70
     1
102
RTVSPropertyOp17
 70
     1
102
RTVSPropertyOp18
 70
     1
102
RTVSPropertyOp19
 70
     1
102
RTVSPropertyOp20
 70
     1
102
RTVSPropertyOp21
 70
     1
102
RTVSPropertyOp22
 70
     1
102
RTVSPropertyOp23
 70
     1
102
RTVSPropertyOp24
 70
     1
102
RTVSPropertyOp25
 70
     1
102
RTVSPropertyOp26
 70
     1
102
RTVSPropertyOp27
 70
     1
102
RTVSPropertyOp28
 70
     1
102
RTVSPropertyOp29
 70
     1
102
RTVSPropertyOp30
 70
     1
102
RTVSPropertyOp31
 70
     1
102
RTVSPropertyOp32
 70
     1
  0
XRECORD
  5
647
102
{ACAD_REACTORS
330
646
102
}
330
646
100
AcDbXrecord
280
     1
102
RTVSPropertyOp0
 70
     1
102
RTVSPropertyOp1
 70
     1
102
RTVSPropertyOp2
 70
     1
102
RTVSPropertyOp3
 70
     1
102
RTVSPropertyOp4
 70
     1
102
RTVSPropertyOp5
 70
     1
102
RTVSPropertyOp6
 70
     1
102
RTVSPropertyOp7
 70
     1
102
RTVSPropertyOp8
 70
     1
102
RTVSPropertyOp9
 70
     1
102
RTVSPropertyOp10
 70
     1
102
RTVSPropertyOp11
 70
     1
102
RTVSPropertyOp12
 70
     1
102
RTVSPropertyOp13
 70
     1
102
RTVSPropertyOp14
 70
     1
102
RTVSPropertyOp15
 70
     1
102
RTVSPropertyOp16
 70
     1
102
RTVSPropertyOp17
 70
     1
102
RTVSPropertyOp18
 70
     1
102
RTVSPropertyOp19
 70
     1
102
RTVSPropertyOp20
 70
     1
102
RTVSPropertyOp21
 70
     1
102
RTVSPropertyOp22
 70
     1
102
RTVSPropertyOp23
 70
     1
102
RTVSPropertyOp24
 70
     1
102
RTVSPropertyOp25
 70
     1
102
RTVSPropertyOp26
 70
     1
102
RTVSPropertyOp27
 70
     1
102
RTVSPropertyOp28
 70
     1
102
RTVSPropertyOp29
 70
     1
102
RTVSPropertyOp30
 70
     1
102
RTVSPropertyOp31
 70
     1
102
RTVSPropertyOp32
 70
     1
  0
XRECORD
  5
649
102
{ACAD_REACTORS
330
648
102
}
330
648
100
AcDbXrecord
280
     1
102
RTVSPropertyOp0
 70
     1
102
RTVSPropertyOp1
 70
     1
102
RTVSPropertyOp2
 70
     1
102
RTVSPropertyOp3
 70
     1
102
RTVSPropertyOp4
 70
     1
102
RTVSPropertyOp5
 70
     1
102
RTVSPropertyOp6
 70
     1
102
RTVSPropertyOp7
 70
     1
102
RTVSPropertyOp8
 70
     1
102
RTVSPropertyOp9
 70
     1
102
RTVSPropertyOp10
 70
     1
102
RTVSPropertyOp11
 70
     1
102
RTVSPropertyOp12
 70
     1
102
RTVSPropertyOp13
 70
     1
102
RTVSPropertyOp14
 70
     1
102
RTVSPropertyOp15
 70
     1
102
RTVSPropertyOp16
 70
     1
102
RTVSPropertyOp17
 70
     1
102
RTVSPropertyOp18
 70
     1
102
RTVSPropertyOp19
 70
     1
102
RTVSPropertyOp20
 70
     1
102
RTVSPropertyOp21
 70
     1
102
RTVSPropertyOp22
 70
     1
102
RTVSPropertyOp23
 70
     1
102
RTVSPropertyOp24
 70
     1
102
RTVSPropertyOp25
 70
     1
102
RTVSPropertyOp26
 70
     1
102
RTVSPropertyOp27
 70
     1
102
RTVSPropertyOp28
 70
     1
102
RTVSPropertyOp29
 70
     1
102
RTVSPropertyOp30
 70
     1
102
RTVSPropertyOp31
 70
     1
102
RTVSPropertyOp32
 70
     1
  0
XRECORD
  5
64B
102
{ACAD_REACTORS
330
64A
102
}
330
64A
100
AcDbXrecord
280
     1
102
RTVSPropertyOp0
 70
     1
102
RTVSPropertyOp1
 70
     1
102
RTVSPropertyOp2
 70
     1
102
RTVSPropertyOp3
 70
     1
102
RTVSPropertyOp4
 70
     1
102
RTVSPropertyOp5
 70
     1
102
RTVSPropertyOp6
 70
     1
102
RTVSPropertyOp7
 70
     1
102
RTVSPropertyOp8
 70
     1
102
RTVSPropertyOp9
 70
     1
102
RTVSPropertyOp10
 70
     1
102
RTVSPropertyOp11
 70
     1
102
RTVSPropertyOp12
 70
     1
102
RTVSPropertyOp13
 70
     1
102
RTVSPropertyOp14
 70
     1
102
RTVSPropertyOp15
 70
     1
102
RTVSPropertyOp16
 70
     1
102
RTVSPropertyOp17
 70
     1
102
RTVSPropertyOp18
 70
     1
102
RTVSPropertyOp19
 70
     1
102
RTVSPropertyOp20
 70
     1
102
RTVSPropertyOp21
 70
     1
102
RTVSPropertyOp22
 70
     1
102
RTVSPropertyOp23
 70
     1
102
RTVSPropertyOp24
 70
     1
102
RTVSPropertyOp25
 70
     1
102
RTVSPropertyOp26
 70
     1
102
RTVSPropertyOp27
 70
     1
102
RTVSPropertyOp28
 70
     1
102
RTVSPropertyOp29
 70
     1
102
RTVSPropertyOp30
 70
     1
102
RTVSPropertyOp31
 70
     1
102
RTVSPropertyOp32
 70
     1
  0
XRECORD
  5
64D
102
{ACAD_REACTORS
330
64C
102
}
330
64C
100
AcDbXrecord
280
     1
102
RTVSPropertyOp0
 70
     1
102
RTVSPropertyOp1
 70
     1
102
RTVSPropertyOp2
 70
     1
102
RTVSPropertyOp3
 70
     1
102
RTVSPropertyOp4
 70
     1
102
RTVSPropertyOp5
 70
     1
102
RTVSPropertyOp6
 70
     1
102
RTVSPropertyOp7
 70
     1
102
RTVSPropertyOp8
 70
     1
102
RTVSPropertyOp9
 70
     1
102
RTVSPropertyOp10
 70
     1
102
RTVSPropertyOp11
 70
     1
102
RTVSPropertyOp12
 70
     1
102
RTVSPropertyOp13
 70
     1
102
RTVSPropertyOp14
 70
     1
102
RTVSPropertyOp15
 70
     1
102
RTVSPropertyOp16
 70
     1
102
RTVSPropertyOp17
 70
     1
102
RTVSPropertyOp18
 70
     1
102
RTVSPropertyOp19
 70
     1
102
RTVSPropertyOp20
 70
     1
102
RTVSPropertyOp21
 70
     1
102
RTVSPropertyOp22
 70
     1
102
RTVSPropertyOp23
 70
     1
102
RTVSPropertyOp24
 70
     1
102
RTVSPropertyOp25
 70
     1
102
RTVSPropertyOp26
 70
     1
102
RTVSPropertyOp27
 70
     1
102
RTVSPropertyOp28
 70
     1
102
RTVSPropertyOp29
 70
     1
102
RTVSPropertyOp30
 70
     1
102
RTVSPropertyOp31
 70
     1
102
RTVSPropertyOp32
 70
     1
  0
XRECORD
  5
64F
102
{ACAD_REACTORS
330
64E
102
}
330
64E
100
AcDbXrecord
280
     1
102
RTVSPropertyOp0
 70
     1
102
RTVSPropertyOp1
 70
     1
102
RTVSPropertyOp2
 70
     1
102
RTVSPropertyOp3
 70
     1
102
RTVSPropertyOp4
 70
     1
102
RTVSPropertyOp5
 70
     1
102
RTVSPropertyOp6
 70
     1
102
RTVSPropertyOp7
 70
     1
102
RTVSPropertyOp8
 70
     1
102
RTVSPropertyOp9
 70
     1
102
RTVSPropertyOp10
 70
     1
102
RTVSPropertyOp11
 70
     1
102
RTVSPropertyOp12
 70
     1
102
RTVSPropertyOp13
 70
     1
102
RTVSPropertyOp14
 70
     1
102
RTVSPropertyOp15
 70
     1
102
RTVSPropertyOp16
 70
     1
102
RTVSPropertyOp17
 70
     1
102
RTVSPropertyOp18
 70
     1
102
RTVSPropertyOp19
 70
     1
102
RTVSPropertyOp20
 70
     1
102
RTVSPropertyOp21
 70
     1
102
RTVSPropertyOp22
 70
     1
102
RTVSPropertyOp23
 70
     1
102
RTVSPropertyOp24
 70
     1
102
RTVSPropertyOp25
 70
     1
102
RTVSPropertyOp26
 70
     1
102
RTVSPropertyOp27
 70
     1
102
RTVSPropertyOp28
 70
     1
102
RTVSPropertyOp29
 70
     1
102
RTVSPropertyOp30
 70
     1
102
RTVSPropertyOp31
 70
     1
102
RTVSPropertyOp32
 70
     1
  0
XRECORD
  5
651
102
{ACAD_REACTORS
330
650
102
}
330
650
100
AcDbXrecord
280
     1
102
RTVSPropertyOp0
 70
     1
102
RTVSPropertyOp1
 70
     1
102
RTVSPropertyOp2
 70
     1
102
RTVSPropertyOp3
 70
     1
102
RTVSPropertyOp4
 70
     1
102
RTVSPropertyOp5
 70
     1
102
RTVSPropertyOp6
 70
     1
102
RTVSPropertyOp7
 70
     1
102
RTVSPropertyOp8
 70
     1
102
RTVSPropertyOp9
 70
     1
102
RTVSPropertyOp10
 70
     1
102
RTVSPropertyOp11
 70
     1
102
RTVSPropertyOp12
 70
     1
102
RTVSPropertyOp13
 70
     1
102
RTVSPropertyOp14
 70
     1
102
RTVSPropertyOp15
 70
     1
102
RTVSPropertyOp16
 70
     1
102
RTVSPropertyOp17
 70
     1
102
RTVSPropertyOp18
 70
     1
102
RTVSPropertyOp19
 70
     1
102
RTVSPropertyOp20
 70
     1
102
RTVSPropertyOp21
 70
     1
102
RTVSPropertyOp22
 70
     1
102
RTVSPropertyOp23
 70
     1
102
RTVSPropertyOp24
 70
     1
102
RTVSPropertyOp25
 70
     1
102
RTVSPropertyOp26
 70
     1
102
RTVSPropertyOp27
 70
     1
102
RTVSPropertyOp28
 70
     1
102
RTVSPropertyOp29
 70
     1
102
RTVSPropertyOp30
 70
     1
102
RTVSPropertyOp31
 70
     1
102
RTVSPropertyOp32
 70
     1
  0
XRECORD
  5
653
102
{ACAD_REACTORS
330
652
102
}
330
652
100
AcDbXrecord
280
     1
102
RTVSPropertyOp0
 70
     1
102
RTVSPropertyOp1
 70
     1
102
RTVSPropertyOp2
 70
     1
102
RTVSPropertyOp3
 70
     1
102
RTVSPropertyOp4
 70
     1
102
RTVSPropertyOp5
 70
     1
102
RTVSPropertyOp6
 70
     1
102
RTVSPropertyOp7
 70
     1
102
RTVSPropertyOp8
 70
     1
102
RTVSPropertyOp9
 70
     1
102
RTVSPropertyOp10
 70
     1
102
RTVSPropertyOp11
 70
     1
102
RTVSPropertyOp12
 70
     1
102
RTVSPropertyOp13
 70
     1
102
RTVSPropertyOp14
 70
     1
102
RTVSPropertyOp15
 70
     1
102
RTVSPropertyOp16
 70
     1
102
RTVSPropertyOp17
 70
     1
102
RTVSPropertyOp18
 70
     1
102
RTVSPropertyOp19
 70
     1
102
RTVSPropertyOp20
 70
     1
102
RTVSPropertyOp21
 70
     1
102
RTVSPropertyOp22
 70
     1
102
RTVSPropertyOp23
 70
     1
102
RTVSPropertyOp24
 70
     1
102
RTVSPropertyOp25
 70
     1
102
RTVSPropertyOp26
 70
     1
102
RTVSPropertyOp27
 70
     1
102
RTVSPropertyOp28
 70
     1
102
RTVSPropertyOp29
 70
     1
102
RTVSPropertyOp30
 70
     1
102
RTVSPropertyOp31
 70
     1
102
RTVSPropertyOp32
 70
     1
  0
ENDSEC
  0
SECTION
  2
THUMBNAILIMAGE
 90
    16364
310
28000000B40000005500000001000800000000000000000000000000000000000000000000000000FFFFFF000000FF0000FFFF0000FF0000FFFF0000FF000000FF00FF000000000080808000C0C0C0000000FF007F7FFF000000A5005252A50000007F003F3F7F0000004C0026264C000000260013132600003FFF007F9FFF
310
000029A5005267A500001F7F003F4F7F0000134C00262F4C000009260013172600007FFF007FBFFF000052A500527CA500003F7F003F5F7F0000264C0026394C0000132600131C260000BFFF007FDFFF00007CA5005291A500005F7F003F6F7F0000394C0026424C00001C26001321260000FFFF007FFFFF0000A5A50052A5
310
A500007F7F003F7F7F00004C4C00264C4C00002626001326260000FFBF007FFFDF0000A57C0052A59100007F5F003F7F6F00004C3900264C420000261C001326210000FF7F007FFFBF0000A5520052A57C00007F3F003F7F5F00004C2600264C39000026130013261C0000FF3F007FFF9F0000A5290052A56700007F1F003F
310
7F4F00004C1300264C2F00002609001326170000FF00007FFF7F0000A5000052A55200007F00003F7F3F00004C0000264C260000260000132613003FFF00009FFF7F0029A5000067A552001F7F00004F7F3F00134C00002F4C260009260000172613007FFF0000BFFF7F0052A500007CA552003F7F00005F7F3F00264C0000
310
394C2600132600001C261300BFFF0000DFFF7F007CA5000091A552005F7F00006F7F3F00394C0000424C26001C26000021261300FFFF0000FFFF7F00A5A50000A5A552007F7F00007F7F3F004C4C00004C4C26002626000026261300FFBF0000FFDF7F00A57C0000A59152007F5F00007F6F3F004C3900004C422600261C00
310
0026211300FF7F0000FFBF7F00A5520000A57C52007F3F00007F5F3F004C2600004C39260026130000261C1300FF3F0000FF9F7F00A5290000A56752007F1F00007F4F3F004C1300004C2F26002609000026171300FF000000FF7F7F00A5000000A55252007F0000007F3F3F004C0000004C2626002600000026131300FF00
310
3F00FF7F9F00A5002900A55267007F001F007F3F4F004C0013004C262F002600090026131700FF007F00FF7FBF00A5005200A5527C007F003F007F3F5F004C0026004C2639002600130026131C00FF00BF00FF7FDF00A5007C00A55291007F005F007F3F6F004C0039004C26420026001C0026132100FF00FF00FF7FFF00A5
310
00A500A552A5007F007F007F3F7F004C004C004C264C002600260026132600BF00FF00DF7FFF007C00A5009152A5005F007F006F3F7F0039004C0042264C001C002600211326007F00FF00BF7FFF005200A5007C52A5003F007F005F3F7F0026004C0039264C00130026001C1326003F00FF009F7FFF002900A5006752A500
310
1F007F004F3F7F0013004C002F264C000900260017132600000000002D2D2D005B5B5B0089898900B7B7B700B3B3B30000000000000000000000000000000000000000000000000000000000000000000000000000000000000000000000000000000000000000000000000000000000000000000000000000000000000000
310
00000000000000000000000000000000000000000000000000000000000000000000000000000000000000000000000000000000000000000000000000000000000000000000000000000000000000000000000000000000000000000000000000000000000000000000000000000000000000000000000000000000000000
310
00000000000000000000000000000000000000000000000000000000000000000000000000000000000000000000000000000000000000000000000000000000000000000000000000000000000000000000000000000000000000000000000000000000000000000000000000000000000000000000000000000000000000
310
00000000000000000000000000000000000000000000000000000000000000000000000000000000000000000000000000000000000000000000000000000000000000000000000000000000000000000000000000000000000000000000000000000000000000000000000000000000000000000000000000000000000000
310
00000000000000000000000000000000000000000000000000000000000000000000000000000000000000000000000000000000000000000000000000000000000000000000000000000000000000000000000000000000000000000000000000000000000000000000000000000000000000000000000000000000000000
310
00000000000000000000000000000000000000000000000000000000000000000000000000000000000000000000000000000000000000000000000000000000000000000000000000000000000000000000000000000000000000000000000000000000000000000000000000000000000000000000000000000000000000
310
00000000000000000000000000000000000000000000000000000000000000000000000000000000000000000000000000000000000000000000000000000000000000000000000000000000000000000000000000000000000000000000000000000000000000000000000000000000000000000000000000000000000000
310
00000000000000000000000000000000000000000000000000000000000000000000000000000000000000000000000000000000000000000000000000000000000000000000000000000000000000000000000000000000000000000000000000000000000000000000000000000000000000000000000000000000000000
310
000000000000000000000000000000000000000000000000000000000000000000000000000000001F0000000000000000000000000000000000000000000000000000000000000000000000000000000000000000000000000000000000000000000000000000000000000000000000000000000000000000000000000000
310
0000000000000000000000000000000000000000000000000000000000000000000000000000000000000000000000000000000000000000000000000000000000000000000000000000000000000000000000000000000000000000001F000000000000000000000000000000000000000000000000000000000000000000
310
00000000000000000000000000000000000000000000000000000000000000000000000000000000000000000000000000000000000000000000000000000000000000000000000000000000000000000000000000000000000000000000000000000000000000000000000000000000000000000000000000000000000000
310
000005050505050005050505050505050000001F0000000000000000000000000000000000000000000000000000000000000000000000000000000000000000000000000000000000000000000000000000000000000000000000000000000000000000000000000000000000000000000000000000000000000000000000
310
0000000000000000000000000000000000000000000000000000000000000000000000000000000000000000000000000000000000000005050500050505050505050505050000001F000000000000000000000000000000000000000000000000000000000000000000000000000000000000000000000000000000000000
310
00000000000000000000000000000000000000000000000000000000000000000000000000000000000000000000000000000000000000000000000000000000000000000000000000000000000000000000000000000000000000000000000000000000000000000000000000000000000000000000000000000000001F00
310
00000000000000000000000000000000000000000000000000000000000000000000000000000000000000000000000000000000000000000000000000000000000000000000000000000000000000000000000000000000000000000000000000000000000000000000000000000000000000000000000000000000000000
310
0000000000000000000000000000000000000000000000000000000000000000000000000000000000000000000000000000001F000000000000000000000000000000000000000000000000000000000000000000000000000000000000000000000000000000000000000000000000000000000000000000000000000000
310
00000000000000000000000000000000000000000000000000000000000000000000000000000000000000000000000000000000000000000000000000000000000000000000000000000000000000000000000000000000000000000000000000000000000000001F00000000000000000000000000000000000000000000
310
00000000000000000000000000000000000000000000000000000000000000000000000000000000000000000000000000000000000000000000000000000000000000000000000000000000000000000000000000000000000000000000000000000000000000000000000000000000000000000000000000000000000000
310
0000000000000000000000000000000000000000000000000000000000001F000000000000000000000000000000000000000000000000000000000000000000000000000000000000000000000000000000000000000000000000000000000000000000000000000000000000000000000000000000000000000000000000
310
00000000000000000000000000000000000000000000000000000000000000000000000000000000000000000000000000000000000000000000000000000000000000000000000000000000000000000000001F00000000000000000000000000000000000000000000000000000000000000000000000000000000000000
310
00000000000000000000000000000000000000000000000000000000000000000000000000000000000000000000000000000000000000000000000000000000000000000000000000000000000000000000000000000000000000000000000000000000000000000000000000000000000000000000000000000000000000
310
0000000000000000001F000000000000000000000000000000000000000000000000000000000000000000000000000000000000000000000000000000000000000000000000000000000000000000000000000000000000000000000000000000000000000000000000000000000000000000000000000000000000000000
310
00000000000000000000000000000000000000000000000000000000000000000000000000000000000000000000000000000000000000000000000000001F00000000000000000000000000000000000000000000000000000000000000000000000000000000000000000000000000000000000000000000000000000000
310
000000000000000000000000000000000000000000000000000000000000000000000000000000000000000000000000000000000000000000000000000000000000000000000000000000000000000000000000000000000000000000000000000000000000000000000000000000000000001F0000000000000000000000
310
00000000000000000000000000000000000000000000000000000000000000000000000000000000000000000000000000000000000000000000000000000000000000000000000000000000000000000000000000000000000000000000000000000000000000000000000000000000000000000000000000000000000000
310
00000000000000000000000000000000000000000000000000000000000000000000000000000000001F00000000000000000000000000000000000000000000000000000000000000000000000000000000000000000000000000000000000000000000000000000000000000000000000000000000000000000000000000
310
000000000000000000000000000000000000000000000000000000000000000000000000000000000000000000000000000000000000000000000000000000000000000000000000000000000000000000000000000000000000000000001F0000000000000000000000000000000000000000000000000000000000000000
310
00000000000000000000000000000000000000000000000000000000000000000000000000000000000000000000000000000000000000000000000000000000000000000000000000000000000000000000000000000000000000000000000000000000000000000000000000000000000000000000000000000000000000
310
00000000000000000000000000000000000000001F00000000000000000000000000000000000000000000000000000000000000000000000000000000000000000000000000000000000000000000000000000000000000000000000000000000000000000000000000000000000000000000000000000000000000000000
310
000000000000000000000000000000000000000000000000000000000000000000000000000000000000000000000000000000000000000000000000000000000000000000000000001F0000000000000000000000000000000000000000000000000000000000000000000000000000000000000000000000000000000000
310
0000000000000000000000000000000000000000000000000000000000000000000000000000000000000000000000000000000000000000000000000000000000000000000000000000000000000000000000000000000000000000000000000000000000000000000000000000000000000000000000000000000000001F
310
00000000000000000000000000000000000000000000000000000000000000000000000000000000000000000000000000000000000000000000000000000000000000000000000000000000000000000000000000000000000000000000000000000000000000000000000000000000000000000000000000000000000000
310
000000000000000000000000000000000000000000000000000000000000000000000000000000000000000000000000000000001F0000000000000000000000000000000000000000000000000000000000000000000000000000000000000000000000000000000000000000000000000000000000000000000000000000
310
0000000000000000000000000000000000000000000000000000000000000000000000000000000000000000000000000000000000000000000000000000000000000000000000000000000000000000000000000000000000000000000000000000000000000000001F000000000000000000000000000000000000000000
310
00000000000000000000000000000000000000000000000000000000000000000000000000000000000000000000000000000000000000000000000000000000000000000000000000000000000000000000000000000000000000000000000000000000000000000000000000000000000000000000000000000000000000
310
000000000000000000000000000000000000000000000000000000000000001F0000000000000000000000000000000000000000000000000000000000000000000000000000000000000000000000000000000000000000000000000000000000000000000000000000000000000000000000000000000000000000000000
310
0000000000000000000000000000000000000000000000000000000000000000000000000000000000000000000000000000000000000000000000000000000000000000000000000000000000000000000000001F000000000000000000000000000000000000000000000000000000000000000000000000000000000000
310
00000000000000000000000000000000000000000000000000000000000000000000000000000000000000000000000000000000000000000000000000000000000000000000000000000000000000000000000000000000000000000000000000000000000000000000000000000000000000000000000000000000000000
310
000000000000000000001F0000000000000000000000000000000000000000000000000000000000000000000000000000000000000000000000000000000000000000000000000000000000000000000000000000000000000000000000000000000000000000000000000000000000000000000000000000000000000000
310
0000000000000000000000000000000000000000000000000000000000000000000000000000000000000000000000000000000000000000000000000000001F000000000000000000000000000000000000000000000000000000000000000000000000000000000000000000000000000000000000000000000000000000
310
00000000000000000000000000000000000000000000000000000000000000000000000000000000000000000000000000000000000000000000000000000000000000000000000000000000000000000000000000000000000000000000000000000000000000000000000000000000000000001F00000000000000000000
310
00000000000000000000000000000000000000000000000000000000000000000000000000000000000000000000000000000000000000000000000000000000000000000000000000000000000000000000000000000000000000000000000000000000000000000000000000000000000000000000000000000000000000
310
0000000000000000000000000000000000000000000000000000000000000000000000000000000000001F000000000000000000000000000000000000000000000000000000000000000000000000000000000000000000000000000000000000000000000000000000000000000000000000000000000000000000000000
310
00000000000000000000000000000000000000000000000000000000000000000000000000000000000000000000000000000000000000000000000000000000000000000000000000000000000000000000000000000000000000000000001F00000000000000000000000000000000000000000000000000000000000000
310
00000000000000000000000000000000000000000000000000000000000000000000000000000000000000000000000000000000000000000000000000000000000000000000000000000000000000000000000000000000000000000000000000000000000000000000000000000000000000000000000000000000000000
310
0000000000000000000000000000000000000000001F000000000000000000000000000000000000000000000000000000000000000000000000000000000000000000000000000000000000000000000000000000000000000000000000000000000000000000000000000000000000000000000000000000000000000000
310
00000000000000000000000000000000000000000000000000000000000000000000000000070707070700070007070700070700000000000000000000000000000000000000000000001F00000000000000000000000000000000000000000000000000000000000000000000000000000000000000000000000000000000
310
00000000000000000000000000000000000000000000000000000000000000000000000000000000000000000000000000000000000000000000000000000000000000000000000000000000000000000000000000000000000007070707070707070707070707070000000000000000000000000000000000000000000000
310
1F000000000000000000000000000000000000000000000000000000000000000000000000000000000000000000000000000000000000000000000000000000000000000000000000000000000000000000000000000000000000000000000000000000000000000000000000000000000000000000000000000000000000
310
00000000000000000000000000000000070707070000070007070700070700000000000000000000000000000000000000000000001F00000000000000000000000000000000000000000000000000000000000000000000000000000000000000000000000000000000000000000000000000000000000000000000000000
310
000000000000000000000000000000000000000000000000000000000000000000000000000000000000000000000000000000000000000000000000000000000000000000000000000000000000000000000000000000000000000000000000000000000000000000001F0000000000000000000000000000000000000000
310
00000000000000000000000000000000000000000000000000000000000000000000000000000000000000000000000000000000000000000000000000000000000000000000000000000000000000000000000000000000000000000000000000000000000000000000000000000000000000000000000000000000000000
310
00000000000000000000000000000000000000000000000000000000000000001F00000000000000000000000000000000000000000000000000000000000000000000000000000000000000000000000000000000000000000000000000000000000000000000000000000000000000000000000000000000000000000000
310
000000000000000000000000000000000000000000000000000000000000000000000000000000000000000000000000000000000000000000000000000000000000000000000000000000000000000000000000001F0000000000000000000000000000000000000000000000000000000000000000000000000000000000
310
00000000000000000000000000000000000000000000000000000000000000000000000000000000000000000000000000000000000000000000000000000000000000000000000000000000000000000000000000000000000000000000000000000000000000000000000000000000000000000000000000000000000000
310
00000000000000000000001F00000000000000000000000000000000000000000000000000000000000000000000000000000000000000000000000000000000000000000000000000000000000000000000000000000000000000000000000000000000000000000000000000000000000000000000000000000000000000
310
00000000000000000000000000000000000000000000000000D3D3D300000000000000D3D30000000000000000000000000000000000000000000000000000001F0000000000000000000000000000000000000000000000000000000000000000000000000000000000000000000000000000000000000000000000000000
310
0000000000000000000000000000000000000000000000000000000000000000000000000000000000000000000000000000000000000000000000000000000000000000000000000000008484D3D3D3D307D3D3D3D3D300D3D3D307D3D3D3D3D384000000000000000000000000000000000000001F000000000000000000
310
00000000000000000000000000000000000000000000000000000000000000000000000000000000000000000000000000000000000000000000000000000000000000000000000000000000000000000000000000000000000000000000000000000000000000000000000000000000000000000000000000000000000000
310
008400D3D3D3D307D3D3D3D3D3D3D300D307D3D3D3D38484000000000000000000000000000000000000001F0000000000000000000000000000000000000000000000000000000000000000000000000000000000000000000000000000000000000000000000000000000000000000000000000000000000000000000000
310
0000000000000000000000000000000000000000000000000000000000000000000000000000000000000000000000000000000000008484D30000D307D3D300D3D3D30000D307D3D300D38484000000000000000000000000000000000000001F000000000000000000000000000000000000000000000000000000000000
310
00000000000000000000000000000000000000000000000000000000000000000000000000000000000000000000000000000000000000000000000000000000000000000000000000000000000000000000000000000000000000000000000000000000000000000000008400D3D300D307D3D300D3D3D3D300D3D3D3D307
310
840084840000000000000000000000000000000000001F0000000000000000000000000000000000000000000000000000000000000000000000000000000000000000000000000000000000000000000000000000000000000000000000000000000000000000000000000000000000000000000000000000000000000000
310
0000000000000000000000000000000000000000000000000000000000000000008484D3D3D3D307D3D3D3D3D3D3D3D3D3D3D3D3D3848484840000000000000000000000000000000000001F000000000000000000000000000000000000000000000000000000000000000000000000000000000000000000000000000000
310
00000000000000000000000000000000000000000000000000000000000000000000000000000000000000000000000000000000000000000000000000000000000000000000000000000000000000000000000000000084D3D3D3D307D3D3D3D3D3D3D3D3D307D3D307D38484000000000000000000000000000000000000
310
00000000000000000000000000000000000000000000000000000000000000000000000000000000000000000000000000000000000000000000000000000000000000000000000000000000000000000000000000000000000000000000000000000000000000000000000000000000000000000000000000000000000000
310
00000000000000000000000000000000000000000000000000000000000000000000000000000000000000000000000000000000000000000000000000000000000000000000000000000000000000000000000000000000000000000000000000000000000000000000000000000000000000000000000000000000000000
310
00000000000000000000000000000000000000000000000000000000000000000000000000000000000000000000000000000000000000000000000000000000000000000000000000000000000000000000000000000000000000000000000000000000000000000000000000000000000000000000000000000000000000
310
00000000000000000000000000000000000000000000000000000000000000000000000000000000000000000000000000000000000000000000000000000000000000000000000000000000000000000000000000000000000000000000000000000000000000000000000000000000000000000000000000000000000000
310
00000000000000000000000000000000000000000000000000000000000000000000000000000000000000000000000000000000000000000000000000000000000000000000000000000000000000000000000000000000000000000000000000000000000000000000000000000000000000000000000000000000000000
310
00000000000000000000000000000000000000000000000000000000000000000000000000000000000000000000000000000000000000000000000000000000000000000000000000000000000000000000000000000000000000000000000000000000000000000000000000000000000000000000000000000000000000
310
00000000000000000000000000000000000000000000000000000000000000000000000000000000000000000000000000000000000000000000000000000000000000000000000000000000000000000000000000000000000000000000000000000000000000000000000000000000000000000000000000000000000000
310
00000000000000000000000000000000000000000000000000000000000000000000000000000000000000000000000000000000000000000000000000000000000000000000000000000000000000000000000000000000000000000000000000000000000000000000000000000000000000000000000000000000000000
310
00000000000000000000000000000000000000000000008484D3D3D3D3D3D3D3D3D3D3D3D3D3D3D3D3D3D3D3848484000000D3D3000000000000000000000000000000000000000000000000000000000000000000000000000000000000000000000000000000000000000000000000000000000000000000000000000000
310
000000000000000000000000000000000000000000000000000000000000000000000000000000000000000000000000000000000000000000000000000000000000000000000000000000008484D3D3D3D307D3D3D3D3D3D3D3D3D307D307D3D3848484000000D3D3D3D3D300000000000000000000000000000000000000
310
00000000000000000000000000000000000000000000000000000000000000000000000000000000000000000000000000000000000000000000000000000000000000000000000000000000000000000000000000000000000000000000000000000000000000000000000000000000000000000000000000000000000000
310
00008484D3D3D3D307D3D3D3D3D3D3D3D3D307D307D3D38484840000008484000084000000000000000000000000000000000000000000000000000000000000000000000000000000000000000000000000000000000000000000000000000000000000000000000000000000000000000000000000000000000000000000
310
000000000000000000000000000000000000000000000000000000000000000000000000000000000000000000000000000000000000008484D300D3D307D30000D3D30000D3D3D3D30707D3848484000000848484848400000000000000000000000000000000000000000000000000000000000000000000000000000000
310
0000000000000000000000000000000000000000000000000000000000000000000000000000000000000000000000000000000000000000000000000000000000000000000000000000000000000000000000000000000707070707070707000707000707000000000000008484D300D3D307D3D300D3D30000D3D3D3D300
310
07D384848400000084848484D3D30000000000000000000000000000000000000000000000000000000000000000000000000000000000000000000000000000000000000000000000000000000000000000000000000000000000000000000000000000000000000000000000000000000000000000000000000000000000
310
000000000000000000000000000707070707070000070000000707000000000000008484D300D3D307D3D30000D30000D30007D3D3070084848400000084840000D3D3000000000000000000000000000000000000000000000000000000000000000000000000000000000000000000000000000000000000000000000000
310
0000000000000000000000000000000000000000000000000000000000000000000000000000000000000000000000000000000000000000000000000000000000000000000000000000000000000000000000000000008484D300D3D30700D30000D30000D3D307D3D307008484840000008400000084D3D3000000000000
310
00000000000000000000000000000000000000000000000000000000000000000000000000000000000000000000000000000000000000000000000000000000000000000000000000000000000000000000000000000000000000000000000000000000000000000000000000000000000000000000000000000000000000
310
000000000000000000000000070707070707070707070707D30707D3D3D3D3D307078484840000070707070707D3D30000000000000000000000000000000000000000000000000000000000000000000000000000000000000000000000000000000000000000000000000000000000000000000000000000000000000000
310
0000000000000000000000000000000000000000000000000000000000000000000000000000000000000000000000000000000000000000000000000000000000008484D300D3D30700D30000D30000D3D307D3D307078484840000008400000084D3D3000000000000000000000000000000000000000000000000000000
310
00000000000000000000000000000000000000000000000000000000000000000000000000000000000000000000000000000000000000000000000000000000000000000000000000000000000000000000000000000000000000000000000000000000000000000000000000000000000000000000008484D30000D30700
310
D3D300D3000000D30700D3D30784848400000084848484D3D3000000000000000000000000000000000000000000000000000000000000000000000000000000000000000000000000000000000000000000000000000000000000000000000000000000000000000000000000000000000000000000000000000000000000
310
0000000000000000000000000000000000000000000000000000000000000000000000000000000000000000008484D30000D307D3D3D300D3000000D3D3D3D3D30784848400000084848400D3D300000000000000000000000000000000000000000000000000000000000000000000000000000000000000000000000000
310
00000000000000000000000000000000000000000000000000000000000000000000000000000000000000000000000000000000000000000000000000000000000000000000000000000000000000000000000000000000000000000000000000008484D3D3D3D307D3D3D3D3D3D3D3D3D307D3D3D3078484840000008484
310
84848400000000000000000000000000000000000000000000000000000000000000000000000000000000000000000000000000000000000000000000000000000000000000000000000000000000000000000000000000000000000000000000000000000000000000000000000000000000000000000000000000000000
310
0000000000000000000000000000000000000000000000008484D3D3D3D307D3D3D3D3D3D3D3D3D307D3D3D30784848400000084840000840000000000000000000000000000000000000000000000000000000000000000000000000000000000000000000000000000000000000000000000000000000000000000000000
310
0000000000000000000000000000000000000000000000000000000000000000000000000000000000000000000000000000000000000000000000000000000000000000000000000000000000848484D3D3D307D3D3D3D307D3D3D3D3D3D3D3D307848484000000D3D3D384D3000000000000000000000000000000000000
310
00000000000000000000000000000000000000000000000000000000000000000000000000000000000000000000000000000000000000000000000000000000000000000000000000000000000000000000000000000000000000000000000000000000000000000000000000000000000000000000000000000000000000
310
00000000000000000007D30000000700000000D3D3000007070000000000D3D3D300000000000000000000000000000000000000000000000000000000000000000000000000000000000000000000000000000000000000000000000000000000000000000000000000000000000000000000000000000000000000000000
310
00000000000000000000000000000000000000000000000000000000000000000000000000000000000000000000000000000000000000000000000000000000000000070000000000000000000000000000000000000000000000000000000000000000000000000000000000000000000000000000000000000000000000
310
00000000000000000000000000000000000000000000000000000000000000000000000000000000000000000000000000000000000000000000000000000000000000000000000000000000000000000000000000000000000000000000000000000000000000000000000000000000000000000000000000000000000000
310
00000000000000000000000000000000000000000000000000000000000000000000000000000000000000000000000000000000000000000000000000000000000000000000000000000000000000000000000000000000000000000000000000000000000000000000000000000000000000000000000000000000000000
310
00000000000000000000000000000000000000000000000000000000000000000000000000000000000000000000000000000000000000000000000000000000000000000000000000000000000000000000000000000000000000000000000000000000000000000000000000000000000000000000000000000000000000
310
00000000000000000000000000000000000000000000000000000000000000000000000000000000000000000000000000000000000000000000000000000000000000000000000000000000000000000000000000000000000000000000000000000000000000000000000000000000000000000000000000000000000000
310
00000000000000000000000000000000000000000000000000000000000000000000000000000000000000000000000000000000000000000000000000000000000000000000000000000000000000000000000000000000000000000000000000000000000000000000000000000000000000000000000000000000000000
310
00000000000000000000000000000000000000000000000000000000000000000000000000000000000000000000000000000000000000000000000000000000000000000000000000000000000000000000000000000000000000000000000000000000000000000000000000000000000000000000000000000000000000
310
00000000000000000000000000000000000000000000000000000000000000000000000000000000000000000000000000000000000000000000000000000000000000000000000000000000000000000000000000000000000000000000000000000000000000000000000000000000000000000000000000000000000000
310
00000000000000000000000000000000000000000000000000000000000000000000000000000000000000000000000000000000000000000000000000000000000000000000000000000000000000000000000000000000000000000000000000000000000000000000000000000000000000000000000000000000000000
310
00000000000000000000000000000000000000000000000000000000000000000000000000000000000000000000000000000000000000000000000000000000000000000000000000000000000000000000000000000000000000000000000000000000000000000000000000000000000000000000000000000000000000
310
00000000000000000000000000000000000000000000000000000000000000000000000000000000000000000000000000000000000000000000000000000000000000000000000000000000000000000000000000000000000000000000000000000000000000000000000000000000000000000000000000000000000000
310
00000000000000000000000000000000000000000000000000000000000000000000000000000000000000000000000000000000000000000000000000000000000000000000000000000000000000000000000000000000000000000000000000000000000000000000000000000000000000000000000000000000000000
310
00000000000000000000000000000000000000000000000000000000000000000000000000000000000000000000000000000000000000000000000000000000000000000000000000000000000000000000000000000000000000000000000000000000000000000000000000000000000000000000000000000000000000
310
00000000000000000000000000000000000000000000000000000000000000000000000000000000000000000000000000000000000000000000000000000000000000000000000000000000000000000000000000000000000000000000000000000000000000000000000000000000000000000000000000000000000000
310
00000000000000000000000000000000000000000000000000000000000000000000000000000000000000000000000000000000000000000000000000000000000000000000000000000000000000000000000000000000000000000000000000000000000000000000000000000000000000000000000000000000000000
310
00000000000000000000000000000000000000000000000000000000000000000000000000000000000000000000000000000000000000000000000000000000000000000000000000000000000000000000000000000000000000000000000000000000000000000000000000000000000000000000000000000000000000
310
00000000000000000000000000000000000000000000000000000000000000000000000000000000000000000000000000000000000000000000000000000000000000000000000000000000000000000000000000000000000000000000000000000000000000000000000000000000000000000000000000000000000000
310
00000000000000000000000000000000000000000000000000000000000000000000000000000000000000000000000000000000000000000000000000000000000000000000000000000000000000000000000000000000000000000000000000000000000000000000000000000000000000000000000000000000000000
310
00000000000000000000000000000000000000000000000000000000000000000000000000000000000000000000000000000000000000000000000000000000000000000000000000000000000000000000000000000000000000000000000000000000000000000000000000000000000000000000000000000000000000
310
00000000000000000000000000000000000000000000000000000000000000000000000000000000000000000000000000000000000000000000000000000000000000000000000000000000000000000000000000000000000000000000000000000000000000000000000000000000000000000000000000000000000000
310
00000000000000000000000000000000000000000000000000000000000000000000000000000000000000000000000000000000000000000000000000000000000000000000000000000000000000000000000000000000000000000000000000000000000000000000000000000000000000000000000000000000000000
310
00000000000000000000000000000000000000000000000000000000000000000000000000000000000000000000000000000000000000000000000000000000000000000000000000000000000000000000000000000000000000000000000000000000000000000000000000000000000000000000000000000000000000
310
00000000000000000000000000000000000000000000000000000000000000000000000000000000000000000000000000000000000000000000000000000000000000000000000000000000000000000000000000000000000000000000000000000000000000000000000000000000000000000000000000000000000000
310
00000000000000000000000000000000000000000000000000000000000000000000000000000000000000000000000000000000000000000000000000000000000000000000000000000000000000000000000000000000000000000000000000000000000000000000000000000000000000000000000000000000000000
310
00000000000000000000000000000000000000000000000000000000000000000000000000000000000000000000000000000000000000000000000000000000000000000000000000000000000000000000000000000000000000000000000000000000000000000000000000000000000000000000000000000000000000
310
00000000000000000000000000000000000000000000000000000000000000000000000000000000000000000000000000000000000000000000000000000000000000000000000000000000000000000000000000000000000000000000000000000000000000000000000000000000000000000000000000000000000000
310
000000000000000000000000000000000000000000000000000000000000000000000000000000000000000000000000000000000000000000000000000000000000000000000000000000000000000000000000000000000000000000000000000000000000000000000000
  0
ENDSEC
  0
EOF
