  0
SECTION
  2
HEADER
  9
$ACADVER
  1
AC1004
  9
$ANGBASE
 50
0.0000000000
  9
$ANGDIR
 70
     0
  9
$ATTDIA
 70
     0
  9
$ATTMODE
 70
     1
  9
$ATTREQ
 70
     1
  9
$AUNITS
 70
     0
  9
$AUPREC
 70
     0
  9
$AXISMODE
 70
     0
  9
$AXISUNIT
 10
0.0000000000
 20
0.0000000000
  9
$BLIPMODE
 70
     1
  9
$CECOLOR
 62
   256
  9
$CELTYPE
  6
BYLAYER
  9
$CHAMFERA
 40
0.0000000000
  9
$CHAMFERB
 40
0.0000000000
  9
$CLAYER
  8
0
  9
$COORDS
 70
     0
  9
$DIMALT
 70
     0
  9
$DIMALTD
 70
     2
  9
$DIMALTF
 40
25.4000000000
  9
$DIMAPOST
  1

  9
$DIMASO
 70
     1
  9
$DIMASZ
 40
1.9727878460
  9
$DIMBLK
  1

  9
$DIMBLK1
  1

  9
$DIMBLK2
  1

  9
$DIMCEN
 40
9.0000000000E-02
  9
$DIMDLE
 40
0.0000000000
  9
$DIMDLI
 40
0.3800000000
  9
$DIMEXE
 40
3.8099999428
  9
$DIMEXO
 40
2.5399999619
  9
$DIMLFAC
 40
1.0000000000
  9
$DIMLIM
 70
     0
  9
$DIMPOST
  1

  9
$DIMRND
 40
0.0000000000
  9
$DIMSCALE
 40
1.0000000000
  9
$DIMSE1
 70
     0
  9
$DIMSE2
 70
     0
  9
$DIMSHO
 70
     0
  9
$DIMTAD
 70
     0
  9
$DIMTIH
 70
     0
  9
$DIMTM
 40
0.0000000000
  9
$DIMTOH
 70
     1
  9
$DIMTOL
 70
     0
  9
$DIMTP
 40
0.0000000000
  9
$DIMTSZ
 40
0.0000000000
  9
$DIMTXT
 40
2.9999940395
  9
$DIMZIN
 70
     0
  9
$DRAGMODE
 70
     1
  9
$ELEVATION
 40
0.0000000000
  9
$EXTMAX
 10
3.1750000000
 20
224.6332977295
 30
0.0000000000
  9
$EXTMIN
 10
-331.3843505859
 20
-3.1750000000
 30
0.0000000000
  9
$FASTZOOM
 70
     1
  9
$FILLETRAD
 40
6.2500000000E-02
  9
$FILLMODE
 70
     1
  9
$GRIDMODE
 70
     0
  9
$GRIDUNIT
 10
0.0000000000
 20
0.0000000000
  9
$INSBASE
 10
0.0000000000
 20
0.0000000000
 30
0.0000000000
  9
$LIMCHECK
 70
     0
  9
$LIMMAX
 10
3.1750000000
 20
224.6332977295
  9
$LIMMIN
 10
-331.3843505859
 20
-3.1750000000
  9
$LTSCALE
 40
1.0000000000
  9
$LUNITS
 70
     2
  9
$LUPREC
 70
     3
  9
$MEASUREMENT
 70
     0
  9
$MENU
  1
ACAD
  9
$MIRRTEXT
 70
     0
  9
$ORTHOMODE
 70
     0
  9
$OSMODE
 70
     0
  9
$PDMODE
 70
     0
  9
$PDSIZE
 40
0.0000000000
  9
$PLINEWID
 40
0.0000000000
  9
$PROXYGRAPHICS
 70
     0
  9
$QTEXTMODE
 70
     0
  9
$REGENMODE
 70
     1
  9
$SKETCHINC
 40
0.1000000000
  9
$SKPOLY
 70
     0
  9
$SNAPANG
 50
0.0000000000
  9
$SNAPBASE
 10
0.0000000000
 20
0.0000000000
  9
$SNAPISOPAIR
 70
     0
  9
$SNAPMODE
 70
     0
  9
$SNAPSTYLE
 70
     0
  9
$SNAPUNIT
 10
1.0000000000
 20
1.0000000000
  9
$SPLFRAME
 70
     0
  9
$SPLINESEGS
 70
     8
  9
$TDCREATE
 40
2455526.6706828757
  9
$TDINDWG
 40
0.0000000000
  9
$TDUPDATE
 40
2455526.6706828757
  9
$TDUSRTIMER
 40
0.0000000000
  9
$TEXTSIZE
 40
2.9999940395
  9
$TEXTSTYLE
  7
STANDARD
  9
$THICKNESS
 40
0.0000000000
  9
$TRACEWID
 40
5.0000000000E-02
  9
$USERI1
 70
     0
  9
$USERI2
 70
     0
  9
$USERI3
 70
     0
  9
$USERI4
 70
     0
  9
$USERI5
 70
     0
  9
$USERR1
 40
0.0000000000
  9
$USERR2
 40
0.0000000000
  9
$USERR3
 40
0.0000000000
  9
$USERR4
 40
0.0000000000
  9
$USERR5
 40
0.0000000000
  9
$USRTIMER
 70
     1
  9
$VIEWCTR
 10
-164.1046752930
 20
110.7291488647
  9
$VIEWDIR
 10
0.0000000000
 20
0.0000000000
 30
1.0000000000
  9
$VIEWSIZE
 40
227.8082977295
  0
ENDSEC
  0
SECTION
  2
TABLES
  0
TABLE
  2
LTYPE
 70
     2
  0
LTYPE
  2
SOLID
  3
Solid
 70
    64
 72
    65
 73
     0
 40
0.0000000000
  0
LTYPE
  2
CENTER
  3
Center
 70
    64
 72
    65
 73
     4
 40
9.1000000238
 49
6.5000000000
 49
-0.8000000119
 49
1.0000000000
 49
-0.8000000119
  0
ENDTAB
  0
TABLE
  2
LAYER
 70
     3
  0
LAYER
  2
Layer1$C$L1
 70
     0
  6
SOLID
 62
     3
  0
LAYER
  2
Layer6$C$L6
 70
     0
  6
SOLID
 62
    31
  0
LAYER
  2
Layer8$C$L8
 70
     0
  6
SOLID
 62
     7
  0
ENDTAB
  0
TABLE
  2
STYLE
 70
     1
  0
STYLE
  2
STANDARD
  3
txt
  4

 40
0.0000000000
 41
1.0000000000
 42
4.7999906540
 50
0.0000000000
 70
     0
 71
     0
  0
ENDTAB
  0
ENDSEC
  0
SECTION
  2
BLOCKS
  0
BLOCK
  8
Layer6$C$L6
  2
*X0
 70
     1
 10
0.0000000000
 20
0.0000000000
  0
ENDBLK
  8
Layer6$C$L6
  0
BLOCK
  8
Layer6$C$L6
  2
*X1
 70
     1
 10
0.0000000000
 20
0.0000000000
  0
ENDBLK
  8
Layer6$C$L6
  0
BLOCK
  8
Layer6$C$L6
  2
*X2
 70
     1
 10
0.0000000000
 20
0.0000000000
  0
ENDBLK
  8
Layer6$C$L6
  0
BLOCK
  8
Layer6$C$L6
  2
*X3
 70
     1
 10
0.0000000000
 20
0.0000000000
  0
ENDBLK
  8
Layer6$C$L6
  0
BLOCK
  8
Layer6$C$L6
  2
*X4
 70
     1
 10
0.0000000000
 20
0.0000000000
  0
ENDBLK
  8
Layer6$C$L6
  0
BLOCK
  8
Layer6$C$L6
  2
*X5
 70
     1
 10
0.0000000000
 20
0.0000000000
  0
ENDBLK
  8
Layer6$C$L6
  0
BLOCK
  8
Layer6$C$L6
  2
*X6
 70
     1
 10
0.0000000000
 20
0.0000000000
  0
ENDBLK
  8
Layer6$C$L6
  0
BLOCK
  8
Layer6$C$L6
  2
*X7
 70
     1
 10
0.0000000000
 20
0.0000000000
  0
ENDBLK
  8
Layer6$C$L6
  0
BLOCK
  8
Layer8$C$L8
  2
Cadra_attr_0
 70
     2
 10
0.0000000000
 20
0.0000000000
  0
TEXT
  8
Layer8$C$L8
 10
-67.0148148791
 20
25.7682661127
 40
4.1671714783
  1
DD48-F31##*DC24
 41
0.6760579594
 72
     5
 11
-27.5733226337
 21
25.7682661127
  0
ATTDEF
  8
Layer8$C$L8
 10
-47.294069
 20
27.851852
 40
0.156000
  1
ìL>ÄK
  3

  2
10
 70
    11
  0
ENDBLK
  8
Layer8$C$L8
  0
BLOCK
  8
Layer8$C$L8
  2
Cadra_attr_1
 70
     2
 10
0.000000
 20
0.000000
  0
TEXT
  8
Layer8$C$L8
 62
     5
 10
-66.0872999535
 20
16.0000000000
 40
5.0000000000
  1
MA4-P00272B
 41
0.8525090542
 72
     5
 11
-23.4618472432
 21
16.0000000000
  0
ATTDEF
  8
Layer8$C$L8
 62
     5
 10
-44.774575
 20
18.500000
 40
0.156000
  1
  
  3

  2
20
 70
    11
  0
ENDBLK
  8
Layer8$C$L8
  0
ENDSEC
  0
SECTION
  2
ENTITIES
  0
LINE
  8
Layer1$C$L1
 62
     3
 10
-134.7130249605
 20
155.4363578871
 11
-132.6130249605
 21
155.4363578871
  0
LINE
  8
Layer1$C$L1
 62
     3
 10
-134.7130249605
 20
155.7594348101
 11
-132.6130249605
 21
155.7594348101
  0
LINE
  8
Layer1$C$L1
 62
     3
 10
-134.7130249605
 20
155.5978963486
 11
-132.6130249605
 21
155.5978963486
  0
LINE
  8
Layer1$C$L1
 62
     3
 10
-134.7130249605
 20
155.9209732717
 11
-132.6130249605
 21
155.9209732717
  0
LINE
  8
Layer1$C$L1
 62
     3
 10
-134.7130249605
 20
156.0825117332
 11
-132.6130249605
 21
156.0825117332
  0
LINE
  8
Layer1$C$L1
 62
     3
 10
-134.7130249605
 20
156.2440501948
 11
-132.6130249605
 21
156.2440501948
  0
LINE
  8
Layer1$C$L1
 62
     3
 10
-134.7130249605
 20
156.4055886563
 11
-132.6130249605
 21
156.4055886563
  0
LINE
  8
Layer1$C$L1
 62
     3
 10
-134.7130249605
 20
119.4671271178
 11
-132.6130249605
 21
119.4671271178
  0
LINE
  8
Layer1$C$L1
 62
     3
 10
-134.7130249605
 20
119.6286655794
 11
-132.6130249605
 21
119.6286655794
  0
LINE
  8
Layer1$C$L1
 62
     3
 10
-134.7130249605
 20
119.7902040409
 11
-132.6130249605
 21
119.7902040409
  0
LINE
  8
Layer1$C$L1
 62
     3
 10
-134.7130249605
 20
119.9517425024
 11
-132.6130249605
 21
119.9517425024
  0
LINE
  8
Layer1$C$L1
 62
     3
 10
-134.7130249605
 20
120.2748194255
 11
-132.6130249605
 21
120.2748194255
  0
LINE
  8
Layer1$C$L1
 62
     3
 10
-134.7130249605
 20
120.1132809640
 11
-132.6130249605
 21
120.1132809640
  0
LINE
  8
Layer1$C$L1
 62
     3
 10
-134.7130249605
 20
120.4363578871
 11
-132.6130249605
 21
120.4363578871
  0
LINE
  8
Layer1$C$L1
 62
     3
 10
-197.7130249605
 20
120.4363578871
 11
-199.8130249605
 21
120.4363578871
  0
LINE
  8
Layer1$C$L1
 62
     3
 10
-197.7130249605
 20
120.1132809640
 11
-199.8130249605
 21
120.1132809640
  0
LINE
  8
Layer1$C$L1
 62
     3
 10
-197.7130249605
 20
120.2748194255
 11
-199.8130249605
 21
120.2748194255
  0
LINE
  8
Layer1$C$L1
 62
     3
 10
-197.7130249605
 20
119.9517425024
 11
-199.8130249605
 21
119.9517425024
  0
LINE
  8
Layer1$C$L1
 62
     3
 10
-197.7130249605
 20
119.7902040409
 11
-199.8130249605
 21
119.7902040409
  0
LINE
  8
Layer1$C$L1
 62
     3
 10
-197.7130249605
 20
119.6286655794
 11
-199.8130249605
 21
119.6286655794
  0
LINE
  8
Layer1$C$L1
 62
     3
 10
-197.7130249605
 20
119.4671271178
 11
-199.8130249605
 21
119.4671271178
  0
LINE
  8
Layer1$C$L1
 62
     3
 10
-197.7130249605
 20
156.4055886563
 11
-199.8130249605
 21
156.4055886563
  0
LINE
  8
Layer1$C$L1
 62
     3
 10
-197.7130249605
 20
156.2440501948
 11
-199.8130249605
 21
156.2440501948
  0
LINE
  8
Layer1$C$L1
 62
     3
 10
-197.7130249605
 20
156.0825117332
 11
-199.8130249605
 21
156.0825117332
  0
LINE
  8
Layer1$C$L1
 62
     3
 10
-197.7130249605
 20
155.9209732717
 11
-199.8130249605
 21
155.9209732717
  0
LINE
  8
Layer1$C$L1
 62
     3
 10
-197.7130249605
 20
155.5978963486
 11
-199.8130249605
 21
155.5978963486
  0
LINE
  8
Layer1$C$L1
 62
     3
 10
-197.7130249605
 20
155.7594348101
 11
-199.8130249605
 21
155.7594348101
  0
LINE
  8
Layer1$C$L1
 62
     3
 10
-197.7130249605
 20
155.4363578871
 11
-199.8130249605
 21
155.4363578871
  0
INSERT
  8
Layer6$C$L6
  2
*X0
 10
0.000000
 20
0.000000
  0
INSERT
  8
Layer6$C$L6
  2
*X1
 10
0.000000
 20
0.000000
  0
INSERT
  8
Layer6$C$L6
  2
*X2
 10
0.000000
 20
0.000000
  0
INSERT
  8
Layer6$C$L6
  2
*X3
 10
0.000000
 20
0.000000
  0
INSERT
  8
Layer6$C$L6
  2
*X4
 10
0.000000
 20
0.000000
  0
INSERT
  8
Layer6$C$L6
  2
*X5
 10
0.000000
 20
0.000000
  0
INSERT
  8
Layer6$C$L6
  2
*X6
 10
0.000000
 20
0.000000
  0
INSERT
  8
Layer6$C$L6
  2
*X7
 10
0.000000
 20
0.000000
  0
ARC
  8
Layer1$C$L1
 62
     3
 10
-157.1285440922
 20
191.8083169693
 40
0.5000000000
 50
270.0000000000
 51
360.0000000000
  0
ARC
  8
Layer1$C$L1
 62
     3
 10
-157.1285440922
 20
189.8083169693
 40
0.5000000000
 50
0.0000000000
 51
90.0000000000
  0
LINE
  8
Layer1$C$L1
 62
     3
 10
-158.1285440922
 20
190.3083169693
 11
-157.1285440922
 21
190.3083169693
  0
LINE
  8
Layer1$C$L1
 62
     3
 10
-158.1285440922
 20
191.3083169693
 11
-157.1285440922
 21
191.3083169693
  0
ARC
  8
Layer1$C$L1
 62
     3
 10
-158.1285440922
 20
174.1583078140
 40
1.5000000000
 50
270.0000000000
 51
360.0000000000
  0
ARC
  8
Layer1$C$L1
 62
     3
 10
-158.1285440922
 20
214.7583078140
 40
1.5000000000
 50
0.0000000000
 51
90.0000000000
  0
LINE
  8
Layer1$C$L1
 62
     3
 10
-188.4608794829
 20
121.1363578871
 11
-134.7130249605
 21
121.1363578871
  0
LINE
  8
Layer1$C$L1
 62
     3
 10
-197.7130249605
 20
121.1363578871
 11
-190.5815206049
 21
121.1363578871
  0
LINE
  8
Layer1$C$L1
 62
     3
 10
-188.0083025237
 20
124.3563578871
 11
-131.2130249605
 21
124.3563578871
  0
LINE
  8
Layer1$C$L1
 62
     3
 10
-201.2130249605
 20
124.3563578871
 11
-190.1289436456
 21
124.3563578871
  0
LINE
  8
Layer1$C$L1
 62
     3
 10
-187.7721754145
 20
126.0363578871
 11
-134.7130249605
 21
126.0363578871
  0
LINE
  8
Layer1$C$L1
 62
     3
 10
-197.7130249605
 20
126.0363578871
 11
-189.8928165365
 21
126.0363578871
  0
LINE
  8
Layer1$C$L1
 62
     3
 10
-187.2241652799
 20
129.9353469923
 11
-185.3259697542
 21
129.9353469923
  0
LINE
  8
Layer1$C$L1
 62
     3
 10
-191.2427300081
 20
129.9353469923
 11
-189.3448064019
 21
129.9353469923
  0
LINE
  8
Layer1$C$L1
 62
     3
 10
-186.9880372700
 20
131.6153534010
 11
-185.0902420625
 21
131.6153534010
  0
LINE
  8
Layer1$C$L1
 62
     3
 10
-191.0064735994
 20
131.6153534010
 11
-189.1086783920
 21
131.6153534010
  0
LINE
  8
Layer1$C$L1
 62
     3
 10
-186.2176723961
 20
137.0963546827
 11
-184.3195488557
 21
137.0963546827
  0
LINE
  8
Layer1$C$L1
 62
     3
 10
-190.2362930879
 20
137.0963546827
 11
-188.3383135181
 21
137.0963546827
  0
LINE
  8
Layer1$C$L1
 62
     3
 10
-185.9815443862
 20
138.7763610914
 11
-184.0838211641
 21
138.7763610914
  0
LINE
  8
Layer1$C$L1
 62
     3
 10
-190.0000527010
 20
138.7763610914
 11
-188.1021855082
 21
138.7763610914
  0
LINE
  8
Layer1$C$L1
 62
     3
 10
-185.2111795124
 20
144.2573623731
 11
-183.3131279573
 21
144.2573623731
  0
LINE
  8
Layer1$C$L1
 62
     3
 10
-189.2298721895
 20
144.2573623731
 11
-187.3318206344
 21
144.2573623731
  0
LINE
  8
Layer1$C$L1
 62
     3
 10
-184.9750537544
 20
145.9373527601
 11
-183.0774002657
 21
145.9373527601
  0
LINE
  8
Layer1$C$L1
 62
     3
 10
-188.9936157808
 20
145.9373527601
 11
-187.0956948763
 21
145.9373527601
  0
LINE
  8
Layer1$C$L1
 62
     3
 10
-184.4270413679
 20
149.8363578871
 11
-134.7130249605
 21
149.8363578871
  0
LINE
  8
Layer1$C$L1
 62
     3
 10
-197.7130249605
 20
149.8363578871
 11
-186.5476824899
 21
149.8363578871
  0
LINE
  8
Layer1$C$L1
 62
     3
 10
-184.1909142587
 20
151.5163578871
 11
-131.2130249605
 21
151.5163578871
  0
LINE
  8
Layer1$C$L1
 62
     3
 10
-201.2130249605
 20
151.5163578871
 11
-186.3115553807
 21
151.5163578871
  0
LINE
  8
Layer1$C$L1
 62
     3
 10
-183.7383372995
 20
154.7363578871
 11
-134.7130249605
 21
154.7363578871
  0
LINE
  8
Layer1$C$L1
 62
     3
 10
-197.7130249605
 20
154.7363578871
 11
-185.8589784215
 21
154.7363578871
  0
LINE
  8
Layer1$C$L1
 62
     3
 10
-183.4923715608
 20
156.4863578871
 11
-188.7068452216
 21
119.3863578871
  0
LINE
  8
Layer1$C$L1
 62
     3
 10
-185.6130126827
 20
156.4863578871
 11
-190.8274863436
 21
119.3863578871
  0
LINE
  8
Layer1$C$L1
  6
CENTER
 62
     3
 10
-260.2482785893
 20
163.5481492306
 11
-260.2482785893
 21
76.8407096020
  0
LINE
  8
Layer1$C$L1
 62
     3
 10
-197.7130249605
 20
119.3863578871
 11
-197.7130249605
 21
156.4863578871
  0
LINE
  8
Layer1$C$L1
 62
     3
 10
-202.6130249605
 20
122.1863578871
 11
-202.6130249605
 21
153.6863578871
  0
LINE
  8
Layer1$C$L1
 62
     3
 10
-197.7130249605
 20
121.1363578871
 11
-201.5630249605
 21
121.1363578871
  0
LINE
  8
Layer1$C$L1
 62
     3
 10
-197.7130249605
 20
154.7363578871
 11
-201.5630249605
 21
154.7363578871
  0
ARC
  8
Layer1$C$L1
 62
     3
 10
-201.5630249605
 20
153.6863578871
 40
1.0500000000
 50
90.0000000000
 51
180.0000000000
  0
ARC
  8
Layer1$C$L1
 62
     3
 10
-201.5630249605
 20
122.1863578871
 40
1.0500000000
 50
180.0000000000
 51
270.0000000000
  0
LINE
  8
Layer1$C$L1
 62
     3
 10
-197.7130249605
 20
156.4863578871
 11
-199.8130249605
 21
156.4863578871
  0
LINE
  8
Layer1$C$L1
 62
     3
 10
-199.8130249605
 20
154.7363578871
 11
-199.8130249605
 21
156.4863578871
  0
LINE
  8
Layer1$C$L1
 62
     3
 10
-199.8130249605
 20
121.1363578871
 11
-199.8130249605
 21
119.3863578871
  0
LINE
  8
Layer1$C$L1
 62
     3
 10
-197.7130249605
 20
119.3863578871
 11
-199.8130249605
 21
119.3863578871
  0
LINE
  8
Layer1$C$L1
 62
     3
 10
-134.7130249605
 20
119.3863578871
 11
-132.6130249605
 21
119.3863578871
  0
LINE
  8
Layer1$C$L1
 62
     3
 10
-132.6130249605
 20
121.1363578871
 11
-132.6130249605
 21
119.3863578871
  0
LINE
  8
Layer1$C$L1
 62
     3
 10
-132.6130249605
 20
154.7363578871
 11
-132.6130249605
 21
156.4863578871
  0
LINE
  8
Layer1$C$L1
 62
     3
 10
-134.7130249605
 20
156.4863578871
 11
-132.6130249605
 21
156.4863578871
  0
ARC
  8
Layer1$C$L1
 62
     3
 10
-130.8630249605
 20
122.1863578871
 40
1.0500000000
 50
270.0000000000
 51
360.0000000000
  0
ARC
  8
Layer1$C$L1
 62
     3
 10
-130.8630249605
 20
153.6863578871
 40
1.0500000000
 50
360.0000000000
 51
450.0000000000
  0
LINE
  8
Layer1$C$L1
 62
     3
 10
-134.7130249605
 20
154.7363578871
 11
-130.8630249605
 21
154.7363578871
  0
LINE
  8
Layer1$C$L1
 62
     3
 10
-134.7130249605
 20
121.1363578871
 11
-130.8630249605
 21
121.1363578871
  0
LINE
  8
Layer1$C$L1
 62
     3
 10
-129.8130249605
 20
122.1863578871
 11
-129.8130249605
 21
153.6863578871
  0
LINE
  8
Layer1$C$L1
 62
     3
 10
-134.7130249605
 20
119.3863578871
 11
-134.7130249605
 21
156.4863578871
  0
LINE
  8
Layer1$C$L1
 62
     3
 10
-134.7130249605
 20
121.1363578871
 11
-134.7130249605
 21
154.7363578871
  0
LINE
  8
Layer1$C$L1
 62
     3
 10
-141.3430615804
 20
144.0473335122
 11
-142.0507638645
 21
139.0115542138
  0
CIRCLE
  8
Layer1$C$L1
 62
     3
 10
-139.6168434724
 20
131.0063514784
 40
0.8400031418
  0
LINE
  8
Layer1$C$L1
 62
     3
 10
-149.0064735994
 20
131.6153534010
 11
-143.0902420625
 21
131.6153534010
  0
LINE
  8
Layer1$C$L1
 62
     3
 10
-147.2298721895
 20
144.2573623731
 11
-141.3131279573
 21
144.2573623731
  0
LINE
  8
Layer1$C$L1
 62
     3
 10
-149.2427300081
 20
129.9353469923
 11
-143.3259697542
 21
129.9353469923
  0
LINE
  8
Layer1$C$L1
 62
     3
 10
-146.9936157808
 20
145.9373527601
 11
-141.0774002657
 21
145.9373527601
  0
LINE
  8
Layer1$C$L1
 62
     3
 10
-139.6168473566
 20
144.2573492337
 11
-140.3870199278
 21
138.7763456553
  0
LINE
  8
Layer1$C$L1
 62
     3
 10
-148.9266753961
 20
144.2573397824
 11
-149.6968457379
 21
138.7763520698
  0
LINE
  8
Layer1$C$L1
 62
     3
 10
-149.9330940172
 20
137.0963655574
 11
-150.6738744539
 21
131.8253624781
  0
LINE
  8
Layer1$C$L1
 62
     3
 10
-140.6232675422
 20
137.0963344325
 11
-141.3934401134
 21
131.6153308540
  0
LINE
  8
Layer1$C$L1
 62
     3
 10
-142.3536601095
 20
136.8548573320
 11
-143.0603137306
 21
131.8253537566
  0
LINE
  8
Layer1$C$L1
 62
     3
 10
-148.2557472890
 20
136.9577461237
 11
-148.9770946220
 21
131.8253370790
  0
LINE
  8
Layer1$C$L1
 62
     3
 10
-148.7544855856
 20
137.9363505628
 11
-148.2363107320
 21
137.0963472207
  0
LINE
  8
Layer1$C$L1
 62
     3
 10
-148.0000559600
 20
138.7763524220
 11
-148.7544781703
 21
137.9363502144
  0
LINE
  8
Layer1$C$L1
 62
     3
 10
-149.8742856817
 20
130.7942433598
 11
-150.6738664374
 21
131.8253382673
  0
LINE
  8
Layer1$C$L1
 62
     3
 10
-148.9770935680
 20
131.8253528195
 11
-149.8743106517
 21
130.7942673010
  0
LINE
  8
Layer1$C$L1
 62
     3
 10
-149.7609235573
 20
130.7753580286
 11
-149.0064968382
 21
131.6153562656
  0
LINE
  8
Layer1$C$L1
 62
     3
 10
-149.2427262128
 20
129.9353351475
 11
-149.7609010664
 21
130.7753384896
  0
LINE
  8
Layer1$C$L1
 62
     3
 10
-142.4602648460
 20
130.7910894584
 11
-141.3934641152
 21
131.6153448045
  0
LINE
  8
Layer1$C$L1
 62
     3
 10
-143.0603312451
 20
131.8253544874
 11
-142.4602510942
 21
130.7910998253
  0
LINE
  8
Layer1$C$L1
 62
     3
 10
-142.5720754756
 20
130.7753462041
 11
-143.0902503292
 21
131.6153495462
  0
LINE
  8
Layer1$C$L1
 62
     3
 10
-143.3259899345
 20
129.9353375712
 11
-142.5720807545
 21
130.7753482720
  0
LINE
  8
Layer1$C$L1
 62
     3
 10
-141.4638149488
 20
138.0907208968
 11
-140.3870342405
 21
138.7763710291
  0
LINE
  8
Layer1$C$L1
 62
     3
 10
-142.0507497344
 20
139.0115639524
 11
-141.4637985308
 21
138.0907100985
  0
LINE
  8
Layer1$C$L1
 62
     3
 10
-141.4858408341
 20
137.7683649637
 11
-140.6232745962
 21
137.0963683484
  0
LINE
  8
Layer1$C$L1
 62
     3
 10
-142.3536615019
 20
136.8548596106
 11
-141.4858368704
 21
137.7683541633
  0
LINE
  8
Layer1$C$L1
 62
     3
 10
-141.5656556395
 20
137.9363553863
 11
-142.3195496778
 21
137.0963526399
  0
LINE
  8
Layer1$C$L1
 62
     3
 10
-142.0838255845
 20
138.7763485091
 11
-141.5656507309
 21
137.9363451670
  0
LINE
  8
Layer1$C$L1
 62
     3
 10
-147.8845636156
 20
145.0920936400
 11
-148.9266955336
 21
144.2573402736
  0
LINE
  8
Layer1$C$L1
 62
     3
 10
-147.2592819190
 20
144.0473480905
 11
-147.8845516848
 21
145.0921051979
  0
LINE
  8
Layer1$C$L1
 62
     3
 10
-140.5592259862
 20
145.0973441299
 11
-141.0774008398
 21
145.9373474721
  0
LINE
  8
Layer1$C$L1
 62
     3
 10
-141.3131223914
 20
144.2573596954
 11
-140.5592266760
 21
145.0973394177
  0
LINE
  8
Layer1$C$L1
 62
     3
 10
-147.7480727184
 20
145.0973516267
 11
-146.9936352936
 21
145.9373617836
  0
LINE
  8
Layer1$C$L1
 62
     3
 10
-148.8500294030
 20
137.9542074332
 11
-149.6968498280
 21
138.7763623975
  0
LINE
  8
Layer1$C$L1
 62
     3
 10
-140.4536945619
 20
145.0553500888
 11
-139.6168458584
 21
144.2573541127
  0
LINE
  8
Layer1$C$L1
 62
     3
 10
-148.2557191133
 20
136.9577421681
 11
-148.8500171573
 21
137.8565391890
  0
LINE
  8
Layer1$C$L1
 62
     3
 10
-148.2362930879
 20
137.0963546827
 11
-142.3195488557
 21
137.0963546827
  0
LINE
  8
Layer1$C$L1
 62
     3
 10
-148.0000527010
 20
138.7763610914
 11
-142.0838211641
 21
138.7763610914
  0
LINE
  8
Layer1$C$L1
 62
     3
 10
-148.8500372360
 20
137.8429090189
 11
-149.9331024823
 21
137.0963630382
  0
LINE
  8
Layer1$C$L1
 62
     3
 10
-147.9774974437
 20
138.9380437764
 11
-148.8500509127
 21
137.9541951050
  0
LINE
  8
Layer1$C$L1
 62
     3
 10
-141.3430702990
 20
144.0473433507
 11
-140.4537202098
 21
145.0553503653
  0
LINE
  8
Layer1$C$L1
 62
     3
 10
-147.2298827272
 20
144.2573542805
 11
-147.7480563460
 21
145.0973395746
  0
LINE
  8
Layer1$C$L1
 62
     3
 10
-147.2592812334
 20
144.0473429492
 11
-147.9774787080
 21
138.9380480284
  0
LINE
  8
Layer1$C$L1
 62
     3
 10
-168.2592812334
 20
144.0473429492
 11
-168.9774787080
 21
138.9380480284
  0
LINE
  8
Layer1$C$L1
 62
     3
 10
-168.2298827272
 20
144.2573542805
 11
-168.7480563460
 21
145.0973395746
  0
LINE
  8
Layer1$C$L1
 62
     3
 10
-162.3430702990
 20
144.0473433507
 11
-161.4537202098
 21
145.0553503653
  0
LINE
  8
Layer1$C$L1
 62
     3
 10
-168.9774974437
 20
138.9380437764
 11
-169.8500509127
 21
137.9541951050
  0
LINE
  8
Layer1$C$L1
 62
     3
 10
-169.8500372360
 20
137.8429090189
 11
-170.9331024823
 21
137.0963630382
  0
LINE
  8
Layer1$C$L1
 62
     3
 10
-169.0000527010
 20
138.7763610914
 11
-163.0838211641
 21
138.7763610914
  0
LINE
  8
Layer1$C$L1
 62
     3
 10
-169.2362930879
 20
137.0963546827
 11
-163.3195488557
 21
137.0963546827
  0
LINE
  8
Layer1$C$L1
 62
     3
 10
-169.2557191133
 20
136.9577421681
 11
-169.8500171573
 21
137.8565391890
  0
LINE
  8
Layer1$C$L1
 62
     3
 10
-161.4536945619
 20
145.0553500888
 11
-160.6168458584
 21
144.2573541127
  0
LINE
  8
Layer1$C$L1
 62
     3
 10
-169.8500294030
 20
137.9542074332
 11
-170.6968498280
 21
138.7763623975
  0
LINE
  8
Layer1$C$L1
 62
     3
 10
-168.7480727184
 20
145.0973516267
 11
-167.9936352936
 21
145.9373617836
  0
LINE
  8
Layer1$C$L1
 62
     3
 10
-162.3131223914
 20
144.2573596954
 11
-161.5592266760
 21
145.0973394177
  0
LINE
  8
Layer1$C$L1
 62
     3
 10
-161.5592259862
 20
145.0973441299
 11
-162.0774008398
 21
145.9373474721
  0
LINE
  8
Layer1$C$L1
 62
     3
 10
-168.2592819190
 20
144.0473480905
 11
-168.8845516848
 21
145.0921051979
  0
LINE
  8
Layer1$C$L1
 62
     3
 10
-168.8845636156
 20
145.0920936400
 11
-169.9266955336
 21
144.2573402736
  0
LINE
  8
Layer1$C$L1
 62
     3
 10
-163.0838255845
 20
138.7763485091
 11
-162.5656507309
 21
137.9363451670
  0
LINE
  8
Layer1$C$L1
 62
     3
 10
-162.5656556395
 20
137.9363553863
 11
-163.3195496778
 21
137.0963526399
  0
LINE
  8
Layer1$C$L1
 62
     3
 10
-163.3536615019
 20
136.8548596106
 11
-162.4858368704
 21
137.7683541633
  0
LINE
  8
Layer1$C$L1
 62
     3
 10
-162.4858408341
 20
137.7683649637
 11
-161.6232745962
 21
137.0963683484
  0
LINE
  8
Layer1$C$L1
 62
     3
 10
-163.0507497344
 20
139.0115639524
 11
-162.4637985308
 21
138.0907100985
  0
LINE
  8
Layer1$C$L1
 62
     3
 10
-162.4638149488
 20
138.0907208968
 11
-161.3870342405
 21
138.7763710291
  0
LINE
  8
Layer1$C$L1
 62
     3
 10
-164.3259899345
 20
129.9353375712
 11
-163.5720807545
 21
130.7753482720
  0
LINE
  8
Layer1$C$L1
 62
     3
 10
-163.5720754756
 20
130.7753462041
 11
-164.0902503292
 21
131.6153495462
  0
LINE
  8
Layer1$C$L1
 62
     3
 10
-164.0603312451
 20
131.8253544874
 11
-163.4602510942
 21
130.7910998253
  0
LINE
  8
Layer1$C$L1
 62
     3
 10
-163.4602648460
 20
130.7910894584
 11
-162.3934641152
 21
131.6153448045
  0
LINE
  8
Layer1$C$L1
 62
     3
 10
-170.2427262128
 20
129.9353351475
 11
-170.7609010664
 21
130.7753384896
  0
LINE
  8
Layer1$C$L1
 62
     3
 10
-170.7609235573
 20
130.7753580286
 11
-170.0064968382
 21
131.6153562656
  0
LINE
  8
Layer1$C$L1
 62
     3
 10
-169.9770935680
 20
131.8253528195
 11
-170.8743106517
 21
130.7942673010
  0
LINE
  8
Layer1$C$L1
 62
     3
 10
-170.8742856817
 20
130.7942433598
 11
-171.6738664374
 21
131.8253382673
  0
LINE
  8
Layer1$C$L1
 62
     3
 10
-169.0000559600
 20
138.7763524220
 11
-169.7544781703
 21
137.9363502144
  0
LINE
  8
Layer1$C$L1
 62
     3
 10
-169.7544855856
 20
137.9363505628
 11
-169.2363107320
 21
137.0963472207
  0
LINE
  8
Layer1$C$L1
 62
     3
 10
-169.2557472890
 20
136.9577461237
 11
-169.9770946220
 21
131.8253370790
  0
LINE
  8
Layer1$C$L1
 62
     3
 10
-163.3536601095
 20
136.8548573320
 11
-164.0603137306
 21
131.8253537566
  0
LINE
  8
Layer1$C$L1
 62
     3
 10
-161.6232675422
 20
137.0963344325
 11
-162.3934401134
 21
131.6153308540
  0
LINE
  8
Layer1$C$L1
 62
     3
 10
-170.9330940172
 20
137.0963655574
 11
-171.6738744539
 21
131.8253624781
  0
LINE
  8
Layer1$C$L1
 62
     3
 10
-169.9266753961
 20
144.2573397824
 11
-170.6968457379
 21
138.7763520698
  0
LINE
  8
Layer1$C$L1
 62
     3
 10
-160.6168473566
 20
144.2573492337
 11
-161.3870199278
 21
138.7763456553
  0
LINE
  8
Layer1$C$L1
 62
     3
 10
-167.9936157808
 20
145.9373527601
 11
-162.0774002657
 21
145.9373527601
  0
LINE
  8
Layer1$C$L1
 62
     3
 10
-170.2427300081
 20
129.9353469923
 11
-164.3259697542
 21
129.9353469923
  0
LINE
  8
Layer1$C$L1
 62
     3
 10
-168.2298721895
 20
144.2573623731
 11
-162.3131279573
 21
144.2573623731
  0
LINE
  8
Layer1$C$L1
 62
     3
 10
-170.0064735994
 20
131.6153534010
 11
-164.0902420625
 21
131.6153534010
  0
CIRCLE
  8
Layer1$C$L1
 62
     3
 10
-160.6168434724
 20
131.0063514784
 40
0.8400031418
  0
LINE
  8
Layer1$C$L1
 62
     3
 10
-162.3430615804
 20
144.0473335122
 11
-163.0507638645
 21
139.0115542138
  0
LINE
  8
Layer1$C$L1
 62
     3
 10
-155.7130249605
 20
121.1363578871
 11
-155.7130249605
 21
154.7363578871
  0
LINE
  8
Layer1$C$L1
 62
     3
 10
-176.7130249605
 20
121.1363578871
 11
-176.7130249605
 21
154.7363578871
  0
LINE
  8
Layer1$C$L1
 62
     3
 10
-197.7130249605
 20
121.1363578871
 11
-197.7130249605
 21
154.7363578871
  0
LINE
  8
Layer1$C$L1
 62
     3
 10
-183.3430615804
 20
144.0473335122
 11
-184.0507638645
 21
139.0115542138
  0
CIRCLE
  8
Layer1$C$L1
 62
     3
 10
-181.6168434724
 20
131.0063514784
 40
0.8400031418
  0
LINE
  8
Layer1$C$L1
 62
     3
 10
-181.6168473566
 20
144.2573492337
 11
-182.3870199278
 21
138.7763456553
  0
LINE
  8
Layer1$C$L1
 62
     3
 10
-190.9266753961
 20
144.2573397824
 11
-191.6968457379
 21
138.7763520698
  0
LINE
  8
Layer1$C$L1
 62
     3
 10
-191.9330940172
 20
137.0963655574
 11
-192.6738744539
 21
131.8253624781
  0
LINE
  8
Layer1$C$L1
 62
     3
 10
-182.6232675422
 20
137.0963344325
 11
-183.3934401134
 21
131.6153308540
  0
LINE
  8
Layer1$C$L1
 62
     3
 10
-184.3536601095
 20
136.8548573320
 11
-185.0603137306
 21
131.8253537566
  0
LINE
  8
Layer1$C$L1
 62
     3
 10
-190.2557472890
 20
136.9577461237
 11
-190.9770946220
 21
131.8253370790
  0
LINE
  8
Layer1$C$L1
 62
     3
 10
-190.7544855856
 20
137.9363505628
 11
-190.2363107320
 21
137.0963472207
  0
LINE
  8
Layer1$C$L1
 62
     3
 10
-190.0000559600
 20
138.7763524220
 11
-190.7544781703
 21
137.9363502144
  0
LINE
  8
Layer1$C$L1
 62
     3
 10
-191.8742856817
 20
130.7942433598
 11
-192.6738664374
 21
131.8253382673
  0
LINE
  8
Layer1$C$L1
 62
     3
 10
-190.9770935680
 20
131.8253528195
 11
-191.8743106517
 21
130.7942673010
  0
LINE
  8
Layer1$C$L1
 62
     3
 10
-191.7609235573
 20
130.7753580286
 11
-191.0064968382
 21
131.6153562656
  0
LINE
  8
Layer1$C$L1
 62
     3
 10
-191.2427262128
 20
129.9353351475
 11
-191.7609010664
 21
130.7753384896
  0
LINE
  8
Layer1$C$L1
 62
     3
 10
-184.4602648460
 20
130.7910894584
 11
-183.3934641152
 21
131.6153448045
  0
LINE
  8
Layer1$C$L1
 62
     3
 10
-185.0603312451
 20
131.8253544874
 11
-184.4602510942
 21
130.7910998253
  0
LINE
  8
Layer1$C$L1
 62
     3
 10
-184.5720754756
 20
130.7753462041
 11
-185.0902503292
 21
131.6153495462
  0
LINE
  8
Layer1$C$L1
 62
     3
 10
-185.3259899345
 20
129.9353375712
 11
-184.5720807545
 21
130.7753482720
  0
LINE
  8
Layer1$C$L1
 62
     3
 10
-183.4638149488
 20
138.0907208968
 11
-182.3870342405
 21
138.7763710291
  0
LINE
  8
Layer1$C$L1
 62
     3
 10
-184.0507497344
 20
139.0115639524
 11
-183.4637985308
 21
138.0907100985
  0
LINE
  8
Layer1$C$L1
 62
     3
 10
-183.4858408341
 20
137.7683649637
 11
-182.6232745962
 21
137.0963683484
  0
LINE
  8
Layer1$C$L1
 62
     3
 10
-184.3536615019
 20
136.8548596106
 11
-183.4858368704
 21
137.7683541633
  0
LINE
  8
Layer1$C$L1
 62
     3
 10
-183.5656556395
 20
137.9363553863
 11
-184.3195496778
 21
137.0963526399
  0
LINE
  8
Layer1$C$L1
 62
     3
 10
-184.0838255845
 20
138.7763485091
 11
-183.5656507309
 21
137.9363451670
  0
LINE
  8
Layer1$C$L1
 62
     3
 10
-189.8845636156
 20
145.0920936400
 11
-190.9266955336
 21
144.2573402736
  0
LINE
  8
Layer1$C$L1
 62
     3
 10
-189.2592819190
 20
144.0473480905
 11
-189.8845516848
 21
145.0921051979
  0
LINE
  8
Layer1$C$L1
 62
     3
 10
-182.5592259862
 20
145.0973441299
 11
-183.0774008398
 21
145.9373474721
  0
LINE
  8
Layer1$C$L1
 62
     3
 10
-183.3131223914
 20
144.2573596954
 11
-182.5592266760
 21
145.0973394177
  0
LINE
  8
Layer1$C$L1
 62
     3
 10
-189.7480727184
 20
145.0973516267
 11
-188.9936352936
 21
145.9373617836
  0
LINE
  8
Layer1$C$L1
 62
     3
 10
-190.8500294030
 20
137.9542074332
 11
-191.6968498280
 21
138.7763623975
  0
LINE
  8
Layer1$C$L1
 62
     3
 10
-182.4536945619
 20
145.0553500888
 11
-181.6168458584
 21
144.2573541127
  0
LINE
  8
Layer1$C$L1
 62
     3
 10
-190.2557191133
 20
136.9577421681
 11
-190.8500171573
 21
137.8565391890
  0
LINE
  8
Layer1$C$L1
 62
     3
 10
-190.8500372360
 20
137.8429090189
 11
-191.9331024823
 21
137.0963630382
  0
LINE
  8
Layer1$C$L1
 62
     3
 10
-189.9774974437
 20
138.9380437764
 11
-190.8500509127
 21
137.9541951050
  0
LINE
  8
Layer1$C$L1
 62
     3
 10
-183.3430702990
 20
144.0473433507
 11
-182.4537202098
 21
145.0553503653
  0
LINE
  8
Layer1$C$L1
 62
     3
 10
-189.2298827272
 20
144.2573542805
 11
-189.7480563460
 21
145.0973395746
  0
LINE
  8
Layer1$C$L1
 62
     3
 10
-189.2592812334
 20
144.0473429492
 11
-189.9774787080
 21
138.9380480284
  0
LINE
  8
Layer1$C$L1
 62
     3
 10
-156.6285440922
 20
191.8083169693
 11
-156.6285440922
 21
214.7583078140
  0
LINE
  8
Layer1$C$L1
 62
     3
 10
-156.6285440922
 20
174.9583078140
 11
-156.6285440922
 21
189.8083169693
  0
LINE
  8
Layer1$C$L1
 62
     3
 10
-158.1285440922
 20
172.6583078140
 11
-158.1285440922
 21
216.2583078140
  0
INSERT
  8
Layer8$C$L8
 66
     1
  2
Cadra_attr_0
 10
0.000000
 20
0.000000
  0
ATTRIB
  8
Layer8$C$L8
 10
-47.294069
 20
27.851852
 40
0.156000
  1
ìL>ÄK
  2
10
 70
    11
  0
SEQEND
  8
Layer8$C$L8
  0
LINE
  8
Layer1$C$L1
  6
CENTER
 62
     3
 10
-260.2482785893
 20
221.4583018535
 11
-260.2482785893
 21
167.1989887939
  0
LINE
  8
Layer1$C$L1
 62
     3
 10
-263.1715018363
 20
203.1882864743
 11
-264.1974982286
 21
195.8892937302
  0
LINE
  8
Layer1$C$L1
 62
     3
 10
-263.1295039703
 20
203.4883026617
 11
-263.8697519972
 21
204.6882816533
  0
LINE
  8
Layer1$C$L1
 62
     3
 10
-254.7197719300
 20
203.1882870477
 11
-253.4492718026
 21
204.6282970686
  0
LINE
  8
Layer1$C$L1
 62
     3
 10
-264.1975249939
 20
195.8892876560
 11
-265.4440299495
 21
194.4837895539
  0
LINE
  8
Layer1$C$L1
 62
     3
 10
-265.4440104115
 20
194.3248094309
 11
-266.9912464775
 21
193.2583151727
  0
LINE
  8
Layer1$C$L1
 62
     3
 10
-264.2297467900
 20
195.6583123916
 11
-255.7779874516
 21
195.6583123916
  0
LINE
  8
Layer1$C$L1
 62
     3
 10
-264.5672330570
 20
193.2583032364
 11
-256.1147412968
 21
193.2583032364
  0
LINE
  8
Layer1$C$L1
 62
     3
 10
-264.5949845219
 20
193.0602853584
 11
-265.4439817275
 21
194.3442811026
  0
LINE
  8
Layer1$C$L1
 62
     3
 10
-253.4492351627
 20
204.6282966736
 11
-252.2537370149
 21
203.4883024220
  0
LINE
  8
Layer1$C$L1
 62
     3
 10
-265.4439992214
 20
194.4838071656
 11
-266.6537426857
 21
195.6583142574
  0
LINE
  8
Layer1$C$L1
 62
     3
 10
-263.8697753863
 20
204.6882988706
 11
-262.7920076366
 21
205.8883133805
  0
LINE
  8
Layer1$C$L1
 62
     3
 10
-254.6769892049
 20
203.4883103973
 11
-253.5999953257
 21
204.6882814293
  0
LINE
  8
Layer1$C$L1
 62
     3
 10
-253.5999943403
 20
204.6882881610
 11
-254.3402441311
 21
205.8882929354
  0
LINE
  8
Layer1$C$L1
 62
     3
 10
-263.1715028158
 20
203.1882938189
 11
-264.0647453383
 21
204.6808039723
  0
LINE
  8
Layer1$C$L1
 62
     3
 10
-264.0647623823
 20
204.6807874610
 11
-265.5535222652
 21
203.4882826520
  0
LINE
  8
Layer1$C$L1
 62
     3
 10
-255.7779937664
 20
195.6582944170
 11
-255.0377439755
 21
194.4582896425
  0
LINE
  8
Layer1$C$L1
 62
     3
 10
-255.0377509879
 20
194.4583042416
 11
-256.1147424712
 21
193.2583003181
  0
LINE
  8
Layer1$C$L1
 62
     3
 10
-256.1634736485
 20
192.9133102762
 11
-254.9237241749
 21
194.2183024943
  0
LINE
  8
Layer1$C$L1
 62
     3
 10
-254.9237298372
 20
194.2183179235
 11
-253.6914923546
 21
193.2583227587
  0
LINE
  8
Layer1$C$L1
 62
     3
 10
-255.7307425520
 20
195.9943164788
 11
-254.8922408325
 21
194.6788109732
  0
LINE
  8
Layer1$C$L1
 62
     3
 10
-254.8922642868
 20
194.6788263994
 11
-253.3540061322
 21
195.6583265883
  0
LINE
  8
Layer1$C$L1
 62
     3
 10
-257.5525142664
 20
183.0282787914
 11
-256.4755011521
 21
184.2282940783
  0
LINE
  8
Layer1$C$L1
 62
     3
 10
-256.4754936108
 20
184.2282911241
 11
-257.2157434017
 21
185.4282958985
  0
LINE
  8
Layer1$C$L1
 62
     3
 10
-257.1730018530
 20
185.7283029574
 11
-256.3157444946
 21
184.2507962973
  0
LINE
  8
Layer1$C$L1
 62
     3
 10
-256.3157641400
 20
184.2507814874
 11
-254.7917630960
 21
185.4282891246
  0
LINE
  8
Layer1$C$L1
 62
     3
 10
-266.0049946640
 20
183.0282753289
 11
-266.7452444548
 21
184.2282801034
  0
LINE
  8
Layer1$C$L1
 62
     3
 10
-266.7452765848
 20
184.2283080162
 11
-265.6675241288
 21
185.4283054977
  0
LINE
  8
Layer1$C$L1
 62
     3
 10
-265.6255194572
 20
185.7283005747
 11
-266.9072581482
 21
184.2553212625
  0
LINE
  8
Layer1$C$L1
 62
     3
 10
-266.9072224767
 20
184.2552870608
 11
-268.0494806992
 21
185.7282797858
  0
LINE
  8
Layer1$C$L1
 62
     3
 10
-264.2297514457
 20
195.6583000067
 11
-265.3074974604
 21
194.4582968531
  0
LINE
  8
Layer1$C$L1
 62
     3
 10
-265.3075080537
 20
194.4582973508
 11
-264.5672582629
 21
193.2582925763
  0
LINE
  8
Layer1$C$L1
 62
     3
 10
-264.5950247729
 20
193.0602910092
 11
-265.6255209629
 21
185.7282780882
  0
LINE
  8
Layer1$C$L1
 62
     3
 10
-256.1634716593
 20
192.9133070211
 11
-257.1729768323
 21
185.7283019134
  0
LINE
  8
Layer1$C$L1
 62
     3
 10
-253.6914822774
 20
193.2582743074
 11
-254.7917288078
 21
185.4282691954
  0
LINE
  8
Layer1$C$L1
 62
     3
 10
-266.9912343846
 20
193.2583187716
 11
-268.0494921513
 21
185.7283143727
  0
LINE
  8
Layer1$C$L1
 62
     3
 10
-265.5534934973
 20
203.4882819502
 11
-266.6537368427
 21
195.6582995036
  0
LINE
  8
Layer1$C$L1
 62
     3
 10
-252.2537391551
 20
203.4882954521
 11
-253.3539856855
 21
195.6582903400
  0
LINE
  8
Layer1$C$L1
 62
     3
 10
-262.7919797612
 20
205.8883004898
 11
-254.3402433110
 21
205.8883004898
  0
LINE
  8
Layer1$C$L1
 62
     3
 10
-266.0050000859
 20
183.0282922500
 11
-257.5524854374
 21
183.0282922500
  0
LINE
  8
Layer1$C$L1
 62
     3
 10
-263.1294889164
 20
203.4883142227
 11
-254.6769971562
 21
203.4883142227
  0
LINE
  8
Layer1$C$L1
 62
     3
 10
-265.6674909306
 20
185.4283014053
 11
-257.2157315922
 21
185.4283014053
  0
CIRCLE
  8
Layer1$C$L1
 62
     3
 10
-252.2537336064
 20
184.5582986587
 40
1.2000044882
  0
LINE
  8
Layer1$C$L1
 62
     3
 10
-254.7197594749
 20
203.1882729928
 11
-255.7307627379
 21
195.9943025665
  0
LINE
  8
Layer1$C$L1
 62
     3
 10
-267.2482785893
 20
91.7025250637
 11
-267.2482785893
 21
81.7025250637
  0
LINE
  8
Layer1$C$L1
 62
     3
 10
-268.8482785893
 20
91.7025250637
 11
-268.8482785893
 21
81.7025250637
  0
LINE
  8
Layer1$C$L1
 62
     3
 10
-268.8482785893
 20
81.7025250637
 11
-267.2482785893
 21
81.7025250637
  0
LINE
  8
Layer1$C$L1
 62
     3
 10
-117.1032540396
 20
174.0583078140
 11
-118.7032540396
 21
174.0583078140
  0
LINE
  8
Layer1$C$L1
 62
     3
 10
-117.1032540396
 20
214.8583078140
 11
-118.7032540396
 21
214.8583078140
  0
LINE
  8
Layer1$C$L1
 62
     3
 10
-118.7032540396
 20
174.0583078140
 11
-118.7032540396
 21
214.8583078140
  0
INSERT
  8
Layer8$C$L8
 62
     5
 66
     1
  2
Cadra_attr_1
 10
0.000000
 20
0.000000
  0
ATTRIB
  8
Layer8$C$L8
 62
     5
 10
-44.774575
 20
18.500000
 40
0.156000
  1
  
  2
20
 70
    11
  0
SEQEND
  8
Layer8$C$L8
 62
     5
  0
LINE
  8
Layer1$C$L1
 62
     3
 10
-230.6285440922
 20
216.6583078140
 11
-230.6285440922
 21
218.4583078140
  0
LINE
  8
Layer1$C$L1
  6
CENTER
 62
     3
 10
-238.1285440922
 20
194.4583078140
 11
-154.1285440922
 21
194.4583078140
  0
LINE
  8
Layer1$C$L1
 62
     3
 10
-235.6285440922
 20
211.6583078140
 11
-235.6285440922
 21
213.8583078140
  0
LINE
  8
Layer1$C$L1
 62
     3
 10
-224.6285440922
 20
216.2583078140
 11
-158.1285440922
 21
216.2583078140
  0
LINE
  8
Layer1$C$L1
 62
     3
 10
-225.0285440922
 20
216.6583078140
 11
-230.6285440922
 21
216.6583078140
  0
LINE
  8
Layer1$C$L1
 62
     3
 10
-166.6285440922
 20
173.6583078140
 11
-166.6285440922
 21
215.2583078140
  0
LINE
  8
Layer1$C$L1
 62
     3
 10
-225.0285440922
 20
216.6583078140
 11
-224.6285440922
 21
216.2583078140
  0
ARC
  8
Layer1$C$L1
 62
     3
 10
-167.6285440922
 20
215.2583078140
 40
1.0000000000
 50
360.0000000000
 51
450.0000000000
  0
LINE
  8
Layer1$C$L1
 62
     3
 10
-158.1285440922
 20
213.9583078140
 11
-156.6285440922
 21
213.9583078140
  0
LINE
  8
Layer1$C$L1
 62
     3
 10
-168.2285440922
 20
176.9583078140
 11
-168.2285440922
 21
211.9583078140
  0
ARC
  8
Layer1$C$L1
 62
     3
 10
-167.4285440922
 20
211.9583078140
 40
0.8000000000
 50
0.0000000000
 51
180.0000000000
  0
LINE
  8
Layer1$C$L1
 62
     3
 10
-232.6450741525
 20
218.4583078140
 11
-230.6285440922
 21
218.4583078140
  0
LINE
  8
Layer1$C$L1
 62
     3
 10
-234.0206792369
 20
217.5563969811
 11
-235.6285440922
 21
213.8583078140
  0
ARC
  8
Layer1$C$L1
 62
     3
 10
-232.6450741525
 20
216.9583078140
 40
1.5000000000
 50
90.0000000000
 51
156.5014343240
  0
LINE
  8
Layer1$C$L1
 62
     3
 10
-235.4285440922
 20
211.4583078140
 11
-235.1285440922
 21
211.4583078140
  0
ARC
  8
Layer1$C$L1
 62
     3
 10
-235.4285440922
 20
211.6583078140
 40
0.2000000000
 50
180.0000000000
 51
270.0000000000
  0
LINE
  8
Layer1$C$L1
 62
     3
 10
-235.1285440922
 20
175.5583078140
 11
-235.1285440922
 21
213.3583078140
  0
LINE
  8
Layer1$C$L1
 62
     3
 10
-235.1285440922
 20
212.8583078140
 11
-233.8285440922
 21
212.8583078140
  0
LINE
  8
Layer1$C$L1
 62
     3
 10
-232.0285440922
 20
211.7583078140
 11
-232.0285440922
 21
177.1583078140
  0
LINE
  8
Layer1$C$L1
 62
     3
 10
-234.0285440922
 20
211.7583078140
 11
-232.0285440922
 21
211.7583078140
  0
LINE
  8
Layer1$C$L1
 62
     3
 10
-233.8285440922
 20
211.7583078140
 11
-233.8285440922
 21
212.8583078140
  0
LINE
  8
Layer1$C$L1
 62
     3
 10
-234.0285440922
 20
176.0583078140
 11
-234.0285440922
 21
212.8583078140
  0
LINE
  8
Layer1$C$L1
 62
     3
 10
-232.2285440922
 20
211.7583078140
 11
-232.2285440922
 21
177.1583078140
  0
LINE
  8
Layer1$C$L1
 62
     3
 10
-233.3285440922
 20
211.7583078140
 11
-233.3285440922
 21
213.3583078140
  0
LINE
  8
Layer1$C$L1
 62
     3
 10
-235.1285440922
 20
213.3583078140
 11
-233.3285440922
 21
213.3583078140
  0
LINE
  8
Layer1$C$L1
 62
     3
 10
-233.8285440922
 20
212.8583078140
 11
-233.3285440922
 21
213.3583078140
  0
LINE
  8
Layer1$C$L1
 62
     3
 10
-230.0285440922
 20
196.1583078140
 11
-230.0285440922
 21
192.7583078140
  0
LINE
  8
Layer1$C$L1
 62
     3
 10
-232.0285440922
 20
196.1583078140
 11
-230.0285440922
 21
196.1583078140
  0
LINE
  8
Layer1$C$L1
 62
     3
 10
-232.0285440922
 20
192.7583078140
 11
-230.0285440922
 21
192.7583078140
  0
CIRCLE
  8
Layer1$C$L1
 62
     3
 10
-232.2285440922
 20
217.0583078140
 40
0.8250000000
  0
LINE
  8
Layer1$C$L1
 62
     3
 10
-224.1285440922
 20
216.2583078140
 11
-224.1285440922
 21
215.2583078140
  0
LINE
  8
Layer1$C$L1
 62
     3
 10
-223.1285440922
 20
216.2583078140
 11
-223.1285440922
 21
215.2583078140
  0
LINE
  8
Layer1$C$L1
 62
     3
 10
-219.1285440922
 20
216.2583078140
 11
-219.1285440922
 21
215.2583078140
  0
LINE
  8
Layer1$C$L1
 62
     3
 10
-218.1285440922
 20
216.2583078140
 11
-218.1285440922
 21
215.2583078140
  0
LINE
  8
Layer1$C$L1
 62
     3
 10
-206.9285440922
 20
216.2583078140
 11
-206.9285440922
 21
215.2583078140
  0
LINE
  8
Layer1$C$L1
 62
     3
 10
-201.3285440922
 20
216.2583078140
 11
-201.3285440922
 21
215.2583078140
  0
LINE
  8
Layer1$C$L1
 62
     3
 10
-192.1285440922
 20
216.2583078140
 11
-192.1285440922
 21
215.2583078140
  0
LINE
  8
Layer1$C$L1
 62
     3
 10
-191.1285440922
 20
216.2583078140
 11
-191.1285440922
 21
215.2583078140
  0
LINE
  8
Layer1$C$L1
 62
     3
 10
-196.6285440922
 20
216.2583078140
 11
-196.6285440922
 21
215.2583078140
  0
LINE
  8
Layer1$C$L1
 62
     3
 10
-186.6285440922
 20
216.2583078140
 11
-186.6285440922
 21
215.2583078140
  0
LINE
  8
Layer1$C$L1
 62
     3
 10
-185.6285440922
 20
216.2583078140
 11
-185.6285440922
 21
215.2583078140
  0
LINE
  8
Layer1$C$L1
 62
     3
 10
-197.6285440922
 20
216.2583078140
 11
-197.6285440922
 21
215.2583078140
  0
LINE
  8
Layer1$C$L1
 62
     3
 10
-210.9285440922
 20
216.2583078140
 11
-210.9285440922
 21
213.7583078140
  0
LINE
  8
Layer1$C$L1
 62
     3
 10
-208.3285440922
 20
216.2583078140
 11
-208.3285440922
 21
213.7583078140
  0
LINE
  8
Layer1$C$L1
 62
     3
 10
-224.1285440922
 20
215.2583078140
 11
-223.1285440922
 21
215.2583078140
  0
LINE
  8
Layer1$C$L1
 62
     3
 10
-219.1285440922
 20
215.2583078140
 11
-218.1285440922
 21
215.2583078140
  0
LINE
  8
Layer1$C$L1
 62
     3
 10
-206.9285440922
 20
215.2583078140
 11
-201.3285440922
 21
215.2583078140
  0
LINE
  8
Layer1$C$L1
 62
     3
 10
-197.6285440922
 20
215.2583078140
 11
-196.6285440922
 21
215.2583078140
  0
LINE
  8
Layer1$C$L1
 62
     3
 10
-192.1285440922
 20
215.2583078140
 11
-191.1285440922
 21
215.2583078140
  0
LINE
  8
Layer1$C$L1
 62
     3
 10
-186.6285440922
 20
215.2583078140
 11
-185.6285440922
 21
215.2583078140
  0
LINE
  8
Layer1$C$L1
 62
     3
 10
-181.9285440922
 20
215.2583078140
 11
-176.3285440922
 21
215.2583078140
  0
LINE
  8
Layer1$C$L1
 62
     3
 10
-181.9285440922
 20
216.2583078140
 11
-181.9285440922
 21
215.2583078140
  0
LINE
  8
Layer1$C$L1
 62
     3
 10
-176.3285440922
 20
216.2583078140
 11
-176.3285440922
 21
215.2583078140
  0
LINE
  8
Layer1$C$L1
 62
     3
 10
-174.9285440922
 20
216.2583078140
 11
-174.9285440922
 21
213.7583078140
  0
LINE
  8
Layer1$C$L1
 62
     3
 10
-172.3285440922
 20
216.2583078140
 11
-172.3285440922
 21
213.7583078140
  0
LINE
  8
Layer1$C$L1
 62
     3
 10
-210.9285440922
 20
213.7583078140
 11
-208.3285440922
 21
213.7583078140
  0
LINE
  8
Layer1$C$L1
 62
     3
 10
-174.9285440922
 20
213.7583078140
 11
-172.3285440922
 21
213.7583078140
  0
LINE
  8
Layer1$C$L1
 62
     3
 10
-210.6285440922
 20
216.2583078140
 11
-210.6285440922
 21
214.2583078140
  0
LINE
  8
Layer1$C$L1
 62
     3
 10
-208.6285440922
 20
216.2583078140
 11
-208.6285440922
 21
214.2583078140
  0
LINE
  8
Layer1$C$L1
 62
     3
 10
-172.6285440922
 20
216.2583078140
 11
-172.6285440922
 21
214.2583078140
  0
LINE
  8
Layer1$C$L1
 62
     3
 10
-174.6285440922
 20
216.2583078140
 11
-174.6285440922
 21
214.2583078140
  0
LINE
  8
Layer1$C$L1
 62
     3
 10
-210.6285440922
 20
214.2583078140
 11
-208.6285440922
 21
214.2583078140
  0
LINE
  8
Layer1$C$L1
 62
     3
 10
-174.6285440922
 20
214.2583078140
 11
-172.6285440922
 21
214.2583078140
  0
LINE
  8
Layer1$C$L1
 62
     3
 10
-174.6285440922
 20
174.6583078140
 11
-172.6285440922
 21
174.6583078140
  0
LINE
  8
Layer1$C$L1
 62
     3
 10
-210.6285440922
 20
174.6583078140
 11
-208.6285440922
 21
174.6583078140
  0
LINE
  8
Layer1$C$L1
 62
     3
 10
-174.6285440922
 20
172.6583078140
 11
-174.6285440922
 21
174.6583078140
  0
LINE
  8
Layer1$C$L1
 62
     3
 10
-172.6285440922
 20
172.6583078140
 11
-172.6285440922
 21
174.6583078140
  0
LINE
  8
Layer1$C$L1
 62
     3
 10
-208.6285440922
 20
172.6583078140
 11
-208.6285440922
 21
174.6583078140
  0
LINE
  8
Layer1$C$L1
 62
     3
 10
-210.6285440922
 20
172.6583078140
 11
-210.6285440922
 21
174.6583078140
  0
LINE
  8
Layer1$C$L1
 62
     3
 10
-174.9285440922
 20
175.1583078140
 11
-172.3285440922
 21
175.1583078140
  0
LINE
  8
Layer1$C$L1
 62
     3
 10
-210.9285440922
 20
175.1583078140
 11
-208.3285440922
 21
175.1583078140
  0
LINE
  8
Layer1$C$L1
 62
     3
 10
-172.3285440922
 20
172.6583078140
 11
-172.3285440922
 21
175.1583078140
  0
LINE
  8
Layer1$C$L1
 62
     3
 10
-174.9285440922
 20
172.6583078140
 11
-174.9285440922
 21
175.1583078140
  0
LINE
  8
Layer1$C$L1
 62
     3
 10
-176.3285440922
 20
172.6583078140
 11
-176.3285440922
 21
173.6583078140
  0
LINE
  8
Layer1$C$L1
 62
     3
 10
-181.9285440922
 20
172.6583078140
 11
-181.9285440922
 21
173.6583078140
  0
LINE
  8
Layer1$C$L1
 62
     3
 10
-181.9285440922
 20
173.6583078140
 11
-176.3285440922
 21
173.6583078140
  0
LINE
  8
Layer1$C$L1
 62
     3
 10
-186.6285440922
 20
173.6583078140
 11
-185.6285440922
 21
173.6583078140
  0
LINE
  8
Layer1$C$L1
 62
     3
 10
-192.1285440922
 20
173.6583078140
 11
-191.1285440922
 21
173.6583078140
  0
LINE
  8
Layer1$C$L1
 62
     3
 10
-197.6285440922
 20
173.6583078140
 11
-196.6285440922
 21
173.6583078140
  0
LINE
  8
Layer1$C$L1
 62
     3
 10
-206.9285440922
 20
173.6583078140
 11
-201.3285440922
 21
173.6583078140
  0
LINE
  8
Layer1$C$L1
 62
     3
 10
-219.1285440922
 20
173.6583078140
 11
-218.1285440922
 21
173.6583078140
  0
LINE
  8
Layer1$C$L1
 62
     3
 10
-224.1285440922
 20
173.6583078140
 11
-223.1285440922
 21
173.6583078140
  0
LINE
  8
Layer1$C$L1
 62
     3
 10
-208.3285440922
 20
172.6583078140
 11
-208.3285440922
 21
175.1583078140
  0
LINE
  8
Layer1$C$L1
 62
     3
 10
-210.9285440922
 20
172.6583078140
 11
-210.9285440922
 21
175.1583078140
  0
LINE
  8
Layer1$C$L1
 62
     3
 10
-197.6285440922
 20
172.6583078140
 11
-197.6285440922
 21
173.6583078140
  0
LINE
  8
Layer1$C$L1
 62
     3
 10
-185.6285440922
 20
172.6583078140
 11
-185.6285440922
 21
173.6583078140
  0
LINE
  8
Layer1$C$L1
 62
     3
 10
-186.6285440922
 20
172.6583078140
 11
-186.6285440922
 21
173.6583078140
  0
LINE
  8
Layer1$C$L1
 62
     3
 10
-196.6285440922
 20
172.6583078140
 11
-196.6285440922
 21
173.6583078140
  0
LINE
  8
Layer1$C$L1
 62
     3
 10
-191.1285440922
 20
172.6583078140
 11
-191.1285440922
 21
173.6583078140
  0
LINE
  8
Layer1$C$L1
 62
     3
 10
-192.1285440922
 20
172.6583078140
 11
-192.1285440922
 21
173.6583078140
  0
LINE
  8
Layer1$C$L1
 62
     3
 10
-201.3285440922
 20
172.6583078140
 11
-201.3285440922
 21
173.6583078140
  0
LINE
  8
Layer1$C$L1
 62
     3
 10
-206.9285440922
 20
172.6583078140
 11
-206.9285440922
 21
173.6583078140
  0
LINE
  8
Layer1$C$L1
 62
     3
 10
-218.1285440922
 20
172.6583078140
 11
-218.1285440922
 21
173.6583078140
  0
LINE
  8
Layer1$C$L1
 62
     3
 10
-219.1285440922
 20
172.6583078140
 11
-219.1285440922
 21
173.6583078140
  0
LINE
  8
Layer1$C$L1
 62
     3
 10
-223.1285440922
 20
172.6583078140
 11
-223.1285440922
 21
173.6583078140
  0
LINE
  8
Layer1$C$L1
 62
     3
 10
-224.1285440922
 20
172.6583078140
 11
-224.1285440922
 21
173.6583078140
  0
LINE
  8
Layer1$C$L1
 62
     3
 10
-215.6285440922
 20
172.6583078140
 11
-215.6285440922
 21
176.5583078140
  0
CIRCLE
  8
Layer1$C$L1
 62
     3
 10
-232.2285440922
 20
171.8583078140
 40
0.8250000000
  0
LINE
  8
Layer1$C$L1
 62
     3
 10
-233.8285440922
 20
176.0583078140
 11
-233.3285440922
 21
175.5583078140
  0
LINE
  8
Layer1$C$L1
 62
     3
 10
-235.1285440922
 20
175.5583078140
 11
-233.3285440922
 21
175.5583078140
  0
LINE
  8
Layer1$C$L1
 62
     3
 10
-233.3285440922
 20
177.1583078140
 11
-233.3285440922
 21
175.5583078140
  0
LINE
  8
Layer1$C$L1
 62
     3
 10
-233.8285440922
 20
177.1583078140
 11
-233.8285440922
 21
176.0583078140
  0
LINE
  8
Layer1$C$L1
 62
     3
 10
-234.0285440922
 20
177.1583078140
 11
-232.0285440922
 21
177.1583078140
  0
LINE
  8
Layer1$C$L1
 62
     3
 10
-235.1285440922
 20
176.0583078140
 11
-233.8285440922
 21
176.0583078140
  0
ARC
  8
Layer1$C$L1
 62
     3
 10
-235.4285440922
 20
177.2583078140
 40
0.2000000000
 50
90.0000000000
 51
180.0000000000
  0
LINE
  8
Layer1$C$L1
 62
     3
 10
-235.4285440922
 20
177.4583078140
 11
-235.1285440922
 21
177.4583078140
  0
ARC
  8
Layer1$C$L1
 62
     3
 10
-232.6450741525
 20
171.9583078140
 40
1.5000000000
 50
203.4985656760
 51
270.0000000000
  0
LINE
  8
Layer1$C$L1
 62
     3
 10
-234.0206792369
 20
171.3602186469
 11
-235.6285440922
 21
175.0583078140
  0
LINE
  8
Layer1$C$L1
 62
     3
 10
-232.6450741525
 20
170.4583078140
 11
-230.6285440922
 21
170.4583078140
  0
ARC
  8
Layer1$C$L1
 62
     3
 10
-167.4285440922
 20
176.9583078140
 40
0.8000000000
 50
180.0000000000
 51
360.0000000000
  0
LINE
  8
Layer1$C$L1
 62
     3
 10
-158.1285440922
 20
174.9583078140
 11
-156.6285440922
 21
174.9583078140
  0
ARC
  8
Layer1$C$L1
 62
     3
 10
-167.6285440922
 20
173.6583078140
 40
1.0000000000
 50
270.0000000000
 51
360.0000000000
  0
LINE
  8
Layer1$C$L1
 62
     3
 10
-225.0285440922
 20
172.2583078140
 11
-224.6285440922
 21
172.6583078140
  0
LINE
  8
Layer1$C$L1
 62
     3
 10
-156.6285440922
 20
174.9583078140
 11
-156.6285440922
 21
174.1583078140
  0
LINE
  8
Layer1$C$L1
 62
     3
 10
-225.0285440922
 20
172.2583078140
 11
-230.6285440922
 21
172.2583078140
  0
LINE
  8
Layer1$C$L1
 62
     3
 10
-224.6285440922
 20
172.6583078140
 11
-158.1285440922
 21
172.6583078140
  0
LINE
  8
Layer1$C$L1
 62
     3
 10
-235.6285440922
 20
177.2583078140
 11
-235.6285440922
 21
175.0583078140
  0
LINE
  8
Layer1$C$L1
 62
     3
 10
-230.6285440922
 20
172.2583078140
 11
-230.6285440922
 21
170.4583078140
  0
LINE
  8
Layer1$C$L1
 62
     3
 10
-166.6285440922
 20
194.9583078140
 11
-159.6285440922
 21
194.9583078140
  0
LINE
  8
Layer1$C$L1
 62
     3
 10
-166.6285440922
 20
193.9583078140
 11
-159.6285440922
 21
193.9583078140
  0
LINE
  8
Layer1$C$L1
 62
     3
 10
-159.6285440922
 20
172.6583078140
 11
-159.6285440922
 21
193.9583078140
  0
LINE
  8
Layer1$C$L1
 62
     3
 10
-159.6285440922
 20
194.9583078140
 11
-159.6285440922
 21
212.1413550122
  0
LINE
  8
Layer1$C$L1
 62
     3
 10
-275.2482785893
 20
170.4583078140
 11
-275.2482785893
 21
218.4583078140
  0
LINE
  8
Layer1$C$L1
 62
     3
 10
-245.2482785893
 20
170.4583078140
 11
-245.2482785893
 21
218.4583078140
  0
LINE
  8
Layer1$C$L1
 62
     3
 10
-242.4482785893
 20
176.9583078140
 11
-242.4482785893
 21
211.9583078140
  0
LINE
  8
Layer1$C$L1
  6
CENTER
 62
     3
 10
-277.4482785893
 20
194.4583078140
 11
-239.9482785893
 21
194.4583078140
  0
LINE
  8
Layer1$C$L1
 62
     3
 10
-245.2482785893
 20
212.7583078140
 11
-243.2482785893
 21
212.7583078140
  0
LINE
  8
Layer1$C$L1
 62
     3
 10
-245.2482785893
 20
176.1583078140
 11
-243.2482785893
 21
176.1583078140
  0
ARC
  8
Layer1$C$L1
 62
     3
 10
-243.2482785893
 20
211.9583078140
 40
0.8000000000
 50
2.0355549961E-12
 51
90.0000000000
  0
ARC
  8
Layer1$C$L1
 62
     3
 10
-243.2482785893
 20
176.9583078140
 40
0.8000000000
 50
270.0000000000
 51
360.0000000000
  0
LINE
  8
Layer1$C$L1
 62
     3
 10
-275.2482785893
 20
218.4583078140
 11
-245.2482785893
 21
218.4583078140
  0
LINE
  8
Layer1$C$L1
 62
     3
 10
-275.2482785893
 20
213.8583078140
 11
-245.2482785893
 21
213.8583078140
  0
LINE
  8
Layer1$C$L1
 62
     3
 10
-275.2482785893
 20
211.4583078140
 11
-245.2482785893
 21
211.4583078140
  0
LINE
  8
Layer1$C$L1
 62
     3
 10
-277.4482785893
 20
215.3583078140
 11
-277.4482785893
 21
216.2583078140
  0
LINE
  8
Layer1$C$L1
 62
     3
 10
-277.4482785893
 20
216.2583078140
 11
-275.2482785893
 21
216.2583078140
  0
LINE
  8
Layer1$C$L1
 62
     3
 10
-276.0482785893
 20
217.8583078140
 11
-275.2482785893
 21
217.8583078140
  0
ARC
  8
Layer1$C$L1
 62
     3
 10
-276.0482785893
 20
217.0583078140
 40
0.8000000000
 50
90.0000000000
 51
270.0000000000
  0
LINE
  8
Layer1$C$L1
 62
     3
 10
-276.2566706110
 20
215.2583078140
 11
-275.2482785893
 21
215.2583078140
  0
ARC
  8
Layer1$C$L1
 62
     3
 10
-276.8482785893
 20
215.3583078140
 40
0.6000000000
 50
180.0000000000
 51
350.4059317731
  0
ARC
  8
Layer1$C$L1
 62
     3
 10
-276.8482785893
 20
173.5583078140
 40
0.6000000000
 50
9.5940682269
 51
180.0000000000
  0
LINE
  8
Layer1$C$L1
 62
     3
 10
-276.2566706110
 20
173.6583078140
 11
-275.2482785893
 21
173.6583078140
  0
ARC
  8
Layer1$C$L1
 62
     3
 10
-276.0482785893
 20
171.8583078140
 40
0.8000000000
 50
90.0000000000
 51
270.0000000000
  0
LINE
  8
Layer1$C$L1
 62
     3
 10
-276.0482785893
 20
171.0583078140
 11
-275.2482785893
 21
171.0583078140
  0
LINE
  8
Layer1$C$L1
 62
     3
 10
-277.4482785893
 20
172.6583078140
 11
-275.2482785893
 21
172.6583078140
  0
LINE
  8
Layer1$C$L1
 62
     3
 10
-277.4482785893
 20
173.5583078140
 11
-277.4482785893
 21
172.6583078140
  0
LINE
  8
Layer1$C$L1
 62
     3
 10
-275.2482785893
 20
177.4583078140
 11
-245.2482785893
 21
177.4583078140
  0
LINE
  8
Layer1$C$L1
 62
     3
 10
-275.2482785893
 20
175.0583078140
 11
-245.2482785893
 21
175.0583078140
  0
LINE
  8
Layer1$C$L1
 62
     3
 10
-275.2482785893
 20
170.4583078140
 11
-245.2482785893
 21
170.4583078140
  0
LINE
  8
Layer1$C$L1
 62
     3
 10
-110.7032540396
 20
170.4583078140
 11
-140.7032540396
 21
170.4583078140
  0
LINE
  8
Layer1$C$L1
 62
     3
 10
-108.5032540396
 20
173.5583078140
 11
-108.5032540396
 21
172.6583078140
  0
LINE
  8
Layer1$C$L1
 62
     3
 10
-108.5032540396
 20
172.6583078140
 11
-140.7032540396
 21
172.6583078140
  0
LINE
  8
Layer1$C$L1
 62
     3
 10
-109.9032540396
 20
171.0583078140
 11
-110.7032540396
 21
171.0583078140
  0
ARC
  8
Layer1$C$L1
 62
     3
 10
-109.9032540396
 20
171.8583078140
 40
0.8000000000
 50
270.0000000000
 51
450.0000000000
  0
LINE
  8
Layer1$C$L1
 62
     3
 10
-109.6948620179
 20
173.6583078140
 11
-110.7032540396
 21
173.6583078140
  0
ARC
  8
Layer1$C$L1
 62
     3
 10
-109.1032540396
 20
173.5583078140
 40
0.6000000000
 50
1.8981550339E-11
 51
170.4059317731
  0
ARC
  8
Layer1$C$L1
 62
     3
 10
-109.1032540396
 20
215.3583078140
 40
0.6000000000
 50
189.5940682269
 51
360.0000000000
  0
LINE
  8
Layer1$C$L1
 62
     3
 10
-109.6948620179
 20
215.2583078140
 11
-110.7032540396
 21
215.2583078140
  0
ARC
  8
Layer1$C$L1
 62
     3
 10
-109.9032540396
 20
217.0583078140
 40
0.8000000000
 50
270.0000000000
 51
450.0000000000
  0
LINE
  8
Layer1$C$L1
 62
     3
 10
-109.9032540396
 20
217.8583078140
 11
-110.7032540396
 21
217.8583078140
  0
LINE
  8
Layer1$C$L1
 62
     3
 10
-108.5032540396
 20
216.2583078140
 11
-140.7032540396
 21
216.2583078140
  0
LINE
  8
Layer1$C$L1
 62
     3
 10
-108.5032540396
 20
215.3583078140
 11
-108.5032540396
 21
216.2583078140
  0
LINE
  8
Layer1$C$L1
 62
     3
 10
-110.7032540396
 20
218.4583078140
 11
-140.7032540396
 21
218.4583078140
  0
ARC
  8
Layer1$C$L1
 62
     3
 10
-142.7032540396
 20
176.9583078140
 40
0.8000000000
 50
180.0000000000
 51
270.0000000000
  0
ARC
  8
Layer1$C$L1
 62
     3
 10
-142.7032540396
 20
211.9583078140
 40
0.8000000000
 50
90.0000000000
 51
180.0000000000
  0
LINE
  8
Layer1$C$L1
 62
     3
 10
-140.7032540396
 20
176.1583078140
 11
-142.7032540396
 21
176.1583078140
  0
LINE
  8
Layer1$C$L1
 62
     3
 10
-140.7032540396
 20
212.7583078140
 11
-142.7032540396
 21
212.7583078140
  0
LINE
  8
Layer1$C$L1
  6
CENTER
 62
     3
 10
-106.0032540396
 20
194.4583078140
 11
-146.0032540396
 21
194.4583078140
  0
LINE
  8
Layer1$C$L1
 62
     3
 10
-143.5032540396
 20
176.9583078140
 11
-143.5032540396
 21
211.9583078140
  0
LINE
  8
Layer1$C$L1
 62
     3
 10
-110.7032540396
 20
170.4583078140
 11
-110.7032540396
 21
218.4583078140
  0
LINE
  8
Layer1$C$L1
 62
     3
 10
-140.7032540396
 20
170.4583078140
 11
-140.7032540396
 21
176.1583078140
  0
LINE
  8
Layer1$C$L1
 62
     3
 10
-140.7032540396
 20
212.7583078140
 11
-140.7032540396
 21
218.4583078140
  0
LINE
  8
Layer1$C$L1
 62
     3
 10
-117.1032540396
 20
174.0583078140
 11
-117.1032540396
 21
214.8583078140
  0
LINE
  8
Layer1$C$L1
 62
     3
 10
-121.7032540396
 20
172.6583078140
 11
-121.7032540396
 21
216.2583078140
  0
LINE
  8
Layer1$C$L1
 62
     3
 10
-133.7032540396
 20
173.6583078140
 11
-133.7032540396
 21
215.2583078140
  0
LINE
  8
Layer1$C$L1
 62
     3
 10
-140.7032540396
 20
216.6583078140
 11
-110.7032540396
 21
216.6583078140
  0
ARC
  8
Layer1$C$L1
 62
     3
 10
-132.7032540396
 20
215.2583078140
 40
1.0000000000
 50
90.0000000000
 51
180.0000000000
  0
LINE
  8
Layer1$C$L1
 62
     3
 10
-127.4032540396
 20
209.4583078140
 11
-127.4032540396
 21
213.9583078140
  0
LINE
  8
Layer1$C$L1
 62
     3
 10
-122.1032540396
 20
213.9583078140
 11
-127.4032540396
 21
213.9583078140
  0
ARC
  8
Layer1$C$L1
 62
     3
 10
-122.1032540396
 20
214.3583078140
 40
0.4000000000
 50
270.0000000000
 51
360.0000000000
  0
ARC
  8
Layer1$C$L1
 62
     3
 10
-127.0032540396
 20
214.3583078140
 40
0.4000000000
 50
180.0000000000
 51
270.0000000000
  0
ARC
  8
Layer1$C$L1
 62
     3
 10
-127.0032540396
 20
215.8583078140
 40
0.4000000000
 50
90.0000000000
 51
180.0000000000
  0
ARC
  8
Layer1$C$L1
 62
     3
 10
-122.1032540396
 20
215.8583078140
 40
0.4000000000
 50
0.0000000000
 51
90.0000000000
  0
LINE
  8
Layer1$C$L1
 62
     3
 10
-127.4032540396
 20
214.3583078140
 11
-127.4032540396
 21
215.8583078140
  0
LINE
  8
Layer1$C$L1
 62
     3
 10
-127.4032540396
 20
209.4583078140
 11
-133.3032540396
 21
209.4583078140
  0
LINE
  8
Layer1$C$L1
 62
     3
 10
-133.3032540396
 20
179.4583078140
 11
-133.3032540396
 21
209.4583078140
  0
LINE
  8
Layer1$C$L1
 62
     3
 10
-166.6285440922
 20
208.7583078140
 11
-159.6285440922
 21
208.7583078140
  0
LINE
  8
Layer1$C$L1
 62
     3
 10
-165.9854244192
 20
212.1413550122
 11
-160.1640183094
 21
212.1413550122
  0
CIRCLE
  8
Layer1$C$L1
 62
     3
 10
-130.2032540396
 20
212.4583078140
 40
2.2500000000
  0
TEXT
  8
Layer8$C$L8
 62
     3
 10
-125.9063442750
 20
214.3583078140
 40
1.5000000000
  1
étéo
 41
0.6200689769
 72
     5
 11
-123.1160338788
 21
214.3583078140
  0
LINE
  8
Layer1$C$L1
 62
     3
 10
-117.1032540396
 20
211.7583078140
 11
-112.7032540396
 21
211.7583078140
  0
LINE
  8
Layer1$C$L1
 62
     3
 10
-117.1032540396
 20
211.4583078140
 11
-112.7032540396
 21
211.4583078140
  0
LINE
  8
Layer1$C$L1
 62
     3
 10
-112.7032540396
 20
175.6583078140
 11
-112.7032540396
 21
211.7583078140
  0
LINE
  8
Layer1$C$L1
 62
     3
 10
-110.7032540396
 20
213.2583078140
 11
-117.1032540396
 21
213.2583078140
  0
LINE
  8
Layer1$C$L1
 62
     3
 10
-110.7032540396
 20
175.6583078140
 11
-117.1032540396
 21
175.6583078140
  0
LINE
  8
Layer1$C$L1
 62
     3
 10
-117.1032540396
 20
177.4583078140
 11
-112.7032540396
 21
177.4583078140
  0
LINE
  8
Layer1$C$L1
 62
     3
 10
-117.1032540396
 20
177.1583078140
 11
-112.7032540396
 21
177.1583078140
  0
CIRCLE
  8
Layer1$C$L1
 62
     3
 10
-130.2032540396
 20
176.4583078140
 40
2.2500000000
  0
LINE
  8
Layer1$C$L1
 62
     3
 10
-127.4032540396
 20
179.4583078140
 11
-133.3032540396
 21
179.4583078140
  0
LINE
  8
Layer1$C$L1
 62
     3
 10
-127.4032540396
 20
174.5583078140
 11
-127.4032540396
 21
173.0583078140
  0
ARC
  8
Layer1$C$L1
 62
     3
 10
-122.1032540396
 20
173.0583078140
 40
0.4000000000
 50
270.0000000000
 51
360.0000000000
  0
ARC
  8
Layer1$C$L1
 62
     3
 10
-127.0032540396
 20
173.0583078140
 40
0.4000000000
 50
180.0000000000
 51
270.0000000000
  0
ARC
  8
Layer1$C$L1
 62
     3
 10
-127.0032540396
 20
174.5583078140
 40
0.4000000000
 50
90.0000000000
 51
180.0000000000
  0
ARC
  8
Layer1$C$L1
 62
     3
 10
-122.1032540396
 20
174.5583078140
 40
0.4000000000
 50
0.0000000000
 51
90.0000000000
  0
LINE
  8
Layer1$C$L1
 62
     3
 10
-122.1032540396
 20
174.9583078140
 11
-127.4032540396
 21
174.9583078140
  0
LINE
  8
Layer1$C$L1
 62
     3
 10
-127.4032540396
 20
179.4583078140
 11
-127.4032540396
 21
174.9583078140
  0
ARC
  8
Layer1$C$L1
 62
     3
 10
-132.7032540396
 20
173.6583078140
 40
1.0000000000
 50
180.0000000000
 51
270.0000000000
  0
LINE
  8
Layer1$C$L1
 62
     3
 10
-140.7032540396
 20
172.2583078140
 11
-110.7032540396
 21
172.2583078140
  0
LINE
  8
Layer1$C$L1
 62
     3
 10
-245.2482785893
 20
160.7025250637
 11
-245.2482785893
 21
91.7025250637
  0
LINE
  8
Layer1$C$L1
 62
     3
 10
-245.2482785893
 20
93.3025250637
 11
-243.2482785893
 21
93.3025250637
  0
ARC
  8
Layer1$C$L1
 62
     3
 10
-243.2482785893
 20
92.5025250637
 40
0.8000000000
 50
270.0000000000
 51
450.0000000000
  0
LINE
  8
Layer1$C$L1
 62
     3
 10
-264.2482785893
 20
92.7025250637
 11
-264.2482785893
 21
81.8025250637
  0
LINE
  8
Layer1$C$L1
 62
     3
 10
-252.2482785893
 20
92.7025250637
 11
-252.2482785893
 21
83.3025250637
  0
LINE
  8
Layer1$C$L1
 62
     3
 10
-275.2482785893
 20
91.7025250637
 11
-264.2482785893
 21
91.7025250637
  0
LINE
  8
Layer1$C$L1
 62
     3
 10
-252.2482785893
 20
91.7025250637
 11
-243.2482785893
 21
91.7025250637
  0
LINE
  8
Layer1$C$L1
 62
     3
 10
-258.5482785893
 20
83.2025250637
 11
-252.3482785893
 21
83.2025250637
  0
LINE
  8
Layer1$C$L1
 62
     3
 10
-264.1482785893
 20
81.7025250637
 11
-258.6482785893
 21
81.7025250637
  0
ARC
  8
Layer1$C$L1
 62
     3
 10
-252.3482785893
 20
83.3025250637
 40
0.1000000000
 50
270.0000000000
 51
360.0000000000
  0
LINE
  8
Layer1$C$L1
 62
     3
 10
-258.5482785893
 20
83.2025250637
 11
-258.5482785893
 21
81.8025250637
  0
ARC
  8
Layer1$C$L1
 62
     3
 10
-258.6482785893
 20
81.8025250637
 40
0.1000000000
 50
270.0000000000
 51
360.0000000000
  0
ARC
  8
Layer1$C$L1
 62
     3
 10
-264.1482785893
 20
81.8025250637
 40
0.1000000000
 50
180.0000000000
 51
270.0000000000
  0
LINE
  8
Layer1$C$L1
 62
     3
 10
-275.2482785893
 20
155.7025250637
 11
-245.2482785893
 21
155.7025250637
  0
LINE
  8
Layer1$C$L1
 62
     3
 10
-275.2482785893
 20
149.7025250637
 11
-245.2482785893
 21
149.7025250637
  0
LINE
  8
Layer1$C$L1
 62
     3
 10
-275.2482785893
 20
150.1025250637
 11
-245.2482785893
 21
150.1025250637
  0
LINE
  8
Layer1$C$L1
 62
     3
 10
-277.4482785893
 20
101.7025250637
 11
-273.2482785893
 21
101.7025250637
  0
LINE
  8
Layer1$C$L1
 62
     3
 10
-277.4482785893
 20
106.7025250637
 11
-273.2482785893
 21
106.7025250637
  0
LINE
  8
Layer1$C$L1
 62
     3
 10
-277.4482785893
 20
126.7025250637
 11
-273.2482785893
 21
126.7025250637
  0
LINE
  8
Layer1$C$L1
 62
     3
 10
-277.4482785893
 20
131.7025250637
 11
-273.2482785893
 21
131.7025250637
  0
LINE
  8
Layer1$C$L1
 62
     3
 10
-275.2482785893
 20
100.7025250637
 11
-273.2482785893
 21
100.7025250637
  0
LINE
  8
Layer1$C$L1
 62
     3
 10
-275.2482785893
 20
107.7025250637
 11
-273.2482785893
 21
107.7025250637
  0
LINE
  8
Layer1$C$L1
 62
     3
 10
-275.2482785893
 20
125.7025250637
 11
-273.2482785893
 21
125.7025250637
  0
LINE
  8
Layer1$C$L1
 62
     3
 10
-275.2482785893
 20
132.7025250637
 11
-273.2482785893
 21
132.7025250637
  0
ARC
  8
Layer1$C$L1
 62
     3
 10
-273.2482785893
 20
101.2025250637
 40
0.5000000000
 50
270.0000000000
 51
450.0000000000
  0
ARC
  8
Layer1$C$L1
 62
     3
 10
-273.2482785893
 20
107.2025250637
 40
0.5000000000
 50
270.0000000000
 51
450.0000000000
  0
ARC
  8
Layer1$C$L1
 62
     3
 10
-273.2482785893
 20
126.2025250637
 40
0.5000000000
 50
270.0000000000
 51
450.0000000000
  0
ARC
  8
Layer1$C$L1
 62
     3
 10
-273.2482785893
 20
132.2025250637
 40
0.5000000000
 50
270.0000000000
 51
450.0000000000
  0
LINE
  8
Layer1$C$L1
 62
     3
 10
-275.2482785893
 20
100.7025250637
 11
-275.2482785893
 21
91.7025250637
  0
LINE
  8
Layer1$C$L1
 62
     3
 10
-275.2482785893
 20
160.7025250637
 11
-275.2482785893
 21
132.7025250637
  0
LINE
  8
Layer1$C$L1
 62
     3
 10
-275.2482785893
 20
125.7025250637
 11
-275.2482785893
 21
107.7025250637
  0
LINE
  8
Layer1$C$L1
 62
     3
 10
-277.4482785893
 20
131.7025250637
 11
-277.4482785893
 21
126.7025250637
  0
LINE
  8
Layer1$C$L1
 62
     3
 10
-277.4482785893
 20
106.7025250637
 11
-277.4482785893
 21
101.7025250637
  0
LINE
  8
Layer1$C$L1
 62
     3
 10
-275.2482785893
 20
158.7025250637
 11
-245.2482785893
 21
158.7025250637
  0
LINE
  8
Layer1$C$L1
 62
     3
 10
-275.2482785893
 20
160.7025250637
 11
-245.2482785893
 21
160.7025250637
  0
LINE
  8
Layer1$C$L1
 62
     3
 10
-270.6482785893
 20
149.2025250637
 11
-245.2482785893
 21
149.2025250637
  0
LINE
  8
Layer1$C$L1
 62
     3
 10
-270.6482785893
 20
148.2025250637
 11
-245.2482785893
 21
148.2025250637
  0
LINE
  8
Layer1$C$L1
 62
     3
 10
-267.2482785893
 20
144.2025250637
 11
-251.2482785893
 21
144.2025250637
  0
LINE
  8
Layer1$C$L1
 62
     3
 10
-267.2482785893
 20
143.2025250637
 11
-251.2482785893
 21
143.2025250637
  0
LINE
  8
Layer1$C$L1
 62
     3
 10
-267.2482785893
 20
122.7025250637
 11
-245.2482785893
 21
122.7025250637
  0
LINE
  8
Layer1$C$L1
 62
     3
 10
-267.2482785893
 20
121.7025250637
 11
-245.2482785893
 21
121.7025250637
  0
LINE
  8
Layer1$C$L1
 62
     3
 10
-267.2482785893
 20
117.2025250637
 11
-245.2482785893
 21
117.2025250637
  0
LINE
  8
Layer1$C$L1
 62
     3
 10
-267.2482785893
 20
116.2025250637
 11
-245.2482785893
 21
116.2025250637
  0
LINE
  8
Layer1$C$L1
 62
     3
 10
-267.2482785893
 20
111.7025250637
 11
-245.2482785893
 21
111.7025250637
  0
LINE
  8
Layer1$C$L1
 62
     3
 10
-267.2482785893
 20
110.7025250637
 11
-245.2482785893
 21
110.7025250637
  0
LINE
  8
Layer1$C$L1
 62
     3
 10
-251.2482785893
 20
147.2025250637
 11
-251.2482785893
 21
140.7025250637
  0
LINE
  8
Layer1$C$L1
 62
     3
 10
-251.2482785893
 20
147.2025250637
 11
-245.2482785893
 21
147.2025250637
  0
LINE
  8
Layer1$C$L1
 62
     3
 10
-251.2482785893
 20
140.7025250637
 11
-245.2482785893
 21
140.7025250637
  0
LINE
  8
Layer1$C$L1
 62
     3
 10
-248.2482785893
 20
101.4025250637
 11
-245.2482785893
 21
101.4025250637
  0
LINE
  8
Layer1$C$L1
 62
     3
 10
-248.2482785893
 20
126.4025250637
 11
-245.2482785893
 21
126.4025250637
  0
LINE
  8
Layer1$C$L1
 62
     3
 10
-248.2482785893
 20
132.0025250637
 11
-245.2482785893
 21
132.0025250637
  0
LINE
  8
Layer1$C$L1
 62
     3
 10
-246.2482785893
 20
132.0025250637
 11
-246.2482785893
 21
126.4025250637
  0
LINE
  8
Layer1$C$L1
 62
     3
 10
-246.2482785893
 20
107.0025250637
 11
-246.2482785893
 21
101.4025250637
  0
LINE
  8
Layer1$C$L1
 62
     3
 10
-248.2482785893
 20
132.0025250637
 11
-248.2482785893
 21
126.4025250637
  0
LINE
  8
Layer1$C$L1
 62
     3
 10
-248.2482785893
 20
107.0025250637
 11
-248.2482785893
 21
101.4025250637
  0
LINE
  8
Layer1$C$L1
 62
     3
 10
-248.2482785893
 20
107.0025250637
 11
-245.2482785893
 21
107.0025250637
  0
LINE
  8
Layer1$C$L1
 62
     3
 10
-247.2482785893
 20
107.0025250637
 11
-247.2482785893
 21
101.4025250637
  0
LINE
  8
Layer1$C$L1
 62
     3
 10
-247.2482785893
 20
111.7025250637
 11
-247.2482785893
 21
110.7025250637
  0
LINE
  8
Layer1$C$L1
 62
     3
 10
-247.2482785893
 20
117.2025250637
 11
-247.2482785893
 21
116.2025250637
  0
LINE
  8
Layer1$C$L1
 62
     3
 10
-247.2482785893
 20
122.7025250637
 11
-247.2482785893
 21
121.7025250637
  0
LINE
  8
Layer1$C$L1
 62
     3
 10
-247.2482785893
 20
149.2025250637
 11
-247.2482785893
 21
148.2025250637
  0
LINE
  8
Layer1$C$L1
 62
     3
 10
-247.2482785893
 20
132.0025250637
 11
-247.2482785893
 21
126.4025250637
  0
LINE
  8
Layer1$C$L1
 62
     3
 10
-252.2482785893
 20
144.2025250637
 11
-252.2482785893
 21
143.2025250637
  0
LINE
  8
Layer1$C$L1
 62
     3
 10
-268.8482785893
 20
135.7237849062
 11
-268.8482785893
 21
133.6812652211
  0
LINE
  8
Layer1$C$L1
 62
     3
 10
-267.2482785893
 20
111.7025250637
 11
-267.2482785893
 21
110.7025250637
  0
LINE
  8
Layer1$C$L1
 62
     3
 10
-267.2482785893
 20
117.2025250637
 11
-267.2482785893
 21
116.2025250637
  0
LINE
  8
Layer1$C$L1
 62
     3
 10
-267.2482785893
 20
144.2025250637
 11
-267.2482785893
 21
143.2025250637
  0
LINE
  8
Layer1$C$L1
 62
     3
 10
-267.2482785893
 20
122.7025250637
 11
-267.2482785893
 21
121.7025250637
  0
LINE
  8
Layer1$C$L1
 62
     3
 10
-270.6482785893
 20
149.2025250637
 11
-270.6482785893
 21
148.2025250637
  0
LINE
  8
Layer1$C$L1
 62
     3
 10
-270.6482785893
 20
135.7025250637
 11
-270.6482785893
 21
133.7025250637
  0
LINE
  8
Layer1$C$L1
 62
     3
 10
-270.6482785893
 20
135.7025250637
 11
-245.2482785893
 21
136.0025250637
  0
LINE
  8
Layer1$C$L1
 62
     3
 10
-245.2482785893
 20
133.4025250637
 11
-270.6482785893
 21
133.7025250637
  0
LINE
  8
Layer1$C$L1
 62
     3
 10
-245.2482785893
 20
97.4025250637
 11
-270.6482785893
 21
97.7025250637
  0
LINE
  8
Layer1$C$L1
 62
     3
 10
-270.6482785893
 20
99.7025250637
 11
-245.2482785893
 21
100.0025250637
  0
LINE
  8
Layer1$C$L1
 62
     3
 10
-270.6482785893
 20
99.7025250637
 11
-270.6482785893
 21
97.7025250637
  0
LINE
  8
Layer1$C$L1
 62
     3
 10
-268.8482785893
 20
99.7237849062
 11
-268.8482785893
 21
97.6812652211
  0
LINE
  8
Layer1$C$L1
 62
     3
 10
-219.1285440922
 20
176.5583078140
 11
-215.6285440922
 21
176.5583078140
  0
LINE
  8
Layer1$C$L1
 62
     3
 10
-222.1285440922
 20
172.6583078140
 11
-219.1285440922
 21
176.5583078140
  0
LINE
  8
Layer1$C$L1
 62
     3
 10
-222.1285440922
 20
216.2583078140
 11
-219.1285440922
 21
212.3583078140
  0
LINE
  8
Layer1$C$L1
 62
     3
 10
-219.1285440922
 20
212.3583078140
 11
-215.6285440922
 21
212.3583078140
  0
LINE
  8
Layer1$C$L1
 62
     3
 10
-215.6285440922
 20
216.2583078140
 11
-215.6285440922
 21
212.3583078140
  0
LINE
  8
Layer1$C$L1
 62
     3
 10
-251.2482785893
 20
144.2025250637
 11
-245.2482785893
 21
144.2025250637
  0
LINE
  8
Layer1$C$L1
 62
     3
 10
-276.0482785893
 20
158.1025250637
 11
-275.2482785893
 21
158.1025250637
  0
LINE
  8
Layer1$C$L1
 62
     3
 10
-276.0482785893
 20
156.5025250637
 11
-275.2482785893
 21
156.5025250637
  0
ARC
  8
Layer1$C$L1
 62
     3
 10
-276.0482785893
 20
157.3025250637
 40
0.8000000000
 50
90.0000000000
 51
270.0000000000
  0
ENDSEC
  0
EOF
