  0
SECTION
  2
HEADER
  9
$ACADVER
  1
AC1015
  9
$ACADMAINTVER
 70
    13
  9
$DWGCODEPAGE
  3
ANSI_932
  9
$INSBASE
 10
0.0
 20
0.0
 30
0.0
  9
$EXTMIN
 10
-0.0124608934634802
 20
-0.000725017477241
 30
-0.0000000349181948
  9
$EXTMAX
 10
210.0202056327467
 20
297.0206540267374
 30
0.0000000814935747
  9
$LIMMIN
 10
-190.1286590575999
 20
-3.174999999999998
  9
$LIMMAX
 10
3.174999999999998
 20
291.2585876465
  9
$ORTHOMODE
 70
     0
  9
$REGENMODE
 70
     1
  9
$FILLMODE
 70
     1
  9
$QTEXTMODE
 70
     0
  9
$MIRRTEXT
 70
     0
  9
$LTSCALE
 40
1.0
  9
$ATTMODE
 70
     1
  9
$TEXTSIZE
 40
2.999994039499997
  9
$TRACEWID
 40
0.05
  9
$TEXTSTYLE
  7
STANDARD
  9
$CLAYER
  8
0
  9
$CELTYPE
  6
ByLayer
  9
$CECOLOR
 62
   256
  9
$CELTSCALE
 40
1.0
  9
$DISPSILH
 70
     0
  9
$DIMSCALE
 40
1.0
  9
$DIMASZ
 40
1.9727878465
  9
$DIMEXO
 40
2.539999961899999
  9
$DIMDLI
 40
0.38
  9
$DIMRND
 40
0.0
  9
$DIMDLE
 40
0.0
  9
$DIMEXE
 40
3.809999942799997
  9
$DIMTP
 40
0.0
  9
$DIMTM
 40
0.0
  9
$DIMTXT
 40
2.999994039499997
  9
$DIMCEN
 40
0.09
  9
$DIMTSZ
 40
0.0
  9
$DIMTOL
 70
     0
  9
$DIMLIM
 70
     0
  9
$DIMTIH
 70
     0
  9
$DIMTOH
 70
     1
  9
$DIMSE1
 70
     0
  9
$DIMSE2
 70
     0
  9
$DIMTAD
 70
     0
  9
$DIMZIN
 70
     0
  9
$DIMBLK
  1

  9
$DIMASO
 70
     1
  9
$DIMSHO
 70
     0
  9
$DIMPOST
  1

  9
$DIMAPOST
  1

  9
$DIMALT
 70
     0
  9
$DIMALTD
 70
     2
  9
$DIMALTF
 40
25.4
  9
$DIMLFAC
 40
1.0
  9
$DIMTOFL
 70
     0
  9
$DIMTVP
 40
0.0
  9
$DIMTIX
 70
     0
  9
$DIMSOXD
 70
     0
  9
$DIMSAH
 70
     0
  9
$DIMBLK1
  1

  9
$DIMBLK2
  1

  9
$DIMSTYLE
  2
Standard
  9
$DIMCLRD
 70
     0
  9
$DIMCLRE
 70
     0
  9
$DIMCLRT
 70
     0
  9
$DIMTFAC
 40
1.0
  9
$DIMGAP
 40
0.09
  9
$DIMJUST
 70
     0
  9
$DIMSD1
 70
     0
  9
$DIMSD2
 70
     0
  9
$DIMTOLJ
 70
     1
  9
$DIMTZIN
 70
     0
  9
$DIMALTZ
 70
     0
  9
$DIMALTTZ
 70
     0
  9
$DIMUPT
 70
     0
  9
$DIMDEC
 70
     4
  9
$DIMTDEC
 70
     4
  9
$DIMALTU
 70
     2
  9
$DIMALTTD
 70
     2
  9
$DIMTXSTY
  7
STANDARD
  9
$DIMAUNIT
 70
     0
  9
$DIMADEC
 70
     0
  9
$DIMALTRND
 40
0.0
  9
$DIMAZIN
 70
     0
  9
$DIMDSEP
 70
    46
  9
$DIMATFIT
 70
     3
  9
$DIMFRAC
 70
     0
  9
$DIMLDRBLK
  1

  9
$DIMLUNIT
 70
     2
  9
$DIMLWD
 70
    -2
  9
$DIMLWE
 70
    -2
  9
$DIMTMOVE
 70
     0
  9
$LUNITS
 70
     2
  9
$LUPREC
 70
     3
  9
$SKETCHINC
 40
0.1
  9
$FILLETRAD
 40
0.0625
  9
$AUNITS
 70
     0
  9
$AUPREC
 70
     0
  9
$MENU
  1
ACAD
  9
$ELEVATION
 40
0.0
  9
$PELEVATION
 40
0.0
  9
$THICKNESS
 40
0.0
  9
$LIMCHECK
 70
     0
  9
$CHAMFERA
 40
0.0
  9
$CHAMFERB
 40
0.0
  9
$CHAMFERC
 40
0.0
  9
$CHAMFERD
 40
0.0
  9
$SKPOLY
 70
     0
  9
$TDCREATE
 40
2453041.403553241
  9
$TDUCREATE
 40
2453041.028553240
  9
$TDUPDATE
 40
2453404.616004224
  9
$TDUUPDATE
 40
2453404.241004224
  9
$TDINDWG
 40
0.0300009028
  9
$TDUSRTIMER
 40
0.0300007176
  9
$USRTIMER
 70
     1
  9
$ANGBASE
 50
0.0
  9
$ANGDIR
 70
     0
  9
$PDMODE
 70
     0
  9
$PDSIZE
 40
0.0
  9
$PLINEWID
 40
0.0
  9
$SPLFRAME
 70
     0
  9
$SPLINETYPE
 70
     6
  9
$SPLINESEGS
 70
     8
  9
$HANDSEED
  5
285
  9
$SURFTAB1
 70
     6
  9
$SURFTAB2
 70
     6
  9
$SURFTYPE
 70
     6
  9
$SURFU
 70
     6
  9
$SURFV
 70
     6
  9
$UCSBASE
  2

  9
$UCSNAME
  2

  9
$UCSORG
 10
0.0
 20
0.0
 30
0.0
  9
$UCSXDIR
 10
1.0
 20
0.0
 30
0.0
  9
$UCSYDIR
 10
0.0
 20
1.0
 30
0.0
  9
$UCSORTHOREF
  2

  9
$UCSORTHOVIEW
 70
     0
  9
$UCSORGTOP
 10
0.0
 20
0.0
 30
0.0
  9
$UCSORGBOTTOM
 10
0.0
 20
0.0
 30
0.0
  9
$UCSORGLEFT
 10
0.0
 20
0.0
 30
0.0
  9
$UCSORGRIGHT
 10
0.0
 20
0.0
 30
0.0
  9
$UCSORGFRONT
 10
0.0
 20
0.0
 30
0.0
  9
$UCSORGBACK
 10
0.0
 20
0.0
 30
0.0
  9
$PUCSBASE
  2

  9
$PUCSNAME
  2

  9
$PUCSORG
 10
0.0
 20
0.0
 30
0.0
  9
$PUCSXDIR
 10
1.0
 20
0.0
 30
0.0
  9
$PUCSYDIR
 10
0.0
 20
1.0
 30
0.0
  9
$PUCSORTHOREF
  2

  9
$PUCSORTHOVIEW
 70
     0
  9
$PUCSORGTOP
 10
0.0
 20
0.0
 30
0.0
  9
$PUCSORGBOTTOM
 10
0.0
 20
0.0
 30
0.0
  9
$PUCSORGLEFT
 10
0.0
 20
0.0
 30
0.0
  9
$PUCSORGRIGHT
 10
0.0
 20
0.0
 30
0.0
  9
$PUCSORGFRONT
 10
0.0
 20
0.0
 30
0.0
  9
$PUCSORGBACK
 10
0.0
 20
0.0
 30
0.0
  9
$USERI1
 70
    24
  9
$USERI2
 70
     0
  9
$USERI3
 70
     0
  9
$USERI4
 70
     0
  9
$USERI5
 70
     0
  9
$USERR1
 40
0.0
  9
$USERR2
 40
0.0
  9
$USERR3
 40
0.0
  9
$USERR4
 40
0.0
  9
$USERR5
 40
0.0
  9
$WORLDVIEW
 70
     1
  9
$SHADEDGE
 70
     3
  9
$SHADEDIF
 70
    70
  9
$TILEMODE
 70
     1
  9
$MAXACTVP
 70
    64
  9
$PINSBASE
 10
0.0
 20
0.0
 30
0.0
  9
$PLIMCHECK
 70
     0
  9
$PEXTMIN
 10
1.000000000000000E+20
 20
1.000000000000000E+20
 30
1.000000000000000E+20
  9
$PEXTMAX
 10
-1.000000000000000E+20
 20
-1.000000000000000E+20
 30
-1.000000000000000E+20
  9
$PLIMMIN
 10
0.0
 20
0.0
  9
$PLIMMAX
 10
12.0
 20
9.0
  9
$UNITMODE
 70
     0
  9
$VISRETAIN
 70
     1
  9
$PLINEGEN
 70
     0
  9
$PSLTSCALE
 70
     1
  9
$TREEDEPTH
 70
  3020
  9
$CMLSTYLE
  2
Standard
  9
$CMLJUST
 70
     0
  9
$CMLSCALE
 40
1.0
  9
$PROXYGRAPHICS
 70
     1
  9
$MEASUREMENT
 70
     0
  9
$CELWEIGHT
370
    -1
  9
$ENDCAPS
280
     0
  9
$JOINSTYLE
280
     0
  9
$LWDISPLAY
290
     0
  9
$INSUNITS
 70
     0
  9
$HYPERLINKBASE
  1

  9
$STYLESHEET
  1

  9
$XEDIT
290
     1
  9
$CEPSNTYPE
380
     0
  9
$PSTYLEMODE
290
     1
  9
$FINGERPRINTGUID
  2
{77B0B01D-36EE-49A4-AD80-2B083DBA9EE9}
  9
$VERSIONGUID
  2
{147FFDFB-D638-4E87-8B4A-4948A33FE785}
  9
$EXTNAMES
290
     1
  9
$PSVPSCALE
 40
0.0
  9
$OLESTARTUP
290
     0
  0
ENDSEC
  0
SECTION
  2
CLASSES
  0
CLASS
  1
ACDBDICTIONARYWDFLT
  2
AcDbDictionaryWithDefault
  3
AutoCAD 2000
 90
        0
280
     0
281
     0
  0
CLASS
  1
ACDBPLACEHOLDER
  2
AcDbPlaceHolder
  3
AutoCAD 2000
 90
        0
280
     0
281
     0
  0
CLASS
  1
LAYOUT
  2
AcDbLayout
  3
AutoCAD 2000
 90
        0
280
     0
281
     0
  0
CLASS
  1
DICTIONARYVAR
  2
AcDbDictionaryVar
  3
AutoCAD 2000
 90
        0
280
     0
281
     0
  0
ENDSEC
  0
SECTION
  2
TABLES
  0
TABLE
  2
VPORT
  5
19
330
0
100
AcDbSymbolTable
 70
     3
  0
VPORT
  5
284
330
19
100
AcDbSymbolTableRecord
100
AcDbViewportTableRecord
  2
*Active
 70
     0
 10
0.0
 20
0.0
 11
1.0
 21
1.0
 12
105.0038723696416
 22
148.5099645046301
 13
0.0
 23
0.0
 14
1.0
 24
1.0
 15
0.0
 25
0.0
 16
0.0
 26
0.0
 36
1.0
 17
0.0
 27
0.0
 37
0.0
 40
301.3574575704076
 41
2.407317073170731
 42
50.0
 43
0.0
 44
0.0
 50
0.0
 51
0.0
 71
     0
 72
   100
 73
     1
 74
     1
 75
     0
 76
     0
 77
     0
 78
     0
281
     0
 65
     1
110
0.0
120
0.0
130
0.0
111
1.0
121
0.0
131
0.0
112
0.0
122
1.0
132
0.0
 79
     0
146
0.0
  0
ENDTAB
  0
TABLE
  2
LTYPE
  5
14
330
0
100
AcDbSymbolTable
 70
     3
  0
LTYPE
  5
15
330
14
100
AcDbSymbolTableRecord
100
AcDbLinetypeTableRecord
  2
ByBlock
 70
     0
  3

 72
    65
 73
     0
 40
0.0
  0
LTYPE
  5
16
330
14
100
AcDbSymbolTableRecord
100
AcDbLinetypeTableRecord
  2
ByLayer
 70
     0
  3

 72
    65
 73
     0
 40
0.0
  0
LTYPE
  5
8
330
14
100
AcDbSymbolTableRecord
100
AcDbLinetypeTableRecord
  2
Continuous
 70
     0
  3
Solid line
 72
    65
 73
     0
 40
0.0
  0
LTYPE
  5
2B
330
14
100
AcDbSymbolTableRecord
100
AcDbLinetypeTableRecord
  2
CENTERLINE
 70
     0
  3
Centerline
 72
    65
 73
     4
 40
25.4
 49
19.05
 74
     0
 49
-1.587499999999999
 74
     0
 49
3.174999999999998
 74
     0
 49
-1.587499999999999
 74
     0
  0
LTYPE
  5
51
330
14
100
AcDbSymbolTableRecord
100
AcDbLinetypeTableRecord
  2
DASH
 70
     0
  3
Dash
 72
    65
 73
     2
 40
1.9999960661
 49
0.9999980329999999
 74
     0
 49
-0.9999980329999999
 74
     0
  0
ENDTAB
  0
TABLE
  2
LAYER
  5
10
330
0
100
AcDbSymbolTable
 70
     1
  0
LAYER
  5
4
330
10
100
AcDbSymbolTableRecord
100
AcDbLayerTableRecord
  2
0
 70
     0
 62
     7
  6
Continuous
370
    -3
390
5
  0
ENDTAB
  0
TABLE
  2
STYLE
  5
11
330
0
100
AcDbSymbolTable
 70
     1
  0
STYLE
  5
12
330
11
100
AcDbSymbolTableRecord
100
AcDbTextStyleTableRecord
  2
STANDARD
 70
     0
 40
0.0
 41
1.0
 50
0.0
 71
     0
 42
2.999994039499997
  3
romans.shx
  4
bigfont.shx
  0
ENDTAB
  0
TABLE
  2
VIEW
  5
17
330
0
100
AcDbSymbolTable
 70
     0
  0
ENDTAB
  0
TABLE
  2
UCS
  5
18
330
0
100
AcDbSymbolTable
 70
     0
  0
ENDTAB
  0
TABLE
  2
APPID
  5
1B
330
0
100
AcDbSymbolTable
 70
     2
  0
APPID
  5
1C
330
1B
100
AcDbSymbolTableRecord
100
AcDbRegAppTableRecord
  2
ACAD
 70
     0
  0
APPID
  5
282
330
1B
100
AcDbSymbolTableRecord
100
AcDbRegAppTableRecord
  2
DCO15
 70
     0
  0
ENDTAB
  0
TABLE
  2
DIMSTYLE
  5
1D
330
0
100
AcDbSymbolTable
 70
     1
100
AcDbDimStyleTable
 71
     0
  0
DIMSTYLE
105
23
330
1D
100
AcDbSymbolTableRecord
100
AcDbDimStyleTableRecord
  2
Standard
 70
     0
340
12
  0
ENDTAB
  0
TABLE
  2
BLOCK_RECORD
  5
1
330
0
100
AcDbSymbolTable
 70
     1
  0
BLOCK_RECORD
  5
2
330
1
100
AcDbSymbolTableRecord
100
AcDbBlockTableRecord
  2
*Model_Space
340
A
  0
BLOCK_RECORD
  5
C
330
1
100
AcDbSymbolTableRecord
100
AcDbBlockTableRecord
  2
*Paper_Space
340
F
  0
ENDTAB
  0
ENDSEC
  0
SECTION
  2
BLOCKS
  0
BLOCK
  5
3
330
2
100
AcDbEntity
  8
0
100
AcDbBlockBegin
  2
*Model_Space
 70
     0
 10
0.0
 20
0.0
 30
0.0
  3
*Model_Space
  1

  0
ENDBLK
  5
9
330
2
100
AcDbEntity
  8
0
100
AcDbBlockEnd
  0
BLOCK
  5
D
330
C
100
AcDbEntity
 67
     1
  8
0
100
AcDbBlockBegin
  2
*Paper_Space
 70
     0
 10
0.0
 20
0.0
 30
0.0
  3
*Paper_Space
  1

  0
ENDBLK
  5
E
330
C
100
AcDbEntity
 67
     1
  8
0
100
AcDbBlockEnd
  0
ENDSEC
  0
SECTION
  2
ENTITIES
  0
LINE
  5
24
330
2
100
AcDbEntity
  8
0
100
AcDbLine
 10
210.0
 20
0.0
 30
0.0
 11
210.0
 21
297.0
 31
0.0
  0
LINE
  5
25
330
2
100
AcDbEntity
  8
0
 62
     3
100
AcDbLine
 10
99.66529292129999
 20
164.9586029053
 30
0.0
 11
99.66529292129999
 21
160.4586029053
 31
0.0
  0
LINE
  5
26
330
2
100
AcDbEntity
  8
0
 62
     3
100
AcDbLine
 10
100.4652959731
 20
160.4586029053
 30
0.0
 11
100.4652959731
 21
164.9586029053
 31
0.0
  0
LINE
  5
27
330
2
100
AcDbEntity
  8
0
 62
     3
100
AcDbLine
 10
98.6652929213
 20
164.9586029053
 30
0.0
 11
98.6652929213
 21
163.1586151122999
 31
0.0
  0
LINE
  5
28
330
2
100
AcDbEntity
  8
0
 62
     3
100
AcDbLine
 10
79.16527766249998
 20
164.7086029053
 30
0.0
 11
79.16527766249998
 21
160.7086029053
 31
0.0
  0
LINE
  5
29
330
2
100
AcDbEntity
  8
0
100
AcDbLine
 10
0.0
 20
297.0
 30
0.0
 11
0.0
 21
0.0
 31
0.0
  0
LINE
  5
2A
330
2
100
AcDbEntity
  8
0
  6
CENTERLINE
 62
     3
100
AcDbLine
 10
91.16559809710002
 20
146.7086181640999
 30
0.0
 11
91.16559809710002
 21
194.7086181640999
 31
0.0
  0
LINE
  5
2C
330
2
100
AcDbEntity
  8
0
 62
     3
100
AcDbLine
 10
101.1652929212999
 20
191.008605957
 30
0.0
 11
101.1652929212999
 21
156.7086181640999
 31
0.0
  0
TEXT
  5
2D
330
2
100
AcDbEntity
  8
0
 62
     5
100
AcDbText
 10
145.0
 20
10.0
 30
0.0
 40
5.0
  1
ＭＡ４-Ｐ０００６９
 41
0.8432752092795402
 72
     5
 11
194.0705859875999
 21
10.0
 31
0.0
100
AcDbText
  0
LINE
  5
2E
330
2
100
AcDbEntity
  8
0
100
AcDbLine
 10
0.0
 20
0.0
 30
0.0
 11
210.0
 21
0.0
 31
0.0
  0
LINE
  5
2F
330
2
100
AcDbEntity
  8
0
 62
     3
100
AcDbLine
 10
86.16529292130001
 20
160.3586120604998
 30
0.0
 11
101.1652929212999
 21
160.3586120604998
 31
0.0
  0
LINE
  5
30
330
2
100
AcDbEntity
  8
0
 62
     3
100
AcDbLine
 10
86.16529292130001
 20
159.9586029053
 30
0.0
 11
101.1652929212999
 21
159.9586029053
 31
0.0
  0
LINE
  5
31
330
2
100
AcDbEntity
  8
0
 62
     3
100
AcDbLine
 10
86.16529292130001
 20
162.258605957
 30
0.0
 11
98.6652929213
 21
162.258605957
 31
0.0
  0
LINE
  5
32
330
2
100
AcDbEntity
  8
0
 62
     3
100
AcDbLine
 10
86.16529292130001
 20
163.1586151122999
 30
0.0
 11
98.6652929213
 21
163.1586151122999
 31
0.0
  0
LINE
  5
33
330
2
100
AcDbEntity
  8
0
 62
     3
100
AcDbLine
 10
81.16527766249999
 20
156.7086181640999
 30
0.0
 11
101.1652929212999
 21
156.7086181640999
 31
0.0
  0
LINE
  5
34
330
2
100
AcDbEntity
  8
0
 62
     3
100
AcDbLine
 10
86.16529292130001
 20
156.9086151122999
 30
0.0
 11
101.1652929212999
 21
156.9086151122999
 31
0.0
  0
LINE
  5
35
330
2
100
AcDbEntity
  8
0
 62
     3
100
AcDbLine
 10
82.71528071430001
 20
160.7086029053
 30
0.0
 11
79.16527766249998
 21
160.7086029053
 31
0.0
  0
LINE
  5
36
330
2
100
AcDbEntity
  8
0
 62
     3
100
AcDbLine
 10
84.26528376610002
 20
156.7086181640999
 30
0.0
 11
84.26528376610002
 21
146.7086181640999
 31
0.0
  0
LINE
  5
37
330
2
100
AcDbEntity
  8
0
 62
     3
100
AcDbLine
 10
85.06528681780002
 20
156.7086181640999
 30
0.0
 11
85.06528681780002
 21
146.7086181640999
 31
0.0
  0
LINE
  5
38
330
2
100
AcDbEntity
  8
0
  6
CENTERLINE
 62
     3
100
AcDbLine
 10
84.66529292130003
 20
144.2086181640999
 30
0.0
 11
84.66529292130003
 21
158.3855743407998
 31
0.0
  0
LINE
  5
39
330
2
100
AcDbEntity
  8
0
 62
     3
100
AcDbLine
 10
84.26528376610002
 20
146.7086181640999
 30
0.0
 11
85.06528681780002
 21
146.7086181640999
 31
0.0
  0
LINE
  5
3A
330
2
100
AcDbEntity
  8
0
 62
     3
100
AcDbLine
 10
84.26528376610002
 20
149.2086181640997
 30
0.0
 11
85.06528681780002
 21
149.2086181640997
 31
0.0
  0
LINE
  5
3B
330
2
100
AcDbEntity
  8
0
 62
     3
100
AcDbLine
 10
81.16527766249999
 20
160.7086029053
 30
0.0
 11
81.16527766249999
 21
156.7086181640999
 31
0.0
  0
LINE
  5
3C
330
2
100
AcDbEntity
  8
0
 62
     3
100
AcDbLine
 10
82.71528071430001
 20
159.8086090088
 30
0.0
 11
81.16527766249999
 21
159.8086090088
 31
0.0
  0
ARC
  5
3D
330
2
100
AcDbEntity
  8
0
 62
     3
100
AcDbCircle
 10
82.71528071430001
 20
160.258605957
 30
0.0
 40
0.4500045776
100
AcDbArc
 50
270.0000179861
 51
89.99998201389994
  0
LINE
  5
3E
330
2
100
AcDbEntity
  8
0
 62
     3
100
AcDbLine
 10
82.36528986960001
 20
160.7086029053
 30
0.0
 11
82.36528986960001
 21
159.8086090088
 31
0.0
  0
LINE
  5
3F
330
2
100
AcDbEntity
  8
0
 62
     3
100
AcDbLine
 10
86.16529292130001
 20
160.3586120604998
 30
0.0
 11
86.16529292130001
 21
156.7086181640999
 31
0.0
  0
LINE
  5
40
330
2
100
AcDbEntity
  8
0
 62
     3
100
AcDbLine
 10
86.16529292130001
 20
163.1586151122999
 30
0.0
 11
86.16529292130001
 21
162.258605957
 31
0.0
  0
LINE
  5
41
330
2
100
AcDbEntity
  8
0
 62
     3
100
AcDbLine
 10
98.6652929213
 20
160.4586029053
 30
0.0
 11
101.1652929212999
 21
160.4586029053
 31
0.0
  0
LINE
  5
42
330
2
100
AcDbEntity
  8
0
 62
     3
100
AcDbLine
 10
98.6652929213
 20
162.258605957
 30
0.0
 11
98.6652929213
 21
160.4586029053
 31
0.0
  0
LINE
  5
43
330
2
100
AcDbEntity
  8
0
 62
     3
100
AcDbLine
 10
151.5111944105999
 20
235.1846160888999
 30
0.0
 11
119.5101873304998
 21
235.1846160888999
 31
0.0
  0
LINE
  5
44
330
2
100
AcDbEntity
  8
0
 62
     3
100
AcDbLine
 10
151.5111944105999
 20
205.1846160888999
 30
0.0
 11
119.5101873304998
 21
205.1846160888999
 31
0.0
  0
LINE
  5
45
330
2
100
AcDbEntity
  8
0
 62
     3
100
AcDbLine
 10
147.861193862
 20
205.1845969084999
 30
0.0
 11
148.2611964445998
 21
205.5845994910999
 31
0.0
  0
LINE
  5
46
330
2
100
AcDbEntity
  8
0
 62
     3
100
AcDbLine
 10
147.8611779683999
 20
235.1846113900999
 30
0.0
 11
148.2611729308
 21
234.7846011872999
 31
0.0
  0
LINE
  5
47
330
2
100
AcDbEntity
  8
0
100
AcDbLine
 10
210.0
 20
297.0
 30
0.0
 11
0.0
 21
297.0
 31
0.0
  0
LINE
  5
4B
330
2
100
AcDbEntity
  8
0
  6
CENTERLINE
 62
     3
100
AcDbLine
 10
113.5101873305
 20
220.1846160888999
 30
0.0
 11
164.0111944105999
 21
220.1846160888999
 31
0.0
  0
LINE
  5
4C
330
2
100
AcDbEntity
  8
0
 62
     3
100
AcDbLine
 10
27.058088946
 20
206.1846075352999
 30
0.0
 11
29.55808780790002
 21
205.1846080868
 31
0.0
  0
LINE
  5
4D
330
2
100
AcDbEntity
  8
0
 62
     3
100
AcDbLine
 10
27.05818197629997
 20
234.1844139891999
 30
0.0
 11
29.5581808382
 21
235.1844134377
 31
0.0
  0
LINE
  5
4E
330
2
100
AcDbEntity
  8
0
  6
CENTERLINE
 62
     3
100
AcDbLine
 10
24.55808466939998
 20
220.1846160888999
 30
0.0
 11
75.05828303360002
 21
220.1846160888999
 31
0.0
  0
LINE
  5
4F
330
2
100
AcDbEntity
  8
0
 62
     3
100
AcDbLine
 10
27.05808466939998
 20
206.1846160888999
 30
0.0
 11
27.05808466939998
 21
234.1846160888999
 31
0.0
  0
LINE
  5
50
330
2
100
AcDbEntity
  8
0
  6
DASH
 62
     3
100
AcDbLine
 10
85.16529292130002
 20
229.6846160888999
 30
0.0
 11
97.66529292130002
 21
229.6846160888999
 31
0.0
  0
LINE
  5
52
330
2
100
AcDbEntity
  8
0
  6
DASH
 62
     3
100
AcDbLine
 10
97.66529292130002
 20
210.6846160888999
 30
0.0
 11
85.16529292130002
 21
210.6846160888999
 31
0.0
  0
LINE
  5
53
330
2
100
AcDbEntity
  8
0
  6
DASH
 62
     3
100
AcDbLine
 10
87.32778376610003
 20
212.5646057128999
 30
0.0
 11
92.96279353170001
 21
212.5646057128999
 31
0.0
  0
LINE
  5
54
330
2
100
AcDbEntity
  8
0
  6
DASH
 62
     3
100
AcDbLine
 10
87.55278986959998
 20
214.1646118164
 30
0.0
 11
93.1872960952
 21
214.1646118164
 31
0.0
  0
LINE
  5
55
330
2
100
AcDbEntity
  8
0
  6
CENTERLINE
 62
     3
100
AcDbLine
 10
79.16578120260002
 20
220.1846160888999
 30
0.0
 11
103.6657964613999
 21
220.1846160888999
 31
0.0
  0
LINE
  5
56
330
2
100
AcDbEntity
  8
0
  6
DASH
 62
     3
100
AcDbLine
 10
88.53276716070002
 20
221.1386026502
 30
0.0
 11
87.70176385690001
 21
220.2016039154999
 31
0.0
  0
LINE
  5
57
330
2
100
AcDbEntity
  8
0
  6
DASH
 62
     3
100
AcDbLine
 10
88.26779414209999
 20
219.2526011185
 30
0.0
 11
87.70179600490001
 21
220.1085982811999
 31
0.0
  0
LINE
  5
58
330
2
100
AcDbEntity
  8
0
  6
DASH
 62
     3
100
AcDbLine
 10
88.62127556850003
 20
226.9996025201999
 30
0.0
 11
87.62876897990002
 21
226.2045993141998
 31
0.0
  0
LINE
  5
59
330
2
100
AcDbEntity
  8
0
  6
DASH
 62
     3
100
AcDbLine
 10
88.26776730800004
 20
219.2526048857
 30
0.0
 11
87.58076984800002
 21
214.3645962716998
 31
0.0
  0
LINE
  5
5A
330
2
100
AcDbEntity
  8
0
 62
     3
100
AcDbLine
 10
81.16527766249999
 20
236.6846160888999
 30
0.0
 11
101.1657964614
 21
236.6846160888999
 31
0.0
  0
LINE
  5
5B
330
2
100
AcDbEntity
  8
0
 62
     3
100
AcDbLine
 10
101.1657964614
 20
203.6846160888999
 30
0.0
 11
81.16527766249999
 21
203.6846160888999
 31
0.0
  0
LINE
  5
5C
330
2
100
AcDbEntity
  8
0
 62
     3
100
AcDbLine
 10
81.16527766249999
 20
231.6846160888999
 30
0.0
 11
101.1657964614
 21
231.6846160888999
 31
0.0
  0
LINE
  5
5D
330
2
100
AcDbEntity
  8
0
 62
     3
100
AcDbLine
 10
101.1657964614
 20
208.6846160888999
 30
0.0
 11
81.16527766249999
 21
208.6846160888999
 31
0.0
  0
LINE
  5
5E
330
2
100
AcDbEntity
  8
0
 62
     3
100
AcDbLine
 10
84.16529292130002
 20
175.7086181640999
 30
0.0
 11
101.1652929212999
 21
175.7086181640999
 31
0.0
  0
LINE
  5
5F
330
2
100
AcDbEntity
  8
0
 62
     3
100
AcDbLine
 10
101.1657964614
 20
188.7086181640998
 30
0.0
 11
81.16527766249999
 21
188.7086181640998
 31
0.0
  0
LINE
  5
60
330
2
100
AcDbEntity
  8
0
 62
     3
100
AcDbLine
 10
101.1657964614
 20
192.2086181640999
 30
0.0
 11
81.16527766249999
 21
192.2086181640999
 31
0.0
  0
LINE
  5
61
330
2
100
AcDbEntity
  8
0
 62
     3
100
AcDbLine
 10
86.16529292130001
 20
165.4586029053
 30
0.0
 11
101.1652929212999
 21
165.4586029053
 31
0.0
  0
LINE
  5
62
330
2
100
AcDbEntity
  8
0
 62
     3
100
AcDbLine
 10
86.16529292130001
 20
169.9586181640998
 30
0.0
 11
101.1652929212999
 21
169.9586181640998
 31
0.0
  0
LINE
  5
63
330
2
100
AcDbEntity
  8
0
 62
     3
100
AcDbLine
 10
86.16529292130001
 20
170.9586181640998
 30
0.0
 11
101.1652929212999
 21
170.9586181640998
 31
0.0
  0
LINE
  5
64
330
2
100
AcDbEntity
  8
0
 62
     3
100
AcDbLine
 10
86.16529292130001
 20
171.9586181640998
 30
0.0
 11
101.1652929212999
 21
171.9586181640998
 31
0.0
  0
LINE
  5
65
330
2
100
AcDbEntity
  8
0
 62
     3
100
AcDbLine
 10
86.16529292130001
 20
168.7086181640998
 30
0.0
 11
101.1652929212999
 21
168.7086181640998
 31
0.0
  0
LINE
  5
66
330
2
100
AcDbEntity
  8
0
 62
     3
100
AcDbLine
 10
86.16529292130001
 20
172.9586181640998
 30
0.0
 11
101.1652929212999
 21
172.9586181640998
 31
0.0
  0
LINE
  5
67
330
2
100
AcDbEntity
  8
0
 62
     3
100
AcDbLine
 10
86.16529292130001
 20
182.7086181640999
 30
0.0
 11
101.1652929212999
 21
182.7086181640999
 31
0.0
  0
LINE
  5
68
330
2
100
AcDbEntity
  8
0
 62
     3
100
AcDbLine
 10
86.16529292130001
 20
167.9586181640998
 30
0.0
 11
101.1652929212999
 21
167.9586181640998
 31
0.0
  0
LINE
  5
69
330
2
100
AcDbEntity
  8
0
 62
     3
100
AcDbLine
 10
86.16529292130001
 20
173.9586181640998
 30
0.0
 11
101.1652929212999
 21
173.9586181640998
 31
0.0
  0
LINE
  5
6A
330
2
100
AcDbEntity
  8
0
 62
     3
100
AcDbLine
 10
86.16529292130001
 20
181.7086181640999
 30
0.0
 11
101.1652929212999
 21
181.7086181640999
 31
0.0
  0
LINE
  5
6B
330
2
100
AcDbEntity
  8
0
 62
     3
100
AcDbLine
 10
86.16529292130001
 20
168.9586181640999
 30
0.0
 11
101.1652929212999
 21
168.9586181640999
 31
0.0
  0
LINE
  5
6C
330
2
100
AcDbEntity
  8
0
 62
     3
100
AcDbLine
 10
86.16529292130001
 20
169.7086181640999
 30
0.0
 11
101.1652929212999
 21
169.7086181640999
 31
0.0
  0
LINE
  5
6D
330
2
100
AcDbEntity
  8
0
 62
     3
100
AcDbLine
 10
86.16529292130001
 20
180.7086181640999
 30
0.0
 11
101.1652929212999
 21
180.7086181640999
 31
0.0
  0
LINE
  5
6E
330
2
100
AcDbEntity
  8
0
 62
     3
100
AcDbLine
 10
86.16529292130001
 20
179.7086181640999
 30
0.0
 11
101.1652929212999
 21
179.7086181640999
 31
0.0
  0
LINE
  5
6F
330
2
100
AcDbEntity
  8
0
 62
     3
100
AcDbLine
 10
86.16529292130001
 20
178.7086181640999
 30
0.0
 11
101.1652929212999
 21
178.7086181640999
 31
0.0
  0
LINE
  5
70
330
2
100
AcDbEntity
  8
0
 62
     3
100
AcDbLine
 10
86.16529292130001
 20
185.7086181640998
 30
0.0
 11
101.1652929212999
 21
185.7086181640998
 31
0.0
  0
LINE
  5
71
330
2
100
AcDbEntity
  8
0
 62
     3
100
AcDbLine
 10
86.16529292130001
 20
178.9586181640999
 30
0.0
 11
101.1652929212999
 21
178.9586181640999
 31
0.0
  0
LINE
  5
72
330
2
100
AcDbEntity
  8
0
 62
     3
100
AcDbLine
 10
86.16529292130001
 20
170.7086181640999
 30
0.0
 11
101.1652929212999
 21
170.7086181640999
 31
0.0
  0
LINE
  5
73
330
2
100
AcDbEntity
  8
0
 62
     3
100
AcDbLine
 10
84.16529292130002
 20
174.8086090087999
 30
0.0
 11
101.1652929212999
 21
174.8086090087999
 31
0.0
  0
LINE
  5
74
330
2
100
AcDbEntity
  8
0
 62
     3
100
AcDbLine
 10
86.16529292130001
 20
177.7086181640999
 30
0.0
 11
101.1652929212999
 21
177.7086181640999
 31
0.0
  0
LINE
  5
75
330
2
100
AcDbEntity
  8
0
 62
     3
100
AcDbLine
 10
86.16529292130001
 20
176.7086181640999
 30
0.0
 11
101.1652929212999
 21
176.7086181640999
 31
0.0
  0
LINE
  5
76
330
2
100
AcDbEntity
  8
0
 62
     3
100
AcDbLine
 10
86.16529292130001
 20
183.7086181640999
 30
0.0
 11
101.1652929212999
 21
183.7086181640999
 31
0.0
  0
LINE
  5
77
330
2
100
AcDbEntity
  8
0
 62
     3
100
AcDbLine
 10
86.16529292130001
 20
175.9586181640999
 30
0.0
 11
101.1652929212999
 21
175.9586181640999
 31
0.0
  0
LINE
  5
78
330
2
100
AcDbEntity
  8
0
 62
     3
100
AcDbLine
 10
86.16529292130001
 20
171.7086181640999
 30
0.0
 11
101.1652929212999
 21
171.7086181640999
 31
0.0
  0
LINE
  5
79
330
2
100
AcDbEntity
  8
0
 62
     3
100
AcDbLine
 10
86.16529292130001
 20
172.7086181640999
 30
0.0
 11
101.1652929212999
 21
172.7086181640999
 31
0.0
  0
LINE
  5
7A
330
2
100
AcDbEntity
  8
0
 62
     3
100
AcDbLine
 10
86.16529292130001
 20
173.7086181640999
 30
0.0
 11
101.1652929212999
 21
173.7086181640999
 31
0.0
  0
LINE
  5
7B
330
2
100
AcDbEntity
  8
0
 62
     3
100
AcDbLine
 10
86.16529292130001
 20
184.7086181640998
 30
0.0
 11
101.1652929212999
 21
184.7086181640998
 31
0.0
  0
LINE
  5
7C
330
2
100
AcDbEntity
  8
0
 62
     3
100
AcDbLine
 10
86.16529292130001
 20
177.9586181640999
 30
0.0
 11
101.1652929212999
 21
177.9586181640999
 31
0.0
  0
LINE
  5
7D
330
2
100
AcDbEntity
  8
0
 62
     3
100
AcDbLine
 10
86.16529292130001
 20
184.9586181640999
 30
0.0
 11
101.1652929212999
 21
184.9586181640999
 31
0.0
  0
LINE
  5
7E
330
2
100
AcDbEntity
  8
0
 62
     3
100
AcDbLine
 10
86.16529292130001
 20
183.9586181640999
 30
0.0
 11
101.1652929212999
 21
183.9586181640999
 31
0.0
  0
LINE
  5
7F
330
2
100
AcDbEntity
  8
0
 62
     3
100
AcDbLine
 10
86.16529292130001
 20
174.7086181640999
 30
0.0
 11
101.1652929212999
 21
174.7086181640999
 31
0.0
  0
LINE
  5
80
330
2
100
AcDbEntity
  8
0
 62
     3
100
AcDbLine
 10
86.16529292130001
 20
182.9586181640999
 30
0.0
 11
101.1652929212999
 21
182.9586181640999
 31
0.0
  0
LINE
  5
81
330
2
100
AcDbEntity
  8
0
 62
     3
100
AcDbLine
 10
86.16529292130001
 20
181.9586181640999
 30
0.0
 11
101.1652929212999
 21
181.9586181640999
 31
0.0
  0
LINE
  5
82
330
2
100
AcDbEntity
  8
0
 62
     3
100
AcDbLine
 10
86.16529292130001
 20
180.9586181640999
 30
0.0
 11
101.1652929212999
 21
180.9586181640999
 31
0.0
  0
LINE
  5
83
330
2
100
AcDbEntity
  8
0
 62
     3
100
AcDbLine
 10
84.16529292130002
 20
166.9086151122999
 30
0.0
 11
101.1652929212999
 21
166.9086151122999
 31
0.0
  0
LINE
  5
84
330
2
100
AcDbEntity
  8
0
 62
     3
100
AcDbLine
 10
86.16529292130001
 20
176.9586181640999
 30
0.0
 11
101.1652929212999
 21
176.9586181640999
 31
0.0
  0
LINE
  5
85
330
2
100
AcDbEntity
  8
0
 62
     3
100
AcDbLine
 10
86.16529292130001
 20
179.9586181640999
 30
0.0
 11
101.1652929212999
 21
179.9586181640999
 31
0.0
  0
LINE
  5
86
330
2
100
AcDbEntity
  8
0
 62
     3
100
AcDbLine
 10
84.16529292130002
 20
167.8086090088
 30
0.0
 11
101.1652929212999
 21
167.8086090088
 31
0.0
  0
LINE
  5
87
330
2
100
AcDbEntity
  8
0
 62
     3
100
AcDbLine
 10
49.05808466939999
 20
206.1846160888999
 30
0.0
 11
69.05828303360002
 21
206.1846160888999
 31
0.0
  0
LINE
  5
88
330
2
100
AcDbEntity
  8
0
 62
     3
100
AcDbLine
 10
49.05808466939999
 20
234.1846160888999
 30
0.0
 11
69.05828303360002
 21
234.1846160888999
 31
0.0
  0
LINE
  5
89
330
2
100
AcDbEntity
  8
0
 62
     3
100
AcDbLine
 10
69.05828303360002
 20
206.1846160888999
 30
0.0
 11
45.0579778579
 21
206.1846160888999
 31
0.0
  0
LINE
  5
8A
330
2
100
AcDbEntity
  8
0
 62
     3
100
AcDbLine
 10
69.05828303360002
 20
234.1846160888999
 30
0.0
 11
45.0579778579
 21
234.1846160888999
 31
0.0
  0
LINE
  5
8B
330
2
100
AcDbEntity
  8
0
 62
     3
100
AcDbLine
 10
37.05799311659996
 20
205.1846160888999
 30
0.0
 11
69.05828303360002
 21
205.1846160888999
 31
0.0
  0
LINE
  5
8C
330
2
100
AcDbEntity
  8
0
 62
     3
100
AcDbLine
 10
37.05799311659996
 20
235.1846160888999
 30
0.0
 11
69.05828303360002
 21
235.1846160888999
 31
0.0
  0
LINE
  5
8D
330
2
100
AcDbEntity
  8
0
 62
     3
100
AcDbLine
 10
37.05808466940001
 20
206.1846160888999
 30
0.0
 11
37.05808466940001
 21
234.1846160888999
 31
0.0
  0
LINE
  5
8E
330
2
100
AcDbEntity
  8
0
 62
     3
100
AcDbLine
 10
37.05808466940001
 20
206.1846160888999
 30
0.0
 11
46.05808466939999
 21
206.1846160888999
 31
0.0
  0
LINE
  5
8F
330
2
100
AcDbEntity
  8
0
 62
     3
100
AcDbLine
 10
45.0579778579
 20
206.6846160888999
 30
0.0
 11
41.0579778579
 21
206.6846160888999
 31
0.0
  0
LINE
  5
90
330
2
100
AcDbEntity
  8
0
 62
     3
100
AcDbLine
 10
37.05799311659996
 20
205.1846160888999
 30
0.0
 11
29.55808466940001
 21
205.1846160888999
 31
0.0
  0
LINE
  5
91
330
2
100
AcDbEntity
  8
0
 62
     3
100
AcDbLine
 10
41.0579778579
 20
206.1846160888999
 30
0.0
 11
37.25799006490001
 21
206.1846160888999
 31
0.0
  0
LINE
  5
92
330
2
100
AcDbEntity
  8
0
 62
     3
100
AcDbLine
 10
37.25800789459998
 20
206.1845970833
 30
0.0
 11
37.0580110372
 21
205.9846021309
 31
0.0
  0
LINE
  5
93
330
2
100
AcDbEntity
  8
0
 62
     3
100
AcDbLine
 10
37.0580707462
 20
206.1846171990999
 30
0.0
 11
37.0579715641
 21
205.1846171990999
 31
0.0
  0
LINE
  5
94
330
2
100
AcDbEntity
  8
0
 62
     3
100
AcDbLine
 10
40.15798396140001
 20
206.1846160888999
 30
0.0
 11
40.15798396140001
 21
205.1846160888999
 31
0.0
  0
LINE
  5
95
330
2
100
AcDbEntity
  8
0
 62
     3
100
AcDbLine
 10
41.0579778579
 20
205.1846160888999
 30
0.0
 11
41.0579778579
 21
206.6846160888999
 31
0.0
  0
LINE
  5
96
330
2
100
AcDbEntity
  8
0
 62
     3
100
AcDbLine
 10
46.05808466939999
 20
205.1846160888999
 30
0.0
 11
49.05808466939999
 21
205.1846160888999
 31
0.0
  0
LINE
  5
97
330
2
100
AcDbEntity
  8
0
 62
     3
100
AcDbLine
 10
46.05808466939999
 20
206.1846160888999
 30
0.0
 11
46.05808466939999
 21
205.1846160888999
 31
0.0
  0
LINE
  5
98
330
2
100
AcDbEntity
  8
0
 62
     3
100
AcDbLine
 10
45.0579778579
 20
205.1846160888999
 30
0.0
 11
45.0579778579
 21
206.6846160888999
 31
0.0
  0
LINE
  5
99
330
2
100
AcDbEntity
  8
0
 62
     3
100
AcDbLine
 10
45.95798701310002
 20
205.1846160888999
 30
0.0
 11
45.95798701310002
 21
206.1846160888999
 31
0.0
  0
LINE
  5
9A
330
2
100
AcDbEntity
  8
0
 62
     3
100
AcDbLine
 10
49.35808772110005
 20
206.1846160888999
 30
0.0
 11
49.35808772110005
 21
205.1846160888999
 31
0.0
  0
LINE
  5
9B
330
2
100
AcDbEntity
  8
0
 62
     3
100
AcDbLine
 10
49.35808772110005
 20
205.1846160888999
 30
0.0
 11
49.05808466939999
 21
205.1846160888999
 31
0.0
  0
LINE
  5
9C
330
2
100
AcDbEntity
  8
0
 62
     3
100
AcDbLine
 10
49.05808466939999
 20
206.1846160888999
 30
0.0
 11
49.05808466939999
 21
205.1846160888999
 31
0.0
  0
LINE
  5
9D
330
2
100
AcDbEntity
  8
0
 62
     3
100
AcDbLine
 10
49.05797785789999
 20
205.1846160888999
 30
0.0
 11
49.05797785789999
 21
206.1846160888999
 31
0.0
  0
LINE
  5
9E
330
2
100
AcDbEntity
  8
0
 62
     3
100
AcDbLine
 10
45.0579778579
 20
233.6846160888999
 30
0.0
 11
41.0579778579
 21
233.6846160888999
 31
0.0
  0
LINE
  5
9F
330
2
100
AcDbEntity
  8
0
 62
     3
100
AcDbLine
 10
37.05808466940001
 20
234.1846160888999
 30
0.0
 11
46.05808466939999
 21
234.1846160888999
 31
0.0
  0
LINE
  5
A0
330
2
100
AcDbEntity
  8
0
 62
     3
100
AcDbLine
 10
37.05799311659996
 20
235.1846160888999
 30
0.0
 11
29.55808466940001
 21
235.1846160888999
 31
0.0
  0
LINE
  5
A1
330
2
100
AcDbEntity
  8
0
 62
     3
100
AcDbLine
 10
41.0579778579
 20
234.1846160888999
 30
0.0
 11
37.25799006490001
 21
234.1846160888999
 31
0.0
  0
LINE
  5
A2
330
2
100
AcDbEntity
  8
0
 62
     3
100
AcDbLine
 10
37.05808466940001
 20
234.1846160888999
 30
0.0
 11
37.05808466940001
 21
234.4846191406
 31
0.0
  0
LINE
  5
A3
330
2
100
AcDbEntity
  8
0
 62
     3
100
AcDbLine
 10
37.057995978
 20
235.1846190375998
 30
0.0
 11
37.05809516010001
 21
234.1846190375999
 31
0.0
  0
LINE
  5
A4
330
2
100
AcDbEntity
  8
0
 62
     3
100
AcDbLine
 10
40.15798396140001
 20
235.1846160888999
 30
0.0
 11
40.15798396140001
 21
234.1846160888999
 31
0.0
  0
LINE
  5
A5
330
2
100
AcDbEntity
  8
0
 62
     3
100
AcDbLine
 10
41.0579778579
 20
235.1846160888999
 30
0.0
 11
41.0579778579
 21
233.6846160888999
 31
0.0
  0
LINE
  5
A6
330
2
100
AcDbEntity
  8
0
 62
     3
100
AcDbLine
 10
46.05808466939999
 20
235.1846160888999
 30
0.0
 11
49.05808466939999
 21
235.1846160888999
 31
0.0
  0
LINE
  5
A7
330
2
100
AcDbEntity
  8
0
 62
     3
100
AcDbLine
 10
45.95798701310002
 20
235.1846160888999
 30
0.0
 11
45.95798701310002
 21
234.1846160888999
 31
0.0
  0
LINE
  5
A8
330
2
100
AcDbEntity
  8
0
 62
     3
100
AcDbLine
 10
46.05808466939999
 20
234.1846160888999
 30
0.0
 11
46.05808466939999
 21
235.1846160888999
 31
0.0
  0
LINE
  5
A9
330
2
100
AcDbEntity
  8
0
 62
     3
100
AcDbLine
 10
45.0579778579
 20
235.1846160888999
 30
0.0
 11
45.0579778579
 21
233.6846160888999
 31
0.0
  0
LINE
  5
AA
330
2
100
AcDbEntity
  8
0
 62
     3
100
AcDbLine
 10
49.35808772110005
 20
234.1846160888999
 30
0.0
 11
49.35808772110005
 21
235.1846160888999
 31
0.0
  0
LINE
  5
AB
330
2
100
AcDbEntity
  8
0
 62
     3
100
AcDbLine
 10
49.05808466939999
 20
234.1846160888999
 30
0.0
 11
49.05808466939999
 21
235.1846160888999
 31
0.0
  0
LINE
  5
AC
330
2
100
AcDbEntity
  8
0
 62
     3
100
AcDbLine
 10
49.35808772110005
 20
235.1846160888999
 30
0.0
 11
49.05808466939999
 21
235.1846160888999
 31
0.0
  0
LINE
  5
AD
330
2
100
AcDbEntity
  8
0
 62
     3
100
AcDbLine
 10
49.05797785789999
 20
235.1846160888999
 30
0.0
 11
49.05797785789999
 21
234.1846160888999
 31
0.0
  0
LINE
  5
AE
330
2
100
AcDbEntity
  8
0
 62
     3
100
AcDbLine
 10
72.55828303360002
 20
208.3846130370999
 30
0.0
 11
72.55828303360002
 21
231.9846191406
 31
0.0
  0
LINE
  5
AF
330
2
100
AcDbEntity
  8
0
 62
     3
100
AcDbLine
 10
81.16527766249999
 20
203.6846160888999
 30
0.0
 11
81.16527766249999
 21
236.6846160888999
 31
0.0
  0
ARC
  5
B0
330
2
100
AcDbEntity
  8
0
 62
     3
100
AcDbCircle
 10
70.1372777846
 20
205.1846160888999
 30
0.0
 40
1.5
100
AcDbArc
 50
269.9989797973
 51
345.9626976706
  0
LINE
  5
B1
330
2
100
AcDbEntity
  8
0
 62
     3
100
AcDbLine
 10
69.0582867711
 20
203.9846279605
 30
0.0
 11
70.13729161180001
 21
204.4846308808999
 31
0.0
  0
LINE
  5
B2
330
2
100
AcDbEntity
  8
0
 62
     3
100
AcDbLine
 10
69.05828303360002
 20
205.1846160888999
 30
0.0
 11
69.05828303360002
 21
203.9846191406
 31
0.0
  0
LINE
  5
B3
330
2
100
AcDbEntity
  8
0
 62
     3
100
AcDbLine
 10
69.0583049828
 20
203.9846090811999
 30
0.0
 11
70.15829844019998
 21
204.4846067881999
 31
0.0
  0
LINE
  5
B4
330
2
100
AcDbEntity
  8
0
 62
     3
100
AcDbLine
 10
69.05828303360002
 20
203.6846160888999
 30
0.0
 11
69.05828303360002
 21
203.9846191406
 31
0.0
  0
LINE
  5
B5
330
2
100
AcDbEntity
  8
0
 62
     3
100
AcDbLine
 10
70.1372777846
 20
203.6846160888999
 30
0.0
 11
69.05828303360002
 21
203.6846160888999
 31
0.0
  0
LINE
  5
B6
330
2
100
AcDbEntity
  8
0
 62
     3
100
AcDbLine
 10
70.1582697341
 20
204.4846099041
 30
0.0
 11
71.35826866150001
 21
208.3845976626999
 31
0.0
  0
LINE
  5
B7
330
2
100
AcDbEntity
  8
0
 62
     3
100
AcDbLine
 10
71.35828608540004
 20
208.3846130370999
 30
0.0
 11
70.25827998190004
 21
208.3846130370999
 31
0.0
  0
LINE
  5
B8
330
2
100
AcDbEntity
  8
0
 62
     3
100
AcDbLine
 10
70.1372867913
 20
204.4846358899
 30
0.0
 11
71.35828563430002
 21
208.3846241588
 31
0.0
  0
LINE
  5
B9
330
2
100
AcDbEntity
  8
0
 62
     3
100
AcDbLine
 10
70.25827998190004
 20
208.3846130370999
 30
0.0
 11
71.35828608540004
 21
208.3846130370999
 31
0.0
  0
ARC
  5
BA
330
2
100
AcDbEntity
  8
0
 62
     3
100
AcDbCircle
 10
69.9582921889
 20
207.6846160889
 30
0.0
 40
0.3000030518
100
AcDbArc
 50
270.0000179861
 51
0.0
  0
CIRCLE
  5
BB
330
2
100
AcDbEntity
  8
0
 62
     3
100
AcDbCircle
 10
69.6582891372
 20
206.1846160888999
 30
0.0
 40
0.5
  0
LINE
  5
BC
330
2
100
AcDbEntity
  8
0
 62
     3
100
AcDbLine
 10
70.25827998190004
 20
207.5346069336
 30
0.0
 11
70.25827998190004
 21
208.3846130370999
 31
0.0
  0
LINE
  5
BD
330
2
100
AcDbEntity
  8
0
 62
     3
100
AcDbLine
 10
69.05828303360002
 20
207.5346069336
 30
0.0
 11
69.05828303360002
 21
206.1846160888999
 31
0.0
  0
LINE
  5
BE
330
2
100
AcDbEntity
  8
0
 62
     3
100
AcDbLine
 10
69.05828303360002
 20
207.3846130370998
 30
0.0
 11
69.9582921889
 21
207.3846130370998
 31
0.0
  0
LINE
  5
BF
330
2
100
AcDbEntity
  8
0
 62
     3
100
AcDbLine
 10
69.05828303360002
 20
206.1846160888999
 30
0.0
 11
69.05828303360002
 21
207.3846130370998
 31
0.0
  0
LINE
  5
C0
330
2
100
AcDbEntity
  8
0
 62
     3
100
AcDbLine
 10
70.25827998190004
 20
207.6846160889
 30
0.0
 11
70.25827998190004
 21
208.3846130370999
 31
0.0
  0
LINE
  5
C1
330
2
100
AcDbEntity
  8
0
 62
     3
100
AcDbLine
 10
70.25827998190004
 20
207.5346069336
 30
0.0
 11
69.05828303360002
 21
207.5346069336
 31
0.0
  0
LINE
  5
C2
330
2
100
AcDbEntity
  8
0
 62
     3
100
AcDbLine
 10
72.55826243630003
 20
208.3846168602998
 30
0.0
 11
71.59226860940001
 21
204.8206286020999
 31
0.0
  0
LINE
  5
C3
330
2
100
AcDbEntity
  8
0
 62
     3
100
AcDbLine
 10
81.16527766249999
 20
192.2086181640999
 30
0.0
 11
81.16527766249999
 21
164.7086029053
 31
0.0
  0
ARC
  5
C4
330
2
100
AcDbEntity
  8
0
 62
     3
100
AcDbCircle
 10
80.46528071430001
 20
185.6086120604999
 30
0.0
 40
0.5
100
AcDbArc
 50
179.9999640277999
 51
270.0000006831999
  0
ARC
  5
C5
330
2
100
AcDbEntity
  8
0
 62
     3
100
AcDbCircle
 10
80.46528071430001
 20
185.8086090088
 30
0.0
 40
0.5
100
AcDbArc
 50
89.99998201389999
 51
179.9999640277999
  0
LINE
  5
C6
330
2
100
AcDbEntity
  8
0
 62
     3
100
AcDbLine
 10
82.71528071430001
 20
164.7086029053
 30
0.0
 11
79.16527766249998
 21
164.7086029053
 31
0.0
  0
LINE
  5
C7
330
2
100
AcDbEntity
  8
0
 62
     3
100
AcDbLine
 10
79.96528071430001
 20
185.8086090088
 30
0.0
 11
79.96528071430001
 21
185.6086120604999
 31
0.0
  0
LINE
  5
C8
330
2
100
AcDbEntity
  8
0
 62
     3
100
AcDbLine
 10
84.16529292130002
 20
175.7086181640999
 30
0.0
 11
84.16529292130002
 21
174.8086090087999
 31
0.0
  0
ARC
  5
C9
330
2
100
AcDbEntity
  8
0
 62
     3
100
AcDbCircle
 10
82.0652868178
 20
168.7086181640998
 30
0.0
 40
0.2999954224
100
AcDbArc
 50
0.0
 51
179.9999640277999
  0
ARC
  5
CA
330
2
100
AcDbEntity
  8
0
 62
     3
100
AcDbCircle
 10
82.01528376609998
 20
168.7086181640998
 30
0.0
 40
0.3499984741
100
AcDbArc
 50
0.0
 51
179.9999640277999
  0
LINE
  5
CB
330
2
100
AcDbEntity
  8
0
 62
     3
100
AcDbLine
 10
81.16527766249999
 20
165.7086029053
 30
0.0
 11
82.36528986960001
 21
165.7086029053
 31
0.0
  0
LINE
  5
CC
330
2
100
AcDbEntity
  8
0
 62
     3
100
AcDbLine
 10
81.16527766249999
 20
168.7086181640998
 30
0.0
 11
81.76528376609997
 21
168.7086181640998
 31
0.0
  0
LINE
  5
CD
330
2
100
AcDbEntity
  8
0
 62
     3
100
AcDbLine
 10
81.66527766249998
 20
168.7086181640998
 30
0.0
 11
81.16527766249999
 21
168.7086181640998
 31
0.0
  0
ARC
  5
CE
330
2
100
AcDbEntity
  8
0
 62
     3
100
AcDbCircle
 10
82.71528071430001
 20
165.1586151122999
 30
0.0
 40
0.4500045776
100
AcDbArc
 50
270.0000179861
 51
89.99998201389994
  0
LINE
  5
CF
330
2
100
AcDbEntity
  8
0
 62
     3
100
AcDbLine
 10
82.36528986960001
 20
168.7086181640998
 30
0.0
 11
82.36528986960001
 21
165.6086120604998
 31
0.0
  0
LINE
  5
D0
330
2
100
AcDbEntity
  8
0
 62
     3
100
AcDbLine
 10
82.71528071430001
 20
165.6086120604998
 30
0.0
 11
82.36528986960001
 21
165.6086120604998
 31
0.0
  0
LINE
  5
D1
330
2
100
AcDbEntity
  8
0
 62
     3
100
AcDbLine
 10
82.36528986960001
 20
165.6086120604998
 30
0.0
 11
82.36528986960001
 21
164.7086029053
 31
0.0
  0
LINE
  5
D2
330
2
100
AcDbEntity
  8
0
 62
     3
100
AcDbLine
 10
86.16529292130001
 20
174.8086090087999
 30
0.0
 11
86.16529292130001
 21
167.8086090088
 31
0.0
  0
LINE
  5
D3
330
2
100
AcDbEntity
  8
0
 62
     3
100
AcDbLine
 10
84.16529292130002
 20
167.8086090088
 30
0.0
 11
84.16529292130002
 21
166.9086151122999
 31
0.0
  0
LINE
  5
D4
330
2
100
AcDbEntity
  8
0
 62
     3
100
AcDbLine
 10
86.16529292130001
 20
166.9086151122999
 30
0.0
 11
86.16529292130001
 21
165.4586029053
 31
0.0
  0
LINE
  5
D5
330
2
100
AcDbEntity
  8
0
 62
     3
100
AcDbLine
 10
80.46528071430001
 20
185.1086120604998
 30
0.0
 11
81.16527766249999
 21
185.1086120604998
 31
0.0
  0
LINE
  5
D6
330
2
100
AcDbEntity
  8
0
 62
     3
100
AcDbLine
 10
80.46528071430001
 20
186.3086090088
 30
0.0
 11
81.16527766249999
 21
186.3086090088
 31
0.0
  0
LINE
  5
D7
330
2
100
AcDbEntity
  8
0
 62
     3
100
AcDbLine
 10
86.16529292130001
 20
185.7086181640998
 30
0.0
 11
86.16529292130001
 21
175.7086181640999
 31
0.0
  0
ARC
  5
D8
330
2
100
AcDbEntity
  8
0
 62
     3
100
AcDbCircle
 10
79.76578730609998
 20
206.0746154784999
 30
0.0
 40
0.611014545
100
AcDbArc
 50
38.39836045709999
 51
169.6110823756999
  0
ARC
  5
D9
330
2
100
AcDbEntity
  8
0
 62
     3
100
AcDbCircle
 10
80.66578120260002
 20
206.1846160888999
 30
0.0
 40
0.5
100
AcDbArc
 50
89.99998201389999
 51
180.0034610846998
  0
ARC
  5
DA
330
2
100
AcDbEntity
  8
0
 62
     3
100
AcDbCircle
 10
80.66578120260002
 20
206.1846160888999
 30
0.0
 40
0.5
100
AcDbArc
 50
180.0034783874999
 51
270.0000179861
  0
LINE
  5
DB
330
2
100
AcDbEntity
  8
0
 62
     3
100
AcDbLine
 10
79.16578120260002
 20
205.1846160888999
 30
0.0
 11
81.16578120260001
 21
205.1846160888999
 31
0.0
  0
ARC
  5
DC
330
2
100
AcDbEntity
  8
0
 62
     3
100
AcDbCircle
 10
80.66527766249999
 20
189.3086090087999
 30
0.0
 40
0.5
100
AcDbArc
 50
89.99998201389999
 51
270.0000006831999
  0
LINE
  5
DD
330
2
100
AcDbEntity
  8
0
 62
     3
100
AcDbLine
 10
79.16578120260002
 20
205.1846160888999
 30
0.0
 11
79.16578120260002
 21
206.1846160888999
 31
0.0
  0
LINE
  5
DE
330
2
100
AcDbEntity
  8
0
 62
     3
100
AcDbLine
 10
81.16527766249999
 20
189.8086090088
 30
0.0
 11
80.66527766249999
 21
189.8086090088
 31
0.0
  0
LINE
  5
DF
330
2
100
AcDbEntity
  8
0
 62
     3
100
AcDbLine
 10
81.16527766249999
 20
188.8086090088
 30
0.0
 11
80.66527766249999
 21
188.8086090088
 31
0.0
  0
LINE
  5
E0
330
2
100
AcDbEntity
  8
0
 62
     3
100
AcDbLine
 10
80.66578120260002
 20
205.6846160888999
 30
0.0
 11
81.16578120260001
 21
205.6846160888999
 31
0.0
  0
LINE
  5
E1
330
2
100
AcDbEntity
  8
0
 62
     3
100
AcDbLine
 10
80.66578120260002
 20
206.6846160888999
 30
0.0
 11
81.16578120260001
 21
206.6846160888999
 31
0.0
  0
LINE
  5
E2
330
2
100
AcDbEntity
  8
0
 62
     3
100
AcDbLine
 10
69.05828303360002
 20
234.1846160888999
 30
0.0
 11
69.05828303360002
 21
232.9846191406
 31
0.0
  0
LINE
  5
E3
330
2
100
AcDbEntity
  8
0
 62
     3
100
AcDbLine
 10
69.05828303360002
 20
234.1846160888999
 30
0.0
 11
69.05828303360002
 21
232.8346099854
 31
0.0
  0
LINE
  5
E4
330
2
100
AcDbEntity
  8
0
 62
     3
100
AcDbLine
 10
70.1372937829
 20
235.8846239833999
 30
0.0
 11
71.3582971848
 21
231.9846211526999
 31
0.0
  0
LINE
  5
E5
330
2
100
AcDbEntity
  8
0
 62
     3
100
AcDbLine
 10
72.5582835829
 20
231.9846359359997
 30
0.0
 11
71.59228975600001
 21
235.5486241941999
 31
0.0
  0
LINE
  5
E6
330
2
100
AcDbEntity
  8
0
 62
     3
100
AcDbLine
 10
70.15829221850001
 20
235.8845974420997
 30
0.0
 11
71.35829114599999
 21
231.9846096834999
 31
0.0
  0
LINE
  5
E7
330
2
100
AcDbEntity
  8
0
 62
     3
100
AcDbLine
 10
69.55828303360002
 20
226.4346160888999
 30
0.0
 11
62.55828303360004
 21
226.4346160888999
 31
0.0
  0
LINE
  5
E8
330
2
100
AcDbEntity
  8
0
 62
     3
100
AcDbLine
 10
69.55828303360002
 20
213.9346160889
 30
0.0
 11
62.55828303360004
 21
213.9346160889
 31
0.0
  0
LINE
  5
E9
330
2
100
AcDbEntity
  8
0
 62
     3
100
AcDbLine
 10
62.55828303360004
 20
213.9346160889
 30
0.0
 11
62.55828303360004
 21
226.4346160888999
 31
0.0
  0
LINE
  5
EA
330
2
100
AcDbEntity
  8
0
 62
     3
100
AcDbLine
 10
69.55828303360002
 20
213.9346160889
 30
0.0
 11
69.55828303360002
 21
226.4346160888999
 31
0.0
  0
CIRCLE
  5
EB
330
2
100
AcDbEntity
  8
0
 62
     3
100
AcDbCircle
 10
66.05828303360002
 20
213.1846160888999
 30
0.0
 40
0.5999979973
  0
CIRCLE
  5
EC
330
2
100
AcDbEntity
  8
0
 62
     3
100
AcDbCircle
 10
66.05828303360002
 20
227.1846160888999
 30
0.0
 40
0.5999979973
  0
LINE
  5
ED
330
2
100
AcDbEntity
  8
0
 62
     3
100
AcDbLine
 10
71.35828608540004
 20
231.9846191406
 30
0.0
 11
70.25827998190004
 21
231.9846191406
 31
0.0
  0
LINE
  5
EE
330
2
100
AcDbEntity
  8
0
 62
     3
100
AcDbLine
 10
70.25827998190004
 20
231.9846191406
 30
0.0
 11
71.35828608540004
 21
231.9846191406
 31
0.0
  0
LINE
  5
EF
330
2
100
AcDbEntity
  8
0
 62
     3
100
AcDbLine
 10
69.05828303360002
 20
232.9846191406
 30
0.0
 11
69.9582921889
 21
232.9846191406
 31
0.0
  0
LINE
  5
F0
330
2
100
AcDbEntity
  8
0
 62
     3
100
AcDbLine
 10
70.25827998190004
 20
232.8346099854
 30
0.0
 11
69.05828303360002
 21
232.8346099854
 31
0.0
  0
LINE
  5
F1
330
2
100
AcDbEntity
  8
0
 62
     3
100
AcDbLine
 10
70.25827998190004
 20
232.6846160888999
 30
0.0
 11
70.25827998190004
 21
231.9846191406
 31
0.0
  0
ARC
  5
F2
330
2
100
AcDbEntity
  8
0
 62
     3
100
AcDbCircle
 10
69.9582921889
 20
232.6846160888999
 30
0.0
 40
0.3000030518
100
AcDbArc
 50
0.0
 51
89.9992716742
  0
LINE
  5
F3
330
2
100
AcDbEntity
  8
0
 62
     3
100
AcDbLine
 10
70.25827998190004
 20
232.8346099854
 30
0.0
 11
70.25827998190004
 21
231.9846191406
 31
0.0
  0
ARC
  5
F4
330
2
100
AcDbEntity
  8
0
 62
     3
100
AcDbCircle
 10
70.1372777846
 20
235.1846160888999
 30
0.0
 40
1.5
100
AcDbArc
 50
14.0361002161
 51
90.00014593850002
  0
CIRCLE
  5
F5
330
2
100
AcDbEntity
  8
0
 62
     3
100
AcDbCircle
 10
69.6582891372
 20
234.1846160888999
 30
0.0
 40
0.5
  0
LINE
  5
F6
330
2
100
AcDbEntity
  8
0
 62
     3
100
AcDbLine
 10
69.05828303360002
 20
235.1846160888999
 30
0.0
 11
69.05828303360002
 21
236.3846130370999
 31
0.0
  0
LINE
  5
F7
330
2
100
AcDbEntity
  8
0
 62
     3
100
AcDbLine
 10
70.1372777846
 20
236.6846160888999
 30
0.0
 11
69.05828303360002
 21
236.6846160888999
 31
0.0
  0
LINE
  5
F8
330
2
100
AcDbEntity
  8
0
 62
     3
100
AcDbLine
 10
69.05828543060002
 20
236.3846156079999
 30
0.0
 11
70.1372764267
 21
235.884619103
 31
0.0
  0
LINE
  5
F9
330
2
100
AcDbEntity
  8
0
 62
     3
100
AcDbLine
 10
69.05828303360002
 20
236.6846160888999
 30
0.0
 11
69.05828303360002
 21
236.3846130370999
 31
0.0
  0
LINE
  5
FA
330
2
100
AcDbEntity
  8
0
 62
     3
100
AcDbLine
 10
69.05828922900003
 20
236.3845902956
 30
0.0
 11
70.15828268640001
 21
235.8845925886
 31
0.0
  0
ARC
  5
FB
330
2
100
AcDbEntity
  8
0
 62
     3
100
AcDbCircle
 10
80.46528071430001
 20
227.2846069335999
 30
0.0
 40
0.5
100
AcDbArc
 50
89.99998201389999
 51
179.9999640277999
  0
ARC
  5
FC
330
2
100
AcDbEntity
  8
0
 62
     3
100
AcDbCircle
 10
80.46528071430001
 20
213.2846069335999
 30
0.0
 40
0.5
100
AcDbArc
 50
89.99998201389999
 51
179.9999640277999
  0
ARC
  5
FD
330
2
100
AcDbEntity
  8
0
 62
     3
100
AcDbCircle
 10
80.46528071430001
 20
213.0846099854
 30
0.0
 40
0.5
100
AcDbArc
 50
179.9999640277999
 51
270.0000006831999
  0
ARC
  5
FE
330
2
100
AcDbEntity
  8
0
 62
     3
100
AcDbCircle
 10
80.46528071430001
 20
227.0846099854
 30
0.0
 40
0.5
100
AcDbArc
 50
179.9999640277999
 51
270.0000006831999
  0
LINE
  5
FF
330
2
100
AcDbEntity
  8
0
 62
     3
100
AcDbLine
 10
79.96528071430001
 20
213.0846099854
 30
0.0
 11
79.96528071430001
 21
213.2846069335999
 31
0.0
  0
LINE
  5
100
330
2
100
AcDbEntity
  8
0
 62
     3
100
AcDbLine
 10
79.96528071430001
 20
227.2846069335999
 30
0.0
 11
79.96528071430001
 21
227.0846099854
 31
0.0
  0
LINE
  5
101
330
2
100
AcDbEntity
  8
0
  6
DASH
 62
     3
100
AcDbLine
 10
87.62878815849999
 20
226.2045988462999
 30
0.0
 11
86.89529259480002
 21
220.9846105486
 31
0.0
  0
LINE
  5
102
330
2
100
AcDbEntity
  8
0
  6
DASH
 62
     3
100
AcDbLine
 10
85.16529292130002
 20
210.6846160888999
 30
0.0
 11
85.16529292130002
 21
229.6846160888999
 31
0.0
  0
LINE
  5
103
330
2
100
AcDbEntity
  8
0
 62
     3
100
AcDbLine
 10
80.46528071430001
 20
213.7846069336
 30
0.0
 11
81.16527766249999
 21
213.7846069336
 31
0.0
  0
LINE
  5
104
330
2
100
AcDbEntity
  8
0
 62
     3
100
AcDbLine
 10
80.46528071430001
 20
212.5846099854
 30
0.0
 11
81.16527766249999
 21
212.5846099854
 31
0.0
  0
LINE
  5
105
330
2
100
AcDbEntity
  8
0
  6
DASH
 62
     3
100
AcDbLine
 10
86.6702942336
 20
219.384623394
 30
0.0
 11
85.96478905579994
 21
214.3646204612998
 31
0.0
  0
LINE
  5
106
330
2
100
AcDbEntity
  8
0
  6
DASH
 62
     3
100
AcDbLine
 10
87.3277873806
 20
212.5645944322
 30
0.0
 11
86.83428752010001
 21
213.3645976151
 31
0.0
  0
LINE
  5
107
330
2
100
AcDbEntity
  8
0
  6
DASH
 62
     3
100
AcDbLine
 10
86.8342661001
 20
213.3646162236999
 30
0.0
 11
87.55276773740002
 21
214.1646145447
 31
0.0
  0
LINE
  5
108
330
2
100
AcDbEntity
  8
0
  6
DASH
 62
     3
100
AcDbLine
 10
87.58077085180003
 20
214.3646112626
 30
0.0
 11
86.72627839120002
 21
213.3826250545
 31
0.0
  0
LINE
  5
109
330
2
100
AcDbEntity
  8
0
  6
DASH
 62
     3
100
AcDbLine
 10
86.72630217220001
 20
213.3826022533999
 30
0.0
 11
85.96479669050001
 21
214.3645974034
 31
0.0
  0
LINE
  5
10A
330
2
100
AcDbEntity
  8
0
  6
DASH
 62
     3
100
AcDbLine
 10
87.70177688230001
 20
220.0956171667999
 30
0.0
 11
86.67028617159997
 21
219.3846209947
 31
0.0
  0
LINE
  5
10B
330
2
100
AcDbEntity
  8
0
  6
DASH
 62
     3
100
AcDbLine
 10
87.70178434239999
 20
220.2016156565999
 30
0.0
 11
86.89528869950001
 21
220.9846203845
 31
0.0
  0
LINE
  5
10C
330
2
100
AcDbEntity
  8
0
 62
     3
100
AcDbLine
 10
80.46528071430001
 20
226.5846099854
 30
0.0
 11
81.16527766249999
 21
226.5846099854
 31
0.0
  0
LINE
  5
10D
330
2
100
AcDbEntity
  8
0
 62
     3
100
AcDbLine
 10
80.46528071430001
 20
227.7846069335999
 30
0.0
 11
81.16527766249999
 21
227.7846069335999
 31
0.0
  0
ARC
  5
10E
330
2
100
AcDbEntity
  8
0
 62
     3
100
AcDbCircle
 10
79.76578730609998
 20
234.2946166991999
 30
0.0
 40
0.6110147238
100
AcDbArc
 50
190.3889176243
 51
321.6016395428998
  0
ARC
  5
10F
330
2
100
AcDbEntity
  8
0
 62
     3
100
AcDbCircle
 10
80.66578120260002
 20
234.1846160888999
 30
0.0
 40
0.5
100
AcDbArc
 50
179.9965216125
 51
270.0000006831999
  0
ARC
  5
110
330
2
100
AcDbEntity
  8
0
 62
     3
100
AcDbCircle
 10
80.66578120260002
 20
234.1846160888999
 30
0.0
 40
0.5
100
AcDbArc
 50
89.99998201389999
 51
179.9965216125
  0
LINE
  5
111
330
2
100
AcDbEntity
  8
0
 62
     3
100
AcDbLine
 10
79.16578120260002
 20
235.1846160888999
 30
0.0
 11
81.16578120260001
 21
235.1846160888999
 31
0.0
  0
LINE
  5
112
330
2
100
AcDbEntity
  8
0
 62
     3
100
AcDbLine
 10
79.16578120260002
 20
235.1846160888999
 30
0.0
 11
79.16578120260002
 21
234.1846160888999
 31
0.0
  0
LINE
  5
113
330
2
100
AcDbEntity
  8
0
 62
     3
100
AcDbLine
 10
80.66578120260002
 20
233.6846160888999
 30
0.0
 11
81.16578120260001
 21
233.6846160888999
 31
0.0
  0
LINE
  5
114
330
2
100
AcDbEntity
  8
0
 62
     3
100
AcDbLine
 10
80.66578120260002
 20
234.6846160888999
 30
0.0
 11
81.16578120260001
 21
234.6846160888999
 31
0.0
  0
LINE
  5
115
330
2
100
AcDbEntity
  8
0
 62
     3
100
AcDbLine
 10
117.9521741617999
 20
230.7816316302999
 30
0.0
 11
117.7101630832
 21
231.1846426335999
 31
0.0
  0
LINE
  5
116
330
2
100
AcDbEntity
  8
0
 62
     3
100
AcDbLine
 10
117.9521885557999
 20
209.5876175984
 30
0.0
 11
117.7101853326
 21
209.1846196764998
 31
0.0
  0
LINE
  5
117
330
2
100
AcDbEntity
  8
0
 62
     3
100
AcDbLine
 10
117.2101842787999
 20
231.9846191406
 30
0.0
 11
118.3101903822998
 21
231.9846191406
 31
0.0
  0
LINE
  5
118
330
2
100
AcDbEntity
  8
0
 62
     3
100
AcDbLine
 10
117.2101842787999
 20
208.3846130370999
 30
0.0
 11
118.3101903822998
 21
208.3846130370999
 31
0.0
  0
LINE
  5
119
330
2
100
AcDbEntity
  8
0
 62
     3
100
AcDbLine
 10
117.2101842787999
 20
230.6346130371
 30
0.0
 11
119.5101873304998
 21
230.6346130371
 31
0.0
  0
LINE
  5
11A
330
2
100
AcDbEntity
  8
0
 62
     3
100
AcDbLine
 10
117.2101842787999
 20
209.7346191406
 30
0.0
 11
119.5101873304998
 21
209.7346191406
 31
0.0
  0
ARC
  5
11B
330
2
100
AcDbEntity
  8
0
 62
     3
100
AcDbCircle
 10
118.4311925795
 20
235.1846160888999
 30
0.0
 40
1.5
100
AcDbArc
 50
89.9997088063
 51
165.9638706419
  0
ARC
  5
11C
330
2
100
AcDbEntity
  8
0
 62
     3
100
AcDbCircle
 10
118.1231939222998
 20
230.8846130370999
 30
0.0
 40
0.2000053525
100
AcDbArc
 50
210.9648898197
 51
270.0000179861
  0
ARC
  5
11D
330
2
100
AcDbEntity
  8
0
 62
     3
100
AcDbCircle
 10
118.1231939222998
 20
209.4846191406
 30
0.0
 40
0.200012207
100
AcDbArc
 50
89.99998201389999
 51
149.0351101803
  0
ARC
  5
11E
330
2
100
AcDbEntity
  8
0
 62
     3
100
AcDbCircle
 10
118.4311925795
 20
205.1836090087998
 30
0.0
 40
1.499997138999999
100
AcDbArc
 50
194.0367304146999
 51
270.0008922503
  0
LINE
  5
11F
330
2
100
AcDbEntity
  8
0
 62
     3
100
AcDbLine
 10
118.3101903822998
 20
231.9846191406
 30
0.0
 11
117.2101842787999
 21
231.9846191406
 31
0.0
  0
LINE
  5
120
330
2
100
AcDbEntity
  8
0
 62
     3
100
AcDbLine
 10
118.3101903822998
 20
208.3846130370999
 30
0.0
 11
117.2101842787999
 21
208.3846130370999
 31
0.0
  0
LINE
  5
121
330
2
100
AcDbEntity
  8
0
 62
     3
100
AcDbLine
 10
117.2102012409999
 20
208.384601967
 30
0.0
 11
118.4102076009
 21
204.4835949559999
 31
0.0
  0
LINE
  5
122
330
2
100
AcDbEntity
  8
0
 62
     3
100
AcDbLine
 10
117.2101796323999
 20
231.9845857068999
 30
0.0
 11
118.4101864522999
 21
235.8845868334997
 31
0.0
  0
LINE
  5
123
330
2
100
AcDbEntity
  8
0
 62
     3
100
AcDbLine
 10
118.4101864522999
 20
235.8845868334997
 30
0.0
 11
117.2101796323999
 21
231.9845857068999
 31
0.0
  0
LINE
  5
124
330
2
100
AcDbEntity
  8
0
 62
     3
100
AcDbLine
 10
117.2101893445
 20
208.3846020106999
 30
0.0
 11
118.4101961644
 21
204.4846008840999
 31
0.0
  0
LINE
  5
125
330
2
100
AcDbEntity
  8
0
 62
     3
100
AcDbLine
 10
117.2101842787999
 20
230.6346130371
 30
0.0
 11
117.2101842787999
 21
209.7346191406
 31
0.0
  0
LINE
  5
126
330
2
100
AcDbEntity
  8
0
 62
     3
100
AcDbLine
 10
117.2101842787999
 20
209.3846130370998
 30
0.0
 11
117.2101842787999
 21
230.9846191406
 31
0.0
  0
LINE
  5
127
330
2
100
AcDbEntity
  8
0
 62
     3
100
AcDbLine
 10
116.0101873304998
 20
231.9846191406
 30
0.0
 11
116.0101873304998
 21
208.3846130370999
 31
0.0
  0
LINE
  5
128
330
2
100
AcDbEntity
  8
0
  6
CENTERLINE
 62
     3
100
AcDbLine
 10
91.16559809710002
 20
201.1846160888999
 30
0.0
 11
91.16559809710002
 21
239.1846160888999
 31
0.0
  0
LINE
  5
129
330
2
100
AcDbEntity
  8
0
 62
     3
100
AcDbLine
 10
101.1657964614
 20
236.6846160888999
 30
0.0
 11
101.1657964614
 21
203.6846160888999
 31
0.0
  0
LINE
  5
12A
330
2
100
AcDbEntity
  8
0
 62
     3
100
AcDbLine
 10
99.66529292129999
 20
174.8086090087999
 30
0.0
 11
99.66529292129999
 21
175.7086181640999
 31
0.0
  0
LINE
  5
12B
330
2
100
AcDbEntity
  8
0
 62
     3
100
AcDbLine
 10
98.6652929213
 20
164.9586029053
 30
0.0
 11
101.1652929212999
 21
164.9586029053
 31
0.0
  0
LINE
  5
12C
330
2
100
AcDbEntity
  8
0
 62
     3
100
AcDbLine
 10
99.66529292129999
 20
166.9086151122999
 30
0.0
 11
99.66529292129999
 21
167.8086090088
 31
0.0
  0
LINE
  5
12D
330
2
100
AcDbEntity
  8
0
 62
     3
100
AcDbLine
 10
101.1657964614
 20
188.7086181640998
 30
0.0
 11
101.1657964614
 21
192.2086181640999
 31
0.0
  0
LINE
  5
12E
330
2
100
AcDbEntity
  8
0
 62
     3
100
AcDbLine
 10
116.0102019463998
 20
208.3846126229
 30
0.0
 11
116.9761969689
 21
204.8196129027
 31
0.0
  0
ARC
  5
12F
330
2
100
AcDbEntity
  8
0
 62
     3
100
AcDbCircle
 10
117.4101964857999
 20
209.3846130370998
 30
0.0
 40
0.2000045776
100
AcDbArc
 50
179.9999640277999
 51
270.0000006831999
  0
LINE
  5
130
330
2
100
AcDbEntity
  8
0
 62
     3
100
AcDbLine
 10
117.4101964857999
 20
209.1846160888999
 30
0.0
 11
117.7101842787999
 21
209.1846160888999
 31
0.0
  0
LINE
  5
131
330
2
100
AcDbEntity
  8
0
  6
DASH
 62
     3
100
AcDbLine
 10
94.85126920329998
 20
226.0046022447
 30
0.0
 11
95.69826928820004
 21
226.9646089252997
 31
0.0
  0
LINE
  5
132
330
2
100
AcDbEntity
  8
0
  6
DASH
 62
     3
100
AcDbLine
 10
94.87979102
 20
226.2046178110999
 30
0.0
 11
95.59778693949999
 21
227.004598499
 31
0.0
  0
LINE
  5
133
330
2
100
AcDbEntity
  8
0
  6
DASH
 62
     3
100
AcDbLine
 10
94.71529726509999
 20
220.0246228284999
 30
0.0
 11
95.53678892020002
 21
219.384626052
 31
0.0
  0
LINE
  5
134
330
2
100
AcDbEntity
  8
0
  6
DASH
 62
     3
100
AcDbLine
 10
94.73627429880002
 20
220.3316284790999
 30
0.0
 11
95.76177973520001
 21
220.9846286050999
 31
0.0
  0
LINE
  5
135
330
2
100
AcDbEntity
  8
0
  6
DASH
 62
     3
100
AcDbLine
 10
95.53679563840001
 20
219.3845937511999
 30
0.0
 11
94.80329795150002
 21
214.1645903431
 31
0.0
  0
LINE
  5
136
330
2
100
AcDbEntity
  8
0
  6
DASH
 62
     3
100
AcDbLine
 10
95.59778759649999
 20
227.0046029868997
 30
0.0
 11
95.10428773590001
 21
227.8046061697999
 31
0.0
  0
LINE
  5
137
330
2
100
AcDbEntity
  8
0
  6
DASH
 62
     3
100
AcDbLine
 10
94.85127750670001
 20
226.0045928747
 30
0.0
 11
94.17727533139998
 21
221.2086125904999
 31
0.0
  0
LINE
  5
138
330
2
100
AcDbEntity
  8
0
  6
DASH
 62
     3
100
AcDbLine
 10
89.21678259910001
 20
226.0046018624
 30
0.0
 11
88.53278500420003
 21
221.1386066997
 31
0.0
  0
LINE
  5
139
330
2
100
AcDbEntity
  8
0
  6
DASH
 62
     3
100
AcDbLine
 10
88.51128596329994
 20
220.9846191406
 30
0.0
 11
94.14579218890002
 21
220.9846191406
 31
0.0
  0
LINE
  5
13A
330
2
100
AcDbEntity
  8
0
  6
DASH
 62
     3
100
AcDbLine
 10
88.2862951186
 20
219.3846130370999
 30
0.0
 11
93.92128962539999
 21
219.3846130370999
 31
0.0
  0
LINE
  5
13B
330
2
100
AcDbEntity
  8
0
  6
DASH
 62
     3
100
AcDbLine
 10
88.5112828595
 20
220.984610884
 30
0.0
 11
87.79278551640002
 21
220.1846087815999
 31
0.0
  0
LINE
  5
13C
330
2
100
AcDbEntity
  8
0
  6
DASH
 62
     3
100
AcDbLine
 10
87.79277845420001
 20
220.1846091133999
 30
0.0
 11
88.28627831470001
 21
219.3846059303998
 31
0.0
  0
LINE
  5
13D
330
2
100
AcDbEntity
  8
0
  6
DASH
 62
     3
100
AcDbLine
 10
93.88880271709998
 20
219.1546155601999
 30
0.0
 11
93.21579926850001
 21
214.3646121550998
 31
0.0
  0
LINE
  5
13E
330
2
100
AcDbEntity
  8
0
  6
DASH
 62
     3
100
AcDbLine
 10
92.9627743124
 20
212.5645967404
 30
0.0
 11
93.6807830552
 21
213.3646069316998
 31
0.0
  0
LINE
  5
13F
330
2
100
AcDbEntity
  8
0
  6
DASH
 62
     3
100
AcDbLine
 10
93.68078808270002
 20
213.3646049623
 30
0.0
 11
93.18728822219998
 21
214.1646081451999
 31
0.0
  0
LINE
  5
140
330
2
100
AcDbEntity
  8
0
  6
DASH
 62
     3
100
AcDbLine
 10
93.215782588
 20
214.3646128511
 30
0.0
 11
93.78728749350001
 21
213.3796084109999
 31
0.0
  0
LINE
  5
141
330
2
100
AcDbEntity
  8
0
  6
DASH
 62
     3
100
AcDbLine
 10
93.7872743966
 20
213.3795985377999
 30
0.0
 11
94.80327509270001
 21
214.1646036291999
 31
0.0
  0
LINE
  5
142
330
2
100
AcDbEntity
  8
0
  6
DASH
 62
     3
100
AcDbLine
 10
94.14578797900004
 20
220.9846071574999
 30
0.0
 11
94.6392878396
 21
220.1846039745999
 31
0.0
  0
LINE
  5
143
330
2
100
AcDbEntity
  8
0
  6
DASH
 62
     3
100
AcDbLine
 10
94.63928316469997
 20
220.1846137071999
 30
0.0
 11
93.92128884250002
 21
219.3846110915999
 31
0.0
  0
LINE
  5
144
330
2
100
AcDbEntity
  8
0
  6
DASH
 62
     3
100
AcDbLine
 10
93.88880139100001
 20
219.1546177304
 30
0.0
 11
94.71530103999999
 21
220.0246125423999
 31
0.0
  0
LINE
  5
145
330
2
100
AcDbEntity
  8
0
  6
DASH
 62
     3
100
AcDbLine
 10
94.17728878870002
 20
221.2086218654
 30
0.0
 11
94.73628993490001
 21
220.331618195
 31
0.0
  0
LINE
  5
146
330
2
100
AcDbEntity
  8
0
  6
DASH
 62
     3
100
AcDbLine
 10
89.46979731590005
 20
227.8046112061
 30
0.0
 11
95.10428828269999
 21
227.8046112061
 31
0.0
  0
LINE
  5
147
330
2
100
AcDbEntity
  8
0
  6
DASH
 62
     3
100
AcDbLine
 10
89.2447912124
 20
226.2046203613
 30
0.0
 11
94.87978571920001
 21
226.2046203613
 31
0.0
  0
LINE
  5
148
330
2
100
AcDbEntity
  8
0
  6
DASH
 62
     3
100
AcDbLine
 10
88.75126689910002
 20
227.0046101266
 30
0.0
 11
89.46977873220001
 21
227.8046197999
 31
0.0
  0
LINE
  5
149
330
2
100
AcDbEntity
  8
0
  6
DASH
 62
     3
100
AcDbLine
 10
89.2447811765
 20
226.204612654
 30
0.0
 11
88.75128249180002
 21
227.0045986483999
 31
0.0
  0
LINE
  5
14A
330
2
100
AcDbEntity
  8
0
  6
DASH
 62
     3
100
AcDbLine
 10
89.21678194610001
 20
226.0046067587999
 30
0.0
 11
88.62128693109998
 21
226.9996135276998
 31
0.0
  0
LINE
  5
14B
330
2
100
AcDbEntity
  8
0
  6
DASH
 62
     3
100
AcDbLine
 10
96.49529105320002
 20
226.2046078475999
 30
0.0
 11
95.7617933663
 21
220.9846044395998
 31
0.0
  0
LINE
  5
14C
330
2
100
AcDbEntity
  8
0
  6
DASH
 62
     3
100
AcDbLine
 10
97.66529292130002
 20
229.6846160888999
 30
0.0
 11
97.66529292130002
 21
210.6846160888999
 31
0.0
  0
CIRCLE
  5
14D
330
2
100
AcDbEntity
  8
0
  6
DASH
 62
     3
100
AcDbCircle
 10
96.49529475240001
 20
213.5846099854
 30
0.0
 40
0.8000029921999999
  0
LINE
  5
14E
330
2
100
AcDbEntity
  8
0
  6
DASH
 62
     3
100
AcDbLine
 10
95.6982937148
 20
226.9646086618999
 30
0.0
 11
96.49529248
 21
226.2046124941999
 31
0.0
  0
LINE
  5
14F
330
2
100
AcDbEntity
  8
0
 62
     3
100
AcDbLine
 10
116.0101661322
 20
231.9846314050999
 30
0.0
 11
116.9761639509
 21
235.5486343906999
 31
0.0
  0
ARC
  5
150
330
2
100
AcDbEntity
  8
0
 62
     3
100
AcDbCircle
 10
117.4101964857999
 20
230.9846191406
 30
0.0
 40
0.200012207
100
AcDbArc
 50
89.99998201389999
 51
179.9999640277999
  0
LINE
  5
151
330
2
100
AcDbEntity
  8
0
 62
     3
100
AcDbLine
 10
117.4101964857999
 20
231.1846160888999
 30
0.0
 11
117.7101842787999
 21
231.1846160888999
 31
0.0
  0
LINE
  5
152
330
2
100
AcDbEntity
  8
0
 62
     3
100
AcDbLine
 10
132.5111944105999
 20
206.1846160888999
 30
0.0
 11
133.4111883070999
 21
206.1846160888999
 31
0.0
  0
LINE
  5
153
330
2
100
AcDbEntity
  8
0
 62
     3
100
AcDbLine
 10
132.5111944105999
 20
206.9346160888999
 30
0.0
 11
133.4111883070999
 21
206.9346160888999
 31
0.0
  0
LINE
  5
154
330
2
100
AcDbEntity
  8
0
 62
     3
100
AcDbLine
 10
125.5101873304999
 20
205.6846160888999
 30
0.0
 11
125.2601873304998
 21
205.6846160888999
 31
0.0
  0
LINE
  5
155
330
2
100
AcDbEntity
  8
0
 62
     3
100
AcDbLine
 10
119.5101873304998
 20
205.1846160888999
 30
0.0
 11
119.5101873304998
 21
203.9846191406
 31
0.0
  0
LINE
  5
156
330
2
100
AcDbEntity
  8
0
 62
     3
100
AcDbLine
 10
118.4101887941999
 20
204.4836031536998
 30
0.0
 11
119.5101961426
 21
203.9835991324999
 31
0.0
  0
LINE
  5
157
330
2
100
AcDbEntity
  8
0
 62
     3
100
AcDbLine
 10
118.4101925832
 20
204.4846071006
 30
0.0
 11
119.5101860404998
 21
203.9846093936
 31
0.0
  0
LINE
  5
158
330
2
100
AcDbEntity
  8
0
 62
     3
100
AcDbLine
 10
119.5101873304998
 20
203.6836090088
 30
0.0
 11
119.5101873304998
 21
203.9836120604999
 31
0.0
  0
LINE
  5
159
330
2
100
AcDbEntity
  8
0
 62
     3
100
AcDbLine
 10
118.4311925795
 20
203.6836090088
 30
0.0
 11
119.5101873304998
 21
203.6836090088
 31
0.0
  0
LINE
  5
15A
330
2
100
AcDbEntity
  8
0
 62
     3
100
AcDbLine
 10
118.3101903822998
 20
208.3846130370999
 30
0.0
 11
118.3101903822998
 21
207.5346069336
 31
0.0
  0
LINE
  5
15B
330
2
100
AcDbEntity
  8
0
 62
     3
100
AcDbLine
 10
118.3101903822998
 20
207.5346069336
 30
0.0
 11
119.5101873304998
 21
207.5346069336
 31
0.0
  0
LINE
  5
15C
330
2
100
AcDbEntity
  8
0
 62
     3
100
AcDbLine
 10
119.5101873304998
 20
209.7346191406
 30
0.0
 11
119.5101873304998
 21
207.5346069336
 31
0.0
  0
CIRCLE
  5
15D
330
2
100
AcDbEntity
  8
0
 62
     3
100
AcDbCircle
 10
118.9101964857999
 20
206.1846160888999
 30
0.0
 40
0.5250020027000001
  0
ARC
  5
15E
330
2
100
AcDbEntity
  8
0
 62
     3
100
AcDbCircle
 10
118.6101934339998
 20
207.8346099854
 30
0.0
 40
0.3000030518
100
AcDbArc
 50
179.9999640277999
 51
270.0000006831999
  0
LINE
  5
15F
330
2
100
AcDbEntity
  8
0
 62
     3
100
AcDbLine
 10
118.6101934339998
 20
207.5346069336
 30
0.0
 11
119.5101873304998
 21
207.5346069336
 31
0.0
  0
LINE
  5
160
330
2
100
AcDbEntity
  8
0
 62
     3
100
AcDbLine
 10
119.5101873304998
 20
208.6846160888999
 30
0.0
 11
119.5101873304998
 21
207.6846160889
 31
0.0
  0
LINE
  5
161
330
2
100
AcDbEntity
  8
0
 62
     3
100
AcDbLine
 10
118.3101903822998
 20
207.8346099854
 30
0.0
 11
118.3101903822998
 21
208.3846130370999
 31
0.0
  0
LINE
  5
162
330
2
100
AcDbEntity
  8
0
 62
     3
100
AcDbLine
 10
119.5101873304998
 20
207.5346069336
 30
0.0
 11
119.5101873304998
 21
207.6846160889
 31
0.0
  0
LINE
  5
163
330
2
100
AcDbEntity
  8
0
 62
     3
100
AcDbLine
 10
118.1231939222998
 20
209.6846160888999
 30
0.0
 11
118.5101873304998
 21
209.6846160888999
 31
0.0
  0
ARC
  5
164
330
2
100
AcDbEntity
  8
0
 62
     3
100
AcDbCircle
 10
118.5101873304998
 20
208.6846160888999
 30
0.0
 40
1.0
100
AcDbArc
 50
0.0
 51
89.9995448818
  0
LINE
  5
165
330
2
100
AcDbEntity
  8
0
 62
     3
100
AcDbLine
 10
123.5101828951999
 20
205.184615502
 30
0.0
 11
124.2601784512
 21
205.6846125215
 31
0.0
  0
LINE
  5
166
330
2
100
AcDbEntity
  8
0
 62
     3
100
AcDbLine
 10
123.5101873304998
 20
205.6846160888999
 30
0.0
 11
123.2601873304998
 21
205.6846160888999
 31
0.0
  0
LINE
  5
167
330
2
100
AcDbEntity
  8
0
 62
     3
100
AcDbLine
 10
123.5101873304998
 20
205.6846160888999
 30
0.0
 11
123.5101873304998
 21
205.1846160888999
 31
0.0
  0
LINE
  5
168
330
2
100
AcDbEntity
  8
0
 62
     3
100
AcDbLine
 10
122.5101845995
 20
205.1846197506
 30
0.0
 11
123.2601801554998
 21
205.6846167699999
 31
0.0
  0
LINE
  5
169
330
2
100
AcDbEntity
  8
0
 62
     3
100
AcDbLine
 10
124.5101873304998
 20
205.6846160888999
 30
0.0
 11
124.2601873304998
 21
205.6846160888999
 31
0.0
  0
LINE
  5
16A
330
2
100
AcDbEntity
  8
0
 62
     3
100
AcDbLine
 10
124.5101811909
 20
205.1846112534998
 30
0.0
 11
125.2601894429998
 21
205.6846167369998
 31
0.0
  0
LINE
  5
16B
330
2
100
AcDbEntity
  8
0
 62
     3
100
AcDbLine
 10
124.5101873304998
 20
205.6846160888999
 30
0.0
 11
124.5101873304998
 21
205.1846160888999
 31
0.0
  0
LINE
  5
16C
330
2
100
AcDbEntity
  8
0
 62
     3
100
AcDbLine
 10
129.5101873305
 20
205.6846160888999
 30
0.0
 11
129.2601873304997
 21
205.6846160888999
 31
0.0
  0
LINE
  5
16D
330
2
100
AcDbEntity
  8
0
 62
     3
100
AcDbLine
 10
127.5101873304999
 20
205.6846160888999
 30
0.0
 11
127.2601873304998
 21
205.6846160888999
 31
0.0
  0
LINE
  5
16E
330
2
100
AcDbEntity
  8
0
 62
     3
100
AcDbLine
 10
126.5101873304999
 20
205.6846160888999
 30
0.0
 11
126.2601873304998
 21
205.6846160888999
 31
0.0
  0
LINE
  5
16F
330
2
100
AcDbEntity
  8
0
 62
     3
100
AcDbLine
 10
126.5101820142999
 20
205.1846239165
 30
0.0
 11
127.2601775704
 21
205.6846209359
 31
0.0
  0
LINE
  5
170
330
2
100
AcDbEntity
  8
0
 62
     3
100
AcDbLine
 10
126.5101873304999
 20
205.6846160888999
 30
0.0
 11
126.5101873304999
 21
205.1846160888999
 31
0.0
  0
LINE
  5
171
330
2
100
AcDbEntity
  8
0
 62
     3
100
AcDbLine
 10
125.5101873304999
 20
205.6846160888999
 30
0.0
 11
125.5101873304999
 21
205.1846160888999
 31
0.0
  0
LINE
  5
172
330
2
100
AcDbEntity
  8
0
 62
     3
100
AcDbLine
 10
125.5101837185999
 20
205.1846281649999
 30
0.0
 11
126.2601792746999
 21
205.6846251845
 31
0.0
  0
LINE
  5
173
330
2
100
AcDbEntity
  8
0
 62
     3
100
AcDbLine
 10
128.5101873305
 20
205.6846160888999
 30
0.0
 11
128.2601873304997
 21
205.6846160888999
 31
0.0
  0
LINE
  5
174
330
2
100
AcDbEntity
  8
0
 62
     3
100
AcDbLine
 10
128.5101786056999
 20
205.1846154193999
 30
0.0
 11
129.2601868577999
 21
205.6846209029
 31
0.0
  0
LINE
  5
175
330
2
100
AcDbEntity
  8
0
 62
     3
100
AcDbLine
 10
128.5101873305
 20
205.6846160888999
 30
0.0
 11
128.5101873305
 21
205.1846160888999
 31
0.0
  0
LINE
  5
176
330
2
100
AcDbEntity
  8
0
 62
     3
100
AcDbLine
 10
127.5101803099998
 20
205.1846196679
 30
0.0
 11
128.2601758661
 21
205.6846166874
 31
0.0
  0
LINE
  5
177
330
2
100
AcDbEntity
  8
0
 62
     3
100
AcDbLine
 10
127.5101873304999
 20
205.6846160888999
 30
0.0
 11
127.5101873304999
 21
205.1846160888999
 31
0.0
  0
LINE
  5
178
330
2
100
AcDbEntity
  8
0
 62
     3
100
AcDbLine
 10
130.5101878931999
 20
205.1846153862999
 30
0.0
 11
131.2601834492
 21
205.6846124056999
 31
0.0
  0
LINE
  5
179
330
2
100
AcDbEntity
  8
0
 62
     3
100
AcDbLine
 10
130.5101873305
 20
205.6846160888999
 30
0.0
 11
130.5101873305
 21
205.1846160888999
 31
0.0
  0
LINE
  5
17A
330
2
100
AcDbEntity
  8
0
 62
     3
100
AcDbLine
 10
130.5101873305
 20
205.6846160888999
 30
0.0
 11
130.2601873304997
 21
205.6846160888999
 31
0.0
  0
LINE
  5
17B
330
2
100
AcDbEntity
  8
0
 62
     3
100
AcDbLine
 10
129.5101873305
 20
205.6846160888999
 30
0.0
 11
129.5101873305
 21
205.1846160888999
 31
0.0
  0
LINE
  5
17C
330
2
100
AcDbEntity
  8
0
 62
     3
100
AcDbLine
 10
129.5101895974999
 20
205.1846196349
 30
0.0
 11
130.2601851534999
 21
205.6846166543
 31
0.0
  0
LINE
  5
17D
330
2
100
AcDbEntity
  8
0
 62
     3
100
AcDbLine
 10
132.5111944105999
 20
206.9346160888999
 30
0.0
 11
132.5111944105999
 21
205.6846160888999
 31
0.0
  0
LINE
  5
17E
330
2
100
AcDbEntity
  8
0
 62
     3
100
AcDbLine
 10
131.5101777248999
 20
205.1846238338
 30
0.0
 11
132.2601732809
 21
205.6846208533
 31
0.0
  0
LINE
  5
17F
330
2
100
AcDbEntity
  8
0
 62
     3
100
AcDbLine
 10
131.5101873304998
 20
205.6846160888999
 30
0.0
 11
131.2601873304998
 21
205.6846160888999
 31
0.0
  0
LINE
  5
180
330
2
100
AcDbEntity
  8
0
 62
     3
100
AcDbLine
 10
132.5101873304997
 20
205.6846160888999
 30
0.0
 11
132.2601873305
 21
205.6846160888999
 31
0.0
  0
LINE
  5
181
330
2
100
AcDbEntity
  8
0
 62
     3
100
AcDbLine
 10
131.5101873304998
 20
205.6846160888999
 30
0.0
 11
131.5101873304998
 21
205.1846160888999
 31
0.0
  0
LINE
  5
182
330
2
100
AcDbEntity
  8
0
 62
     3
100
AcDbLine
 10
140.4111883070999
 20
206.1846160888999
 30
0.0
 11
141.3111974623997
 21
206.1846160888999
 31
0.0
  0
LINE
  5
183
330
2
100
AcDbEntity
  8
0
 62
     3
100
AcDbLine
 10
140.4111883070999
 20
206.9346160888999
 30
0.0
 11
141.3111974623997
 21
206.9346160888999
 31
0.0
  0
LINE
  5
184
330
2
100
AcDbEntity
  8
0
 62
     3
100
AcDbLine
 10
136.5111848898
 20
205.1846195191
 30
0.0
 11
137.2611804458
 21
205.6846165386
 31
0.0
  0
LINE
  5
185
330
2
100
AcDbEntity
  8
0
 62
     3
100
AcDbLine
 10
134.5111756022997
 20
205.1846195522
 30
0.0
 11
135.2611838544
 21
205.6846250357
 31
0.0
  0
LINE
  5
186
330
2
100
AcDbEntity
  8
0
 62
     3
100
AcDbLine
 10
133.5111773065999
 20
205.1846238008
 30
0.0
 11
134.2611728625999
 21
205.6846208201999
 31
0.0
  0
LINE
  5
187
330
2
100
AcDbEntity
  8
0
 62
     3
100
AcDbLine
 10
133.4111883070999
 20
205.6846160888999
 30
0.0
 11
133.4111883070999
 21
206.9346160888999
 31
0.0
  0
LINE
  5
188
330
2
100
AcDbEntity
  8
0
 62
     3
100
AcDbLine
 10
133.5111944105999
 20
205.6846160888999
 30
0.0
 11
133.4111883070999
 21
205.6846160888999
 31
0.0
  0
LINE
  5
189
330
2
100
AcDbEntity
  8
0
 62
     3
100
AcDbLine
 10
133.5111944105999
 20
205.6846160888999
 30
0.0
 11
133.5111944105999
 21
205.1846160888999
 31
0.0
  0
LINE
  5
18A
330
2
100
AcDbEntity
  8
0
 62
     3
100
AcDbLine
 10
134.5111944105999
 20
205.6846160888999
 30
0.0
 11
134.2611944105998
 21
205.6846160888999
 31
0.0
  0
LINE
  5
18B
330
2
100
AcDbEntity
  8
0
 62
     3
100
AcDbLine
 10
134.5111944105999
 20
205.6846160888999
 30
0.0
 11
134.5111944105999
 21
205.1846160888999
 31
0.0
  0
LINE
  5
18C
330
2
100
AcDbEntity
  8
0
 62
     3
100
AcDbLine
 10
135.5111944105999
 20
205.6846160888999
 30
0.0
 11
135.2611944105998
 21
205.6846160888999
 31
0.0
  0
LINE
  5
18D
330
2
100
AcDbEntity
  8
0
 62
     3
100
AcDbLine
 10
135.5111865940999
 20
205.1846237676997
 30
0.0
 11
136.2611821501
 21
205.6846207870999
 31
0.0
  0
LINE
  5
18E
330
2
100
AcDbEntity
  8
0
 62
     3
100
AcDbLine
 10
135.5111944105999
 20
205.6846160888999
 30
0.0
 11
135.5111944105999
 21
205.1846160888999
 31
0.0
  0
LINE
  5
18F
330
2
100
AcDbEntity
  8
0
 62
     3
100
AcDbLine
 10
136.5111944105999
 20
205.6846160888999
 30
0.0
 11
136.2611944105998
 21
205.6846160888999
 31
0.0
  0
LINE
  5
190
330
2
100
AcDbEntity
  8
0
 62
     3
100
AcDbLine
 10
136.5111944105999
 20
205.6846160888999
 30
0.0
 11
136.5111944105999
 21
205.1846160888999
 31
0.0
  0
LINE
  5
191
330
2
100
AcDbEntity
  8
0
 62
     3
100
AcDbLine
 10
138.5111730170999
 20
205.1846237181
 30
0.0
 11
139.2611812691999
 21
205.6846292015999
 31
0.0
  0
LINE
  5
192
330
2
100
AcDbEntity
  8
0
 62
     3
100
AcDbLine
 10
137.5111831854999
 20
205.1846152706
 30
0.0
 11
138.2611787415
 21
205.68461229
 31
0.0
  0
LINE
  5
193
330
2
100
AcDbEntity
  8
0
 62
     3
100
AcDbLine
 10
137.5111944105998
 20
205.6846160888999
 30
0.0
 11
137.5111944105998
 21
205.1846160888999
 31
0.0
  0
LINE
  5
194
330
2
100
AcDbEntity
  8
0
 62
     3
100
AcDbLine
 10
138.5111944105998
 20
205.6846160888999
 30
0.0
 11
138.2611944105998
 21
205.6846160888999
 31
0.0
  0
LINE
  5
195
330
2
100
AcDbEntity
  8
0
 62
     3
100
AcDbLine
 10
138.5111944105998
 20
205.6846160888999
 30
0.0
 11
138.5111944105998
 21
205.1846160888999
 31
0.0
  0
LINE
  5
196
330
2
100
AcDbEntity
  8
0
 62
     3
100
AcDbLine
 10
137.5111944105998
 20
205.6846160888999
 30
0.0
 11
137.2611944105998
 21
205.6846160888999
 31
0.0
  0
LINE
  5
197
330
2
100
AcDbEntity
  8
0
 62
     3
100
AcDbLine
 10
140.4111883070999
 20
205.6846160888999
 30
0.0
 11
140.4111883070999
 21
206.9346160888999
 31
0.0
  0
LINE
  5
198
330
2
100
AcDbEntity
  8
0
 62
     3
100
AcDbLine
 10
140.4111883070999
 20
205.6846160888999
 30
0.0
 11
140.2611944105998
 21
205.6846160888999
 31
0.0
  0
LINE
  5
199
330
2
100
AcDbEntity
  8
0
 62
     3
100
AcDbLine
 10
139.5111944105998
 20
205.6846160888999
 30
0.0
 11
139.2611944105998
 21
205.6846160888999
 31
0.0
  0
LINE
  5
19A
330
2
100
AcDbEntity
  8
0
 62
     3
100
AcDbLine
 10
139.5111840088999
 20
205.1846279335999
 30
0.0
 11
140.2611795649
 21
205.6846249529999
 31
0.0
  0
LINE
  5
19B
330
2
100
AcDbEntity
  8
0
 62
     3
100
AcDbLine
 10
139.5111944105998
 20
205.6846160888999
 30
0.0
 11
139.5111944105998
 21
205.1846160888999
 31
0.0
  0
LINE
  5
19C
330
2
100
AcDbEntity
  8
0
 62
     3
100
AcDbLine
 10
143.2611944105999
 20
206.1846160888999
 30
0.0
 11
147.7611944105998
 21
206.1846160888999
 31
0.0
  0
LINE
  5
19D
330
2
100
AcDbEntity
  8
0
 62
     3
100
AcDbLine
 10
142.7611944105999
 20
205.6846160888999
 30
0.0
 11
141.3111974623997
 21
205.6846160888999
 31
0.0
  0
LINE
  5
19E
330
2
100
AcDbEntity
  8
0
 62
     3
100
AcDbLine
 10
141.3111974623997
 20
205.6846160888999
 30
0.0
 11
141.3111974623997
 21
206.9346160888999
 31
0.0
  0
LINE
  5
19F
330
2
100
AcDbEntity
  8
0
 62
     3
100
AcDbLine
 10
142.7611944105999
 20
205.1846160888999
 30
0.0
 11
142.7611944105999
 21
205.6846160888999
 31
0.0
  0
LINE
  5
1A0
330
2
100
AcDbEntity
  8
0
 62
     3
100
AcDbLine
 10
143.2611944105999
 20
205.1846160888999
 30
0.0
 11
143.2611944105999
 21
206.1846160888999
 31
0.0
  0
LINE
  5
1A1
330
2
100
AcDbEntity
  8
0
 62
     3
100
AcDbLine
 10
145.0611974624
 20
206.1846160888999
 30
0.0
 11
145.0611974624
 21
205.1846160888999
 31
0.0
  0
LINE
  5
1A2
330
2
100
AcDbEntity
  8
0
 62
     3
100
AcDbLine
 10
145.9611913587999
 20
206.1846160888999
 30
0.0
 11
145.9611913587999
 21
205.1846160888999
 31
0.0
  0
LINE
  5
1A3
330
2
100
AcDbEntity
  8
0
 62
     3
100
AcDbLine
 10
147.7611944105998
 20
205.1846160888999
 30
0.0
 11
147.7611944105998
 21
206.1846160888999
 31
0.0
  0
LINE
  5
1A4
330
2
100
AcDbEntity
  8
0
 62
     3
100
AcDbLine
 10
132.5111944105999
 20
234.1846160888999
 30
0.0
 11
133.4111883070999
 21
234.1846160888999
 31
0.0
  0
LINE
  5
1A5
330
2
100
AcDbEntity
  8
0
 62
     3
100
AcDbLine
 10
132.5111944105999
 20
233.4346160888999
 30
0.0
 11
133.4111883070999
 21
233.4346160888999
 31
0.0
  0
LINE
  5
1A6
330
2
100
AcDbEntity
  8
0
 62
     3
100
AcDbLine
 10
128.0101873305
 20
226.4346160888999
 30
0.0
 11
135.0111944105998
 21
226.4346160888999
 31
0.0
  0
LINE
  5
1A7
330
2
100
AcDbEntity
  8
0
 62
     3
100
AcDbLine
 10
135.0111944105998
 20
213.9346160889
 30
0.0
 11
128.0101873305
 21
213.9346160889
 31
0.0
  0
CIRCLE
  5
1A8
330
2
100
AcDbEntity
  8
0
 62
     3
100
AcDbCircle
 10
122.5101873304998
 20
213.1846160888999
 30
0.0
 40
0.625
  0
LINE
  5
1A9
330
2
100
AcDbEntity
  8
0
 62
     3
100
AcDbLine
 10
118.3101903822998
 20
232.8346099854
 30
0.0
 11
119.5101873304998
 21
232.8346099854
 31
0.0
  0
LINE
  5
1AA
330
2
100
AcDbEntity
  8
0
 62
     3
100
AcDbLine
 10
118.6101934339998
 20
232.8346099854
 30
0.0
 11
119.5101873304998
 21
232.8346099854
 31
0.0
  0
ARC
  5
1AB
330
2
100
AcDbEntity
  8
0
 62
     3
100
AcDbCircle
 10
118.5101873304998
 20
231.6846160888999
 30
0.0
 40
1.0
100
AcDbArc
 50
270.0000179861
 51
0.0
  0
LINE
  5
1AC
330
2
100
AcDbEntity
  8
0
 62
     3
100
AcDbLine
 10
118.3101903822998
 20
232.5346069336
 30
0.0
 11
118.3101903822998
 21
231.9846191406
 31
0.0
  0
LINE
  5
1AD
330
2
100
AcDbEntity
  8
0
 62
     3
100
AcDbLine
 10
118.1231939222998
 20
230.6846160888999
 30
0.0
 11
118.5101873304998
 21
230.6846160888999
 31
0.0
  0
LINE
  5
1AE
330
2
100
AcDbEntity
  8
0
 62
     3
100
AcDbLine
 10
118.3101903822998
 20
232.8346099854
 30
0.0
 11
118.3101903822998
 21
231.9846191406
 31
0.0
  0
LINE
  5
1AF
330
2
100
AcDbEntity
  8
0
 62
     3
100
AcDbLine
 10
119.5101873304998
 20
232.8346099854
 30
0.0
 11
119.5101873304998
 21
230.6346130371
 31
0.0
  0
ARC
  5
1B0
330
2
100
AcDbEntity
  8
0
 62
     3
100
AcDbCircle
 10
118.6101934339998
 20
232.5346069336
 30
0.0
 40
0.3000030518
100
AcDbArc
 50
89.99998201389999
 51
179.9999640277999
  0
LINE
  5
1B1
330
2
100
AcDbEntity
  8
0
 62
     3
100
AcDbLine
 10
119.5101873304998
 20
232.8346099854
 30
0.0
 11
119.5101873304998
 21
232.6846160888999
 31
0.0
  0
CIRCLE
  5
1B2
330
2
100
AcDbEntity
  8
0
 62
     3
100
AcDbCircle
 10
122.5101873304998
 20
227.1846160888999
 30
0.0
 40
0.625
  0
LINE
  5
1B3
330
2
100
AcDbEntity
  8
0
 62
     3
100
AcDbLine
 10
128.0101873305
 20
213.9346160889
 30
0.0
 11
128.0101873305
 21
226.4346160888999
 31
0.0
  0
LINE
  5
1B4
330
2
100
AcDbEntity
  8
0
 62
     3
100
AcDbLine
 10
125.5101873304999
 20
234.6846160888999
 30
0.0
 11
125.2601873304998
 21
234.6846160888999
 31
0.0
  0
LINE
  5
1B5
330
2
100
AcDbEntity
  8
0
 62
     3
100
AcDbLine
 10
119.5101873304998
 20
235.1846160888999
 30
0.0
 11
119.5101873304998
 21
236.3846130370999
 31
0.0
  0
CIRCLE
  5
1B6
330
2
100
AcDbEntity
  8
0
 62
     3
100
AcDbCircle
 10
118.9101964857999
 20
234.1846160888999
 30
0.0
 40
0.5250020027000001
  0
LINE
  5
1B7
330
2
100
AcDbEntity
  8
0
 62
     3
100
AcDbLine
 10
118.4101924727
 20
235.8846018263
 30
0.0
 11
119.5101998211
 21
236.3846058474
 31
0.0
  0
LINE
  5
1B8
330
2
100
AcDbEntity
  8
0
 62
     3
100
AcDbLine
 10
119.5101873304998
 20
236.6846160888999
 30
0.0
 11
119.5101873304998
 21
236.3846130370999
 31
0.0
  0
LINE
  5
1B9
330
2
100
AcDbEntity
  8
0
 62
     3
100
AcDbLine
 10
118.4311925795
 20
236.6846160888999
 30
0.0
 11
119.5101873304998
 21
236.6846160888999
 31
0.0
  0
LINE
  5
1BA
330
2
100
AcDbEntity
  8
0
 62
     3
100
AcDbLine
 10
119.5101998211
 20
236.3846058474
 30
0.0
 11
118.4101924727
 21
235.8846018263
 31
0.0
  0
LINE
  5
1BB
330
2
100
AcDbEntity
  8
0
 62
     3
100
AcDbLine
 10
123.5101803101999
 20
235.1846207118
 30
0.0
 11
124.2601758662
 21
234.6846236924
 31
0.0
  0
LINE
  5
1BC
330
2
100
AcDbEntity
  8
0
 62
     3
100
AcDbLine
 10
123.5101873304998
 20
234.6846160888999
 30
0.0
 11
123.5101873304998
 21
235.1846160888999
 31
0.0
  0
LINE
  5
1BD
330
2
100
AcDbEntity
  8
0
 62
     3
100
AcDbLine
 10
123.5101873304998
 20
234.6846160888999
 30
0.0
 11
123.2601873304998
 21
234.6846160888999
 31
0.0
  0
LINE
  5
1BE
330
2
100
AcDbEntity
  8
0
 62
     3
100
AcDbLine
 10
122.5101693183999
 20
235.1846249272999
 30
0.0
 11
123.2601775704998
 21
234.6846194438
 31
0.0
  0
LINE
  5
1BF
330
2
100
AcDbEntity
  8
0
 62
     3
100
AcDbLine
 10
124.5101873304998
 20
234.6846160888999
 30
0.0
 11
124.5101873304998
 21
235.1846160888999
 31
0.0
  0
LINE
  5
1C0
330
2
100
AcDbEntity
  8
0
 62
     3
100
AcDbLine
 10
124.5101786058999
 20
235.1846249604
 30
0.0
 11
125.2601741619
 21
234.6846279409
 31
0.0
  0
LINE
  5
1C1
330
2
100
AcDbEntity
  8
0
 62
     3
100
AcDbLine
 10
124.5101873304998
 20
234.6846160888999
 30
0.0
 11
124.2601873304998
 21
234.6846160888999
 31
0.0
  0
LINE
  5
1C2
330
2
100
AcDbEntity
  8
0
 62
     3
100
AcDbLine
 10
129.5101873305
 20
234.6846160888999
 30
0.0
 11
129.2601873304997
 21
234.6846160888999
 31
0.0
  0
LINE
  5
1C3
330
2
100
AcDbEntity
  8
0
 62
     3
100
AcDbLine
 10
127.5101873304999
 20
234.6846160888999
 30
0.0
 11
127.2601873304998
 21
234.6846160888999
 31
0.0
  0
LINE
  5
1C4
330
2
100
AcDbEntity
  8
0
 62
     3
100
AcDbLine
 10
126.5101873304999
 20
234.6846160888999
 30
0.0
 11
126.2601873304998
 21
234.6846160888999
 31
0.0
  0
LINE
  5
1C5
330
2
100
AcDbEntity
  8
0
 62
     3
100
AcDbLine
 10
126.5101667333
 20
235.1846207613999
 30
0.0
 11
127.2601749854
 21
234.6846152779
 31
0.0
  0
LINE
  5
1C6
330
2
100
AcDbEntity
  8
0
 62
     3
100
AcDbLine
 10
126.5101873304999
 20
234.6846160888999
 30
0.0
 11
126.5101873304999
 21
235.1846160888999
 31
0.0
  0
LINE
  5
1C7
330
2
100
AcDbEntity
  8
0
 62
     3
100
AcDbLine
 10
125.5101873304999
 20
234.6846160888999
 30
0.0
 11
125.5101873304999
 21
235.1846160888999
 31
0.0
  0
LINE
  5
1C8
330
2
100
AcDbEntity
  8
0
 62
     3
100
AcDbLine
 10
125.5101684375999
 20
235.1846165127999
 30
0.0
 11
126.2601766896999
 21
234.6846110293
 31
0.0
  0
LINE
  5
1C9
330
2
100
AcDbEntity
  8
0
 62
     3
100
AcDbLine
 10
128.5101760206998
 20
235.1846207944999
 30
0.0
 11
129.2601715767998
 21
234.6846237749999
 31
0.0
  0
LINE
  5
1CA
330
2
100
AcDbEntity
  8
0
 62
     3
100
AcDbLine
 10
128.5101873305
 20
234.6846160888999
 30
0.0
 11
128.2601873304997
 21
234.6846160888999
 31
0.0
  0
LINE
  5
1CB
330
2
100
AcDbEntity
  8
0
 62
     3
100
AcDbLine
 10
127.510177725
 20
235.1846165459
 30
0.0
 11
128.2601732811
 21
234.6846195265
 31
0.0
  0
LINE
  5
1CC
330
2
100
AcDbEntity
  8
0
 62
     3
100
AcDbLine
 10
128.5101873305
 20
234.6846160888999
 30
0.0
 11
128.5101873305
 21
235.1846160888999
 31
0.0
  0
LINE
  5
1CD
330
2
100
AcDbEntity
  8
0
 62
     3
100
AcDbLine
 10
127.5101873304999
 20
234.6846160888999
 30
0.0
 11
127.5101873304999
 21
235.1846160888999
 31
0.0
  0
LINE
  5
1CE
330
2
100
AcDbEntity
  8
0
 62
     3
100
AcDbLine
 10
130.5101726120999
 20
235.1846292916
 30
0.0
 11
131.2601808642
 21
234.6846238081
 31
0.0
  0
LINE
  5
1CF
330
2
100
AcDbEntity
  8
0
 62
     3
100
AcDbLine
 10
130.5101873305
 20
234.6846160888999
 30
0.0
 11
130.2601873304997
 21
234.6846160888999
 31
0.0
  0
LINE
  5
1D0
330
2
100
AcDbEntity
  8
0
 62
     3
100
AcDbLine
 10
129.5101873305
 20
234.6846160888999
 30
0.0
 11
129.5101873305
 21
235.1846160888999
 31
0.0
  0
LINE
  5
1D1
330
2
100
AcDbEntity
  8
0
 62
     3
100
AcDbLine
 10
129.5101743163999
 20
235.1846250429999
 30
0.0
 11
130.2601825685
 21
234.6846195595
 31
0.0
  0
LINE
  5
1D2
330
2
100
AcDbEntity
  8
0
 62
     3
100
AcDbLine
 10
130.5101873305
 20
234.6846160888999
 30
0.0
 11
130.5101873305
 21
235.1846160888999
 31
0.0
  0
LINE
  5
1D3
330
2
100
AcDbEntity
  8
0
 62
     3
100
AcDbLine
 10
132.5111944105999
 20
233.4346160888999
 30
0.0
 11
132.5111944105999
 21
234.6846160888999
 31
0.0
  0
LINE
  5
1D4
330
2
100
AcDbEntity
  8
0
 62
     3
100
AcDbLine
 10
132.5101873304997
 20
234.6846160888999
 30
0.0
 11
132.2601873305
 21
234.6846160888999
 31
0.0
  0
LINE
  5
1D5
330
2
100
AcDbEntity
  8
0
 62
     3
100
AcDbLine
 10
131.5101873304998
 20
234.6846160888999
 30
0.0
 11
131.5101873304998
 21
235.1846160888999
 31
0.0
  0
LINE
  5
1D6
330
2
100
AcDbEntity
  8
0
 62
     3
100
AcDbLine
 10
131.5101751398999
 20
235.1846123799999
 30
0.0
 11
132.2601706959
 21
234.6846153606
 31
0.0
  0
LINE
  5
1D7
330
2
100
AcDbEntity
  8
0
 62
     3
100
AcDbLine
 10
131.5101873304998
 20
234.6846160888999
 30
0.0
 11
131.2601873304998
 21
234.6846160888999
 31
0.0
  0
LINE
  5
1D8
330
2
100
AcDbEntity
  8
0
 62
     3
100
AcDbLine
 10
135.0111944105998
 20
226.4346160888999
 30
0.0
 11
135.0111944105998
 21
213.9346160889
 31
0.0
  0
LINE
  5
1D9
330
2
100
AcDbEntity
  8
0
 62
     3
100
AcDbLine
 10
140.4111883070999
 20
234.1846160888999
 30
0.0
 11
141.3111974623997
 21
234.1846160888999
 31
0.0
  0
LINE
  5
1DA
330
2
100
AcDbEntity
  8
0
 62
     3
100
AcDbLine
 10
140.4111883070999
 20
233.4346160888999
 30
0.0
 11
141.3111974623997
 21
233.4346160888999
 31
0.0
  0
LINE
  5
1DB
330
2
100
AcDbEntity
  8
0
 62
     3
100
AcDbLine
 10
136.5111780727
 20
235.1846378547999
 30
0.0
 11
137.2611863247998
 21
234.6846323712998
 31
0.0
  0
LINE
  5
1DC
330
2
100
AcDbEntity
  8
0
 62
     3
100
AcDbLine
 10
134.5111814812999
 20
235.1846293576998
 30
0.0
 11
135.2611770373999
 21
234.6846323383
 31
0.0
  0
LINE
  5
1DD
330
2
100
AcDbEntity
  8
0
 62
     3
100
AcDbLine
 10
133.4111883070999
 20
234.6846160888999
 30
0.0
 11
133.4111883070999
 21
233.4346160888999
 31
0.0
  0
LINE
  5
1DE
330
2
100
AcDbEntity
  8
0
 62
     3
100
AcDbLine
 10
134.5111944105999
 20
234.6846160888999
 30
0.0
 11
134.5111944105999
 21
235.1846160888999
 31
0.0
  0
LINE
  5
1DF
330
2
100
AcDbEntity
  8
0
 62
     3
100
AcDbLine
 10
133.5111944105999
 20
234.6846160888999
 30
0.0
 11
133.4111883070999
 21
234.6846160888999
 31
0.0
  0
LINE
  5
1E0
330
2
100
AcDbEntity
  8
0
 62
     3
100
AcDbLine
 10
133.5111831856
 20
235.1846251091999
 30
0.0
 11
134.2611787417
 21
234.6846280896998
 31
0.0
  0
LINE
  5
1E1
330
2
100
AcDbEntity
  8
0
 62
     3
100
AcDbLine
 10
133.5111944105999
 20
234.6846160888999
 30
0.0
 11
133.5111944105999
 21
235.1846160888999
 31
0.0
  0
LINE
  5
1E2
330
2
100
AcDbEntity
  8
0
 62
     3
100
AcDbLine
 10
134.5111944105999
 20
234.6846160888999
 30
0.0
 11
134.2611944105998
 21
234.6846160888999
 31
0.0
  0
LINE
  5
1E3
330
2
100
AcDbEntity
  8
0
 62
     3
100
AcDbLine
 10
135.5111944105999
 20
234.6846160888999
 30
0.0
 11
135.2611944105998
 21
234.6846160888999
 31
0.0
  0
LINE
  5
1E4
330
2
100
AcDbEntity
  8
0
 62
     3
100
AcDbLine
 10
135.511179777
 20
235.1846336063
 30
0.0
 11
136.2611880291
 21
234.6846281227999
 31
0.0
  0
LINE
  5
1E5
330
2
100
AcDbEntity
  8
0
 62
     3
100
AcDbLine
 10
135.5111944105999
 20
234.6846160888999
 30
0.0
 11
135.5111944105999
 21
235.1846160888999
 31
0.0
  0
LINE
  5
1E6
330
2
100
AcDbEntity
  8
0
 62
     3
100
AcDbLine
 10
136.5111944105999
 20
234.6846160888999
 30
0.0
 11
136.2611944105998
 21
234.6846160888999
 31
0.0
  0
LINE
  5
1E7
330
2
100
AcDbEntity
  8
0
 62
     3
100
AcDbLine
 10
136.5111944105999
 20
234.6846160888999
 30
0.0
 11
136.5111944105999
 21
235.1846160888999
 31
0.0
  0
LINE
  5
1E8
330
2
100
AcDbEntity
  8
0
 62
     3
100
AcDbLine
 10
138.5111873602
 20
235.1846378879
 30
0.0
 11
139.2611829161999
 21
234.6846408684999
 31
0.0
  0
LINE
  5
1E9
330
2
100
AcDbEntity
  8
0
 62
     3
100
AcDbLine
 10
137.5111890644999
 20
235.1846336393
 30
0.0
 11
138.2611846204998
 21
234.6846366199
 31
0.0
  0
LINE
  5
1EA
330
2
100
AcDbEntity
  8
0
 62
     3
100
AcDbLine
 10
138.5111944105998
 20
234.6846160888999
 30
0.0
 11
138.5111944105998
 21
235.1846160888999
 31
0.0
  0
LINE
  5
1EB
330
2
100
AcDbEntity
  8
0
 62
     3
100
AcDbLine
 10
138.5111944105998
 20
234.6846160888999
 30
0.0
 11
138.2611944105998
 21
234.6846160888999
 31
0.0
  0
LINE
  5
1EC
330
2
100
AcDbEntity
  8
0
 62
     3
100
AcDbLine
 10
137.5111944105998
 20
234.6846160888999
 30
0.0
 11
137.5111944105998
 21
235.1846160888999
 31
0.0
  0
LINE
  5
1ED
330
2
100
AcDbEntity
  8
0
 62
     3
100
AcDbLine
 10
137.5111944105998
 20
234.6846160888999
 30
0.0
 11
137.2611944105998
 21
234.6846160888999
 31
0.0
  0
LINE
  5
1EE
330
2
100
AcDbEntity
  8
0
 62
     3
100
AcDbLine
 10
140.4111883070999
 20
234.6846160888999
 30
0.0
 11
140.4111883070999
 21
233.4346160888999
 31
0.0
  0
LINE
  5
1EF
330
2
100
AcDbEntity
  8
0
 62
     3
100
AcDbLine
 10
140.4111883070999
 20
234.6846160888999
 30
0.0
 11
140.2611944105998
 21
234.6846160888999
 31
0.0
  0
LINE
  5
1F0
330
2
100
AcDbEntity
  8
0
 62
     3
100
AcDbLine
 10
139.5111944105998
 20
234.6846160888999
 30
0.0
 11
139.2611944105998
 21
234.6846160888999
 31
0.0
  0
LINE
  5
1F1
330
2
100
AcDbEntity
  8
0
 62
     3
100
AcDbLine
 10
139.5111944105998
 20
234.6846160888999
 30
0.0
 11
139.5111944105998
 21
235.1846160888999
 31
0.0
  0
LINE
  5
1F2
330
2
100
AcDbEntity
  8
0
 62
     3
100
AcDbLine
 10
139.5111771919
 20
235.1846294404
 30
0.0
 11
140.261185444
 21
234.6846239568999
 31
0.0
  0
LINE
  5
1F3
330
2
100
AcDbEntity
  8
0
 62
     3
100
AcDbLine
 10
143.2611944105999
 20
234.1846160888999
 30
0.0
 11
147.7611944105998
 21
234.1846160888999
 31
0.0
  0
LINE
  5
1F4
330
2
100
AcDbEntity
  8
0
 62
     3
100
AcDbLine
 10
142.7611944105999
 20
234.6846160888999
 30
0.0
 11
141.3111974623997
 21
234.6846160888999
 31
0.0
  0
LINE
  5
1F5
330
2
100
AcDbEntity
  8
0
 62
     3
100
AcDbLine
 10
141.3111974623997
 20
234.6846160888999
 30
0.0
 11
141.3111974623997
 21
233.4346160888999
 31
0.0
  0
LINE
  5
1F6
330
2
100
AcDbEntity
  8
0
 62
     3
100
AcDbLine
 10
142.7611944105999
 20
235.1846160888999
 30
0.0
 11
142.7611944105999
 21
234.6846160888999
 31
0.0
  0
LINE
  5
1F7
330
2
100
AcDbEntity
  8
0
 62
     3
100
AcDbLine
 10
143.2611944105999
 20
235.1846160888999
 30
0.0
 11
143.2611944105999
 21
234.1846160888999
 31
0.0
  0
LINE
  5
1F8
330
2
100
AcDbEntity
  8
0
 62
     3
100
AcDbLine
 10
145.0611974624
 20
234.1846160888999
 30
0.0
 11
145.0611974624
 21
235.1846160888999
 31
0.0
  0
LINE
  5
1F9
330
2
100
AcDbEntity
  8
0
 62
     3
100
AcDbLine
 10
145.9611913587999
 20
234.1846160888999
 30
0.0
 11
145.9611913587999
 21
235.1846160888999
 31
0.0
  0
LINE
  5
1FA
330
2
100
AcDbEntity
  8
0
 62
     3
100
AcDbLine
 10
147.7611944105998
 20
235.1846160888999
 30
0.0
 11
147.7611944105998
 21
234.1846160888999
 31
0.0
  0
LINE
  5
1FB
330
2
100
AcDbEntity
  8
0
 62
     3
100
AcDbLine
 10
176.6661931899
 20
205.1846160888999
 30
0.0
 11
198.6661846068
 21
205.1846160888999
 31
0.0
  0
LINE
  5
1FC
330
2
100
AcDbEntity
  8
0
 62
     3
100
AcDbLine
 10
176.6661931899
 20
236.6846160888999
 30
0.0
 11
196.6661846068
 21
236.6846160888999
 31
0.0
  0
LINE
  5
1FD
330
2
100
AcDbEntity
  8
0
 62
     3
100
AcDbLine
 10
198.6661846068
 20
235.1836090088
 30
0.0
 11
176.6661931899
 21
235.1836090088
 31
0.0
  0
LINE
  5
1FE
330
2
100
AcDbEntity
  8
0
 62
     3
100
AcDbLine
 10
176.6661931899
 20
205.8846130370999
 30
0.0
 11
191.6661931899
 21
205.8846130370999
 31
0.0
  0
LINE
  5
1FF
330
2
100
AcDbEntity
  8
0
 62
     3
100
AcDbLine
 10
176.6661931899
 20
203.9846191406
 30
0.0
 11
196.6661846068
 21
203.9846191406
 31
0.0
  0
LINE
  5
200
330
2
100
AcDbEntity
  8
0
 62
     3
100
AcDbLine
 10
196.6661846068
 20
236.383605957
 30
0.0
 11
176.6661931899
 21
236.383605957
 31
0.0
  0
LINE
  5
201
330
2
100
AcDbEntity
  8
0
 62
     3
100
AcDbLine
 10
176.6661931899
 20
205.6846160888999
 30
0.0
 11
191.6661931899
 21
205.6846160888999
 31
0.0
  0
LINE
  5
202
330
2
100
AcDbEntity
  8
0
 62
     3
100
AcDbLine
 10
181.4661962415999
 20
218.5846099854
 30
0.0
 11
176.6661931899
 21
218.5846099854
 31
0.0
  0
LINE
  5
203
330
2
100
AcDbEntity
  8
0
 62
     3
100
AcDbLine
 10
181.4661962415999
 20
221.7846069336
 30
0.0
 11
176.6661931899
 21
221.7846069336
 31
0.0
  0
LINE
  5
204
330
2
100
AcDbEntity
  8
0
  6
CENTERLINE
 62
     3
100
AcDbLine
 10
174.5331975844
 20
220.1846160888999
 30
0.0
 11
198.6661846068
 21
220.1846160888999
 31
0.0
  0
LINE
  5
205
330
2
100
AcDbEntity
  8
0
 62
     3
100
AcDbLine
 10
176.6661931899
 20
234.6846160888999
 30
0.0
 11
191.6661931899
 21
234.6846160888999
 31
0.0
  0
LINE
  5
206
330
2
100
AcDbEntity
  8
0
 62
     3
100
AcDbLine
 10
176.6661931899
 20
234.4846191406
 30
0.0
 11
191.6661931899
 21
234.4846191406
 31
0.0
  0
LINE
  5
207
330
2
100
AcDbEntity
  8
0
 62
     3
100
AcDbLine
 10
196.6661846068
 20
203.6846160888999
 30
0.0
 11
176.6661931899
 21
203.6846160888999
 31
0.0
  0
LINE
  5
208
330
2
100
AcDbEntity
  8
0
 62
     3
100
AcDbLine
 10
151.5111944105999
 20
205.1846160888999
 30
0.0
 11
151.5111944105999
 21
235.1846160888999
 31
0.0
  0
LINE
  5
209
330
2
100
AcDbEntity
  8
0
 62
     3
100
AcDbLine
 10
161.5111944105999
 20
234.1846160888999
 30
0.0
 11
161.5111944105999
 21
206.1846160888999
 31
0.0
  0
LINE
  5
20A
330
2
100
AcDbEntity
  8
0
 62
     3
100
AcDbLine
 10
176.6661931899
 20
236.6846160888999
 30
0.0
 11
176.6661931899
 21
203.6846160888999
 31
0.0
  0
LINE
  5
20B
330
2
100
AcDbEntity
  8
0
 62
     3
100
AcDbLine
 10
151.5111944105999
 20
205.1846160888999
 30
0.0
 11
159.0111944105998
 21
205.1846160888999
 31
0.0
  0
LINE
  5
20C
330
2
100
AcDbEntity
  8
0
 62
     3
100
AcDbLine
 10
151.3111974624
 20
205.6846160888999
 30
0.0
 11
148.2611944105999
 21
205.6846160888999
 31
0.0
  0
LINE
  5
20D
330
2
100
AcDbEntity
  8
0
 62
     3
100
AcDbLine
 10
148.2611944105999
 20
205.5846099854
 30
0.0
 11
148.2611944105999
 21
205.6846160888999
 31
0.0
  0
LINE
  5
20E
330
2
100
AcDbEntity
  8
0
 62
     3
100
AcDbLine
 10
151.5111944105999
 20
206.1846160888999
 30
0.0
 11
151.5111944105999
 21
205.8846130370999
 31
0.0
  0
LINE
  5
20F
330
2
100
AcDbEntity
  8
0
 62
     3
100
AcDbLine
 10
151.3111878139
 20
205.6846082288999
 30
0.0
 11
151.5111837104
 21
205.8846041254
 31
0.0
  0
LINE
  5
210
330
2
100
AcDbEntity
  8
0
 62
     3
100
AcDbLine
 10
161.5111728353999
 20
206.1846124868
 30
0.0
 11
159.0111739735
 21
205.1846130383999
 31
0.0
  0
LINE
  5
211
330
2
100
AcDbEntity
  8
0
 62
     3
100
AcDbLine
 10
150.0111944105999
 20
217.6846160888999
 30
0.0
 11
150.0111944105999
 21
222.6846160888999
 31
0.0
  0
LINE
  5
212
330
2
100
AcDbEntity
  8
0
 62
     3
100
AcDbLine
 10
148.5111944105999
 20
217.6846160888999
 30
0.0
 11
148.5111944105999
 21
222.6846160888999
 31
0.0
  0
LINE
  5
213
330
2
100
AcDbEntity
  8
0
 62
     3
100
AcDbLine
 10
151.5111944105999
 20
218.5846099854
 30
0.0
 11
150.0111944105999
 21
218.5846099854
 31
0.0
  0
LINE
  5
214
330
2
100
AcDbEntity
  8
0
 62
     3
100
AcDbLine
 10
150.0111944105999
 20
217.6846160888999
 30
0.0
 11
148.5111944105999
 21
217.6846160888999
 31
0.0
  0
LINE
  5
215
330
2
100
AcDbEntity
  8
0
 62
     3
100
AcDbLine
 10
151.5111944105999
 20
221.7846069336
 30
0.0
 11
150.0111944105999
 21
221.7846069336
 31
0.0
  0
LINE
  5
216
330
2
100
AcDbEntity
  8
0
 62
     3
100
AcDbLine
 10
150.0111944105999
 20
222.6846160888999
 30
0.0
 11
148.5111944105999
 21
222.6846160888999
 31
0.0
  0
LINE
  5
217
330
2
100
AcDbEntity
  8
0
 62
     3
100
AcDbLine
 10
151.5111944105999
 20
235.1846160888999
 30
0.0
 11
159.0111944105998
 21
235.1846160888999
 31
0.0
  0
LINE
  5
218
330
2
100
AcDbEntity
  8
0
 62
     3
100
AcDbLine
 10
151.3111974624
 20
234.6846160888999
 30
0.0
 11
148.2611944105999
 21
234.6846160888999
 31
0.0
  0
LINE
  5
219
330
2
100
AcDbEntity
  8
0
 62
     3
100
AcDbLine
 10
148.2611944105999
 20
234.7846069335998
 30
0.0
 11
148.2611944105999
 21
234.6846160888999
 31
0.0
  0
LINE
  5
21A
330
2
100
AcDbEntity
  8
0
 62
     3
100
AcDbLine
 10
151.3111878139
 20
234.6845958566999
 30
0.0
 11
151.5111837104
 21
234.4845999601998
 31
0.0
  0
LINE
  5
21B
330
2
100
AcDbEntity
  8
0
 62
     3
100
AcDbLine
 10
161.5111789771
 20
234.1846158822
 30
0.0
 11
159.0111801152
 21
235.1846153306
 31
0.0
  0
LINE
  5
21C
330
2
100
AcDbEntity
  8
0
 62
     3
100
AcDbLine
 10
193.6661931899
 20
234.1846160888999
 30
0.0
 11
193.6661931899
 21
206.1846160888999
 31
0.0
  0
CIRCLE
  5
21D
330
2
100
AcDbEntity
  8
0
 62
     3
100
AcDbCircle
 10
191.0661870863999
 20
210.0846099854
 30
0.0
 40
0.75
  0
LINE
  5
21E
330
2
100
AcDbEntity
  8
0
 62
     3
100
AcDbLine
 10
192.6661931899
 20
235.1836090088
 30
0.0
 11
192.6661931899
 21
205.1846160888999
 31
0.0
  0
LINE
  5
21F
330
2
100
AcDbEntity
  8
0
 62
     3
100
AcDbLine
 10
193.4661962415999
 20
235.1836090088
 30
0.0
 11
193.4661962415999
 21
205.1846160888999
 31
0.0
  0
LINE
  5
220
330
2
100
AcDbEntity
  8
0
 62
     3
100
AcDbLine
 10
192.4661962415999
 20
234.0846099854
 30
0.0
 11
192.4661962415999
 21
206.2846069336
 31
0.0
  0
LINE
  5
221
330
2
100
AcDbEntity
  8
0
 62
     3
100
AcDbLine
 10
181.4661962415999
 20
206.2846069336
 30
0.0
 11
181.4661962415999
 21
234.0846099854
 31
0.0
  0
LINE
  5
222
330
2
100
AcDbEntity
  8
0
 62
     3
100
AcDbLine
 10
196.6661846068
 20
236.6846160888999
 30
0.0
 11
196.6661846068
 21
203.6846160888999
 31
0.0
  0
LINE
  5
223
330
2
100
AcDbEntity
  8
0
 62
     3
100
AcDbLine
 10
192.6661931899
 20
206.1846160888999
 30
0.0
 11
193.4661962415999
 21
206.1846160888999
 31
0.0
  0
LINE
  5
224
330
2
100
AcDbEntity
  8
0
 62
     3
100
AcDbLine
 10
192.4661962415999
 20
206.2846069336
 30
0.0
 11
181.4661962415999
 21
206.2846069336
 31
0.0
  0
LINE
  5
225
330
2
100
AcDbEntity
  8
0
 62
     3
100
AcDbLine
 10
191.6661931899
 20
205.8846130370999
 30
0.0
 11
191.6661931899
 21
205.1846160888999
 31
0.0
  0
ARC
  5
226
330
2
100
AcDbEntity
  8
0
 62
     3
100
AcDbCircle
 10
197.1661846068
 20
206.1846160888999
 30
0.0
 40
0.5000076890000003
100
AcDbArc
 50
32.4761527297
 51
89.99998201389999
  0
LINE
  5
227
330
2
100
AcDbEntity
  8
0
 62
     3
100
AcDbLine
 10
193.4661962415999
 20
206.1846160888999
 30
0.0
 11
197.4661876585998
 21
206.1846160888999
 31
0.0
  0
LINE
  5
228
330
2
100
AcDbEntity
  8
0
 62
     3
100
AcDbLine
 10
196.6661846068
 20
206.1846160888999
 30
0.0
 11
193.6661931899
 21
206.1846160888999
 31
0.0
  0
LINE
  5
229
330
2
100
AcDbEntity
  8
0
 62
     3
100
AcDbLine
 10
193.4661962415999
 20
205.9846191406
 30
0.0
 11
196.6661846068
 21
205.9846191406
 31
0.0
  0
LINE
  5
22A
330
2
100
AcDbEntity
  8
0
 62
     3
100
AcDbLine
 10
197.1661846068
 20
206.6846160888999
 30
0.0
 11
196.6661846068
 21
206.6846160888999
 31
0.0
  0
LINE
  5
22B
330
2
100
AcDbEntity
  8
0
 62
     3
100
AcDbLine
 10
198.6661846068
 20
205.1846160888999
 30
0.0
 11
198.6661846068
 21
206.1846160888999
 31
0.0
  0
ARC
  5
22C
330
2
100
AcDbEntity
  8
0
 62
     3
100
AcDbCircle
 10
198.0661785033
 20
206.0746154784999
 30
0.0
 40
0.6099883318
100
AcDbArc
 50
10.38765904829997
 51
169.6123391305
  0
LINE
  5
22D
330
2
100
AcDbEntity
  8
0
 62
     3
100
AcDbLine
 10
192.6661931899
 20
234.1846160888999
 30
0.0
 11
193.4661962415999
 21
234.1846160888999
 31
0.0
  0
CIRCLE
  5
22E
330
2
100
AcDbEntity
  8
0
 62
     3
100
AcDbCircle
 10
191.0661870863999
 20
222.0846099854
 30
0.0
 40
0.75
  0
CIRCLE
  5
22F
330
2
100
AcDbEntity
  8
0
 62
     3
100
AcDbCircle
 10
191.0661870863999
 20
216.0846099854
 30
0.0
 40
0.75
  0
CIRCLE
  5
230
330
2
100
AcDbEntity
  8
0
 62
     3
100
AcDbCircle
 10
191.0661870863999
 20
214.0846099854
 30
0.0
 40
0.75
  0
CIRCLE
  5
231
330
2
100
AcDbEntity
  8
0
 62
     3
100
AcDbCircle
 10
191.0661870863999
 20
212.0846099854
 30
0.0
 40
0.75
  0
CIRCLE
  5
232
330
2
100
AcDbEntity
  8
0
 62
     3
100
AcDbCircle
 10
191.0661870863999
 20
220.0846099854
 30
0.0
 40
0.75
  0
CIRCLE
  5
233
330
2
100
AcDbEntity
  8
0
 62
     3
100
AcDbCircle
 10
191.0661870863999
 20
218.0846099854
 30
0.0
 40
0.75
  0
CIRCLE
  5
234
330
2
100
AcDbEntity
  8
0
 62
     3
100
AcDbCircle
 10
191.0661870863999
 20
226.0846099854
 30
0.0
 40
0.75
  0
CIRCLE
  5
235
330
2
100
AcDbEntity
  8
0
 62
     3
100
AcDbCircle
 10
191.0661870863999
 20
224.0846099854
 30
0.0
 40
0.75
  0
CIRCLE
  5
236
330
2
100
AcDbEntity
  8
0
 62
     3
100
AcDbCircle
 10
191.0661870863999
 20
230.0846099854
 30
0.0
 40
0.75
  0
CIRCLE
  5
237
330
2
100
AcDbEntity
  8
0
 62
     3
100
AcDbCircle
 10
191.0661870863999
 20
228.0846099854
 30
0.0
 40
0.75
  0
CIRCLE
  5
238
330
2
100
AcDbEntity
  8
0
 62
     3
100
AcDbCircle
 10
191.0661870863999
 20
232.0846099854
 30
0.0
 40
0.75
  0
LINE
  5
239
330
2
100
AcDbEntity
  8
0
 62
     3
100
AcDbLine
 10
191.0661870863999
 20
231.3346099854
 30
0.0
 11
191.0661870863999
 21
230.8346099854
 31
0.0
  0
LINE
  5
23A
330
2
100
AcDbEntity
  8
0
 62
     3
100
AcDbLine
 10
181.4661962415999
 20
234.0846099854
 30
0.0
 11
192.4661962415999
 21
234.0846099854
 31
0.0
  0
LINE
  5
23B
330
2
100
AcDbEntity
  8
0
 62
     3
100
AcDbLine
 10
191.6661931899
 20
234.4846191406
 30
0.0
 11
191.6661931899
 21
235.1836090088
 31
0.0
  0
LINE
  5
23C
330
2
100
AcDbEntity
  8
0
 62
     3
100
AcDbLine
 10
197.3661815550999
 20
213.7846069336
 30
0.0
 11
196.6661846068
 21
213.7846069336
 31
0.0
  0
LINE
  5
23D
330
2
100
AcDbEntity
  8
0
 62
     3
100
AcDbLine
 10
197.3661815550999
 20
212.5846099854
 30
0.0
 11
196.6661846068
 21
212.5846099854
 31
0.0
  0
LINE
  5
23E
330
2
100
AcDbEntity
  8
0
 62
     3
100
AcDbLine
 10
197.8661815550998
 20
213.0846099854
 30
0.0
 11
197.8661815550998
 21
213.2846069335999
 31
0.0
  0
ARC
  5
23F
330
2
100
AcDbEntity
  8
0
 62
     3
100
AcDbCircle
 10
197.3661815550999
 20
213.2846069335999
 30
0.0
 40
0.5
100
AcDbArc
 50
0.0
 51
89.99998201389999
  0
ARC
  5
240
330
2
100
AcDbEntity
  8
0
 62
     3
100
AcDbCircle
 10
197.3661815550999
 20
213.0846099854
 30
0.0
 40
0.5
100
AcDbArc
 50
270.0000179861
 51
0.0
  0
LINE
  5
241
330
2
100
AcDbEntity
  8
0
 62
     3
100
AcDbLine
 10
197.3661815550999
 20
227.7846069335999
 30
0.0
 11
196.6661846068
 21
227.7846069335999
 31
0.0
  0
LINE
  5
242
330
2
100
AcDbEntity
  8
0
 62
     3
100
AcDbLine
 10
197.3661815550999
 20
226.5846099854
 30
0.0
 11
196.6661846068
 21
226.5846099854
 31
0.0
  0
ARC
  5
243
330
2
100
AcDbEntity
  8
0
 62
     3
100
AcDbCircle
 10
197.3661815550999
 20
227.2846069335999
 30
0.0
 40
0.5
100
AcDbArc
 50
0.0
 51
89.99998201389999
  0
LINE
  5
244
330
2
100
AcDbEntity
  8
0
 62
     3
100
AcDbLine
 10
197.8661815550998
 20
227.2846069335999
 30
0.0
 11
197.8661815550998
 21
227.0846099854
 31
0.0
  0
ARC
  5
245
330
2
100
AcDbEntity
  8
0
 62
     3
100
AcDbCircle
 10
197.3661815550999
 20
227.0846099854
 30
0.0
 40
0.5
100
AcDbArc
 50
270.0000179861
 51
0.0
  0
ARC
  5
246
330
2
100
AcDbEntity
  8
0
 62
     3
100
AcDbCircle
 10
197.1661846068
 20
234.1846160888999
 30
0.0
 40
0.5
100
AcDbArc
 50
270.0000179861
 51
327.3783403352998
  0
LINE
  5
247
330
2
100
AcDbEntity
  8
0
 62
     3
100
AcDbLine
 10
193.4661962415999
 20
234.1846160888999
 30
0.0
 11
197.4661876585998
 21
234.1846160888999
 31
0.0
  0
LINE
  5
248
330
2
100
AcDbEntity
  8
0
 62
     3
100
AcDbLine
 10
193.4661962415999
 20
234.383605957
 30
0.0
 11
196.6661846068
 21
234.383605957
 31
0.0
  0
LINE
  5
249
330
2
100
AcDbEntity
  8
0
 62
     3
100
AcDbLine
 10
197.1661846068
 20
233.6846160888999
 30
0.0
 11
196.6661846068
 21
233.6846160888999
 31
0.0
  0
LINE
  5
24A
330
2
100
AcDbEntity
  8
0
 62
     3
100
AcDbLine
 10
198.6661846068
 20
234.1836090087999
 30
0.0
 11
198.6661846068
 21
235.1836090088
 31
0.0
  0
ARC
  5
24B
330
2
100
AcDbEntity
  8
0
 62
     3
100
AcDbCircle
 10
198.0661785033
 20
234.2946166991999
 30
0.0
 40
0.6100544929999999
100
AcDbArc
 50
190.4214839663
 51
349.5785110248
  0
TEXT
  5
26B
330
2
100
AcDbEntity
  8
0
 62
     7
100
AcDbText
 10
146.0
 20
100.0000029552498
 30
0.0
 40
2.999994089499998
  1
DD3S-F31P-G
 11
146.0
 21
101.4999999999999
 31
0.0
100
AcDbText
 73
     2
  0
TEXT
  5
26C
330
2
100
AcDbEntity
  8
0
 62
     7
100
AcDbText
 10
146.0
 20
60.00000295524991
 30
0.0
 40
2.999994089499998
  1
DD3S-F34P-RG
 11
146.0
 21
61.4999999999999
 31
0.0
100
AcDbText
 73
     2
  0
TEXT
  5
26D
330
2
100
AcDbEntity
  8
0
 62
     7
100
AcDbText
 10
146.0
 20
65.00000295525
 30
0.0
 40
2.999994089499998
  1
DD3S-F34P-R
 11
146.0
 21
66.5
 31
0.0
100
AcDbText
 73
     2
  0
TEXT
  5
26E
330
2
100
AcDbEntity
  8
0
 62
     7
100
AcDbText
 10
146.0
 20
70.0000029552499
 30
0.0
 40
2.999994089499998
  1
DD3S-F34P-G
 11
146.0
 21
71.4999999999999
 31
0.0
100
AcDbText
 73
     2
  0
TEXT
  5
26F
330
2
100
AcDbEntity
  8
0
 62
     7
100
AcDbText
 10
146.0
 20
75.00000295525
 30
0.0
 40
2.999994089499998
  1
DD3S-F34N-RG
 11
146.0
 21
76.5
 31
0.0
100
AcDbText
 73
     2
  0
TEXT
  5
270
330
2
100
AcDbEntity
  8
0
 62
     7
100
AcDbText
 10
146.0
 20
80.00000295524989
 30
0.0
 40
2.999994089499998
  1
DD3S-F34N-R
 11
146.0
 21
81.49999999999989
 31
0.0
100
AcDbText
 73
     2
  0
TEXT
  5
271
330
2
100
AcDbEntity
  8
0
 62
     7
100
AcDbText
 10
146.0
 20
85.00000295525
 30
0.0
 40
2.999994089499998
  1
DD3S-F34N-G
 11
146.0
 21
86.5
 31
0.0
100
AcDbText
 73
     2
  0
TEXT
  5
272
330
2
100
AcDbEntity
  8
0
 62
     7
100
AcDbText
 10
146.0
 20
90.00000295524989
 30
0.0
 40
2.999994089499998
  1
DD3S-F31P-RG
 11
146.0
 21
91.49999999999989
 31
0.0
100
AcDbText
 73
     2
  0
TEXT
  5
273
330
2
100
AcDbEntity
  8
0
 62
     7
100
AcDbText
 10
146.0
 20
95.00000295525
 30
0.0
 40
2.999994089499998
  1
DD3S-F31P-R
 11
146.0
 21
96.5
 31
0.0
100
AcDbText
 73
     2
  0
TEXT
  5
274
330
2
100
AcDbEntity
  8
0
 62
     7
100
AcDbText
 10
146.0
 20
105.00000295525
 30
0.0
 40
2.999994089499998
  1
DD3S-F31N-RG
 11
146.0
 21
106.4999999999999
 31
0.0
100
AcDbText
 73
     2
  0
TEXT
  5
275
330
2
100
AcDbEntity
  8
0
 62
     7
100
AcDbText
 10
146.0
 20
110.0000029552498
 30
0.0
 40
2.999994089499998
  1
DD3S-F31N-R
 11
146.0
 21
111.4999999999999
 31
0.0
100
AcDbText
 73
     2
  0
TEXT
  5
276
330
2
100
AcDbEntity
  8
0
 62
     7
100
AcDbText
 10
146.0
 20
115.0000029552499
 30
0.0
 40
2.999994089499998
  1
DD3S-F31N-G
 11
146.0
 21
116.5
 31
0.0
100
AcDbText
 73
     2
  0
TEXT
  5
27A
330
2
100
AcDbEntity
  8
0
 62
     7
100
AcDbText
 10
146.0
 20
35.00000295525
 30
0.0
 40
2.999994089499998
  1
DD3S-F36P-R
 11
146.0
 21
36.5
 31
0.0
100
AcDbText
 73
     2
  0
TEXT
  5
27B
330
2
100
AcDbEntity
  8
0
 62
     7
100
AcDbText
 10
146.0
 20
30.0000029552499
 30
0.0
 40
2.999994089499998
  1
DD3S-F36P-RG
 11
146.0
 21
31.4999999999999
 31
0.0
100
AcDbText
 73
     2
  0
TEXT
  5
27C
330
2
100
AcDbEntity
  8
0
 62
     7
100
AcDbText
 10
146.0
 20
40.0000029552499
 30
0.0
 40
2.999994089499998
  1
DD3S-F36P-G
 11
146.0
 21
41.4999999999999
 31
0.0
100
AcDbText
 73
     2
  0
TEXT
  5
27D
330
2
100
AcDbEntity
  8
0
 62
     7
100
AcDbText
 10
146.0
 20
45.00000295525
 30
0.0
 40
2.999994089499998
  1
DD3S-F36N-RG
 11
146.0
 21
46.5
 31
0.0
100
AcDbText
 73
     2
  0
TEXT
  5
27E
330
2
100
AcDbEntity
  8
0
 62
     7
100
AcDbText
 10
146.0
 20
50.00000295524991
 30
0.0
 40
2.999994089499998
  1
DD3S-F36N-R
 11
146.0
 21
51.4999999999999
 31
0.0
100
AcDbText
 73
     2
  0
TEXT
  5
27F
330
2
100
AcDbEntity
  8
0
 62
     7
100
AcDbText
 10
146.0
 20
55.00000295525
 30
0.0
 40
2.999994089499998
  1
DD3S-F36N-G
 11
146.0
 21
56.5
 31
0.0
100
AcDbText
 73
     2
  0
ENDSEC
  0
SECTION
  2
OBJECTS
  0
DICTIONARY
  5
7
330
0
100
AcDbDictionary
281
     1
  3
ACAD_GROUP
350
1F
  3
ACAD_LAYOUT
350
B
  3
ACAD_MLINESTYLE
350
20
  3
ACAD_PLOTSETTINGS
350
21
  3
ACAD_PLOTSTYLENAME
350
6
  3
AcDbVariableDictionary
350
277
  3
ASE_INDEX_DICTIONARY
350
281
  0
DICTIONARY
  5
1F
102
{ACAD_REACTORS
330
7
102
}
330
7
100
AcDbDictionary
281
     1
  0
DICTIONARY
  5
B
102
{ACAD_REACTORS
330
7
102
}
330
7
100
AcDbDictionary
281
     1
  3
Model
350
A
  3
ﾚｲｱｳﾄ1
350
F
  0
DICTIONARY
  5
20
102
{ACAD_REACTORS
330
7
102
}
330
7
100
AcDbDictionary
281
     1
  3
Standard
350
22
  0
DICTIONARY
  5
21
102
{ACAD_REACTORS
330
7
102
}
330
7
100
AcDbDictionary
281
     1
  0
ACDBDICTIONARYWDFLT
  5
6
102
{ACAD_REACTORS
330
7
102
}
330
7
100
AcDbDictionary
281
     1
  3
Normal
350
5
100
AcDbDictionaryWithDefault
340
5
  0
DICTIONARY
  5
277
102
{ACAD_REACTORS
330
7
102
}
330
7
100
AcDbDictionary
281
     1
  3
DIMASSOC
350
278
  0
DICTIONARY
  5
281
102
{ACAD_REACTORS
330
7
102
}
330
7
100
AcDbDictionary
281
     1
  3
ASEBlockHierarchyIndexRecord
350
283
1001
DCO15
1040
1520761318.765
  0
LAYOUT
  5
A
102
{ACAD_REACTORS
330
B
102
}
330
B
100
AcDbPlotSettings
  1

  2
C:\Program Files\AutoCAD 2000i\plotters\DWF Classic.pc3
  4

  6

 40
0.0
 41
0.0
 42
0.0
 43
0.0
 44
0.0
 45
0.0
 46
0.0
 47
0.0
 48
0.0
 49
0.0
140
0.0
141
0.0
142
1.0
143
1.0
 70
  1712
 72
     0
 73
     0
 74
     0
  7

 75
     0
147
1.0
148
0.0
149
0.0
100
AcDbLayout
  1
Model
 70
     1
 71
     0
 10
0.0
 20
0.0
 11
12.0
 21
9.0
 12
0.0
 22
0.0
 32
0.0
 14
0.0
 24
0.0
 34
0.0
 15
0.0
 25
0.0
 35
0.0
146
0.0
 13
0.0
 23
0.0
 33
0.0
 16
1.0
 26
0.0
 36
0.0
 17
0.0
 27
1.0
 37
0.0
 76
     0
330
2
  0
LAYOUT
  5
F
102
{ACAD_REACTORS
330
B
102
}
330
B
100
AcDbPlotSettings
  1

  2
C:\Program Files\AutoCAD 2000i\plotters\DWF Classic.pc3
  4

  6

 40
0.0
 41
0.0
 42
0.0
 43
0.0
 44
0.0
 45
0.0
 46
0.0
 47
0.0
 48
0.0
 49
0.0
140
0.0
141
0.0
142
1.0
143
1.0
 70
   688
 72
     0
 73
     0
 74
     5
  7

 75
    16
147
1.0
148
0.0
149
0.0
100
AcDbLayout
  1
ﾚｲｱｳﾄ1
 70
     1
 71
     1
 10
0.0
 20
0.0
 11
12.0
 21
9.0
 12
0.0
 22
0.0
 32
0.0
 14
1.000000000000000E+20
 24
1.000000000000000E+20
 34
1.000000000000000E+20
 15
-1.000000000000000E+20
 25
-1.000000000000000E+20
 35
-1.000000000000000E+20
146
0.0
 13
0.0
 23
0.0
 33
0.0
 16
1.0
 26
0.0
 36
0.0
 17
0.0
 27
1.0
 37
0.0
 76
     0
330
C
  0
MLINESTYLE
  5
22
102
{ACAD_REACTORS
330
20
102
}
330
20
100
AcDbMlineStyle
  2
STANDARD
 70
     0
  3

 62
   256
 51
90.0
 52
90.0
 71
     2
 49
0.5
 62
   256
  6
BYLAYER
 49
-0.5
 62
   256
  6
BYLAYER
  0
ACDBPLACEHOLDER
  5
5
102
{ACAD_REACTORS
330
6
102
}
330
6
  0
DICTIONARYVAR
  5
278
102
{ACAD_REACTORS
330
277
102
}
330
277
100
DictionaryVariables
280
     0
  1
1
  0
XRECORD
  5
283
102
{ACAD_REACTORS
330
281
102
}
330
281
100
AcDbXrecord
280
     1
  0
ENDSEC
  0
EOF
