  0
SECTION
  2
HEADER
  9
$ACADVER
  1
AC1004
  9
$ANGBASE
 50
0.0000000000
  9
$ANGDIR
 70
     0
  9
$ATTDIA
 70
     0
  9
$ATTMODE
 70
     1
  9
$ATTREQ
 70
     1
  9
$AUNITS
 70
     0
  9
$AUPREC
 70
     0
  9
$AXISMODE
 70
     0
  9
$AXISUNIT
 10
0.0000000000
 20
0.0000000000
  9
$BLIPMODE
 70
     1
  9
$CECOLOR
 62
   256
  9
$CELTYPE
  6
BYLAYER
  9
$CHAMFERA
 40
0.0000000000
  9
$CHAMFERB
 40
0.0000000000
  9
$CLAYER
  8
0
  9
$COORDS
 70
     0
  9
$DIMALT
 70
     0
  9
$DIMALTD
 70
     2
  9
$DIMALTF
 40
25.4000000000
  9
$DIMAPOST
  1

  9
$DIMASO
 70
     1
  9
$DIMASZ
 40
1.9727878460
  9
$DIMBLK
  1

  9
$DIMBLK1
  1

  9
$DIMBLK2
  1

  9
$DIMCEN
 40
9.0000000000E-02
  9
$DIMDLE
 40
0.0000000000
  9
$DIMDLI
 40
0.3800000000
  9
$DIMEXE
 40
3.8099999428
  9
$DIMEXO
 40
2.5399999619
  9
$DIMLFAC
 40
1.0000000000
  9
$DIMLIM
 70
     0
  9
$DIMPOST
  1

  9
$DIMRND
 40
0.0000000000
  9
$DIMSCALE
 40
1.0000000000
  9
$DIMSE1
 70
     0
  9
$DIMSE2
 70
     0
  9
$DIMSHO
 70
     0
  9
$DIMTAD
 70
     0
  9
$DIMTIH
 70
     0
  9
$DIMTM
 40
0.0000000000
  9
$DIMTOH
 70
     1
  9
$DIMTOL
 70
     0
  9
$DIMTP
 40
0.0000000000
  9
$DIMTSZ
 40
0.0000000000
  9
$DIMTXT
 40
2.9999940395
  9
$DIMZIN
 70
     0
  9
$DRAGMODE
 70
     1
  9
$ELEVATION
 40
0.0000000000
  9
$EXTMAX
 10
3.1750000000
 20
174.3272369385
 30
0.0000000000
  9
$EXTMIN
 10
-156.7703826904
 20
-3.1750000000
 30
0.0000000000
  9
$FASTZOOM
 70
     1
  9
$FILLETRAD
 40
6.2500000000E-02
  9
$FILLMODE
 70
     1
  9
$GRIDMODE
 70
     0
  9
$GRIDUNIT
 10
0.0000000000
 20
0.0000000000
  9
$INSBASE
 10
0.0000000000
 20
0.0000000000
 30
0.0000000000
  9
$LIMCHECK
 70
     0
  9
$LIMMAX
 10
3.1750000000
 20
174.3272369385
  9
$LIMMIN
 10
-156.7703826904
 20
-3.1750000000
  9
$LTSCALE
 40
1.0000000000
  9
$LUNITS
 70
     2
  9
$LUPREC
 70
     3
  9
$MEASUREMENT
 70
     0
  9
$MENU
  1
ACAD
  9
$MIRRTEXT
 70
     0
  9
$ORTHOMODE
 70
     0
  9
$OSMODE
 70
     0
  9
$PDMODE
 70
     0
  9
$PDSIZE
 40
0.0000000000
  9
$PLINEWID
 40
0.0000000000
  9
$PROXYGRAPHICS
 70
     0
  9
$QTEXTMODE
 70
     0
  9
$REGENMODE
 70
     1
  9
$SKETCHINC
 40
0.1000000000
  9
$SKPOLY
 70
     0
  9
$SNAPANG
 50
0.0000000000
  9
$SNAPBASE
 10
0.0000000000
 20
0.0000000000
  9
$SNAPISOPAIR
 70
     0
  9
$SNAPMODE
 70
     0
  9
$SNAPSTYLE
 70
     0
  9
$SNAPUNIT
 10
1.0000000000
 20
1.0000000000
  9
$SPLFRAME
 70
     0
  9
$SPLINESEGS
 70
     8
  9
$TDCREATE
 40
2455148.6348842641
  9
$TDINDWG
 40
0.0000000000
  9
$TDUPDATE
 40
2455148.6348842641
  9
$TDUSRTIMER
 40
0.0000000000
  9
$TEXTSIZE
 40
2.9999940395
  9
$TEXTSTYLE
  7
STANDARD
  9
$THICKNESS
 40
0.0000000000
  9
$TRACEWID
 40
5.0000000000E-02
  9
$USERI1
 70
     0
  9
$USERI2
 70
     0
  9
$USERI3
 70
     0
  9
$USERI4
 70
     0
  9
$USERI5
 70
     0
  9
$USERR1
 40
0.0000000000
  9
$USERR2
 40
0.0000000000
  9
$USERR3
 40
0.0000000000
  9
$USERR4
 40
0.0000000000
  9
$USERR5
 40
0.0000000000
  9
$USRTIMER
 70
     1
  9
$VIEWCTR
 10
-76.7976913452
 20
85.5761184692
  9
$VIEWDIR
 10
0.0000000000
 20
0.0000000000
 30
1.0000000000
  9
$VIEWSIZE
 40
177.5022369385
  0
ENDSEC
  0
SECTION
  2
TABLES
  0
TABLE
  2
LTYPE
 70
     3
  0
LTYPE
  2
SOLID
  3
Solid
 70
    64
 72
    65
 73
     0
 40
0.0000000000
  0
LTYPE
  2
DASH
  3
Dash
 70
    64
 72
    65
 73
     2
 40
2.0000000000
 49
1.0000000000
 49
-1.0000000000
  0
LTYPE
  2
CENTER
  3
Center
 70
    64
 72
    65
 73
     4
 40
9.1000000238
 49
6.5000000000
 49
-0.8000000119
 49
1.0000000000
 49
-0.8000000119
  0
ENDTAB
  0
TABLE
  2
LAYER
 70
     4
  0
LAYER
  2
Layer0$C$L0
 70
     0
  6
SOLID
 62
     3
  0
LAYER
  2
Layer1$C$L1
 70
     0
  6
SOLID
 62
     3
  0
LAYER
  2
Layer6$C$L6
 70
     0
  6
SOLID
 62
    31
  0
LAYER
  2
Layer8$C$L8
 70
     0
  6
SOLID
 62
     7
  0
ENDTAB
  0
TABLE
  2
STYLE
 70
     1
  0
STYLE
  2
STANDARD
  3
txt
  4

 40
0.0000000000
 41
1.0000000000
 42
4.7999906540
 50
0.0000000000
 70
     0
 71
     0
  0
ENDTAB
  0
ENDSEC
  0
SECTION
  2
BLOCKS
  0
BLOCK
  8
Layer8$C$L8
  2
Cadra_attr_0
 70
     2
 10
0.0000000000
 20
0.0000000000
  0
TEXT
  8
Layer8$C$L8
 10
-67.4915507428
 20
29.1590908851
 40
4.1671714783
  1
CW1P-2EQ#*
 41
0.7904596045
 72
     5
 11
-37.8457242741
 21
29.1590908851
  0
ATTDEF
  8
Layer8$C$L8
 10
-52.668640
 20
31.242677
 40
0.156000
  1
ìL>ÄK
  3

  2
10
 70
    11
  0
ENDBLK
  8
Layer8$C$L8
  0
BLOCK
  8
Layer8$C$L8
  2
Cadra_attr_1
 70
     2
 10
0.000000
 20
0.000000
  0
TEXT
  8
Layer8$C$L8
 62
     5
 10
-66.0872999535
 20
16.0000000000
 40
5.0000000000
  1
MA4-A04411
 41
0.8595637381
 72
     5
 11
-27.4069317370
 21
16.0000000000
  0
ATTDEF
  8
Layer8$C$L8
 62
     5
 10
-46.747117
 20
18.500000
 40
0.156000
  1
  
  3

  2
20
 70
    11
  0
ENDBLK
  8
Layer8$C$L8
  0
ENDSEC
  0
SECTION
  2
ENTITIES
  0
ARC
  8
Layer0$C$L0
 62
     3
 10
-107.9487326711
 20
146.0522371573
 40
0.2000000000
 50
270.0000000000
 51
346.9708688509
  0
ARC
  8
Layer0$C$L0
 62
     3
 10
-107.9487326711
 20
166.2522371573
 40
0.2000000000
 50
13.0291311491
 51
90.0000000000
  0
ARC
  8
Layer0$C$L0
 62
     3
 10
-151.5953820270
 20
156.1522371573
 40
45.0000000000
 50
346.9708688509
 51
373.0291311491
  0
ARC
  8
Layer0$C$L0
 62
     3
 10
-109.7338985077
 20
169.6522371573
 40
0.5000000000
 50
21.8014094863
 51
90.0000000000
  0
ARC
  8
Layer0$C$L0
 62
     3
 10
-109.7338985077
 20
142.6522371573
 40
0.5000000000
 50
270.0000000000
 51
338.1985905136
  0
LINE
  8
Layer0$C$L0
 62
     3
 10
-108.0953821019
 20
145.8522369591
 11
-108.0953821019
 21
166.4522373555
  0
LINE
  8
Layer0$C$L0
 62
     3
 10
-110.6953820507
 20
169.9022370828
 11
-110.6953820507
 21
142.4022372318
  0
LINE
  8
Layer0$C$L0
 62
     3
 10
-110.1953820270
 20
170.1522375894
 11
-110.1953820270
 21
142.1522367251
  0
LINE
  8
Layer0$C$L0
 62
     3
 10
-108.1953819320
 20
167.1522370977
 11
-108.1953819320
 21
145.1522372169
  0
ARC
  8
Layer0$C$L0
 62
     3
 10
-107.9487326711
 20
97.9352990208
 40
0.2000000000
 50
13.0291311491
 51
90.0000000000
  0
ARC
  8
Layer0$C$L0
 62
     3
 10
-107.9487326711
 20
77.7352990208
 40
0.2000000000
 50
270.0000000000
 51
346.9708688509
  0
ARC
  8
Layer0$C$L0
 62
     3
 10
-151.5953820270
 20
87.8352990208
 40
45.0000000000
 50
346.9708688509
 51
373.0291311491
  0
ARC
  8
Layer0$C$L0
 62
     3
 10
-109.7338985077
 20
74.3352990208
 40
0.5000000000
 50
270.0000000000
 51
338.1985905137
  0
ARC
  8
Layer0$C$L0
 62
     3
 10
-109.7338985077
 20
101.3352990208
 40
0.5000000000
 50
21.8014094863
 51
90.0000000000
  0
LINE
  8
Layer0$C$L0
 62
     3
 10
-108.0953821019
 20
98.1352992190
 11
-108.0953821019
 21
77.5352988226
  0
LINE
  8
Layer0$C$L0
 62
     3
 10
-110.6953820507
 20
74.0852990953
 11
-110.6953820507
 21
101.5852989463
  0
LINE
  8
Layer0$C$L0
 62
     3
 10
-110.1953820270
 20
73.8352985887
 11
-110.1953820270
 21
101.8352994530
  0
LINE
  8
Layer0$C$L0
 62
     3
 10
-108.1953819320
 20
76.8352990804
 11
-108.1953819320
 21
98.8352989612
  0
CIRCLE
  8
Layer0$C$L0
 62
     3
 10
-52.0427034403
 20
87.8352990208
 40
10.3000000000
  0
CIRCLE
  8
Layer0$C$L0
 62
     3
 10
-52.0427034403
 20
87.8352990208
 40
11.0000000000
  0
CIRCLE
  8
Layer0$C$L0
 62
     3
 10
-52.0427034403
 20
87.8352990208
 40
14.0000000000
  0
INSERT
  8
Layer8$C$L8
 66
     1
  2
Cadra_attr_0
 10
0.000000
 20
0.000000
  0
ATTRIB
  8
Layer8$C$L8
 10
-52.668640
 20
31.242677
 40
0.156000
  1
ìL>ÄK
  2
10
 70
    11
  0
SEQEND
  8
Layer8$C$L8
  0
LINE
  8
Layer0$C$L0
 62
     3
 10
-111.4953820507
 20
101.7352990208
 11
-112.2953820507
 21
101.7352990208
  0
LINE
  8
Layer0$C$L0
 62
     3
 10
-112.2953820507
 20
73.9352990208
 11
-111.4953820507
 21
73.9352990208
  0
LINE
  8
Layer0$C$L0
 62
     3
 10
-116.4953820507
 20
74.4352990208
 11
-116.4116798195
 21
74.4352990208
  0
LINE
  8
Layer0$C$L0
 62
     3
 10
-116.4116791228
 20
101.2352990208
 11
-116.4953820507
 21
101.2352990208
  0
LINE
  8
Layer0$C$L0
 62
     3
 10
-111.4953820507
 20
76.8352990208
 11
-110.6953820507
 21
76.8352990208
  0
POLYLINE
  8
Layer0$C$L0
 62
     3
 66
     1
  0
VERTEX
  8
Layer0$C$L0
 62
     3
 10
-115.4615969154
 20
116.2626296548
  0
VERTEX
  8
Layer0$C$L0
 62
     3
 10
-115.5582124670
 20
116.2696288312
  0
VERTEX
  8
Layer0$C$L0
 62
     3
 10
-115.7912414238
 20
116.2896343331
  0
VERTEX
  8
Layer0$C$L0
 62
     3
 10
-115.9662821496
 20
116.3070447264
  0
VERTEX
  8
Layer0$C$L0
 62
     3
 10
-116.0635353893
 20
116.3182739061
  0
VERTEX
  8
Layer0$C$L0
 62
     3
 10
-116.0900459643
 20
116.3217605716
  0
SEQEND
  8
Layer0$C$L0
 62
     3
  0
LINE
  8
Layer0$C$L0
 62
     3
 10
-115.4206093707
 20
116.2596603704
 11
-115.4615969154
 21
116.2626296548
  0
POLYLINE
  8
Layer0$C$L0
 62
     3
 66
     1
  0
VERTEX
  8
Layer0$C$L0
 62
     3
 10
-115.0924403262
 20
116.2332156029
  0
VERTEX
  8
Layer0$C$L0
 62
     3
 10
-115.1759838276
 20
116.2401819543
  0
VERTEX
  8
Layer0$C$L0
 62
     3
 10
-115.4267322210
 20
116.2596061275
  0
SEQEND
  8
Layer0$C$L0
 62
     3
  0
POLYLINE
  8
Layer0$C$L0
 62
     3
 66
     1
  0
VERTEX
  8
Layer0$C$L0
 62
     3
 10
-114.2025261770
 20
115.6282814924
  0
VERTEX
  8
Layer0$C$L0
 62
     3
 10
-114.2092031891
 20
115.7439710689
  0
VERTEX
  8
Layer0$C$L0
 62
     3
 10
-114.2731064694
 20
115.8991007057
  0
VERTEX
  8
Layer0$C$L0
 62
     3
 10
-114.3617260434
 20
116.0084785278
  0
VERTEX
  8
Layer0$C$L0
 62
     3
 10
-114.4601341623
 20
116.0837253811
  0
VERTEX
  8
Layer0$C$L0
 62
     3
 10
-114.5621807068
 20
116.1345221812
  0
VERTEX
  8
Layer0$C$L0
 62
     3
 10
-114.6796733661
 20
116.1723123391
  0
VERTEX
  8
Layer0$C$L0
 62
     3
 10
-114.8623748156
 20
116.2075778939
  0
VERTEX
  8
Layer0$C$L0
 62
     3
 10
-115.0953695423
 20
116.2334634153
  0
VERTEX
  8
Layer0$C$L0
 62
     3
 10
-115.1231670034
 20
116.2352416511
  0
SEQEND
  8
Layer0$C$L0
 62
     3
  0
LINE
  8
Layer0$C$L0
 62
     3
 10
-115.6953820507
 20
107.9488515507
 11
-114.2255357403
 21
107.9488515507
  0
LINE
  8
Layer0$C$L0
 62
     3
 10
-136.2953820507
 20
73.1352990208
 11
-136.2953820507
 21
102.5352990208
  0
ARC
  8
Layer0$C$L0
 62
     3
 10
-128.9153820507
 20
73.2552990208
 40
0.6200000000
 50
270.0000000000
 51
360.0000000000
  0
LINE
  8
Layer0$C$L0
 62
     3
 10
-128.2953820507
 20
102.4152990208
 11
-128.2953820507
 21
73.8352990208
  0
LINE
  8
Layer0$C$L0
 62
     3
 10
-128.2953820507
 20
73.8352990208
 11
-128.2953820507
 21
73.2552990208
  0
LINE
  8
Layer0$C$L0
 62
     3
 10
-123.4953820507
 20
72.6352990208
 11
-135.7953820507
 21
72.6352990208
  0
ARC
  8
Layer0$C$L0
 62
     3
 10
-135.7953820507
 20
73.1352990208
 40
0.5000000000
 50
180.0000000000
 51
270.0000000000
  0
LINE
  8
Layer0$C$L0
 62
     3
 10
-135.7953820507
 20
103.0352990208
 11
-123.4953820507
 21
103.0352990208
  0
ARC
  8
Layer0$C$L0
 62
     3
 10
-128.9153820507
 20
102.4152990208
 40
0.6200000000
 50
0.0000000000
 51
90.0000000000
  0
ARC
  8
Layer0$C$L0
 62
     3
 10
-135.7953820507
 20
102.5352990208
 40
0.5000000000
 50
90.0000000000
 51
180.0000000000
  0
POLYLINE
  8
Layer0$C$L0
 62
     3
 66
     1
  0
VERTEX
  8
Layer0$C$L0
 62
     3
 10
-123.8953820507
 20
73.8352990208
  0
VERTEX
  8
Layer0$C$L0
 62
     3
 10
-123.9794774439
 20
73.7477370524
  0
VERTEX
  8
Layer0$C$L0
 62
     3
 10
-124.1078820507
 20
73.6717866154
  0
SEQEND
  8
Layer0$C$L0
 62
     3
  0
ARC
  8
Layer0$C$L0
 62
     3
 10
-123.9953820507
 20
73.3936791721
 40
0.3000000000
 50
112.0243128370
 51
180.0000000000
  0
LINE
  8
Layer0$C$L0
 62
     3
 10
-124.2953820507
 20
73.3936791721
 11
-124.2953820507
 21
73.2352990208
  0
ARC
  8
Layer0$C$L0
 62
     3
 10
-123.9953820507
 20
102.2769188695
 40
0.3000000000
 50
180.0000000000
 51
247.9756871630
  0
LINE
  8
Layer0$C$L0
 62
     3
 10
-124.7953820507
 20
72.7352990208
 11
-126.7711179820
 21
72.7352990208
  0
LINE
  8
Layer0$C$L0
 62
     3
 10
-124.2953820507
 20
102.4352990208
 11
-124.2953820507
 21
102.2769188695
  0
ARC
  8
Layer0$C$L0
 62
     3
 10
-126.7711179820
 20
72.4352990208
 40
0.3000000000
 50
90.0000000000
 51
135.0000000000
  0
POLYLINE
  8
Layer0$C$L0
 62
     3
 66
     1
  0
VERTEX
  8
Layer0$C$L0
 62
     3
 10
-124.1078820507
 20
101.9988114263
  0
VERTEX
  8
Layer0$C$L0
 62
     3
 10
-123.9794774439
 20
101.9228609892
  0
VERTEX
  8
Layer0$C$L0
 62
     3
 10
-123.8953820507
 20
101.8352990208
  0
SEQEND
  8
Layer0$C$L0
 62
     3
  0
LINE
  8
Layer0$C$L0
 62
     3
 10
-126.9832500164
 20
72.6474310552
 11
-126.9953820507
 21
72.6352990208
  0
ARC
  8
Layer0$C$L0
 62
     3
 10
-124.7953820507
 20
102.4352990208
 40
0.5000000000
 50
0.0000000000
 51
90.0000000000
  0
LINE
  8
Layer0$C$L0
 62
     3
 10
-126.9953820507
 20
103.0352990208
 11
-126.9832500164
 21
103.0231669865
  0
LINE
  8
Layer0$C$L0
 62
     3
 10
-126.7711179820
 20
102.9352990208
 11
-124.7953820507
 21
102.9352990208
  0
ARC
  8
Layer0$C$L0
 62
     3
 10
-126.7711179820
 20
103.2352990208
 40
0.3000000000
 50
225.0000000000
 51
270.0000000000
  0
ARC
  8
Layer0$C$L0
 62
     3
 10
-124.7953820507
 20
73.2352990208
 40
0.5000000000
 50
270.0000000000
 51
360.0000000000
  0
LINE
  8
Layer0$C$L0
 62
     3
 10
-132.2953820507
 20
69.0497823677
 11
-132.5953820507
 21
69.2446046456
  0
LINE
  8
Layer0$C$L0
 62
     3
 10
-132.2953820507
 20
69.0497823677
 11
-136.5953820507
 21
67.1352990208
  0
LINE
  8
Layer0$C$L0
 62
     3
 10
-136.6591490192
 20
67.4352990208
 11
-136.5953820507
 21
67.1352990208
  0
LINE
  8
Layer0$C$L0
 62
     3
 10
-136.5953820507
 20
67.1352990208
 11
-147.9685328074
 21
67.1352990208
  0
LINE
  8
Layer0$C$L0
 62
     3
 10
-147.7737105294
 20
67.4352990208
 11
-147.9685328074
 21
67.1352990208
  0
LINE
  8
Layer0$C$L0
 62
     3
 10
-132.5953820507
 20
106.4259933960
 11
-132.2953820507
 21
106.6208156740
  0
LINE
  8
Layer0$C$L0
 62
     3
 10
-132.2953820507
 20
106.6208156740
 11
-132.2953820507
 21
103.0352990208
  0
LINE
  8
Layer0$C$L0
 62
     3
 10
-132.2953820507
 20
72.6352990208
 11
-132.2953820507
 21
69.0497823677
  0
LINE
  8
Layer0$C$L0
 62
     3
 10
-147.7737105294
 20
108.2352990208
 11
-147.9685328074
 21
108.5352990208
  0
LINE
  8
Layer0$C$L0
 62
     3
 10
-147.9685328074
 20
108.5352990208
 11
-136.5953820507
 21
108.5352990208
  0
LINE
  8
Layer0$C$L0
 62
     3
 10
-136.6591490192
 20
108.2352990208
 11
-136.5953820507
 21
108.5352990208
  0
LINE
  8
Layer0$C$L0
 62
     3
 10
-147.9685328074
 20
67.1352990208
 11
-150.5953820507
 21
73.0352990208
  0
LINE
  8
Layer0$C$L0
 62
     3
 10
-150.2953820507
 20
73.0990659893
 11
-150.5953820507
 21
73.0352990208
  0
LINE
  8
Layer0$C$L0
 62
     3
 10
-136.5953820507
 20
108.5352990208
 11
-132.2953820507
 21
106.6208156740
  0
LINE
  8
Layer0$C$L0
 62
     3
 10
-150.2953820507
 20
102.5715320523
 11
-150.5953820507
 21
102.6352990208
  0
LINE
  8
Layer0$C$L0
 62
     3
 10
-150.5953820507
 20
102.6352990208
 11
-147.9685328074
 21
108.5352990208
  0
LINE
  8
Layer0$C$L0
 62
     3
 10
-150.5953820507
 20
73.0352990208
 11
-150.5953820507
 21
102.6352990208
  0
ARC
  8
Layer0$C$L0
 62
     3
 10
-124.2953820507
 20
73.8352990208
 40
0.5000000000
 50
270.0000000000
 51
360.0000000000
  0
LINE
  8
Layer0$C$L0
 62
     3
 10
-150.7953820507
 20
91.9221716077
 11
-150.5953820507
 21
91.9221716077
  0
LINE
  8
Layer0$C$L0
 62
     3
 10
-150.7953820507
 20
92.9501638857
 11
-150.7953820507
 21
91.9221716077
  0
LINE
  8
Layer0$C$L0
 62
     3
 10
-150.7953820507
 20
92.2986194841
 11
-150.5953820507
 21
92.2986194841
  0
LINE
  8
Layer0$C$L0
 62
     3
 10
-150.7953820507
 20
92.9501638857
 11
-150.5953820507
 21
92.9501638857
  0
LINE
  8
Layer0$C$L0
 62
     3
 10
-150.7953820507
 20
80.3986194841
 11
-150.5953820507
 21
80.3986194841
  0
LINE
  8
Layer0$C$L0
 62
     3
 10
-150.7953820507
 20
82.0781561637
 11
-150.7953820507
 21
80.0221716077
  0
LINE
  8
Layer0$C$L0
 62
     3
 10
-150.7953820507
 20
81.0501638857
 11
-150.5953820507
 21
81.0501638857
  0
LINE
  8
Layer0$C$L0
 62
     3
 10
-150.7953820507
 20
81.7017082872
 11
-150.5953820507
 21
81.7017082872
  0
LINE
  8
Layer0$C$L0
 62
     3
 10
-150.7953820507
 20
82.0781561637
 11
-150.5953820507
 21
82.0781561637
  0
LINE
  8
Layer0$C$L0
 62
     3
 10
-150.7953820507
 20
80.0221716077
 11
-150.5953820507
 21
80.0221716077
  0
LINE
  8
Layer0$C$L0
 62
     3
 10
-150.7953820507
 20
93.6017082872
 11
-150.5953820507
 21
93.6017082872
  0
LINE
  8
Layer0$C$L0
 62
     3
 10
-150.7953820507
 20
93.9781561637
 11
-150.7953820507
 21
92.9501638857
  0
LINE
  8
Layer0$C$L0
 62
     3
 10
-150.7953820507
 20
93.9781561637
 11
-150.5953820507
 21
93.9781561637
  0
LINE
  8
Layer0$C$L0
 62
     3
 10
-150.7953820507
 20
82.3543251899
 11
-150.5953820507
 21
82.3543251899
  0
LINE
  8
Layer0$C$L0
 62
     3
 10
-150.7953820507
 20
83.8311591667
 11
-150.7953820507
 21
82.3543251899
  0
LINE
  8
Layer0$C$L0
 62
     3
 10
-150.7953820507
 20
83.8311591667
 11
-150.5953820507
 21
83.8311591667
  0
LINE
  8
Layer0$C$L0
 62
     3
 10
-150.7953820507
 20
95.2244024099
 11
-150.7953820507
 21
94.4570278926
  0
LINE
  8
Layer0$C$L0
 62
     3
 10
-150.7953820507
 20
95.2244024099
 11
-150.5953820507
 21
95.2244024099
  0
LINE
  8
Layer0$C$L0
 62
     3
 10
-150.7953820507
 20
94.8817383173
 11
-150.5953820507
 21
94.8817383173
  0
LINE
  8
Layer0$C$L0
 62
     3
 10
-150.7953820507
 20
94.4570278926
 11
-150.5953820507
 21
94.4570278926
  0
LINE
  8
Layer0$C$L0
 62
     3
 10
-111.4953820507
 20
101.7352990208
 11
-111.4953820507
 21
73.9352990208
  0
LINE
  8
Layer0$C$L0
 62
     3
 10
-112.2953820507
 20
74.0371188702
 11
-115.9953820507
 21
74.0371188702
  0
LINE
  8
Layer0$C$L0
 62
     3
 10
-112.2953820507
 20
73.9352990208
 11
-112.2953820507
 21
74.0393112324
  0
LINE
  8
Layer0$C$L0
 62
     3
 10
-115.9953820507
 20
74.0393112324
 11
-112.2953820507
 21
74.0393112324
  0
LINE
  8
Layer0$C$L0
 62
     3
 10
-115.9953820507
 20
75.0460482772
 11
-115.9953820507
 21
74.0393112324
  0
LINE
  8
Layer0$C$L0
 62
     3
 10
-112.2953820507
 20
75.0460482772
 11
-115.9953820507
 21
75.0460482772
  0
LINE
  8
Layer0$C$L0
 62
     3
 10
-112.2953820507
 20
75.0460482772
 11
-112.2953820507
 21
76.7362574613
  0
LINE
  8
Layer0$C$L0
 62
     3
 10
-115.9953820507
 20
76.7362574613
 11
-112.2953820507
 21
76.7362574613
  0
LINE
  8
Layer0$C$L0
 62
     3
 10
-115.9953820507
 20
79.4024494837
 11
-115.9953820507
 21
76.7362574613
  0
LINE
  8
Layer0$C$L0
 62
     3
 10
-113.9953820507
 20
79.4024494837
 11
-115.9953820507
 21
79.4024494837
  0
LINE
  8
Layer0$C$L0
 62
     3
 10
-113.9953820507
 20
79.4024494837
 11
-113.9953820507
 21
82.4823566989
  0
LINE
  8
Layer0$C$L0
 62
     3
 10
-115.9953820507
 20
82.4823566989
 11
-113.9953820507
 21
82.4823566989
  0
LINE
  8
Layer0$C$L0
 62
     3
 10
-115.9953820507
 20
86.1559466063
 11
-115.9953820507
 21
82.4823566989
  0
LINE
  8
Layer0$C$L0
 62
     3
 10
-112.2953820507
 20
86.1559466063
 11
-115.9953820507
 21
86.1559466063
  0
LINE
  8
Layer0$C$L0
 62
     3
 10
-112.2953820507
 20
86.1559466063
 11
-112.2953820507
 21
89.5325676918
  0
LINE
  8
Layer0$C$L0
 62
     3
 10
-115.9953820507
 20
89.5325676918
 11
-112.2953820507
 21
89.5325676918
  0
LINE
  8
Layer0$C$L0
 62
     3
 10
-115.9953820507
 20
93.2800272433
 11
-115.9953820507
 21
89.5325676918
  0
LINE
  8
Layer0$C$L0
 62
     3
 10
-112.2953820507
 20
93.2800272433
 11
-115.9953820507
 21
93.2800272433
  0
LINE
  8
Layer0$C$L0
 62
     3
 10
-112.2953820507
 20
93.2800272433
 11
-112.2953820507
 21
96.2031707012
  0
LINE
  8
Layer0$C$L0
 62
     3
 10
-115.9953820507
 20
96.2031707012
 11
-112.2953820507
 21
96.2031707012
  0
LINE
  8
Layer0$C$L0
 62
     3
 10
-115.9953820507
 20
98.8850523522
 11
-115.9953820507
 21
96.2031707012
  0
LINE
  8
Layer0$C$L0
 62
     3
 10
-113.9953820507
 20
98.8850523522
 11
-115.9953820507
 21
98.8850523522
  0
LINE
  8
Layer0$C$L0
 62
     3
 10
-113.9953820507
 20
98.8850523522
 11
-113.9953820507
 21
100.6632376120
  0
LINE
  8
Layer0$C$L0
 62
     3
 10
-115.9953820507
 20
100.6632376120
 11
-113.9953820507
 21
100.6632376120
  0
LINE
  8
Layer0$C$L0
 62
     3
 10
-115.9953820507
 20
101.6334791714
 11
-115.9953820507
 21
100.6632376120
  0
LINE
  8
Layer0$C$L0
 62
     3
 10
-112.2953820507
 20
101.6334791714
 11
-115.8864520524
 21
101.6334791714
  0
LINE
  8
Layer0$C$L0
 62
     3
 10
-112.2953820507
 20
101.6334791714
 11
-112.2953820507
 21
101.7352990208
  0
LINE
  8
Layer0$C$L0
 62
     3
 10
-116.1757843296
 20
89.3352990208
 11
-115.9953820507
 21
89.5325676918
  0
LINE
  8
Layer0$C$L0
 62
     3
 10
-112.2953820507
 20
89.3352990208
 11
-116.4953820507
 21
89.3352990208
  0
LINE
  8
Layer0$C$L0
 62
     3
 10
-116.4953820507
 20
93.1941509713
 11
-116.1941971054
 21
93.3456747832
  0
LINE
  8
Layer0$C$L0
 62
     3
 10
-115.9953820507
 20
93.2800272433
 11
-116.1941971054
 21
93.3456747832
  0
LINE
  8
Layer0$C$L0
 62
     3
 10
-116.4953820507
 20
82.5688723191
 11
-116.4953820507
 21
101.2352990208
  0
LINE
  8
Layer0$C$L0
 62
     3
 10
-116.1940333084
 20
82.4171363672
 11
-115.9953820507
 21
82.4823566989
  0
LINE
  8
Layer0$C$L0
 62
     3
 10
-116.1940333084
 20
82.4171363673
 11
-116.4953820507
 21
82.5688723191
  0
LINE
  8
Layer0$C$L0
 62
     3
 10
-116.4953820507
 20
86.3352990208
 11
-112.2953820507
 21
86.3352990208
  0
LINE
  8
Layer0$C$L0
 62
     3
 10
-115.9953820507
 20
86.1559466063
 11
-116.1941971054
 21
86.3352990208
  0
LINE
  8
Layer0$C$L0
 62
     3
 10
-112.2953820507
 20
95.7922271827
 11
-116.4953820507
 21
95.7922271827
  0
LINE
  8
Layer0$C$L0
 62
     3
 10
-113.9953820507
 20
82.4171363672
 11
-116.1940333084
 21
82.4171363673
  0
LINE
  8
Layer0$C$L0
 62
     3
 10
-116.1941971054
 20
93.3456747832
 11
-112.2953820507
 21
93.3456747832
  0
LINE
  8
Layer0$C$L0
 62
     3
 10
-116.1757843296
 20
95.9530129809
 11
-115.9953820507
 21
96.2031707012
  0
LINE
  8
Layer0$C$L0
 62
     3
 10
-116.1757843296
 20
95.9530129809
 11
-116.4953820507
 21
95.7922271827
  0
LINE
  8
Layer0$C$L0
 62
     3
 10
-116.4953820507
 20
98.5570176426
 11
-116.1940333083
 21
98.8198320205
  0
LINE
  8
Layer0$C$L0
 62
     3
 10
-115.9953820507
 20
98.8850523522
 11
-116.1940333083
 21
98.8198320205
  0
LINE
  8
Layer0$C$L0
 62
     3
 10
-113.9953820507
 20
80.4527841890
 11
-116.2953820507
 21
80.4527841890
  0
POLYLINE
  8
Layer0$C$L0
 62
     3
 66
     1
  0
VERTEX
  8
Layer0$C$L0
 62
     3
 10
-116.2953820507
 20
80.4527841890
  0
VERTEX
  8
Layer0$C$L0
 62
     3
 10
-116.3611457187
 20
80.4583941774
  0
VERTEX
  8
Layer0$C$L0
 62
     3
 10
-116.4194920102
 20
80.4745593832
  0
VERTEX
  8
Layer0$C$L0
 62
     3
 10
-116.4641263917
 20
80.4995196745
  0
VERTEX
  8
Layer0$C$L0
 62
     3
 10
-116.4901163406
 20
80.5306815035
  0
VERTEX
  8
Layer0$C$L0
 62
     3
 10
-116.4953820507
 20
80.5536851727
  0
SEQEND
  8
Layer0$C$L0
 62
     3
  0
LINE
  8
Layer0$C$L0
 62
     3
 10
-116.4953820507
 20
74.5195189085
 11
-116.4953820507
 21
82.5615755430
  0
LINE
  8
Layer0$C$L0
 62
     3
 10
-112.2953820507
 20
95.9530129809
 11
-116.1757843296
 21
95.9530129809
  0
LINE
  8
Layer0$C$L0
 62
     3
 10
-116.1757843296
 20
76.7750060006
 11
-115.9953820507
 21
76.7362574613
  0
LINE
  8
Layer0$C$L0
 62
     3
 10
-116.1757843296
 20
76.7750060006
 11
-116.4953820507
 21
77.0534951723
  0
LINE
  8
Layer0$C$L0
 62
     3
 10
-116.4953820507
 20
79.7975910269
 11
-116.1940333083
 21
79.6458550751
  0
LINE
  8
Layer0$C$L0
 62
     3
 10
-115.9953820507
 20
79.4024494837
 11
-116.1940333083
 21
79.6458550751
  0
LINE
  8
Layer0$C$L0
 62
     3
 10
-116.1940333083
 20
79.6458550751
 11
-113.9953820507
 21
79.6458550751
  0
LINE
  8
Layer0$C$L0
 62
     3
 10
-112.2953820507
 20
75.5534951723
 11
-116.4953820507
 21
75.5534951723
  0
LINE
  8
Layer0$C$L0
 62
     3
 10
-113.9953820507
 20
99.0221897972
 11
-116.2953820507
 21
99.0221897972
  0
ARC
  8
Layer0$C$L0
 62
     3
 10
-116.3052941989
 20
98.8317113657
 40
0.1907361621
 50
87.0211197103
 51
175.2746317946
  0
LINE
  8
Layer0$C$L0
 62
     3
 10
-116.1757843296
 20
74.1979473120
 11
-115.9953820507
 21
74.0393112324
  0
LINE
  8
Layer0$C$L0
 62
     3
 10
-116.1757843296
 20
74.1979473120
 11
-116.4953820507
 21
74.5195189085
  0
LINE
  8
Layer0$C$L0
 62
     3
 10
-116.4953820507
 20
75.5534951723
 11
-116.1941971054
 21
75.2910482316
  0
LINE
  8
Layer0$C$L0
 62
     3
 10
-115.9953820507
 20
75.0460482772
 11
-116.1941971054
 21
75.2910482316
  0
LINE
  8
Layer0$C$L0
 62
     3
 10
-116.1941971054
 20
75.2910482316
 11
-112.2953820507
 21
75.2910482316
  0
LINE
  8
Layer0$C$L0
 62
     3
 10
-113.9953820507
 20
100.4198320205
 11
-116.1940333084
 21
100.4198320205
  0
LINE
  8
Layer0$C$L0
 62
     3
 10
-116.1940333084
 20
100.4198320205
 11
-115.9953820507
 21
100.6632376120
  0
LINE
  8
Layer0$C$L0
 62
     3
 10
-116.1940333084
 20
100.4198320205
 11
-116.4953820507
 21
100.1570176426
  0
LINE
  8
Layer0$C$L0
 62
     3
 10
-116.4953820507
 20
101.1510791332
 11
-116.1941971054
 21
101.4541267569
  0
LINE
  8
Layer0$C$L0
 62
     3
 10
-116.0349153140
 20
101.5978159454
 11
-116.1941971054
 21
101.4541267569
  0
LINE
  8
Layer0$C$L0
 62
     3
 10
-116.4953820507
 20
74.5195189085
 11
-116.4953820507
 21
74.4352990208
  0
LINE
  8
Layer0$C$L0
 62
     3
 10
-116.1757843296
 20
101.4726507296
 11
-116.1941728647
 21
101.4541486246
  0
LINE
  8
Layer0$C$L0
 62
     3
 10
-115.9953820507
 20
74.0371188702
 11
-116.0917051993
 21
74.1240126384
  0
LINE
  8
Layer0$C$L0
 62
     3
 10
-118.9953820507
 20
81.1352990208
 11
-118.9953820507
 21
94.5352990208
  0
LINE
  8
Layer0$C$L0
 62
     3
 10
-118.6778394027
 20
94.5352990208
 11
-118.6778394027
 21
81.1352990208
  0
LINE
  8
Layer0$C$L0
 62
     3
 10
-111.4953820507
 20
98.5352990208
 11
-110.7953820507
 21
98.5352990208
  0
ARC
  8
Layer0$C$L0
 62
     3
 10
-110.7951713153
 20
98.8329580479
 40
0.2976591017
 50
269.9594359834
 51
289.5875470920
  0
LINE
  8
Layer0$C$L0
 62
     3
 10
-116.4953820507
 20
98.7183133092
 11
-117.2953820507
 21
98.7183133092
  0
LINE
  8
Layer0$C$L0
 62
     3
 10
-116.4953820507
 20
76.9522847325
 11
-117.2953820507
 21
76.9522847325
  0
LINE
  8
Layer0$C$L0
 62
     3
 10
-118.9953820507
 20
92.3352990208
 11
-119.0953820507
 21
92.3352990208
  0
LINE
  8
Layer0$C$L0
 62
     3
 10
-118.9953820507
 20
83.6352990208
 11
-119.0953820507
 21
83.6352990208
  0
LINE
  8
Layer0$C$L0
 62
     3
 10
-110.9953820507
 20
98.5352990208
 11
-110.9953820507
 21
100.3352990208
  0
LINE
  8
Layer0$C$L0
 62
     3
 10
-111.4953820507
 20
100.3352990208
 11
-110.9953820507
 21
100.3352990208
  0
LINE
  8
Layer0$C$L0
 62
     3
 10
-119.0953820507
 20
94.5352990208
 11
-119.0953820507
 21
81.1352990208
  0
LINE
  8
Layer0$C$L0
 62
     3
 10
-120.8953820507
 20
94.5352990208
 11
-120.8953820507
 21
81.1352990208
  0
LINE
  8
Layer0$C$L0
 62
     3
 10
-121.0953820507
 20
81.1352990208
 11
-121.0953820507
 21
94.5352990208
  0
LINE
  8
Layer0$C$L0
 62
     3
 10
-122.7953820507
 20
112.3352990208
 11
-124.5953820507
 21
112.3352990208
  0
LINE
  8
Layer0$C$L0
 62
     3
 10
-124.5953820507
 20
112.3352990208
 11
-125.4489354413
 21
113.1888524114
  0
ARC
  8
Layer0$C$L0
 62
     3
 10
-123.5209043663
 20
112.9163727016
 40
1.0788989391
 50
185.1888179391
 51
212.5870438068
  0
LINE
  8
Layer0$C$L0
 62
     3
 10
-125.2390559935
 20
115.9421968380
 11
-124.5952155295
 21
116.1353489772
  0
ARC
  8
Layer0$C$L0
 62
     3
 10
-124.4486418083
 20
116.7192941278
 40
0.6020596271
 50
255.9095218081
 51
305.9268653494
  0
ARC
  8
Layer0$C$L0
 62
     3
 10
-123.8282369359
 20
115.4871282983
 40
0.7911082947
 50
109.7358720838
 51
165.8617948343
  0
LINE
  8
Layer0$C$L0
 62
     3
 10
-124.5953820507
 20
116.1352990208
 11
-124.5953820507
 21
116.3352990208
  0
LINE
  8
Layer0$C$L0
 62
     3
 10
-124.5953820507
 20
116.3352990208
 11
-122.2953820507
 21
116.3352990208
  0
LINE
  8
Layer0$C$L0
 62
     3
 10
-124.5953820507
 20
115.6803657347
 11
-124.5953820507
 21
112.8187990043
  0
ARC
  8
Layer0$C$L0
 62
     3
 10
-125.0953820507
 20
115.4632836954
 40
0.5000000000
 50
106.6992442340
 51
180.0000000000
  0
LINE
  8
Layer0$C$L0
 62
     3
 10
-125.5953820507
 20
113.5424058020
 11
-125.5953820507
 21
115.4632836954
  0
ARC
  8
Layer0$C$L0
 62
     3
 10
-125.0953820507
 20
113.5424058020
 40
0.5000000000
 50
180.0000000000
 51
225.0000000000
  0
LINE
  8
Layer0$C$L0
 62
     3
 10
-117.2953820507
 20
94.5352990208
 11
-121.2953820507
 21
94.5352990208
  0
LINE
  8
Layer0$C$L0
 62
     3
 10
-122.9953820507
 20
71.3352990208
 11
-122.9953820507
 21
73.3352990208
  0
ARC
  8
Layer0$C$L0
 62
     3
 10
-123.4953820507
 20
73.3352990208
 40
0.5000000000
 50
0.0000000000
 51
90.0000000000
  0
LINE
  8
Layer0$C$L0
 62
     3
 10
-123.4953820507
 20
73.8352990208
 11
-128.2953820507
 21
73.8352990208
  0
LINE
  8
Layer0$C$L0
 62
     3
 10
-123.4953820507
 20
101.8352990208
 11
-128.2953820507
 21
101.8352990208
  0
ARC
  8
Layer0$C$L0
 62
     3
 10
-123.4953820507
 20
102.3352990208
 40
0.5000000000
 50
270.0000000000
 51
360.0000000000
  0
LINE
  8
Layer0$C$L0
 62
     3
 10
-122.9953820507
 20
102.3352990208
 11
-122.9953820507
 21
104.5352990208
  0
LINE
  8
Layer0$C$L0
 62
     3
 10
-122.2953820507
 20
104.5352990208
 11
-125.7953820507
 21
104.5352990208
  0
LINE
  8
Layer0$C$L0
 62
     3
 10
-121.2953820507
 20
94.5352990208
 11
-121.2953820507
 21
81.1352990208
  0
LINE
  8
Layer0$C$L0
 62
     3
 10
-117.2953820507
 20
81.1352990208
 11
-121.2953820507
 21
81.1352990208
  0
LINE
  8
Layer0$C$L0
 62
     3
 10
-122.7953820507
 20
115.8352990208
 11
-122.7953820507
 21
104.5352990208
  0
LINE
  8
Layer0$C$L0
 62
     3
 10
-121.2953820507
 20
104.5352990208
 11
-121.2953820507
 21
110.5564345558
  0
LINE
  8
Layer0$C$L0
 62
     3
 10
-121.7953820507
 20
104.0352990208
 11
-121.2953820507
 21
104.5352990208
  0
LINE
  8
Layer0$C$L0
 62
     3
 10
-121.2953820507
 20
104.5352990208
 11
-117.7953820507
 21
104.5352990208
  0
LINE
  8
Layer0$C$L0
 62
     3
 10
-117.2953820507
 20
81.1352990208
 11
-117.2953820507
 21
71.6352990208
  0
LINE
  8
Layer0$C$L0
 62
     3
 10
-117.2953820507
 20
104.0352990208
 11
-117.2953820507
 21
94.5352990208
  0
ARC
  8
Layer0$C$L0
 62
     3
 10
-117.7953820507
 20
104.0352990208
 40
0.5000000000
 50
0.0000000000
 51
90.0000000000
  0
ARC
  8
Layer0$C$L0
 62
     3
 10
-117.7953820507
 20
71.6352990208
 40
0.5000000000
 50
270.0000000000
 51
360.0000000000
  0
LINE
  8
Layer0$C$L0
 62
     3
 10
-117.7953820507
 20
71.1352990208
 11
-125.7953820507
 21
71.1352990208
  0
POLYLINE
  8
Layer0$C$L0
 62
     3
 66
     1
  0
VERTEX
  8
Layer0$C$L0
 62
     3
 10
-123.1953820507
 20
71.1352990208
  0
VERTEX
  8
Layer0$C$L0
 62
     3
 10
-123.0968409257
 20
71.1450099942
  0
VERTEX
  8
Layer0$C$L0
 62
     3
 10
-123.0308070786
 20
71.1839553113
  0
VERTEX
  8
Layer0$C$L0
 62
     3
 10
-123.0016448398
 20
71.2520391859
  0
VERTEX
  8
Layer0$C$L0
 62
     3
 10
-122.9953820507
 20
71.3352990208
  0
SEQEND
  8
Layer0$C$L0
 62
     3
  0
ARC
  8
Layer0$C$L0
 62
     3
 10
-123.4953820507
 20
102.5352990208
 40
0.5000000000
 50
0.0000000000
 51
90.0000000000
  0
ARC
  8
Layer0$C$L0
 62
     3
 10
-123.4953820507
 20
73.1352990208
 40
0.5000000000
 50
270.0000000000
 51
360.0000000000
  0
ARC
  8
Layer0$C$L0
 62
     3
 10
-121.8048714198
 20
110.5637456448
 40
0.5095418228
 50
359.1778713830
 51
448.9328997016
  0
ARC
  8
Layer0$C$L0
 62
     3
 10
-122.3496725659
 20
110.6273722031
 40
0.4491203406
 50
83.0569983801
 51
172.9341700065
  0
LINE
  8
Layer0$C$L0
 62
     3
 10
-122.2953820507
 20
111.0731990981
 11
-121.7953820507
 21
111.0731990981
  0
LINE
  8
Layer0$C$L0
 62
     3
 10
-130.4953820507
 20
105.7352990208
 11
-130.4953820507
 21
103.0352990208
  0
LINE
  8
Layer0$C$L0
 62
     3
 10
-131.9953820507
 20
104.2352990208
 11
-130.7953820507
 21
103.0352990208
  0
LINE
  8
Layer0$C$L0
 62
     3
 10
-131.9953820507
 20
104.2352990208
 11
-131.9953820507
 21
105.7352990208
  0
LINE
  8
Layer0$C$L0
 62
     3
 10
-131.9953820507
 20
105.7352990208
 11
-129.9953820507
 21
105.7352990208
  0
LINE
  8
Layer0$C$L0
 62
     3
 10
-125.7953820507
 20
104.5352990208
 11
-129.3953820507
 21
105.1352990208
  0
LINE
  8
Layer0$C$L0
 62
     3
 10
-129.3953820507
 20
105.1352990208
 11
-129.9953820507
 21
105.7352990208
  0
LINE
  8
Layer0$C$L0
 62
     3
 10
-129.9953820507
 20
69.9352990208
 11
-131.9953820507
 21
69.9352990208
  0
LINE
  8
Layer0$C$L0
 62
     3
 10
-130.4953820507
 20
72.6352990208
 11
-130.4953820507
 21
69.9352990208
  0
LINE
  8
Layer0$C$L0
 62
     3
 10
-129.3953820507
 20
70.5352990208
 11
-125.7953820507
 21
71.1352990208
  0
LINE
  8
Layer0$C$L0
 62
     3
 10
-129.9953820507
 20
69.9352990208
 11
-129.3953820507
 21
70.5352990208
  0
LINE
  8
Layer0$C$L0
 62
     3
 10
-131.9953820507
 20
69.9352990208
 11
-131.9953820507
 21
71.4352990208
  0
LINE
  8
Layer0$C$L0
 62
     3
 10
-130.7953820507
 20
72.6352990208
 11
-131.9953820507
 21
71.4352990208
  0
LINE
  8
Layer0$C$L0
 62
     3
 10
-125.3557765835
 20
104.7352990208
 11
-125.3557765835
 21
104.5352990208
  0
LINE
  8
Layer0$C$L0
 62
     3
 10
-123.5884825037
 20
104.7352990208
 11
-123.5884825037
 21
104.5352990208
  0
LINE
  8
Layer0$C$L0
 62
     3
 10
-123.5884825037
 20
104.7352990208
 11
-125.3557765835
 21
104.7352990208
  0
ARC
  8
Layer0$C$L0
 62
     3
 10
-116.1953820507
 20
115.8352990208
 40
0.5000000000
 50
0.0000000000
 51
90.0000000000
  0
LINE
  8
Layer0$C$L0
 62
     3
 10
-115.6953820507
 20
115.8352990208
 11
-115.6953820507
 21
101.6334791714
  0
POLYLINE
  8
Layer0$C$L0
 62
     3
 66
     1
  0
VERTEX
  8
Layer0$C$L0
 62
     3
 10
-115.6953820507
 20
101.7905847578
  0
VERTEX
  8
Layer0$C$L0
 62
     3
 10
-115.7274931411
 20
101.7198110304
  0
VERTEX
  8
Layer0$C$L0
 62
     3
 10
-115.8213855751
 20
101.6551936179
  0
VERTEX
  8
Layer0$C$L0
 62
     3
 10
-115.9634513241
 20
101.6077824281
  0
VERTEX
  8
Layer0$C$L0
 62
     3
 10
-116.1257044712
 20
101.5851543440
  0
VERTEX
  8
Layer0$C$L0
 62
     3
 10
-116.1953820507
 20
101.5830261057
  0
SEQEND
  8
Layer0$C$L0
 62
     3
  0
ARC
  8
Layer0$C$L0
 62
     3
 10
-122.2953820507
 20
115.8352990208
 40
0.5000000000
 50
90.0000000000
 51
180.0000000000
  0
LINE
  8
Layer0$C$L0
 62
     3
 10
-122.2953820507
 20
116.3352990208
 11
-116.1953820507
 21
116.3352990208
  0
LINE
  8
Layer0$C$L0
 62
     3
 10
-116.1953820507
 20
101.5830261057
 11
-117.2953820507
 21
101.5830261057
  0
LINE
  8
Layer0$C$L0
 62
     3
 10
-123.5666661061
 20
104.7352990208
 11
-123.5666661061
 21
104.5352990208
  0
ARC
  8
Layer0$C$L0
 62
     3
 10
-115.0072554310
 20
115.2300676778
 40
3.9566358505
 50
259.9843540065
 51
268.5178533613
  0
LINE
  8
Layer0$C$L0
 62
     3
 10
-114.7811684883
 20
111.2488195533
 11
-115.1095956131
 21
111.2747555863
  0
ARC
  8
Layer0$C$L0
 62
     3
 10
-114.7398730532
 20
110.2728613670
 40
0.9768314565
 50
56.1234558201
 51
92.4228944041
  0
LINE
  8
Layer0$C$L0
 62
     3
 10
-114.1953820507
 20
115.6246114889
 11
-114.1953820507
 21
107.9790052403
  0
LINE
  8
Layer0$C$L0
 62
     3
 10
-116.4953820507
 20
100.6198432068
 11
-117.2953820507
 21
100.6198432068
  0
LINE
  8
Layer0$C$L0
 62
     3
 10
-116.4953820507
 20
99.4144587920
 11
-117.2953820507
 21
99.4144587920
  0
LINE
  8
Layer0$C$L0
 62
     3
 10
-123.5481347710
 20
104.7352990208
 11
-123.5481347710
 21
104.5352990208
  0
POLYLINE
  8
Layer0$C$L0
 62
     3
 66
     1
  0
VERTEX
  8
Layer0$C$L0
 62
     3
 10
-114.1953820507
 20
107.9790052403
  0
VERTEX
  8
Layer0$C$L0
 62
     3
 10
-114.2049894105
 20
107.9546707955
  0
VERTEX
  8
Layer0$C$L0
 62
     3
 10
-114.2255357403
 20
107.9488515507
  0
SEQEND
  8
Layer0$C$L0
 62
     3
  0
LINE
  8
Layer0$C$L0
 62
     3
 10
-42.5427034403
 20
99.3313451982
 11
-42.5427034403
 21
99.3139749026
  0
LINE
  8
Layer0$C$L0
 62
     3
 10
-37.0427034403
 20
102.5352990208
 11
-37.0427034403
 21
73.1352990208
  0
ARC
  8
Layer0$C$L0
 62
     3
 10
-37.5427034403
 20
73.1352990208
 40
0.5000000000
 50
323.1301023542
 51
360.0000000000
  0
ARC
  8
Layer0$C$L0
 62
     3
 10
-37.5427034403
 20
102.5352990208
 40
0.5000000000
 50
0.0000000000
 51
36.8698976458
  0
ARC
  8
Layer0$C$L0
 62
     3
 10
-43.4427034403
 20
71.1352990208
 40
0.3000000000
 50
180.0000000000
 51
270.0000000000
  0
ARC
  8
Layer0$C$L0
 62
     3
 10
-40.6427034403
 20
71.1352990208
 40
0.3000000000
 50
270.0000000000
 51
360.0000000000
  0
LINE
  8
Layer0$C$L0
 62
     3
 10
-40.6427034403
 20
70.8352990208
 11
-43.4427034403
 21
70.8352990208
  0
ARC
  8
Layer0$C$L0
 62
     3
 10
-66.5427034403
 20
73.1352990208
 40
0.5000000000
 50
180.0000000000
 51
216.8698976458
  0
LINE
  8
Layer0$C$L0
 62
     3
 10
-67.0427034403
 20
73.1352990208
 11
-67.0427034403
 21
102.5352990208
  0
ARC
  8
Layer0$C$L0
 62
     3
 10
-66.5427034403
 20
102.5352990208
 40
0.5000000000
 50
143.1301023542
 51
180.0000000000
  0
ARC
  8
Layer0$C$L0
 62
     3
 10
-63.4427034403
 20
71.1352990208
 40
0.3000000000
 50
180.0000000000
 51
270.0000000000
  0
LINE
  8
Layer0$C$L0
 62
     3
 10
-60.6427034403
 20
70.8352990208
 11
-63.4427034403
 21
70.8352990208
  0
ARC
  8
Layer0$C$L0
 62
     3
 10
-60.6427034403
 20
71.1352990208
 40
0.3000000000
 50
270.0000000000
 51
360.0000000000
  0
ARC
  8
Layer0$C$L0
 62
     3
 10
-50.6427034403
 20
71.1352990208
 40
0.3000000000
 50
270.0000000000
 51
360.0000000000
  0
ARC
  8
Layer0$C$L0
 62
     3
 10
-53.4427034403
 20
71.1352990208
 40
0.3000000000
 50
180.0000000000
 51
270.0000000000
  0
LINE
  8
Layer0$C$L0
 62
     3
 10
-50.6427034403
 20
70.8352990208
 11
-53.4427034403
 21
70.8352990208
  0
ARC
  8
Layer0$C$L0
 62
     3
 10
-48.1427034403
 20
67.4352990208
 40
0.3000000000
 50
180.0000000000
 51
270.0000000000
  0
LINE
  8
Layer0$C$L0
 62
     3
 10
-48.4427034403
 20
67.4352990208
 11
-48.4427034403
 21
69.9352990208
  0
POLYLINE
  8
Layer0$C$L0
 62
     3
 66
     1
  0
VERTEX
  8
Layer0$C$L0
 62
     3
 10
-48.1427034403
 20
69.0497823677
  0
VERTEX
  8
Layer0$C$L0
 62
     3
 10
-48.2012305369
 20
69.0535258231
  0
VERTEX
  8
Layer0$C$L0
 62
     3
 10
-48.2575084700
 20
69.0646123305
  0
VERTEX
  8
Layer0$C$L0
 62
     3
 10
-48.3093745102
 20
69.0826158417
  0
VERTEX
  8
Layer0$C$L0
 62
     3
 10
-48.3548354747
 20
69.1068444917
  0
VERTEX
  8
Layer0$C$L0
 62
     3
 10
-48.3921443240
 20
69.1363671872
  0
VERTEX
  8
Layer0$C$L0
 62
     3
 10
-48.4198673001
 20
69.1700493876
  0
VERTEX
  8
Layer0$C$L0
 62
     3
 10
-48.4369390244
 20
69.2065967047
  0
VERTEX
  8
Layer0$C$L0
 62
     3
 10
-48.4427034403
 20
69.2446046456
  0
SEQEND
  8
Layer0$C$L0
 62
     3
  0
LINE
  8
Layer0$C$L0
 62
     3
 10
-55.6427034403
 20
69.9352990208
 11
-55.6427034403
 21
67.4352990208
  0
POLYLINE
  8
Layer0$C$L0
 62
     3
 66
     1
  0
VERTEX
  8
Layer0$C$L0
 62
     3
 10
-55.6427034403
 20
69.2446046456
  0
VERTEX
  8
Layer0$C$L0
 62
     3
 10
-55.6472611144
 20
69.2107741121
  0
VERTEX
  8
Layer0$C$L0
 62
     3
 10
-55.6607956541
 20
69.1779715022
  0
VERTEX
  8
Layer0$C$L0
 62
     3
 10
-55.6828958192
 20
69.1471935066
  0
VERTEX
  8
Layer0$C$L0
 62
     3
 10
-55.7128901074
 20
69.1193752992
  0
VERTEX
  8
Layer0$C$L0
 62
     3
 10
-55.7498671574
 20
69.0953621222
  0
VERTEX
  8
Layer0$C$L0
 62
     3
 10
-55.7927034403
 20
69.0758836037
  0
VERTEX
  8
Layer0$C$L0
 62
     3
 10
-55.8400973973
 20
69.0615315886
  0
VERTEX
  8
Layer0$C$L0
 62
     3
 10
-55.8906089870
 20
69.0527421558
  0
VERTEX
  8
Layer0$C$L0
 62
     3
 10
-55.9427034403
 20
69.0497823677
  0
SEQEND
  8
Layer0$C$L0
 62
     3
  0
LINE
  8
Layer0$C$L0
 62
     3
 10
-48.1427034403
 20
67.1352990208
 11
-47.3427034403
 21
67.1352990208
  0
LINE
  8
Layer0$C$L0
 62
     3
 10
-48.1427034403
 20
69.0497823677
 11
-47.3427034403
 21
69.0497823677
  0
ARC
  8
Layer0$C$L0
 62
     3
 10
-55.9427034403
 20
67.4352990208
 40
0.3000000000
 50
270.0000000000
 51
360.0000000000
  0
POLYLINE
  8
Layer0$C$L0
 62
     3
 66
     1
  0
VERTEX
  8
Layer0$C$L0
 62
     3
 10
-56.7427034403
 20
69.0497823677
  0
VERTEX
  8
Layer0$C$L0
 62
     3
 10
-56.8012305369
 20
69.0535258231
  0
VERTEX
  8
Layer0$C$L0
 62
     3
 10
-56.8575084700
 20
69.0646123305
  0
VERTEX
  8
Layer0$C$L0
 62
     3
 10
-56.9093745102
 20
69.0826158417
  0
VERTEX
  8
Layer0$C$L0
 62
     3
 10
-56.9548354747
 20
69.1068444917
  0
VERTEX
  8
Layer0$C$L0
 62
     3
 10
-56.9921443240
 20
69.1363671872
  0
VERTEX
  8
Layer0$C$L0
 62
     3
 10
-57.0198673001
 20
69.1700493876
  0
VERTEX
  8
Layer0$C$L0
 62
     3
 10
-57.0369390244
 20
69.2065967047
  0
VERTEX
  8
Layer0$C$L0
 62
     3
 10
-57.0427034403
 20
69.2446046456
  0
SEQEND
  8
Layer0$C$L0
 62
     3
  0
ARC
  8
Layer0$C$L0
 62
     3
 10
-56.7427034403
 20
67.4352990208
 40
0.3000000000
 50
180.0000000000
 51
270.0000000000
  0
LINE
  8
Layer0$C$L0
 62
     3
 10
-57.0427034403
 20
67.4352990208
 11
-57.0427034403
 21
71.1352990208
  0
LINE
  8
Layer0$C$L0
 62
     3
 10
-56.7427034403
 20
69.0497823677
 11
-55.9427034403
 21
69.0497823677
  0
POLYLINE
  8
Layer0$C$L0
 62
     3
 66
     1
  0
VERTEX
  8
Layer0$C$L0
 62
     3
 10
-47.0427034403
 20
69.2446046456
  0
VERTEX
  8
Layer0$C$L0
 62
     3
 10
-47.0484678562
 20
69.2065967047
  0
VERTEX
  8
Layer0$C$L0
 62
     3
 10
-47.0655395806
 20
69.1700493876
  0
VERTEX
  8
Layer0$C$L0
 62
     3
 10
-47.0932625566
 20
69.1363671872
  0
VERTEX
  8
Layer0$C$L0
 62
     3
 10
-47.1305714060
 20
69.1068444917
  0
VERTEX
  8
Layer0$C$L0
 62
     3
 10
-47.1760323704
 20
69.0826158417
  0
VERTEX
  8
Layer0$C$L0
 62
     3
 10
-47.2278984106
 20
69.0646123305
  0
VERTEX
  8
Layer0$C$L0
 62
     3
 10
-47.2841763437
 20
69.0535258231
  0
VERTEX
  8
Layer0$C$L0
 62
     3
 10
-47.3427034403
 20
69.0497823677
  0
SEQEND
  8
Layer0$C$L0
 62
     3
  0
ARC
  8
Layer0$C$L0
 62
     3
 10
-47.3427034403
 20
67.4352990208
 40
0.3000000000
 50
270.0000000000
 51
360.0000000000
  0
LINE
  8
Layer0$C$L0
 62
     3
 10
-47.0427034403
 20
71.1352990208
 11
-47.0427034403
 21
67.4352990208
  0
LINE
  8
Layer0$C$L0
 62
     3
 10
-56.7427034403
 20
67.1352990208
 11
-55.9427034403
 21
67.1352990208
  0
LINE
  8
Layer0$C$L0
 62
     3
 10
-49.0427034403
 20
107.6352990208
 11
-56.0427034403
 21
107.6352990208
  0
LINE
  8
Layer0$C$L0
 62
     3
 10
-49.0427034403
 20
102.4301611305
 11
-49.0427034403
 21
111.1408367932
  0
LINE
  8
Layer0$C$L0
 62
     3
 10
-56.0427034403
 20
111.3352990208
 11
-56.0427034403
 21
102.1883474775
  0
LINE
  8
Layer0$C$L0
 62
     3
 10
-56.0427034403
 20
102.6352990208
 11
-49.0427034403
 21
102.6352990208
  0
ARC
  8
Layer0$C$L0
 62
     3
 10
-52.0427034403
 20
87.8352990208
 40
14.9000000000
 50
105.5724328496
 51
127.2664041682
  0
ARC
  8
Layer0$C$L0
 62
     3
 10
-52.0427034403
 20
87.8352990208
 40
14.9000000000
 50
142.7325856918
 51
217.2672745033
  0
ARC
  8
Layer0$C$L0
 62
     3
 10
-52.0427034403
 20
87.8352990208
 40
14.9000000000
 50
232.7315221180
 51
307.2685470036
  0
ARC
  8
Layer0$C$L0
 62
     3
 10
-52.0427034403
 20
87.8352990208
 40
14.9000000000
 50
322.7302405063
 51
392.2772088592
  0
ARC
  8
Layer0$C$L0
 62
     3
 10
-52.0427034403
 20
87.8352990208
 40
14.9000000000
 50
47.7206856034
 51
78.3845369980
  0
LINE
  8
Layer0$C$L0
 62
     3
 10
-49.5427034403
 20
116.3352990208
 11
-57.5427034403
 21
116.3352990208
  0
ARC
  8
Layer0$C$L0
 62
     3
 10
-49.5427034403
 20
115.8352990208
 40
0.5000000000
 50
45.5315870482
 51
90.0000000000
  0
ARC
  8
Layer0$C$L0
 62
     3
 10
-52.0427034403
 20
87.8352990208
 40
28.5000000000
 50
60.7516416621
 51
85.1490977962
  0
ARC
  8
Layer0$C$L0
 62
     3
 10
-38.3620086592
 20
112.2655792138
 40
0.5000000000
 50
340.0000000000
 51
420.7516416621
  0
ARC
  8
Layer0$C$L0
 62
     3
 10
-52.0427034403
 20
87.8352990208
 40
23.5000000000
 50
59.1930771251
 51
85.0830762291
  0
LINE
  8
Layer0$C$L0
 62
     3
 10
-37.8921623488
 20
112.0945691421
 11
-42.5073450832
 21
99.4144587919
  0
ARC
  8
Layer0$C$L0
 62
     3
 10
-39.7511839208
 20
108.4488515507
 40
0.5000000000
 50
239.1930771251
 51
340.0000000000
  0
LINE
  8
Layer0$C$L0
 62
     3
 10
-49.9669468295
 20
116.2596061275
 11
-49.6326549346
 21
116.2332156029
  0
LINE
  8
Layer0$C$L0
 62
     3
 10
-50.0284898780
 20
111.2488195533
 11
-50.3569170027
 21
111.2747555863
  0
ARC
  8
Layer0$C$L0
 62
     3
 10
-52.0427034403
 20
87.8352990208
 40
23.5000000000
 50
85.8863199542
 51
90.0000000000
  0
ARC
  8
Layer0$C$L0
 62
     3
 10
-52.0427034403
 20
87.8352990208
 40
28.5000000000
 50
85.8232457787
 51
90.0000000000
  0
ARC
  8
Layer0$C$L0
 62
     3
 10
-52.0427034403
 20
87.8352990208
 40
15.0000000000
 50
50.5287793655
 51
58.4630409672
  0
LINE
  8
Layer0$C$L0
 62
     3
 10
-41.2519144607
 20
108.7113348801
 11
-44.1969765806
 21
100.6198432068
  0
ARC
  8
Layer0$C$L0
 62
     3
 10
-57.5427034403
 20
115.8352990208
 40
0.5000000000
 50
90.0000000000
 51
180.0000000000
  0
ARC
  8
Layer0$C$L0
 62
     3
 10
-52.0427034398
 20
87.8352990196
 40
15.0000000013
 50
111.5101882670
 51
113.5781784781
  0
LINE
  8
Layer0$C$L0
 62
     3
 10
-58.0427034403
 20
101.5830261057
 11
-58.0427034403
 21
115.8352990208
  0
ARC
  8
Layer0$C$L0
 62
     3
 10
-52.0427034403
 20
87.8352990208
 40
15.0000000000
 50
105.4660099534
 51
111.5101882669
  0
LINE
  8
Layer0$C$L0
 62
     3
 10
-56.0427034403
 20
111.3352990208
 11
-52.0427034403
 21
111.3352990208
  0
LINE
  8
Layer0$C$L0
 62
     3
 10
-38.6221967435
 20
94.5352990208
 11
-37.1427034403
 21
94.5352990208
  0
ARC
  8
Layer0$C$L0
 62
     3
 10
-52.0427034403
 20
87.8352990208
 40
16.5000000000
 50
35.6962996587
 51
52.3602986058
  0
LINE
  8
Layer0$C$L0
 62
     3
 10
-41.1894670171
 20
103.0352990208
 11
-38.6427034403
 21
103.0352990208
  0
LINE
  8
Layer0$C$L0
 62
     3
 10
-38.6427034403
 20
103.0352990208
 11
-38.6427034403
 21
97.4628636142
  0
ARC
  8
Layer0$C$L0
 62
     3
 10
-52.0427034403
 20
87.8352990208
 40
15.0000000000
 50
26.5300210180
 51
50.5287793655
  0
LINE
  8
Layer0$C$L0
 62
     3
 10
-65.4632101372
 20
81.1352990208
 11
-66.9427034403
 21
81.1352990208
  0
ARC
  8
Layer0$C$L0
 62
     3
 10
-52.0427034403
 20
87.8352990208
 40
15.0000000000
 50
206.5300210180
 51
333.4699789820
  0
LINE
  8
Layer0$C$L0
 62
     3
 10
-37.1427034403
 20
81.1352990208
 11
-38.6221967435
 21
81.1352990208
  0
LINE
  8
Layer0$C$L0
 62
     3
 10
-58.4622049786
 20
72.6352990208
 11
-65.4427034403
 21
72.6352990208
  0
LINE
  8
Layer0$C$L0
 62
     3
 10
-65.4427034403
 20
72.6352990208
 11
-65.4427034403
 21
78.2077344274
  0
ARC
  8
Layer0$C$L0
 62
     3
 10
-52.0427034403
 20
87.8352990208
 40
16.5000000000
 50
292.8960659882
 51
324.3037003413
  0
LINE
  8
Layer0$C$L0
 62
     3
 10
-38.6427034403
 20
78.2077344274
 11
-38.6427034403
 21
72.6352990208
  0
LINE
  8
Layer0$C$L0
 62
     3
 10
-38.6427034403
 20
72.6352990208
 11
-45.6232019020
 21
72.6352990208
  0
ARC
  8
Layer0$C$L0
 62
     3
 10
-52.0427034403
 20
87.8352990208
 40
16.5000000000
 50
215.6962996587
 51
247.1039340118
  0
LINE
  8
Layer0$C$L0
 62
     3
 10
-40.6435116657
 20
104.5352990208
 11
-37.6427034403
 21
104.5352990208
  0
LINE
  8
Layer0$C$L0
 62
     3
 10
-66.9427034403
 20
94.5352990208
 11
-65.4632101372
 21
94.5352990208
  0
LINE
  8
Layer0$C$L0
 62
     3
 10
-65.4427034403
 20
103.0352990208
 11
-58.4622049786
 21
103.0352990208
  0
LINE
  8
Layer0$C$L0
 62
     3
 10
-65.4427034403
 20
97.4628636142
 11
-65.4427034403
 21
103.0352990208
  0
ARC
  8
Layer0$C$L0
 62
     3
 10
-52.0427034403
 20
87.8352990208
 40
16.5000000000
 50
112.8960659882
 51
144.3037003413
  0
ARC
  8
Layer0$C$L0
 62
     3
 10
-52.0427034403
 20
87.8352990208
 40
15.0000000000
 50
113.5781784782
 51
153.4699789820
  0
ARC
  8
Layer0$C$L0
 62
     3
 10
-37.6427034403
 20
71.6352990208
 40
0.5000000000
 50
270.0000000000
 51
360.0000000000
  0
ARC
  8
Layer0$C$L0
 62
     3
 10
-37.6427034403
 20
104.0352990208
 40
0.5000000000
 50
0.0000000000
 51
90.0000000000
  0
ARC
  8
Layer0$C$L0
 62
     3
 10
-66.4427034403
 20
104.0352990208
 40
0.5000000000
 50
90.0000000000
 51
180.0000000000
  0
LINE
  8
Layer0$C$L0
 62
     3
 10
-37.6427034403
 20
71.1352990208
 11
-66.4427034403
 21
71.1352990208
  0
LINE
  8
Layer0$C$L0
 62
     3
 10
-37.1427034403
 20
106.1598726857
 11
-37.1427034403
 21
71.6352990208
  0
LINE
  8
Layer0$C$L0
 62
     3
 10
-66.9427034403
 20
81.1352990208
 11
-66.9427034403
 21
106.1598726857
  0
ARC
  8
Layer0$C$L0
 62
     3
 10
-66.4427034403
 20
71.6352990208
 40
0.5000000000
 50
180.0000000000
 51
270.0000000000
  0
LINE
  8
Layer0$C$L0
 62
     3
 10
-66.9427034403
 20
71.6352990208
 11
-66.9427034403
 21
81.1352990208
  0
LINE
  8
Layer0$C$L0
 62
     3
 10
-66.4427034403
 20
104.5352990208
 11
-58.0427034403
 21
104.5352990208
  0
LINE
  8
Layer0$C$L0
 62
     3
 10
-39.3690588660
 20
95.8589349301
 11
-39.8330014044
 21
95.4696409173
  0
ARC
  8
Layer0$C$L0
 62
     3
 10
-52.0427034403
 20
87.8352990208
 40
14.4000000000
 50
32.0164438544
 51
47.9835561456
  0
LINE
  8
Layer0$C$L0
 62
     3
 10
-42.4041518431
 20
98.5338186898
 11
-41.9402093048
 21
98.9231127026
  0
LINE
  8
Layer0$C$L0
 62
     3
 10
-42.9450189819
 20
75.9091874376
 11
-43.3732668699
 21
76.3374353257
  0
ARC
  8
Layer0$C$L0
 62
     3
 10
-52.0427034403
 20
87.8352990208
 40
14.4000000000
 50
307.0164438544
 51
322.9835561456
  0
LINE
  8
Layer0$C$L0
 62
     3
 10
-40.5448397452
 20
79.1658624504
 11
-40.1165918571
 21
78.7376145624
  0
ARC
  8
Layer0$C$L0
 62
     3
 10
-52.0427034403
 20
87.8352990208
 40
14.4000000000
 50
217.0164438544
 51
232.9835561456
  0
LINE
  8
Layer0$C$L0
 62
     3
 10
-60.7121400107
 20
76.3374353257
 11
-61.1403878988
 21
75.9091874376
  0
LINE
  8
Layer0$C$L0
 62
     3
 10
-63.9688150235
 20
78.7376145624
 11
-63.5405671355
 21
79.1658624504
  0
ARC
  8
Layer0$C$L0
 62
     3
 10
-52.0427034403
 20
87.8352990208
 40
14.4000000000
 50
127.0164438544
 51
142.9835561456
  0
LINE
  8
Layer0$C$L0
 62
     3
 10
-61.1403878988
 20
99.7614106040
 11
-60.7121400107
 21
99.3331627160
  0
LINE
  8
Layer0$C$L0
 62
     3
 10
-63.5405671355
 20
96.5047355912
 11
-63.9688150235
 21
96.9329834793
  0
LINE
  8
Layer0$C$L0
 62
     3
 10
-48.5568892904
 20
110.5696144869
 11
-48.3825828108
 21
111.0485176037
  0
POLYLINE
  8
Layer0$C$L0
 62
     3
 66
     1
  0
VERTEX
  8
Layer0$C$L0
 62
     3
 10
-49.0427034403
 20
110.6388075228
  0
VERTEX
  8
Layer0$C$L0
 62
     3
 10
-48.9898531431
 20
110.6317922832
  0
VERTEX
  8
Layer0$C$L0
 62
     3
 10
-48.5568892904
 20
110.5696144869
  0
SEQEND
  8
Layer0$C$L0
 62
     3
  0
LINE
  8
Layer0$C$L0
 62
     3
 10
-48.5568892904
 20
110.5696144869
 11
-48.5297679248
 21
110.0593689465
  0
POLYLINE
  8
Layer0$C$L0
 62
     3
 66
     1
  0
VERTEX
  8
Layer0$C$L0
 62
     3
 10
-48.5297679248
 20
110.0593689465
  0
VERTEX
  8
Layer0$C$L0
 62
     3
 10
-48.9659281299
 20
110.1239385865
  0
VERTEX
  8
Layer0$C$L0
 62
     3
 10
-49.0427034403
 20
110.1344021418
  0
SEQEND
  8
Layer0$C$L0
 62
     3
  0
LINE
  8
Layer0$C$L0
 62
     3
 10
-47.7298500216
 20
109.9180818026
 11
-47.3837976981
 21
110.8688527476
  0
POLYLINE
  8
Layer0$C$L0
 62
     3
 66
     1
  0
VERTEX
  8
Layer0$C$L0
 62
     3
 10
-47.7298500216
 20
109.9180818026
  0
VERTEX
  8
Layer0$C$L0
 62
     3
 10
-48.1291713241
 20
109.9923355189
  0
VERTEX
  8
Layer0$C$L0
 62
     3
 10
-48.5297679248
 20
110.0593689465
  0
SEQEND
  8
Layer0$C$L0
 62
     3
  0
ARC
  8
Layer0$C$L0
 62
     3
 10
-52.0427034403
 20
87.8352990208
 40
24.0000000000
 50
104.4775121859
 51
127.1819265256
  0
ARC
  8
Layer0$C$L0
 62
     3
 10
-52.0427034403
 20
87.8352990208
 40
20.0000000000
 50
61.3730734413
 51
69.2065556195
  0
ARC
  8
Layer0$C$L0
 62
     3
 10
-45.4427034403
 20
109.8680019871
 40
0.5000000000
 50
0.0000000000
 51
73.3241651487
  0
LINE
  8
Layer0$C$L0
 62
     3
 10
-44.9427034403
 20
106.5326250329
 11
-44.9427034403
 21
109.8680019871
  0
LINE
  8
Layer0$C$L0
 62
     3
 10
-43.5904246719
 20
75.5646436340
 11
-43.5185317922
 21
75.4927507543
  0
LINE
  8
Layer0$C$L0
 62
     3
 10
-64.3133588271
 20
79.3830202524
 11
-64.3852517069
 21
79.3111273727
  0
LINE
  8
Layer0$C$L0
 62
     3
 10
-60.4949822087
 20
100.1059544076
 11
-60.5668750885
 21
100.1778472874
  0
LINE
  8
Layer0$C$L0
 62
     3
 10
-39.7001551738
 20
79.3111273727
 11
-39.7720480535
 21
79.3830202524
  0
LINE
  8
Layer0$C$L0
 62
     3
 10
-60.5668750885
 20
75.4927507543
 11
-60.4949822087
 21
75.5646436340
  0
LINE
  8
Layer0$C$L0
 62
     3
 10
-64.3852517069
 20
96.3594706690
 11
-64.3133588271
 21
96.2875777892
  0
LINE
  8
Layer0$C$L0
 62
     3
 10
-39.0820769679
 20
95.1859562324
 11
-39.0041917849
 21
95.2513096608
  0
LINE
  8
Layer0$C$L0
 62
     3
 10
-42.4752448772
 20
99.3879496536
 11
-42.5531300602
 21
99.3225962253
  0
ARC
  8
Layer0$C$L0
 62
     3
 10
-65.9427034403
 20
106.1598726857
 40
1.0000000000
 50
127.1819265256
 51
180.0000000000
  0
ARC
  8
Layer0$C$L0
 62
     3
 10
9.3981576932
 20
14.0031393994
 40
104.4929426981
 50
116.8901211385
 51
117.1979402138
  0
ARC
  8
Layer0$C$L0
 62
     3
 10
-52.0427034403
 20
87.8352990208
 40
24.0000000000
 50
52.8180734744
 51
53.7817777110
  0
LINE
  8
Layer0$C$L0
 62
     3
 10
-37.8620086592
 20
112.2655792138
 11
-37.8620086592
 21
107.1978374785
  0
ARC
  8
Layer0$C$L0
 62
     3
 10
-38.1427034403
 20
106.1598726857
 40
1.0000000000
 50
0.0000000000
 51
52.8180734744
  0
LINE
  8
Layer0$C$L0
 62
     3
 10
-56.3427034403
 20
70.5352990208
 11
-53.9427034403
 21
70.5352990208
  0
LINE
  8
Layer0$C$L0
 62
     3
 10
-53.9427034403
 20
69.9352990208
 11
-53.9427034403
 21
71.1352990208
  0
LINE
  8
Layer0$C$L0
 62
     3
 10
-56.3427034403
 20
69.9352990208
 11
-56.3427034403
 21
71.1352990208
  0
LINE
  8
Layer0$C$L0
 62
     3
 10
-60.1427034403
 20
70.5352990208
 11
-57.7427034403
 21
70.5352990208
  0
LINE
  8
Layer0$C$L0
 62
     3
 10
-60.1427034403
 20
71.1352990208
 11
-60.1427034403
 21
69.9352990208
  0
LINE
  8
Layer0$C$L0
 62
     3
 10
-57.7427034403
 20
71.1352990208
 11
-57.7427034403
 21
69.9352990208
  0
LINE
  8
Layer0$C$L0
 62
     3
 10
-43.9427034403
 20
69.9352990208
 11
-43.9427034403
 21
71.1352990208
  0
LINE
  8
Layer0$C$L0
 62
     3
 10
-46.3427034403
 20
70.5352990208
 11
-43.9427034403
 21
70.5352990208
  0
LINE
  8
Layer0$C$L0
 62
     3
 10
-46.3427034403
 20
69.9352990208
 11
-46.3427034403
 21
71.1352990208
  0
LINE
  8
Layer0$C$L0
 62
     3
 10
-50.1427034403
 20
70.5352990208
 11
-47.7427034403
 21
70.5352990208
  0
LINE
  8
Layer0$C$L0
 62
     3
 10
-50.1427034403
 20
71.1352990208
 11
-50.1427034403
 21
69.9352990208
  0
LINE
  8
Layer0$C$L0
 62
     3
 10
-47.7427034403
 20
71.1352990208
 11
-47.7427034403
 21
69.9352990208
  0
LINE
  8
Layer0$C$L0
 62
     3
 10
-40.1427034403
 20
70.5352990208
 11
-37.7427034403
 21
70.5352990208
  0
LINE
  8
Layer0$C$L0
 62
     3
 10
-40.1427034403
 20
71.1352990208
 11
-40.1427034403
 21
69.9352990208
  0
LINE
  8
Layer0$C$L0
 62
     3
 10
-37.7427034403
 20
71.1352990208
 11
-37.7427034403
 21
69.9352990208
  0
LINE
  8
Layer0$C$L0
 62
     3
 10
-66.3427034403
 20
70.5352990208
 11
-63.9427034403
 21
70.5352990208
  0
LINE
  8
Layer0$C$L0
 62
     3
 10
-63.9427034403
 20
69.9352990208
 11
-63.9427034403
 21
71.1352990208
  0
LINE
  8
Layer0$C$L0
 62
     3
 10
-66.3427034403
 20
69.9352990208
 11
-66.3427034403
 21
71.1352990208
  0
LINE
  8
Layer0$C$L0
 62
     3
 10
-50.1427034403
 20
69.9352990208
 11
-56.3427034403
 21
69.9352990208
  0
LINE
  8
Layer0$C$L0
 62
     3
 10
-57.7427034403
 20
69.9352990208
 11
-66.3427034403
 21
69.9352990208
  0
LINE
  8
Layer0$C$L0
 62
     3
 10
-37.7427034403
 20
69.9352990208
 11
-46.3427034403
 21
69.9352990208
  0
LINE
  8
Layer0$C$L0
 62
     3
 10
-47.7427034403
 20
69.9352990208
 11
-50.1427034403
 21
69.9352990208
  0
LINE
  8
Layer0$C$L0
 62
     3
 10
-43.1213806685
 20
105.7352990208
 11
-42.3351029295
 21
105.7352990208
  0
LINE
  8
Layer0$C$L0
 62
     3
 10
-111.4953820507
 20
170.0522371573
 11
-112.2953820507
 21
170.0522371573
  0
LINE
  8
Layer0$C$L0
 62
     3
 10
-112.2953820507
 20
142.2522371573
 11
-111.4953820507
 21
142.2522371573
  0
LINE
  8
Layer0$C$L0
 62
     3
 10
-116.4953820507
 20
142.7522371573
 11
-116.4116798195
 21
142.7522371573
  0
LINE
  8
Layer0$C$L0
 62
     3
 10
-110.6953820507
 20
167.1522371573
 11
-111.4953820507
 21
167.1522371573
  0
LINE
  8
Layer0$C$L0
 62
     3
 10
-111.4953820507
 20
145.1522371573
 11
-110.6953820507
 21
145.1522371573
  0
LINE
  8
Layer0$C$L0
 62
     3
 10
-117.2953820507
 20
145.1522371573
 11
-116.4953820507
 21
145.1522371573
  0
LINE
  8
Layer0$C$L0
 62
     3
 10
-141.1453820507
 20
153.0522371573
 11
-140.0953820507
 21
153.0522371573
  0
LINE
  8
Layer0$C$L0
 62
     3
 10
-140.0953820507
 20
159.2522371573
 11
-141.1453820507
 21
159.2522371573
  0
LINE
  8
Layer0$C$L0
 62
     3
 10
-141.1453820507
 20
159.1522371573
 11
-142.1953820507
 21
159.0603740606
  0
LINE
  8
Layer0$C$L0
 62
     3
 10
-142.1953820507
 20
153.2441002540
 11
-141.1453820507
 21
153.1522371573
  0
LINE
  8
Layer0$C$L0
 62
     3
 10
-138.5953820507
 20
157.9022371573
 11
-138.6577432132
 21
157.9022371573
  0
LINE
  8
Layer0$C$L0
 62
     3
 10
-138.6577432132
 20
154.4022371573
 11
-138.5953820507
 21
154.4022371573
  0
LINE
  8
Layer0$C$L0
 62
     3
 10
-138.6577432132
 20
157.9022371573
 11
-138.8453820507
 21
157.5772371573
  0
LINE
  8
Layer0$C$L0
 62
     3
 10
-138.8453820507
 20
154.7272371573
 11
-138.6577432132
 21
154.4022371573
  0
LINE
  8
Layer0$C$L0
 62
     3
 10
-138.8453820507
 20
157.4522371573
 11
-139.0953820507
 21
157.4522371573
  0
LINE
  8
Layer0$C$L0
 62
     3
 10
-139.0953820507
 20
154.8522371573
 11
-138.8453820507
 21
154.8522371573
  0
LINE
  8
Layer0$C$L0
 62
     3
 10
-114.6953820507
 20
170.3329319384
 11
-122.2953820507
 21
170.3329319384
  0
ARC
  8
Layer0$C$L0
 62
     3
 10
-114.6953820507
 20
169.8329319384
 40
0.5000000000
 50
0.0000000000
 51
90.0000000000
  0
ARC
  8
Layer0$C$L0
 62
     3
 10
-129.6953820507
 20
167.5522371573
 40
0.3000000000
 50
90.0000000000
 51
180.0000000000
  0
LINE
  8
Layer0$C$L0
 62
     3
 10
-129.6953820507
 20
167.8522371573
 11
-127.1953820507
 21
167.8522371573
  0
LINE
  8
Layer0$C$L0
 62
     3
 10
-127.1953820507
 20
164.4522371573
 11
-129.6953820507
 21
164.4522371573
  0
ARC
  8
Layer0$C$L0
 62
     3
 10
-129.6953820507
 20
164.7522371573
 40
0.3000000000
 50
180.0000000000
 51
270.0000000000
  0
LINE
  8
Layer0$C$L0
 62
     3
 10
-128.2953820507
 20
171.0522371573
 11
-128.2953820507
 21
170.4522371573
  0
LINE
  8
Layer0$C$L0
 62
     3
 10
-128.2953820507
 20
168.0522371573
 11
-128.2953820507
 21
167.8522371573
  0
ARC
  8
Layer0$C$L0
 62
     3
 10
-135.7953820507
 20
170.6522371573
 40
0.5000000000
 50
90.0000000000
 51
180.0000000000
  0
LINE
  8
Layer0$C$L0
 62
     3
 10
-135.7953820507
 20
171.1522371573
 11
-128.9153820507
 21
171.1522371573
  0
ARC
  8
Layer0$C$L0
 62
     3
 10
-128.9153820507
 20
170.5322371573
 40
0.6200000000
 50
0.0000000000
 51
90.0000000000
  0
LINE
  8
Layer0$C$L0
 62
     3
 10
-136.2953820507
 20
161.6522371573
 11
-136.2953820507
 21
170.6522371573
  0
LINE
  8
Layer0$C$L0
 62
     3
 10
-128.2953820507
 20
164.4522371573
 11
-128.2953820507
 21
164.2522371573
  0
LINE
  8
Layer0$C$L0
 62
     3
 10
-128.2953820507
 20
161.8522371573
 11
-128.2953820507
 21
160.4522371573
  0
ARC
  8
Layer0$C$L0
 62
     3
 10
-135.7953820507
 20
161.6522371573
 40
0.5000000000
 50
180.0000000000
 51
270.0000000000
  0
ARC
  8
Layer0$C$L0
 62
     3
 10
-128.9153820507
 20
161.7722371573
 40
0.6200000000
 50
270.0000000000
 51
360.0000000000
  0
LINE
  8
Layer0$C$L0
 62
     3
 10
-127.1953820507
 20
167.8522371573
 11
-125.7953820507
 21
167.8522371573
  0
LINE
  8
Layer0$C$L0
 62
     3
 10
-125.7953820507
 20
164.4522371573
 11
-127.1953820507
 21
164.4522371573
  0
ARC
  8
Layer0$C$L0
 62
     3
 10
-129.6953820507
 20
147.5522371573
 40
0.3000000000
 50
90.0000000000
 51
180.0000000000
  0
LINE
  8
Layer0$C$L0
 62
     3
 10
-129.6953820507
 20
147.8522371573
 11
-127.1953820507
 21
147.8522371573
  0
LINE
  8
Layer0$C$L0
 62
     3
 10
-127.1953820507
 20
144.4522371573
 11
-129.6953820507
 21
144.4522371573
  0
ARC
  8
Layer0$C$L0
 62
     3
 10
-129.6953820507
 20
144.7522371573
 40
0.3000000000
 50
180.0000000000
 51
270.0000000000
  0
LINE
  8
Layer0$C$L0
 62
     3
 10
-128.2953820507
 20
151.4522371573
 11
-128.2953820507
 21
150.4522371573
  0
LINE
  8
Layer0$C$L0
 62
     3
 10
-128.2953820507
 20
148.0522371573
 11
-128.2953820507
 21
147.8522371573
  0
ARC
  8
Layer0$C$L0
 62
     3
 10
-135.7953820507
 20
150.6522371573
 40
0.5000000000
 50
90.0000000000
 51
180.0000000000
  0
ARC
  8
Layer0$C$L0
 62
     3
 10
-128.9153820507
 20
150.5322371573
 40
0.6200000000
 50
0.0000000000
 51
90.0000000000
  0
LINE
  8
Layer0$C$L0
 62
     3
 10
-136.2953820507
 20
141.6522371573
 11
-136.2953820507
 21
150.6522371573
  0
LINE
  8
Layer0$C$L0
 62
     3
 10
-128.2953820507
 20
144.4522371573
 11
-128.2953820507
 21
144.2522371573
  0
LINE
  8
Layer0$C$L0
 62
     3
 10
-128.2953820507
 20
141.8522371573
 11
-128.2953820507
 21
141.2522371573
  0
ARC
  8
Layer0$C$L0
 62
     3
 10
-135.7953820507
 20
141.6522371573
 40
0.5000000000
 50
180.0000000000
 51
270.0000000000
  0
ARC
  8
Layer0$C$L0
 62
     3
 10
-128.9153820507
 20
141.7722371573
 40
0.6200000000
 50
270.0000000000
 51
360.0000000000
  0
LINE
  8
Layer0$C$L0
 62
     3
 10
-128.9153820507
 20
141.1522371573
 11
-135.7953820507
 21
141.1522371573
  0
LINE
  8
Layer0$C$L0
 62
     3
 10
-127.1953820507
 20
147.8522371573
 11
-125.7953820507
 21
147.8522371573
  0
LINE
  8
Layer0$C$L0
 62
     3
 10
-125.7953820507
 20
144.4522371573
 11
-127.1953820507
 21
144.4522371573
  0
LINE
  8
Layer0$C$L0
 62
     3
 10
-150.5953820507
 20
160.1522371573
 11
-149.8214025577
 21
160.1522371573
  0
LINE
  8
Layer0$C$L0
 62
     3
 10
-150.5953820507
 20
151.4522371573
 11
-150.5953820507
 21
160.8522371573
  0
LINE
  8
Layer0$C$L0
 62
     3
 10
-147.9685328074
 20
160.0522371573
 11
-147.9685328074
 21
160.8522371573
  0
LINE
  8
Layer0$C$L0
 62
     3
 10
-147.9685328074
 20
151.4522371573
 11
-147.9685328074
 21
152.2522371573
  0
LINE
  8
Layer0$C$L0
 62
     3
 10
-150.5953820507
 20
151.9522371573
 11
-149.8214025577
 21
151.9522371573
  0
LINE
  8
Layer0$C$L0
 62
     3
 10
-149.8214025577
 20
160.1522371573
 11
-149.8214025577
 21
151.9522371573
  0
LINE
  8
Layer0$C$L0
 62
     3
 10
-136.5953820507
 20
160.0522371573
 11
-136.5953820507
 21
160.8522371573
  0
POLYLINE
  8
Layer0$C$L0
 62
     3
 66
     1
  0
VERTEX
  8
Layer0$C$L0
 62
     3
 10
-147.9685328074
 20
160.8522371573
  0
VERTEX
  8
Layer0$C$L0
 62
     3
 10
-147.9655730192
 20
160.9043316106
  0
VERTEX
  8
Layer0$C$L0
 62
     3
 10
-147.9567835864
 20
160.9548432003
  0
VERTEX
  8
Layer0$C$L0
 62
     3
 10
-147.9424315714
 20
161.0022371573
  0
VERTEX
  8
Layer0$C$L0
 62
     3
 10
-147.9229530529
 20
161.0450734402
  0
VERTEX
  8
Layer0$C$L0
 62
     3
 10
-147.8989398758
 20
161.0820504902
  0
VERTEX
  8
Layer0$C$L0
 62
     3
 10
-147.8711216684
 20
161.1120447784
  0
VERTEX
  8
Layer0$C$L0
 62
     3
 10
-147.8403436729
 20
161.1341449435
  0
VERTEX
  8
Layer0$C$L0
 62
     3
 10
-147.8075410630
 20
161.1476794832
  0
VERTEX
  8
Layer0$C$L0
 62
     3
 10
-147.7737105294
 20
161.1522371573
  0
SEQEND
  8
Layer0$C$L0
 62
     3
  0
LINE
  8
Layer0$C$L0
 62
     3
 10
-150.2953820507
 20
161.1522371573
 11
-128.5953820507
 21
161.1522371573
  0
ARC
  8
Layer0$C$L0
 62
     3
 10
-136.9822125663
 20
160.9267908367
 40
0.3939493608
 50
349.0911649317
 51
394.9088350683
  0
ARC
  8
Layer0$C$L0
 62
     3
 10
-132.5953820507
 20
160.8522371573
 40
0.3000000000
 50
0.0000000000
 51
90.0000000000
  0
ARC
  8
Layer0$C$L0
 62
     3
 10
-150.2953820507
 20
160.8522371573
 40
0.3000000000
 50
90.0000000000
 51
180.0000000000
  0
ARC
  8
Layer0$C$L0
 62
     3
 10
-136.9822125663
 20
159.9776834778
 40
0.3939493608
 50
325.0911649317
 51
370.9088350683
  0
LINE
  8
Layer0$C$L0
 62
     3
 10
-132.5953820507
 20
159.7522371573
 11
-149.1984423224
 21
159.7522371573
  0
POLYLINE
  8
Layer0$C$L0
 62
     3
 66
     1
  0
VERTEX
  8
Layer0$C$L0
 62
     3
 10
-147.9685328074
 20
160.0522371573
  0
VERTEX
  8
Layer0$C$L0
 62
     3
 10
-147.9655730192
 20
160.0001427040
  0
VERTEX
  8
Layer0$C$L0
 62
     3
 10
-147.9567835864
 20
159.9496311143
  0
VERTEX
  8
Layer0$C$L0
 62
     3
 10
-147.9424315714
 20
159.9022371573
  0
VERTEX
  8
Layer0$C$L0
 62
     3
 10
-147.9229530529
 20
159.8594008744
  0
VERTEX
  8
Layer0$C$L0
 62
     3
 10
-147.8989398758
 20
159.8224238243
  0
VERTEX
  8
Layer0$C$L0
 62
     3
 10
-147.8711216684
 20
159.7924295362
  0
VERTEX
  8
Layer0$C$L0
 62
     3
 10
-147.8403436729
 20
159.7703293710
  0
VERTEX
  8
Layer0$C$L0
 62
     3
 10
-147.8075410630
 20
159.7567948314
  0
VERTEX
  8
Layer0$C$L0
 62
     3
 10
-147.7737105294
 20
159.7522371573
  0
SEQEND
  8
Layer0$C$L0
 62
     3
  0
ARC
  8
Layer0$C$L0
 62
     3
 10
-149.1314808564
 20
160.2527672290
 40
0.5152198543
 50
202.9055154687
 51
247.0944845313
  0
ARC
  8
Layer0$C$L0
 62
     3
 10
-149.1988197397
 20
160.1071914220
 40
0.3549544654
 50
247.9611881979
 51
270.0609216773
  0
LINE
  8
Layer0$C$L0
 62
     3
 10
-132.2953820507
 20
151.4522371573
 11
-132.2953820507
 21
160.8522371573
  0
ARC
  8
Layer0$C$L0
 62
     3
 10
-132.5953820507
 20
160.0522371573
 40
0.3000000000
 50
270.0000000000
 51
360.0000000000
  0
ARC
  8
Layer0$C$L0
 62
     3
 10
-136.9960545353
 20
152.3238486354
 40
0.4070216747
 50
349.8666229632
 51
394.1333770368
  0
LINE
  8
Layer0$C$L0
 62
     3
 10
-149.1984423224
 20
152.5522371573
 11
-132.5953820507
 21
152.5522371573
  0
ARC
  8
Layer0$C$L0
 62
     3
 10
-132.5953820507
 20
152.2522371573
 40
0.3000000000
 50
0.0000000000
 51
90.0000000000
  0
POLYLINE
  8
Layer0$C$L0
 62
     3
 66
     1
  0
VERTEX
  8
Layer0$C$L0
 62
     3
 10
-147.9685328074
 20
152.2522371573
  0
VERTEX
  8
Layer0$C$L0
 62
     3
 10
-147.9655730192
 20
152.3043316106
  0
VERTEX
  8
Layer0$C$L0
 62
     3
 10
-147.9567835864
 20
152.3548432003
  0
VERTEX
  8
Layer0$C$L0
 62
     3
 10
-147.9424315714
 20
152.4022371573
  0
VERTEX
  8
Layer0$C$L0
 62
     3
 10
-147.9229530529
 20
152.4450734402
  0
VERTEX
  8
Layer0$C$L0
 62
     3
 10
-147.8989398758
 20
152.4820504902
  0
VERTEX
  8
Layer0$C$L0
 62
     3
 10
-147.8711216684
 20
152.5120447784
  0
VERTEX
  8
Layer0$C$L0
 62
     3
 10
-147.8403436729
 20
152.5341449435
  0
VERTEX
  8
Layer0$C$L0
 62
     3
 10
-147.8075410630
 20
152.5476794832
  0
VERTEX
  8
Layer0$C$L0
 62
     3
 10
-147.7737105294
 20
152.5522371573
  0
SEQEND
  8
Layer0$C$L0
 62
     3
  0
ARC
  8
Layer0$C$L0
 62
     3
 10
-149.1314808564
 20
152.0517070856
 40
0.5152198543
 50
112.9055154687
 51
157.0944845313
  0
ARC
  8
Layer0$C$L0
 62
     3
 10
-149.1988197397
 20
152.1972828925
 40
0.3549544654
 50
89.9390783227
 51
112.0388118021
  0
LINE
  8
Layer0$C$L0
 62
     3
 10
-136.5953820507
 20
151.4522371573
 11
-136.5953820507
 21
152.2522371573
  0
LINE
  8
Layer0$C$L0
 62
     3
 10
-136.6591490192
 20
151.1522371573
 11
-150.2953820507
 21
151.1522371573
  0
ARC
  8
Layer0$C$L0
 62
     3
 10
-150.2953820507
 20
151.4522371573
 40
0.3000000000
 50
180.0000000000
 51
270.0000000000
  0
POLYLINE
  8
Layer0$C$L0
 62
     3
 66
     1
  0
VERTEX
  8
Layer0$C$L0
 62
     3
 10
-147.7737105294
 20
151.1522371573
  0
VERTEX
  8
Layer0$C$L0
 62
     3
 10
-147.8075410630
 20
151.1567948314
  0
VERTEX
  8
Layer0$C$L0
 62
     3
 10
-147.8403436729
 20
151.1703293710
  0
VERTEX
  8
Layer0$C$L0
 62
     3
 10
-147.8711216684
 20
151.1924295362
  0
VERTEX
  8
Layer0$C$L0
 62
     3
 10
-147.8989398758
 20
151.2224238243
  0
VERTEX
  8
Layer0$C$L0
 62
     3
 10
-147.9229530529
 20
151.2594008744
  0
VERTEX
  8
Layer0$C$L0
 62
     3
 10
-147.9424315714
 20
151.3022371573
  0
VERTEX
  8
Layer0$C$L0
 62
     3
 10
-147.9567835864
 20
151.3496311143
  0
VERTEX
  8
Layer0$C$L0
 62
     3
 10
-147.9655730192
 20
151.4001427040
  0
VERTEX
  8
Layer0$C$L0
 62
     3
 10
-147.9685328074
 20
151.4522371573
  0
SEQEND
  8
Layer0$C$L0
 62
     3
  0
LINE
  8
Layer0$C$L0
 62
     3
 10
-128.5953820507
 20
151.1522371573
 11
-136.6591490192
 21
151.1522371573
  0
ARC
  8
Layer0$C$L0
 62
     3
 10
-136.9960545353
 20
151.3806256792
 40
0.4070216747
 50
325.8666229632
 51
370.1333770368
  0
ARC
  8
Layer0$C$L0
 62
     3
 10
-132.5953820507
 20
151.4522371573
 40
0.3000000000
 50
270.0000000000
 51
360.0000000000
  0
LINE
  8
Layer0$C$L0
 62
     3
 10
-133.7953820507
 20
152.5522371573
 11
-133.7953820507
 21
159.7522371573
  0
LINE
  8
Layer0$C$L0
 62
     3
 10
-138.4953820507
 20
159.7522371573
 11
-138.4953820507
 21
152.5522371573
  0
LINE
  8
Layer0$C$L0
 62
     3
 10
-147.0953820507
 20
158.1522371573
 11
-145.0953820507
 21
158.1522371573
  0
LINE
  8
Layer0$C$L0
 62
     3
 10
-147.0953820507
 20
154.1522371573
 11
-147.0953820507
 21
158.1522371573
  0
LINE
  8
Layer0$C$L0
 62
     3
 10
-145.0953820507
 20
154.1522371573
 11
-147.0953820507
 21
154.1522371573
  0
LINE
  8
Layer0$C$L0
 62
     3
 10
-145.0953820507
 20
158.1522371573
 11
-145.0953820507
 21
154.1522371573
  0
LINE
  8
Layer0$C$L0
 62
     3
 10
-142.5953820507
 20
152.5522371573
 11
-142.5953820507
 21
159.7522371573
  0
ARC
  8
Layer0$C$L0
 62
     3
 10
-129.6953820507
 20
157.5522371573
 40
0.3000000000
 50
90.0000000000
 51
180.0000000000
  0
LINE
  8
Layer0$C$L0
 62
     3
 10
-129.6953820507
 20
157.8522371573
 11
-125.7953820507
 21
157.8522371573
  0
LINE
  8
Layer0$C$L0
 62
     3
 10
-125.7953820507
 20
154.4522371573
 11
-129.6953820507
 21
154.4522371573
  0
ARC
  8
Layer0$C$L0
 62
     3
 10
-129.6953820507
 20
154.7522371573
 40
0.3000000000
 50
180.0000000000
 51
270.0000000000
  0
POLYLINE
  8
Layer0$C$L0
 62
     3
 66
     1
  0
VERTEX
  8
Layer0$C$L0
 62
     3
 10
-127.0196461194
 20
157.8522371573
  0
VERTEX
  8
Layer0$C$L0
 62
     3
 10
-126.9980678904
 20
157.8476794832
  0
VERTEX
  8
Layer0$C$L0
 62
     3
 10
-126.9771453048
 20
157.8341449435
  0
VERTEX
  8
Layer0$C$L0
 62
     3
 10
-126.9575140851
 20
157.8120447784
  0
VERTEX
  8
Layer0$C$L0
 62
     3
 10
-126.9397707157
 20
157.7820504902
  0
VERTEX
  8
Layer0$C$L0
 62
     3
 10
-126.9244543201
 20
157.7450734402
  0
VERTEX
  8
Layer0$C$L0
 62
     3
 10
-126.9120302792
 20
157.7022371573
  0
VERTEX
  8
Layer0$C$L0
 62
     3
 10
-126.9028760910
 20
157.6548432003
  0
VERTEX
  8
Layer0$C$L0
 62
     3
 10
-126.8972699011
 20
157.6043316106
  0
VERTEX
  8
Layer0$C$L0
 62
     3
 10
-126.8953820507
 20
157.5522371573
  0
SEQEND
  8
Layer0$C$L0
 62
     3
  0
LINE
  8
Layer0$C$L0
 62
     3
 10
-126.8953820507
 20
157.5522371573
 11
-126.8953820507
 21
154.7522371573
  0
POLYLINE
  8
Layer0$C$L0
 62
     3
 66
     1
  0
VERTEX
  8
Layer0$C$L0
 62
     3
 10
-127.0196461194
 20
154.4522371573
  0
VERTEX
  8
Layer0$C$L0
 62
     3
 10
-126.9954034023
 20
154.4580015732
  0
VERTEX
  8
Layer0$C$L0
 62
     3
 10
-126.9720923191
 20
154.4750732975
  0
VERTEX
  8
Layer0$C$L0
 62
     3
 10
-126.9506087018
 20
154.5027962736
  0
VERTEX
  8
Layer0$C$L0
 62
     3
 10
-126.9317781538
 20
154.5401051229
  0
VERTEX
  8
Layer0$C$L0
 62
     3
 10
-126.9163243224
 20
154.5855660874
  0
VERTEX
  8
Layer0$C$L0
 62
     3
 10
-126.9048410897
 20
154.6374321276
  0
VERTEX
  8
Layer0$C$L0
 62
     3
 10
-126.8977697500
 20
154.6937100607
  0
VERTEX
  8
Layer0$C$L0
 62
     3
 10
-126.8953820507
 20
154.7522371573
  0
SEQEND
  8
Layer0$C$L0
 62
     3
  0
ARC
  8
Layer0$C$L0
 62
     3
 10
-128.5953820507
 20
160.8522371573
 40
0.3000000000
 50
0.0000000000
 51
90.0000000000
  0
LINE
  8
Layer0$C$L0
 62
     3
 10
-128.2953820507
 20
158.0522371573
 11
-128.2953820507
 21
157.8522371573
  0
LINE
  8
Layer0$C$L0
 62
     3
 10
-128.2953820507
 20
154.4522371573
 11
-128.2953820507
 21
154.2522371573
  0
LINE
  8
Layer0$C$L0
 62
     3
 10
-128.2953820507
 20
151.8522371573
 11
-128.2953820507
 21
151.4522371573
  0
ARC
  8
Layer0$C$L0
 62
     3
 10
-128.5953820507
 20
151.4522371573
 40
0.3000000000
 50
270.0000000000
 51
360.0000000000
  0
LINE
  8
Layer0$C$L0
 62
     3
 10
-146.2953820507
 20
157.9522371573
 11
-146.2953820507
 21
154.3522371573
  0
LINE
  8
Layer0$C$L0
 62
     3
 10
-145.2953820507
 20
154.3522371573
 11
-147.0953820507
 21
154.3522371573
  0
LINE
  8
Layer0$C$L0
 62
     3
 10
-147.0953820507
 20
157.9522371573
 11
-145.2953820507
 21
157.9522371573
  0
LINE
  8
Layer0$C$L0
 62
     3
 10
-145.2953820507
 20
157.9522371573
 11
-145.2953820507
 21
154.3522371573
  0
LINE
  8
Layer0$C$L0
 62
     3
 10
-149.8830161542
 20
151.9522371573
 11
-149.8830161542
 21
160.1522371573
  0
LINE
  8
Layer0$C$L0
 62
     3
 10
-142.5953820507
 20
159.6522371573
 11
-138.4953820507
 21
159.6522371573
  0
LINE
  8
Layer0$C$L0
 62
     3
 10
-150.7953820507
 20
155.1101522152
 11
-150.5953820507
 21
155.1101522152
  0
LINE
  8
Layer0$C$L0
 62
     3
 10
-150.7953820507
 20
157.6149784700
 11
-150.7953820507
 21
155.0956734507
  0
LINE
  8
Layer0$C$L0
 62
     3
 10
-150.7953820507
 20
157.6149784700
 11
-150.5953820507
 21
157.6149784700
  0
LINE
  8
Layer0$C$L0
 62
     3
 10
-150.7953820507
 20
155.0956734507
 11
-150.5953820507
 21
155.0956734507
  0
LINE
  8
Layer0$C$L0
 62
     3
 10
-113.9953820507
 20
167.2019904886
 11
-114.1953820507
 21
167.2019904886
  0
LINE
  8
Layer0$C$L0
 62
     3
 10
-113.9953820507
 20
167.2019904886
 11
-113.9953820507
 21
168.9801757484
  0
LINE
  8
Layer0$C$L0
 62
     3
 10
-114.1953820507
 20
168.9801757484
 11
-113.9953820507
 21
168.9801757484
  0
LINE
  8
Layer0$C$L0
 62
     3
 10
-112.2953820507
 20
169.9504173079
 11
-114.2093808285
 21
169.9504173079
  0
LINE
  8
Layer0$C$L0
 62
     3
 10
-112.2953820507
 20
169.9504173079
 11
-112.2953820507
 21
170.0522371573
  0
LINE
  8
Layer0$C$L0
 62
     3
 10
-112.2953820507
 20
142.3540570067
 11
-115.9953820507
 21
142.3540570067
  0
LINE
  8
Layer0$C$L0
 62
     3
 10
-112.2953820507
 20
142.2522371573
 11
-112.2953820507
 21
142.3562493689
  0
LINE
  8
Layer0$C$L0
 62
     3
 10
-115.9953820507
 20
142.3562493689
 11
-112.2953820507
 21
142.3562493689
  0
LINE
  8
Layer0$C$L0
 62
     3
 10
-115.9953820507
 20
143.3629864136
 11
-115.9953820507
 21
142.3562493689
  0
LINE
  8
Layer0$C$L0
 62
     3
 10
-112.2953820507
 20
143.3629864136
 11
-115.9953820507
 21
143.3629864136
  0
LINE
  8
Layer0$C$L0
 62
     3
 10
-112.2953820507
 20
143.3629864136
 11
-112.2953820507
 21
145.0531955977
  0
LINE
  8
Layer0$C$L0
 62
     3
 10
-115.9953820507
 20
145.0531955977
 11
-112.2953820507
 21
145.0531955977
  0
LINE
  8
Layer0$C$L0
 62
     3
 10
-115.9953820507
 20
147.7193876201
 11
-115.9953820507
 21
145.0531955977
  0
LINE
  8
Layer0$C$L0
 62
     3
 10
-113.9953820507
 20
147.7193876201
 11
-115.9953820507
 21
147.7193876201
  0
LINE
  8
Layer0$C$L0
 62
     3
 10
-113.9953820507
 20
147.7193876201
 11
-113.9953820507
 21
150.7992948354
  0
LINE
  8
Layer0$C$L0
 62
     3
 10
-115.6953820507
 20
150.7992948354
 11
-113.9953820507
 21
150.7992948354
  0
LINE
  8
Layer0$C$L0
 62
     3
 10
-112.2953820507
 20
154.4728847428
 11
-115.6953820507
 21
154.4728847428
  0
LINE
  8
Layer0$C$L0
 62
     3
 10
-112.2953820507
 20
154.4728847428
 11
-112.2953820507
 21
157.8495058283
  0
LINE
  8
Layer0$C$L0
 62
     3
 10
-115.0981133797
 20
157.8495058283
 11
-112.2953820507
 21
157.8495058283
  0
LINE
  8
Layer0$C$L0
 62
     3
 10
-115.9953820507
 20
161.5969653797
 11
-115.9953820507
 21
159.2522371573
  0
LINE
  8
Layer0$C$L0
 62
     3
 10
-112.2953820507
 20
161.5969653797
 11
-114.1953820507
 21
161.5969653797
  0
LINE
  8
Layer0$C$L0
 62
     3
 10
-115.6953820507
 20
161.5969653797
 11
-115.9953820507
 21
161.5969653797
  0
LINE
  8
Layer0$C$L0
 62
     3
 10
-112.2953820507
 20
161.5969653797
 11
-112.2953820507
 21
164.5201088377
  0
LINE
  8
Layer0$C$L0
 62
     3
 10
-114.1953820507
 20
164.5201088377
 11
-112.2953820507
 21
164.5201088377
  0
LINE
  8
Layer0$C$L0
 62
     3
 10
-111.4953820507
 20
170.0522371573
 11
-111.4953820507
 21
142.2522371573
  0
LINE
  8
Layer0$C$L0
 62
     3
 10
-116.4953820507
 20
161.5110891078
 11
-116.1941971054
 21
161.6626129197
  0
LINE
  8
Layer0$C$L0
 62
     3
 10
-115.9953820507
 20
161.5969653797
 11
-116.1941971054
 21
161.6626129197
  0
LINE
  8
Layer0$C$L0
 62
     3
 10
-116.4953820507
 20
158.7522371573
 11
-116.4953820507
 21
163.9979640171
  0
LINE
  8
Layer0$C$L0
 62
     3
 10
-115.6953820507
 20
154.6522371573
 11
-112.2953820507
 21
154.6522371573
  0
LINE
  8
Layer0$C$L0
 62
     3
 10
-112.2953820507
 20
157.6522371573
 11
-115.2693127928
 21
157.6522371573
  0
LINE
  8
Layer0$C$L0
 62
     3
 10
-112.2953820507
 20
164.1091653191
 11
-114.1953820507
 21
164.1091653191
  0
LINE
  8
Layer0$C$L0
 62
     3
 10
-113.9953820507
 20
150.7340745037
 11
-115.6953820507
 21
150.7340745037
  0
LINE
  8
Layer0$C$L0
 62
     3
 10
-116.1941971054
 20
161.6626129197
 11
-115.6953820507
 21
161.6626129197
  0
LINE
  8
Layer0$C$L0
 62
     3
 10
-114.1953820507
 20
161.6626129197
 11
-112.2953820507
 21
161.6626129197
  0
POLYLINE
  8
Layer0$C$L0
 62
     3
 66
     1
  0
VERTEX
  8
Layer0$C$L0
 62
     3
 10
-116.2953820507
 20
148.7697223255
  0
VERTEX
  8
Layer0$C$L0
 62
     3
 10
-116.3611457187
 20
148.7753323139
  0
VERTEX
  8
Layer0$C$L0
 62
     3
 10
-116.4194920102
 20
148.7914975197
  0
VERTEX
  8
Layer0$C$L0
 62
     3
 10
-116.4641263917
 20
148.8164578110
  0
VERTEX
  8
Layer0$C$L0
 62
     3
 10
-116.4901163406
 20
148.8476196399
  0
VERTEX
  8
Layer0$C$L0
 62
     3
 10
-116.4953820507
 20
148.8706233091
  0
SEQEND
  8
Layer0$C$L0
 62
     3
  0
LINE
  8
Layer0$C$L0
 62
     3
 10
-116.4953820507
 20
145.3704333088
 11
-116.4953820507
 21
150.1522371573
  0
LINE
  8
Layer0$C$L0
 62
     3
 10
-113.9953820507
 20
148.7697223255
 11
-116.2953820507
 21
148.7697223255
  0
LINE
  8
Layer0$C$L0
 62
     3
 10
-112.2953820507
 20
164.2699511174
 11
-114.1953820507
 21
164.2699511174
  0
LINE
  8
Layer0$C$L0
 62
     3
 10
-115.9953820507
 20
147.7193876201
 11
-116.1940333083
 21
147.9627932116
  0
LINE
  8
Layer0$C$L0
 62
     3
 10
-116.1940333083
 20
147.9627932116
 11
-113.9953820507
 21
147.9627932116
  0
LINE
  8
Layer0$C$L0
 62
     3
 10
-116.1757843296
 20
145.0919441371
 11
-115.9953820507
 21
145.0531955977
  0
LINE
  8
Layer0$C$L0
 62
     3
 10
-116.1757843296
 20
145.0919441371
 11
-116.4953820507
 21
145.3704333088
  0
LINE
  8
Layer0$C$L0
 62
     3
 10
-116.4953820507
 20
148.1145291634
 11
-116.1940333083
 21
147.9627932116
  0
LINE
  8
Layer0$C$L0
 62
     3
 10
-112.2953820507
 20
143.8704333088
 11
-116.4953820507
 21
143.8704333088
  0
LINE
  8
Layer0$C$L0
 62
     3
 10
-116.4953820507
 20
145.3704333088
 11
-116.4953820507
 21
142.7522371573
  0
LINE
  8
Layer0$C$L0
 62
     3
 10
-113.9953820507
 20
167.3391279336
 11
-114.1953820507
 21
167.3391279336
  0
LINE
  8
Layer0$C$L0
 62
     3
 10
-116.1757843296
 20
142.5148854485
 11
-115.9953820507
 21
142.3562493689
  0
LINE
  8
Layer0$C$L0
 62
     3
 10
-116.1757843296
 20
142.5148854485
 11
-116.4953820507
 21
142.8364570450
  0
LINE
  8
Layer0$C$L0
 62
     3
 10
-116.4953820507
 20
143.8704333088
 11
-116.1941971054
 21
143.6079863681
  0
LINE
  8
Layer0$C$L0
 62
     3
 10
-115.9953820507
 20
143.3629864136
 11
-116.1941971054
 21
143.6079863681
  0
LINE
  8
Layer0$C$L0
 62
     3
 10
-116.1941971054
 20
143.6079863681
 11
-112.2953820507
 21
143.6079863681
  0
LINE
  8
Layer0$C$L0
 62
     3
 10
-113.9953820507
 20
168.7367701570
 11
-114.1953820507
 21
168.7367701570
  0
LINE
  8
Layer0$C$L0
 62
     3
 10
-115.9953820507
 20
142.3540570067
 11
-116.0917051997
 21
142.4409507752
  0
LINE
  8
Layer0$C$L0
 62
     3
 10
-111.4953820507
 20
157.6522371573
 11
-110.9953820507
 21
157.6522371573
  0
LINE
  8
Layer0$C$L0
 62
     3
 10
-110.9953820507
 20
157.6522371573
 11
-110.9953820507
 21
154.6522371573
  0
LINE
  8
Layer0$C$L0
 62
     3
 10
-110.9953820507
 20
154.6522371573
 11
-111.4953820507
 21
154.6522371573
  0
LINE
  8
Layer0$C$L0
 62
     3
 10
-111.4953820507
 20
153.6007669929
 11
-110.7953820507
 21
153.6007669929
  0
ARC
  8
Layer0$C$L0
 62
     3
 10
-110.8099689675
 20
153.7254862104
 40
0.1255693488
 50
276.6708954631
 51
335.8586024411
  0
ARC
  8
Layer0$C$L0
 62
     3
 10
-110.8088453746
 20
158.5806732368
 40
0.1237685224
 50
23.5462168578
 51
83.7551078818
  0
LINE
  8
Layer0$C$L0
 62
     3
 10
-110.7953820507
 20
158.7037073217
 11
-111.4953820507
 21
158.7037073217
  0
LINE
  8
Layer0$C$L0
 62
     3
 10
-118.9953820507
 20
157.7522371573
 11
-118.9953820507
 21
163.9979640171
  0
LINE
  8
Layer0$C$L0
 62
     3
 10
-118.6778394027
 20
163.9979640171
 11
-118.6778394027
 21
157.7522371573
  0
LINE
  8
Layer0$C$L0
 62
     3
 10
-117.0947928312
 20
157.7522371573
 11
-118.9953820507
 21
157.7522371573
  0
LINE
  8
Layer0$C$L0
 62
     3
 10
-118.9953820507
 20
152.1522371573
 11
-118.9953820507
 21
154.5522371573
  0
LINE
  8
Layer0$C$L0
 62
     3
 10
-118.6778394027
 20
154.5522371573
 11
-118.6778394027
 21
152.1522371573
  0
LINE
  8
Layer0$C$L0
 62
     3
 10
-118.9953820507
 20
154.5522371573
 11
-117.1953820507
 21
154.5522371573
  0
LINE
  8
Layer0$C$L0
 62
     3
 10
-118.9953820507
 20
160.4522371573
 11
-119.0953820507
 21
160.4522371573
  0
LINE
  8
Layer0$C$L0
 62
     3
 10
-141.1453820507
 20
159.2522371573
 11
-141.1453820507
 21
153.0522371573
  0
LINE
  8
Layer0$C$L0
 62
     3
 10
-140.0953820507
 20
159.6522371573
 11
-140.0953820507
 21
152.6522371573
  0
LINE
  8
Layer0$C$L0
 62
     3
 10
-142.1953820507
 20
153.2441002540
 11
-142.1953820507
 21
153.2874055308
  0
LINE
  8
Layer0$C$L0
 62
     3
 10
-142.1953820507
 20
153.2874055308
 11
-142.1990802623
 21
153.2877339738
  0
LINE
  8
Layer0$C$L0
 62
     3
 10
-142.1990802623
 20
159.0167403408
 11
-142.1953820507
 21
159.0170687838
  0
LINE
  8
Layer0$C$L0
 62
     3
 10
-142.1953820507
 20
159.0170687838
 11
-142.1953820507
 21
159.0603740606
  0
POLYLINE
  8
Layer0$C$L0
 62
     3
 66
     1
  0
VERTEX
  8
Layer0$C$L0
 62
     3
 10
-142.5953820507
 20
153.4087971020
  0
VERTEX
  8
Layer0$C$L0
 62
     3
 10
-142.2879735579
 20
153.2993501211
  0
VERTEX
  8
Layer0$C$L0
 62
     3
 10
-142.1990802623
 20
153.2877339738
  0
SEQEND
  8
Layer0$C$L0
 62
     3
  0
POLYLINE
  8
Layer0$C$L0
 62
     3
 66
     1
  0
VERTEX
  8
Layer0$C$L0
 62
     3
 10
-142.1990802623
 20
159.0167403408
  0
VERTEX
  8
Layer0$C$L0
 62
     3
 10
-142.2879735523
 20
159.0051241944
  0
VERTEX
  8
Layer0$C$L0
 62
     3
 10
-142.5953820507
 20
158.8956772134
  0
SEQEND
  8
Layer0$C$L0
 62
     3
  0
LINE
  8
Layer0$C$L0
 62
     3
 10
-138.8453820507
 20
155.4864059178
 11
-138.8453820507
 21
154.7272371573
  0
LINE
  8
Layer0$C$L0
 62
     3
 10
-138.8453820507
 20
157.5772371573
 11
-138.8453820507
 21
156.8180683968
  0
LINE
  8
Layer0$C$L0
 62
     3
 10
-140.0953820507
 20
157.6522371573
 11
-139.0953820507
 21
157.6522371573
  0
LINE
  8
Layer0$C$L0
 62
     3
 10
-139.6157616862
 20
159.2932157597
 11
-140.0953820507
 21
157.6522371573
  0
LINE
  8
Layer0$C$L0
 62
     3
 10
-139.0953820507
 20
157.6522371573
 11
-138.6157616862
 21
159.2932157597
  0
LINE
  8
Layer0$C$L0
 62
     3
 10
-140.0953820507
 20
159.6522371573
 11
-139.6157616862
 21
159.4699062015
  0
POLYLINE
  8
Layer0$C$L0
 62
     3
 66
     1
  0
VERTEX
  8
Layer0$C$L0
 62
     3
 10
-139.6157616862
 20
159.4699062015
  0
VERTEX
  8
Layer0$C$L0
 62
     3
 10
-139.6059759862
 20
159.4619922836
  0
VERTEX
  8
Layer0$C$L0
 62
     3
 10
-139.5992435351
 20
159.4470068270
  0
VERTEX
  8
Layer0$C$L0
 62
     3
 10
-139.5958137725
 20
159.4255050486
  0
VERTEX
  8
Layer0$C$L0
 62
     3
 10
-139.5958137725
 20
159.3982835971
  0
VERTEX
  8
Layer0$C$L0
 62
     3
 10
-139.5992435351
 20
159.3663510374
  0
VERTEX
  8
Layer0$C$L0
 62
     3
 10
-139.6059759862
 20
159.3308904827
  0
VERTEX
  8
Layer0$C$L0
 62
     3
 10
-139.6157616862
 20
159.2932157597
  0
SEQEND
  8
Layer0$C$L0
 62
     3
  0
LINE
  8
Layer0$C$L0
 62
     3
 10
-140.0953820507
 20
154.6522371573
 11
-139.0953820507
 21
154.6522371573
  0
ARC
  8
Layer0$C$L0
 62
     3
 10
-140.0953820507
 20
155.7522371573
 40
0.3000000000
 50
270.0000000000
 51
360.0000000000
  0
LINE
  8
Layer0$C$L0
 62
     3
 10
-139.7953820507
 20
155.7522371573
 11
-139.7953820507
 21
156.5522371573
  0
ARC
  8
Layer0$C$L0
 62
     3
 10
-140.0953820507
 20
156.5522371573
 40
0.3000000000
 50
0.0000000000
 51
90.0000000000
  0
ARC
  8
Layer0$C$L0
 62
     3
 10
-139.0953820507
 20
156.6522371573
 40
0.3000000000
 50
0.0000000000
 51
90.0000000000
  0
LINE
  8
Layer0$C$L0
 62
     3
 10
-138.7953820507
 20
155.6522371573
 11
-138.7953820507
 21
156.6522371573
  0
ARC
  8
Layer0$C$L0
 62
     3
 10
-139.0953820507
 20
155.6522371573
 40
0.3000000000
 50
270.0000000000
 51
360.0000000000
  0
LINE
  8
Layer0$C$L0
 62
     3
 10
-139.0953820507
 20
155.3522371573
 11
-139.0953820507
 21
154.6522371573
  0
LINE
  8
Layer0$C$L0
 62
     3
 10
-139.0953820507
 20
157.6522371573
 11
-139.0953820507
 21
156.9522371573
  0
LINE
  8
Layer0$C$L0
 62
     3
 10
-139.6157616862
 20
153.0112585548
 11
-140.0953820507
 21
154.6522371573
  0
LINE
  8
Layer0$C$L0
 62
     3
 10
-139.0953820507
 20
154.6522371573
 11
-138.6157616862
 21
153.0112585548
  0
POLYLINE
  8
Layer0$C$L0
 62
     3
 66
     1
  0
VERTEX
  8
Layer0$C$L0
 62
     3
 10
-139.6157616862
 20
152.8345681131
  0
VERTEX
  8
Layer0$C$L0
 62
     3
 10
-139.6059759862
 20
152.8424820310
  0
VERTEX
  8
Layer0$C$L0
 62
     3
 10
-139.5992435351
 20
152.8574674875
  0
VERTEX
  8
Layer0$C$L0
 62
     3
 10
-139.5958137725
 20
152.8789692660
  0
VERTEX
  8
Layer0$C$L0
 62
     3
 10
-139.5958137725
 20
152.9061907175
  0
VERTEX
  8
Layer0$C$L0
 62
     3
 10
-139.5992435351
 20
152.9381232772
  0
VERTEX
  8
Layer0$C$L0
 62
     3
 10
-139.6059759862
 20
152.9735838319
  0
VERTEX
  8
Layer0$C$L0
 62
     3
 10
-139.6157616862
 20
153.0112585548
  0
SEQEND
  8
Layer0$C$L0
 62
     3
  0
LINE
  8
Layer0$C$L0
 62
     3
 10
-140.0953820507
 20
152.6522371573
 11
-139.6157616862
 21
152.8345681131
  0
POLYLINE
  8
Layer0$C$L0
 62
     3
 66
     1
  0
VERTEX
  8
Layer0$C$L0
 62
     3
 10
-138.6157616862
 20
159.2932157597
  0
VERTEX
  8
Layer0$C$L0
 62
     3
 10
-138.6059759862
 20
159.3308904827
  0
VERTEX
  8
Layer0$C$L0
 62
     3
 10
-138.5992435351
 20
159.3663510374
  0
VERTEX
  8
Layer0$C$L0
 62
     3
 10
-138.5958137725
 20
159.3982835971
  0
VERTEX
  8
Layer0$C$L0
 62
     3
 10
-138.5958137725
 20
159.4255050486
  0
VERTEX
  8
Layer0$C$L0
 62
     3
 10
-138.5992435351
 20
159.4470068270
  0
VERTEX
  8
Layer0$C$L0
 62
     3
 10
-138.6059759862
 20
159.4619922836
  0
VERTEX
  8
Layer0$C$L0
 62
     3
 10
-138.6157616862
 20
159.4699062015
  0
SEQEND
  8
Layer0$C$L0
 62
     3
  0
POLYLINE
  8
Layer0$C$L0
 62
     3
 66
     1
  0
VERTEX
  8
Layer0$C$L0
 62
     3
 10
-138.6157616862
 20
153.0112585548
  0
VERTEX
  8
Layer0$C$L0
 62
     3
 10
-138.6059759862
 20
152.9735838319
  0
VERTEX
  8
Layer0$C$L0
 62
     3
 10
-138.5992435351
 20
152.9381232772
  0
VERTEX
  8
Layer0$C$L0
 62
     3
 10
-138.5958137725
 20
152.9061907175
  0
VERTEX
  8
Layer0$C$L0
 62
     3
 10
-138.5958137725
 20
152.8789692660
  0
VERTEX
  8
Layer0$C$L0
 62
     3
 10
-138.5992435351
 20
152.8574674875
  0
VERTEX
  8
Layer0$C$L0
 62
     3
 10
-138.6059759862
 20
152.8424820310
  0
VERTEX
  8
Layer0$C$L0
 62
     3
 10
-138.6157616862
 20
152.8345681131
  0
SEQEND
  8
Layer0$C$L0
 62
     3
  0
LINE
  8
Layer0$C$L0
 62
     3
 10
-138.6157616862
 20
159.4699062015
 11
-139.0953820507
 21
159.6522371573
  0
LINE
  8
Layer0$C$L0
 62
     3
 10
-140.0953820507
 20
152.6522371573
 11
-138.7953820507
 21
152.6522371573
  0
LINE
  8
Layer0$C$L0
 62
     3
 10
-138.6157616862
 20
152.8345681131
 11
-139.0953820507
 21
152.6522371573
  0
LINE
  8
Layer0$C$L0
 62
     3
 10
-138.7953820507
 20
159.6522371573
 11
-138.7953820507
 21
159.5381901093
  0
LINE
  8
Layer0$C$L0
 62
     3
 10
-138.7953820507
 20
152.7662842053
 11
-138.7953820507
 21
152.6522371573
  0
LINE
  8
Layer0$C$L0
 62
     3
 10
-138.4953820507
 20
159.1522371573
 11
-138.5953820507
 21
159.1522371573
  0
LINE
  8
Layer0$C$L0
 62
     3
 10
-138.5953820507
 20
158.5522371573
 11
-138.5953820507
 21
159.6522371573
  0
LINE
  8
Layer0$C$L0
 62
     3
 10
-138.4953820507
 20
158.5522371573
 11
-138.5953820507
 21
158.5522371573
  0
LINE
  8
Layer0$C$L0
 62
     3
 10
-138.4953820507
 20
153.7522371573
 11
-138.5953820507
 21
153.7522371573
  0
LINE
  8
Layer0$C$L0
 62
     3
 10
-138.5953820507
 20
153.1522371573
 11
-138.4953820507
 21
153.1522371573
  0
LINE
  8
Layer0$C$L0
 62
     3
 10
-138.5953820507
 20
152.6522371573
 11
-138.5953820507
 21
158.1522371573
  0
LINE
  8
Layer0$C$L0
 62
     3
 10
-138.4953820507
 20
152.6522371573
 11
-138.5953820507
 21
152.6522371573
  0
POLYLINE
  8
Layer0$C$L0
 62
     3
 66
     1
  0
VERTEX
  8
Layer0$C$L0
 62
     3
 10
-138.5953820507
 20
154.1522371573
  0
VERTEX
  8
Layer0$C$L0
 62
     3
 10
-138.5950670453
 20
154.2843523811
  0
VERTEX
  8
Layer0$C$L0
 62
     3
 10
-138.5906101178
 20
154.4016095155
  0
VERTEX
  8
Layer0$C$L0
 62
     3
 10
-138.5736954669
 20
154.4895482144
  0
VERTEX
  8
Layer0$C$L0
 62
     3
 10
-138.5382738225
 20
154.5387048276
  0
VERTEX
  8
Layer0$C$L0
 62
     3
 10
-138.4882023737
 20
154.5522371573
  0
SEQEND
  8
Layer0$C$L0
 62
     3
  0
POLYLINE
  8
Layer0$C$L0
 62
     3
 66
     1
  0
VERTEX
  8
Layer0$C$L0
 62
     3
 10
-138.5953820507
 20
158.1522371573
  0
VERTEX
  8
Layer0$C$L0
 62
     3
 10
-138.5950670453
 20
158.0201219334
  0
VERTEX
  8
Layer0$C$L0
 62
     3
 10
-138.5906101178
 20
157.9028647991
  0
VERTEX
  8
Layer0$C$L0
 62
     3
 10
-138.5736954669
 20
157.8149261002
  0
VERTEX
  8
Layer0$C$L0
 62
     3
 10
-138.5382738225
 20
157.7657694870
  0
VERTEX
  8
Layer0$C$L0
 62
     3
 10
-138.4882023737
 20
157.7522371573
  0
SEQEND
  8
Layer0$C$L0
 62
     3
  0
LINE
  8
Layer0$C$L0
 62
     3
 10
-138.5953820507
 20
158.1522371573
 11
-138.5953820507
 21
158.5522371573
  0
LINE
  8
Layer0$C$L0
 62
     3
 10
-119.0953820507
 20
163.9979640171
 11
-119.0953820507
 21
152.1522371573
  0
LINE
  8
Layer0$C$L0
 62
     3
 10
-120.0953820507
 20
154.0522371573
 11
-121.0953820507
 21
154.0522371573
  0
LINE
  8
Layer0$C$L0
 62
     3
 10
-120.0953820507
 20
156.6522371573
 11
-120.0953820507
 21
154.0522371573
  0
LINE
  8
Layer0$C$L0
 62
     3
 10
-120.0953820507
 20
156.6522371573
 11
-124.5953820507
 21
156.6522371573
  0
ARC
  8
Layer0$C$L0
 62
     3
 10
-124.0953820507
 20
157.1522371573
 40
0.5000000000
 50
180.0000000000
 51
270.0000000000
  0
LINE
  8
Layer0$C$L0
 62
     3
 10
-124.5953820507
 20
157.1522371573
 11
-124.5953820507
 21
159.1522371573
  0
LINE
  8
Layer0$C$L0
 62
     3
 10
-121.0953820507
 20
154.1522371573
 11
-121.0953820507
 21
152.1522371573
  0
LINE
  8
Layer0$C$L0
 62
     3
 10
-124.5953820507
 20
159.1522371573
 11
-119.0953820507
 21
159.1522371573
  0
LINE
  8
Layer0$C$L0
 62
     3
 10
-120.7953820507
 20
152.1522371573
 11
-121.0953820507
 21
152.4522371573
  0
LINE
  8
Layer0$C$L0
 62
     3
 10
-124.5953820507
 20
156.6522371573
 11
-125.3189888485
 21
157.0140405562
  0
LINE
  8
Layer0$C$L0
 62
     3
 10
-125.2390559935
 20
158.7591349745
 11
-124.5953820507
 21
158.9522371573
  0
ARC
  8
Layer0$C$L0
 62
     3
 10
-125.0953820507
 20
158.2802218318
 40
0.5000000000
 50
106.6992442340
 51
180.0000000000
  0
LINE
  8
Layer0$C$L0
 62
     3
 10
-125.5953820507
 20
157.4612541517
 11
-125.5953820507
 21
158.2802218318
  0
ARC
  8
Layer0$C$L0
 62
     3
 10
-125.0953820507
 20
157.4612541517
 40
0.5000000000
 50
180.0000000000
 51
243.4349488229
  0
LINE
  8
Layer0$C$L0
 62
     3
 10
-120.8953820507
 20
152.2522371573
 11
-120.8953820507
 21
152.1522371573
  0
LINE
  8
Layer0$C$L0
 62
     3
 10
-120.8953820507
 20
163.9979640171
 11
-120.8953820507
 21
160.4134529772
  0
LINE
  8
Layer0$C$L0
 62
     3
 10
-121.0953820507
 20
160.6126001947
 11
-121.0953820507
 21
163.9979640171
  0
LINE
  8
Layer0$C$L0
 62
     3
 10
-117.1953820507
 20
157.2238100325
 11
-117.1953820507
 21
152.1522371573
  0
ARC
  8
Layer0$C$L0
 62
     3
 10
-115.1953820507
 20
157.2238100325
 40
2.0000000000
 50
135.0000000000
 51
180.0000000000
  0
LINE
  8
Layer0$C$L0
 62
     3
 10
-115.6953820507
 20
159.5522371573
 11
-116.6095956131
 21
158.6380235949
  0
LINE
  8
Layer0$C$L0
 62
     3
 10
-115.6953820507
 20
159.5522371573
 11
-115.6953820507
 21
169.1710134618
  0
ARC
  8
Layer0$C$L0
 62
     3
 10
-113.6953820507
 20
156.4238100325
 40
2.0000000000
 50
135.0000000000
 51
180.0000000000
  0
LINE
  8
Layer0$C$L0
 62
     3
 10
-120.2953820507
 20
154.1522371573
 11
-121.2953820507
 21
154.1522371573
  0
LINE
  8
Layer0$C$L0
 62
     3
 10
-117.1953820507
 20
152.1522371573
 11
-121.2953820507
 21
152.1522371573
  0
LINE
  8
Layer0$C$L0
 62
     3
 10
-120.2953820507
 20
156.6522371573
 11
-120.2953820507
 21
154.1522371573
  0
LINE
  8
Layer0$C$L0
 62
     3
 10
-121.2953820507
 20
152.1522371573
 11
-121.2953820507
 21
154.1522371573
  0
LINE
  8
Layer0$C$L0
 62
     3
 10
-115.6953820507
 20
156.4238100325
 11
-115.6953820507
 21
150.6522371573
  0
LINE
  8
Layer0$C$L0
 62
     3
 10
-122.3451339102
 20
155.3972619713
 11
-120.2953820507
 21
155.6022371573
  0
LINE
  8
Layer0$C$L0
 62
     3
 10
-122.7953820507
 20
141.9500632442
 11
-122.7953820507
 21
156.6522371573
  0
ARC
  8
Layer0$C$L0
 62
     3
 10
-122.2953820507
 20
154.8997433762
 40
0.5000000000
 50
95.7105931375
 51
180.0000000000
  0
ARC
  8
Layer0$C$L0
 62
     3
 10
-116.1953820507
 20
150.6522371573
 40
0.5000000000
 50
270.0000000000
 51
360.0000000000
  0
LINE
  8
Layer0$C$L0
 62
     3
 10
-116.1953820507
 20
150.1522371573
 11
-122.2953820507
 21
150.1522371573
  0
ARC
  8
Layer0$C$L0
 62
     3
 10
-122.2953820507
 20
150.6522371573
 40
0.5000000000
 50
180.0000000000
 51
270.0000000000
  0
ARC
  8
Layer0$C$L0
 62
     3
 10
-116.1953820507
 20
159.5806642820
 40
2.0000000000
 50
315.0000000000
 51
360.0000000000
  0
LINE
  8
Layer0$C$L0
 62
     3
 10
-114.7811684883
 20
158.1664507197
 11
-115.1095956131
 21
157.8380235949
  0
LINE
  8
Layer0$C$L0
 62
     3
 10
-114.1953820507
 20
169.8329319384
 11
-114.1953820507
 21
159.5806642820
  0
LINE
  8
Layer0$C$L0
 62
     3
 10
-122.7953820507
 20
162.8957154182
 11
-122.7953820507
 21
170.5522371573
  0
LINE
  8
Layer0$C$L0
 62
     3
 10
-115.6953820507
 20
163.9979640171
 11
-121.2953820507
 21
163.9979640171
  0
LINE
  8
Layer0$C$L0
 62
     3
 10
-121.2953820507
 20
165.7343255453
 11
-122.2953820507
 21
165.7343255453
  0
ARC
  8
Layer0$C$L0
 62
     3
 10
-122.3262207531
 20
166.2032651529
 40
0.4699525307
 50
183.3252461843
 51
273.7625035209
  0
ARC
  8
Layer0$C$L0
 62
     3
 10
-122.2953820507
 20
169.8329319384
 40
0.5000000000
 50
90.0000000000
 51
180.0000000000
  0
POLYLINE
  8
Layer0$C$L0
 62
     3
 66
     1
  0
VERTEX
  8
Layer0$C$L0
 62
     3
 10
-120.2953820507
 20
159.8123577868
  0
VERTEX
  8
Layer0$C$L0
 62
     3
 10
-120.7944493107
 20
160.3127202793
  0
VERTEX
  8
Layer0$C$L0
 62
     3
 10
-121.2953820507
 20
160.8111428995
  0
SEQEND
  8
Layer0$C$L0
 62
     3
  0
LINE
  8
Layer0$C$L0
 62
     3
 10
-121.7953820507
 20
156.1522371573
 11
-121.7953820507
 21
156.6522371573
  0
LINE
  8
Layer0$C$L0
 62
     3
 10
-121.7953820507
 20
159.1522371573
 11
-121.7953820507
 21
162.2522371573
  0
LINE
  8
Layer0$C$L0
 62
     3
 10
-122.7953820507
 20
162.2522371573
 11
-121.7953820507
 21
162.2522371573
  0
LINE
  8
Layer0$C$L0
 62
     3
 10
-122.7953820507
 20
162.8957154182
 11
-122.7953820507
 21
159.1522371573
  0
LINE
  8
Layer0$C$L0
 62
     3
 10
-120.2953820507
 20
159.8123577868
 11
-120.2953820507
 21
159.1522371573
  0
LINE
  8
Layer0$C$L0
 62
     3
 10
-121.2953820507
 20
165.7343255453
 11
-121.2953820507
 21
160.8111428995
  0
LINE
  8
Layer0$C$L0
 62
     3
 10
-121.7953820507
 20
156.1522371573
 11
-122.7953820507
 21
156.1522371573
  0
LINE
  8
Layer0$C$L0
 62
     3
 10
-121.2953820507
 20
150.1522371573
 11
-121.2953820507
 21
141.7522371573
  0
LINE
  8
Layer0$C$L0
 62
     3
 10
-122.7953820507
 20
163.2522371573
 11
-121.2953820507
 21
163.2522371573
  0
LINE
  8
Layer0$C$L0
 62
     3
 10
-121.9059500935
 20
159.1522371573
 11
-121.9059500935
 21
161.7022371573
  0
LINE
  8
Layer0$C$L0
 62
     3
 10
-122.6120827832
 20
156.5342563905
 11
-122.5551914615
 21
156.6522371573
  0
LINE
  8
Layer0$C$L0
 62
     3
 10
-122.1661374198
 20
156.5424288487
 11
-122.1661374198
 21
156.6522371573
  0
POLYLINE
  8
Layer0$C$L0
 62
     3
 66
     1
  0
VERTEX
  8
Layer0$C$L0
 62
     3
 10
-122.3878179224
 20
159.3116814346
  0
VERTEX
  8
Layer0$C$L0
 62
     3
 10
-122.2844554674
 20
159.3710124119
  0
VERTEX
  8
Layer0$C$L0
 62
     3
 10
-122.2161016782
 20
159.5156902053
  0
SEQEND
  8
Layer0$C$L0
 62
     3
  0
POLYLINE
  8
Layer0$C$L0
 62
     3
 66
     1
  0
VERTEX
  8
Layer0$C$L0
 62
     3
 10
-122.2161016782
 20
159.5156902053
  0
VERTEX
  8
Layer0$C$L0
 62
     3
 10
-122.1712752632
 20
159.7428227618
  0
VERTEX
  8
Layer0$C$L0
 62
     3
 10
-122.1610644204
 20
159.9521600084
  0
SEQEND
  8
Layer0$C$L0
 62
     3
  0
POLYLINE
  8
Layer0$C$L0
 62
     3
 66
     1
  0
VERTEX
  8
Layer0$C$L0
 62
     3
 10
-122.1610644204
 20
159.9521600084
  0
VERTEX
  8
Layer0$C$L0
 62
     3
 10
-122.1783459341
 20
160.2072719584
  0
VERTEX
  8
Layer0$C$L0
 62
     3
 10
-122.2161016782
 20
160.3750090479
  0
SEQEND
  8
Layer0$C$L0
 62
     3
  0
POLYLINE
  8
Layer0$C$L0
 62
     3
 66
     1
  0
VERTEX
  8
Layer0$C$L0
 62
     3
 10
-122.2161016782
 20
160.3750090479
  0
VERTEX
  8
Layer0$C$L0
 62
     3
 10
-122.3060517897
 20
160.5394537730
  0
VERTEX
  8
Layer0$C$L0
 62
     3
 10
-122.3878179224
 20
160.5729641459
  0
SEQEND
  8
Layer0$C$L0
 62
     3
  0
LINE
  8
Layer0$C$L0
 62
     3
 10
-122.1661374198
 20
161.4331910395
 11
-122.1661374198
 21
161.6847211410
  0
LINE
  8
Layer0$C$L0
 62
     3
 10
-122.5516853751
 20
160.6952483348
 11
-122.5516853751
 21
161.4331910395
  0
LINE
  8
Layer0$C$L0
 62
     3
 10
-122.0482525882
 20
161.7022371573
 11
-122.0482525882
 21
159.1522371573
  0
LINE
  8
Layer0$C$L0
 62
     3
 10
-121.9059500935
 20
161.7022371573
 11
-122.0482525882
 21
161.7022371573
  0
LINE
  8
Layer0$C$L0
 62
     3
 10
-121.9533842584
 20
159.1522371573
 11
-121.9533842584
 21
161.7022371573
  0
POLYLINE
  8
Layer0$C$L0
 62
     3
 66
     1
  0
VERTEX
  8
Layer0$C$L0
 62
     3
 10
-122.2084985853
 20
159.9521600084
  0
VERTEX
  8
Layer0$C$L0
 62
     3
 10
-122.2217888383
 20
159.7157561931
  0
VERTEX
  8
Layer0$C$L0
 62
     3
 10
-122.2635358431
 20
159.5156902053
  0
SEQEND
  8
Layer0$C$L0
 62
     3
  0
LINE
  8
Layer0$C$L0
 62
     3
 10
-122.1610644204
 20
159.9521600084
 11
-122.2084985853
 21
159.9521600084
  0
LINE
  8
Layer0$C$L0
 62
     3
 10
-122.2161016782
 20
159.5156902053
 11
-122.2635358431
 21
159.5156902053
  0
ARC
  8
Layer0$C$L0
 62
     3
 10
-123.0971985077
 20
159.9548626118
 40
0.8283069233
 50
359.8130547537
 51
377.0434277090
  0
ARC
  8
Layer0$C$L0
 62
     3
 10
-122.4518236594
 20
160.1749738184
 40
0.1482970871
 50
8.7903297177
 51
83.5840386729
  0
ARC
  8
Layer0$C$L0
 62
     3
 10
-122.4186864038
 20
160.1747548433
 40
0.1485140357
 50
96.4042635952
 51
171.1371224901
  0
ARC
  8
Layer0$C$L0
 62
     3
 10
-121.7698582687
 20
159.9549721549
 40
0.8317546665
 50
163.0372551454
 51
180.1937162937
  0
ARC
  8
Layer0$C$L0
 62
     3
 10
-121.7116895026
 20
159.9446495282
 40
0.8899503705
 50
179.5164630073
 51
196.4009492572
  0
ARC
  8
Layer0$C$L0
 62
     3
 10
-122.4117856924
 20
159.7157891565
 40
0.1552691952
 50
188.3035746831
 51
261.3073730174
  0
ARC
  8
Layer0$C$L0
 62
     3
 10
-122.4586760049
 20
159.7155227541
 40
0.1549994331
 50
278.6919885478
 51
351.7813818710
  0
ARC
  8
Layer0$C$L0
 62
     3
 10
-123.1515777328
 20
159.9442638587
 40
0.8827170567
 50
343.4869226930
 51
360.5125335298
  0
ARC
  8
Layer0$C$L0
 62
     3
 10
-122.5002043306
 20
160.3431660735
 40
0.2388010636
 50
7.6629414235
 51
74.2170971835
  0
POLYLINE
  8
Layer0$C$L0
 62
     3
 66
     1
  0
VERTEX
  8
Layer0$C$L0
 62
     3
 10
-122.2635358431
 20
160.3750090479
  0
VERTEX
  8
Layer0$C$L0
 62
     3
 10
-122.2222118496
 20
160.1816633780
  0
VERTEX
  8
Layer0$C$L0
 62
     3
 10
-122.2084985853
 20
159.9521600084
  0
SEQEND
  8
Layer0$C$L0
 62
     3
  0
ARC
  8
Layer0$C$L0
 62
     3
 10
-122.5099130375
 20
159.5487963455
 40
0.2485915092
 50
287.4777780883
 51
352.3469057156
  0
ARC
  8
Layer0$C$L0
 62
     3
 10
-122.3607894258
 20
159.5487449687
 40
0.2484830118
 50
187.6445029845
 51
252.5622750058
  0
POLYLINE
  8
Layer0$C$L0
 62
     3
 66
     1
  0
VERTEX
  8
Layer0$C$L0
 62
     3
 10
-122.6070640485
 20
159.5156902053
  0
VERTEX
  8
Layer0$C$L0
 62
     3
 10
-122.6488023611
 20
159.7157072718
  0
VERTEX
  8
Layer0$C$L0
 62
     3
 10
-122.6621013063
 20
159.9521600084
  0
SEQEND
  8
Layer0$C$L0
 62
     3
  0
POLYLINE
  8
Layer0$C$L0
 62
     3
 66
     1
  0
VERTEX
  8
Layer0$C$L0
 62
     3
 10
-122.6621013063
 20
159.9521600084
  0
VERTEX
  8
Layer0$C$L0
 62
     3
 10
-122.6484305977
 20
160.1816399151
  0
VERTEX
  8
Layer0$C$L0
 62
     3
 10
-122.6070640485
 20
160.3750090479
  0
SEQEND
  8
Layer0$C$L0
 62
     3
  0
ARC
  8
Layer0$C$L0
 62
     3
 10
-122.3700223342
 20
160.3428107541
 40
0.2392185287
 50
105.8237164571
 51
172.2646352440
  0
LINE
  8
Layer0$C$L0
 62
     3
 10
-122.2161016782
 20
160.3750090479
 11
-122.2635358431
 21
160.3750090479
  0
LINE
  8
Layer0$C$L0
 62
     3
 10
-122.2135715847
 20
161.6847211410
 11
-122.2135715847
 21
161.4331910395
  0
LINE
  8
Layer0$C$L0
 62
     3
 10
-122.1661374198
 20
161.6847211410
 11
-122.6602826839
 21
161.6847211410
  0
LINE
  8
Layer0$C$L0
 62
     3
 10
-122.1661374198
 20
161.4331910395
 11
-122.5991195400
 21
161.4331910395
  0
LINE
  8
Layer0$C$L0
 62
     3
 10
-122.5991195400
 20
161.4331910395
 11
-122.5991195400
 21
160.6952483348
  0
LINE
  8
Layer0$C$L0
 62
     3
 10
-122.5516853751
 20
160.6952483348
 11
-122.6602826839
 21
160.6952483348
  0
LINE
  8
Layer0$C$L0
 62
     3
 10
-122.6602826839
 20
160.6952483348
 11
-122.6602826839
 21
161.6847211410
  0
LINE
  8
Layer0$C$L0
 62
     3
 10
-122.2135715847
 20
156.6522371573
 11
-122.2135715847
 21
156.5424288487
  0
LINE
  8
Layer0$C$L0
 62
     3
 10
-122.2135715847
 20
156.5424288487
 11
-122.2496063769
 21
156.6522371573
  0
LINE
  8
Layer0$C$L0
 62
     3
 10
-122.6026256264
 20
156.6522371573
 11
-122.6595169481
 21
156.5342563905
  0
LINE
  8
Layer0$C$L0
 62
     3
 10
-122.6595169481
 20
156.5342563905
 11
-122.6595169481
 21
156.6522371573
  0
LINE
  8
Layer0$C$L0
 62
     3
 10
-122.1661374198
 20
156.5424288487
 11
-122.2135715847
 21
156.5424288487
  0
LINE
  8
Layer0$C$L0
 62
     3
 10
-122.3878179224
 20
160.5729641459
 11
-122.4352520873
 21
160.5729641459
  0
LINE
  8
Layer0$C$L0
 62
     3
 10
-122.3878179224
 20
159.3116814346
 11
-122.4352520873
 21
159.3116814346
  0
POLYLINE
  8
Layer0$C$L0
 62
     3
 66
     1
  0
VERTEX
  8
Layer0$C$L0
 62
     3
 10
-122.5179930017
 20
160.1976364372
  0
VERTEX
  8
Layer0$C$L0
 62
     3
 10
-122.5461389732
 20
160.0713863331
  0
VERTEX
  8
Layer0$C$L0
 62
     3
 10
-122.5541740163
 20
159.9521600084
  0
SEQEND
  8
Layer0$C$L0
 62
     3
  0
POLYLINE
  8
Layer0$C$L0
 62
     3
 66
     1
  0
VERTEX
  8
Layer0$C$L0
 62
     3
 10
-122.4104395603
 20
160.3199410560
  0
VERTEX
  8
Layer0$C$L0
 62
     3
 10
-122.4743990193
 20
160.2819513465
  0
VERTEX
  8
Layer0$C$L0
 62
     3
 10
-122.5179930017
 20
160.1976364372
  0
SEQEND
  8
Layer0$C$L0
 62
     3
  0
POLYLINE
  8
Layer0$C$L0
 62
     3
 66
     1
  0
VERTEX
  8
Layer0$C$L0
 62
     3
 10
-122.5179930017
 20
159.6933654996
  0
VERTEX
  8
Layer0$C$L0
 62
     3
 10
-122.4612312997
 20
159.5916725093
  0
VERTEX
  8
Layer0$C$L0
 62
     3
 10
-122.4103279912
 20
159.5651302737
  0
SEQEND
  8
Layer0$C$L0
 62
     3
  0
POLYLINE
  8
Layer0$C$L0
 62
     3
 66
     1
  0
VERTEX
  8
Layer0$C$L0
 62
     3
 10
-122.5541740163
 20
159.9521600084
  0
VERTEX
  8
Layer0$C$L0
 62
     3
 10
-122.5420762171
 20
159.7956253757
  0
VERTEX
  8
Layer0$C$L0
 62
     3
 10
-122.5179930017
 20
159.6933654996
  0
SEQEND
  8
Layer0$C$L0
 62
     3
  0
LINE
  8
Layer0$C$L0
 62
     3
 10
-122.6120827832
 20
156.5342563905
 11
-122.6595169481
 21
156.5342563905
  0
LINE
  8
Layer0$C$L0
 62
     3
 10
-122.5179930017
 20
159.6933654996
 11
-122.5654271666
 21
159.6933654996
  0
LINE
  8
Layer0$C$L0
 62
     3
 10
-122.5179930017
 20
160.1976364372
 11
-122.5654271666
 21
160.1976364372
  0
LINE
  8
Layer0$C$L0
 62
     3
 10
-122.5541740163
 20
159.9521600084
 11
-122.6016081812
 21
159.9521600084
  0
ARC
  8
Layer0$C$L0
 62
     3
 10
-122.2953820507
 20
170.5522371573
 40
0.5000000000
 50
90.0000000000
 51
180.0000000000
  0
LINE
  8
Layer0$C$L0
 62
     3
 10
-128.2953820507
 20
171.0522371573
 11
-117.7953820507
 21
171.0522371573
  0
ARC
  8
Layer0$C$L0
 62
     3
 10
-121.7953820507
 20
170.5522371573
 40
0.5000000000
 50
0.0000000000
 51
90.0000000000
  0
LINE
  8
Layer0$C$L0
 62
     3
 10
-121.2953820507
 20
170.3544110703
 11
-121.2953820507
 21
170.5522371573
  0
ARC
  8
Layer0$C$L0
 62
     3
 10
-122.2953820507
 20
141.7522371573
 40
0.5000000000
 50
180.0000000000
 51
270.0000000000
  0
LINE
  8
Layer0$C$L0
 62
     3
 10
-122.7953820507
 20
141.9500632442
 11
-122.7953820507
 21
141.7522371573
  0
ARC
  8
Layer0$C$L0
 62
     3
 10
-121.7953820507
 20
141.7522371573
 40
0.5000000000
 50
270.0000000000
 51
360.0000000000
  0
LINE
  8
Layer0$C$L0
 62
     3
 10
-117.7953820507
 20
141.2522371573
 11
-123.4953820507
 21
141.2522371573
  0
LINE
  8
Layer0$C$L0
 62
     3
 10
-129.9953820507
 20
164.2522371573
 11
-129.9953820507
 21
170.4522371573
  0
LINE
  8
Layer0$C$L0
 62
     3
 10
-130.4953820507
 20
170.4522371573
 11
-123.4953820507
 21
170.4522371573
  0
LINE
  8
Layer0$C$L0
 62
     3
 10
-129.3953820507
 20
170.4522371573
 11
-129.3953820507
 21
168.0522371573
  0
LINE
  8
Layer0$C$L0
 62
     3
 10
-125.7953820507
 20
168.0522371573
 11
-129.9953820507
 21
168.0522371573
  0
LINE
  8
Layer0$C$L0
 62
     3
 10
-129.9953820507
 20
161.8522371573
 11
-129.9953820507
 21
164.2522371573
  0
LINE
  8
Layer0$C$L0
 62
     3
 10
-129.3953820507
 20
161.8522371573
 11
-130.4953820507
 21
161.8522371573
  0
LINE
  8
Layer0$C$L0
 62
     3
 10
-131.9953820507
 20
163.3522371573
 11
-130.4953820507
 21
161.8522371573
  0
LINE
  8
Layer0$C$L0
 62
     3
 10
-131.9953820507
 20
163.3522371573
 11
-131.9953820507
 21
168.9522371573
  0
LINE
  8
Layer0$C$L0
 62
     3
 10
-130.4953820507
 20
170.4522371573
 11
-131.9953820507
 21
168.9522371573
  0
LINE
  8
Layer0$C$L0
 62
     3
 10
-129.9953820507
 20
164.2522371573
 11
-125.7953820507
 21
164.2522371573
  0
LINE
  8
Layer0$C$L0
 62
     3
 10
-129.3953820507
 20
164.2522371573
 11
-129.3953820507
 21
161.8522371573
  0
LINE
  8
Layer0$C$L0
 62
     3
 10
-129.9953820507
 20
151.8522371573
 11
-129.9953820507
 21
160.4522371573
  0
LINE
  8
Layer0$C$L0
 62
     3
 10
-129.3953820507
 20
160.4522371573
 11
-129.3953820507
 21
158.0522371573
  0
LINE
  8
Layer0$C$L0
 62
     3
 10
-125.7953820507
 20
158.0522371573
 11
-129.9953820507
 21
158.0522371573
  0
LINE
  8
Layer0$C$L0
 62
     3
 10
-130.4953820507
 20
160.4522371573
 11
-123.4953820507
 21
160.4522371573
  0
LINE
  8
Layer0$C$L0
 62
     3
 10
-129.3953820507
 20
151.8522371573
 11
-130.4953820507
 21
151.8522371573
  0
LINE
  8
Layer0$C$L0
 62
     3
 10
-131.9953820507
 20
153.3522371573
 11
-130.4953820507
 21
151.8522371573
  0
LINE
  8
Layer0$C$L0
 62
     3
 10
-131.9953820507
 20
153.3522371573
 11
-131.9953820507
 21
158.9522371573
  0
LINE
  8
Layer0$C$L0
 62
     3
 10
-130.4953820507
 20
160.4522371573
 11
-131.9953820507
 21
158.9522371573
  0
LINE
  8
Layer0$C$L0
 62
     3
 10
-129.9953820507
 20
154.2522371573
 11
-125.7953820507
 21
154.2522371573
  0
LINE
  8
Layer0$C$L0
 62
     3
 10
-129.3953820507
 20
154.2522371573
 11
-129.3953820507
 21
151.8522371573
  0
LINE
  8
Layer0$C$L0
 62
     3
 10
-130.4953820507
 20
150.4522371573
 11
-131.9953820507
 21
148.9522371573
  0
LINE
  8
Layer0$C$L0
 62
     3
 10
-129.9953820507
 20
144.2522371573
 11
-129.9953820507
 21
150.4522371573
  0
LINE
  8
Layer0$C$L0
 62
     3
 10
-129.9953820507
 20
141.8522371573
 11
-129.9953820507
 21
144.2522371573
  0
LINE
  8
Layer0$C$L0
 62
     3
 10
-129.3953820507
 20
141.8522371573
 11
-130.4953820507
 21
141.8522371573
  0
LINE
  8
Layer0$C$L0
 62
     3
 10
-131.9953820507
 20
143.3522371573
 11
-130.4953820507
 21
141.8522371573
  0
LINE
  8
Layer0$C$L0
 62
     3
 10
-131.9953820507
 20
143.3522371573
 11
-131.9953820507
 21
148.9522371573
  0
LINE
  8
Layer0$C$L0
 62
     3
 10
-129.3953820507
 20
150.4522371573
 11
-130.4953820507
 21
150.4522371573
  0
LINE
  8
Layer0$C$L0
 62
     3
 10
-129.3953820507
 20
150.4522371573
 11
-129.3953820507
 21
148.0522371573
  0
LINE
  8
Layer0$C$L0
 62
     3
 10
-125.7953820507
 20
148.0522371573
 11
-129.9953820507
 21
148.0522371573
  0
LINE
  8
Layer0$C$L0
 62
     3
 10
-129.9953820507
 20
144.2522371573
 11
-125.7953820507
 21
144.2522371573
  0
LINE
  8
Layer0$C$L0
 62
     3
 10
-129.3953820507
 20
144.2522371573
 11
-129.3953820507
 21
141.8522371573
  0
LINE
  8
Layer0$C$L0
 62
     3
 10
-125.7953820507
 20
170.4522371573
 11
-125.7953820507
 21
161.8522371573
  0
LINE
  8
Layer0$C$L0
 62
     3
 10
-123.4953820507
 20
161.8522371573
 11
-129.3953820507
 21
161.8522371573
  0
LINE
  8
Layer0$C$L0
 62
     3
 10
-125.7953820507
 20
160.4522371573
 11
-125.7953820507
 21
151.8522371573
  0
LINE
  8
Layer0$C$L0
 62
     3
 10
-123.4953820507
 20
151.8522371573
 11
-129.3953820507
 21
151.8522371573
  0
LINE
  8
Layer0$C$L0
 62
     3
 10
-125.7953820507
 20
150.4522371573
 11
-125.7953820507
 21
141.8522371573
  0
LINE
  8
Layer0$C$L0
 62
     3
 10
-129.3953820507
 20
150.4522371573
 11
-123.4953820507
 21
150.4522371573
  0
LINE
  8
Layer0$C$L0
 62
     3
 10
-123.4953820507
 20
141.8522371573
 11
-129.3953820507
 21
141.8522371573
  0
POLYLINE
  8
Layer0$C$L0
 62
     3
 66
     1
  0
VERTEX
  8
Layer0$C$L0
 62
     3
 10
-124.0691289795
 20
166.6559999846
  0
VERTEX
  8
Layer0$C$L0
 62
     3
 10
-123.8352080153
 20
166.6096970238
  0
VERTEX
  8
Layer0$C$L0
 62
     3
 10
-123.6809372163
 20
166.5027663939
  0
SEQEND
  8
Layer0$C$L0
 62
     3
  0
POLYLINE
  8
Layer0$C$L0
 62
     3
 66
     1
  0
VERTEX
  8
Layer0$C$L0
 62
     3
 10
-123.6809372163
 20
166.5027663939
  0
VERTEX
  8
Layer0$C$L0
 62
     3
 10
-123.5730393959
 20
166.3327450052
  0
VERTEX
  8
Layer0$C$L0
 62
     3
 10
-123.5481347710
 20
166.1758680670
  0
SEQEND
  8
Layer0$C$L0
 62
     3
  0
POLYLINE
  8
Layer0$C$L0
 62
     3
 66
     1
  0
VERTEX
  8
Layer0$C$L0
 62
     3
 10
-123.5481347710
 20
166.1758680670
  0
VERTEX
  8
Layer0$C$L0
 62
     3
 10
-123.5864529028
 20
165.9611869951
  0
VERTEX
  8
Layer0$C$L0
 62
     3
 10
-123.6809372163
 20
165.8183230219
  0
SEQEND
  8
Layer0$C$L0
 62
     3
  0
POLYLINE
  8
Layer0$C$L0
 62
     3
 66
     1
  0
VERTEX
  8
Layer0$C$L0
 62
     3
 10
-123.6809372163
 20
165.8183230219
  0
VERTEX
  8
Layer0$C$L0
 62
     3
 10
-123.8520120277
 20
165.7170450286
  0
VERTEX
  8
Layer0$C$L0
 62
     3
 10
-124.0078355432
 20
165.6957361493
  0
SEQEND
  8
Layer0$C$L0
 62
     3
  0
POLYLINE
  8
Layer0$C$L0
 62
     3
 66
     1
  0
VERTEX
  8
Layer0$C$L0
 62
     3
 10
-124.0078355432
 20
165.6957361493
  0
VERTEX
  8
Layer0$C$L0
 62
     3
 10
-124.1906875949
 20
165.7227557531
  0
VERTEX
  8
Layer0$C$L0
 62
     3
 10
-124.3143027247
 20
165.7978918765
  0
SEQEND
  8
Layer0$C$L0
 62
     3
  0
POLYLINE
  8
Layer0$C$L0
 62
     3
 66
     1
  0
VERTEX
  8
Layer0$C$L0
 62
     3
 10
-124.3143027247
 20
165.7978918765
  0
VERTEX
  8
Layer0$C$L0
 62
     3
 10
-124.3732494082
 20
165.8770241100
  0
VERTEX
  8
Layer0$C$L0
 62
     3
 10
-124.3960273064
 20
165.9511254672
  0
SEQEND
  8
Layer0$C$L0
 62
     3
  0
POLYLINE
  8
Layer0$C$L0
 62
     3
 66
     1
  0
VERTEX
  8
Layer0$C$L0
 62
     3
 10
-124.3960273064
 20
165.9511254672
  0
VERTEX
  8
Layer0$C$L0
 62
     3
 10
-124.4424593210
 20
165.8473611630
  0
VERTEX
  8
Layer0$C$L0
 62
     3
 10
-124.4981830336
 20
165.7774607311
  0
SEQEND
  8
Layer0$C$L0
 62
     3
  0
POLYLINE
  8
Layer0$C$L0
 62
     3
 66
     1
  0
VERTEX
  8
Layer0$C$L0
 62
     3
 10
-124.4981830336
 20
165.7774607311
  0
VERTEX
  8
Layer0$C$L0
 62
     3
 10
-124.6692578449
 20
165.6761827378
  0
VERTEX
  8
Layer0$C$L0
 62
     3
 10
-124.8250813605
 20
165.6548738585
  0
SEQEND
  8
Layer0$C$L0
 62
     3
  0
POLYLINE
  8
Layer0$C$L0
 62
     3
 66
     1
  0
VERTEX
  8
Layer0$C$L0
 62
     3
 10
-124.8250813605
 20
165.6548738585
  0
VERTEX
  8
Layer0$C$L0
 62
     3
 10
-125.0464146583
 20
165.6978433585
  0
VERTEX
  8
Layer0$C$L0
 62
     3
 10
-125.1928419782
 20
165.7978918765
  0
SEQEND
  8
Layer0$C$L0
 62
     3
  0
POLYLINE
  8
Layer0$C$L0
 62
     3
 66
     1
  0
VERTEX
  8
Layer0$C$L0
 62
     3
 10
-125.1928419782
 20
165.7978918765
  0
VERTEX
  8
Layer0$C$L0
 62
     3
 10
-125.3122561981
 20
166.0070064245
  0
VERTEX
  8
Layer0$C$L0
 62
     3
 10
-125.3358599962
 20
166.1962992124
  0
SEQEND
  8
Layer0$C$L0
 62
     3
  0
POLYLINE
  8
Layer0$C$L0
 62
     3
 66
     1
  0
VERTEX
  8
Layer0$C$L0
 62
     3
 10
-125.3358599962
 20
166.1962992124
  0
VERTEX
  8
Layer0$C$L0
 62
     3
 10
-125.2921471989
 20
166.4118995186
  0
VERTEX
  8
Layer0$C$L0
 62
     3
 10
-125.1928419782
 20
166.5538442574
  0
SEQEND
  8
Layer0$C$L0
 62
     3
  0
POLYLINE
  8
Layer0$C$L0
 62
     3
 66
     1
  0
VERTEX
  8
Layer0$C$L0
 62
     3
 10
-125.1928419782
 20
166.5538442574
  0
VERTEX
  8
Layer0$C$L0
 62
     3
 10
-125.0191450066
 20
166.6736396623
  0
VERTEX
  8
Layer0$C$L0
 62
     3
 10
-124.8557280786
 20
166.7036726573
  0
SEQEND
  8
Layer0$C$L0
 62
     3
  0
LINE
  8
Layer0$C$L0
 62
     3
 10
-124.8557280786
 20
166.7036726573
 11
-124.7740034969
 21
166.7036726573
  0
LINE
  8
Layer0$C$L0
 62
     3
 10
-124.7740034969
 20
166.7036726573
 11
-124.7740034969
 21
166.4619041030
  0
LINE
  8
Layer0$C$L0
 62
     3
 10
-124.7740034969
 20
166.4619041030
 11
-124.8455125059
 21
166.4619041030
  0
POLYLINE
  8
Layer0$C$L0
 62
     3
 66
     1
  0
VERTEX
  8
Layer0$C$L0
 62
     3
 10
-124.8455125059
 20
166.4619041030
  0
VERTEX
  8
Layer0$C$L0
 62
     3
 10
-124.9811563829
 20
166.4331795197
  0
VERTEX
  8
Layer0$C$L0
 62
     3
 10
-125.0702551056
 20
166.3699639486
  0
SEQEND
  8
Layer0$C$L0
 62
     3
  0
POLYLINE
  8
Layer0$C$L0
 62
     3
 66
     1
  0
VERTEX
  8
Layer0$C$L0
 62
     3
 10
-125.0702551056
 20
166.3699639486
  0
VERTEX
  8
Layer0$C$L0
 62
     3
 10
-125.1282240458
 20
166.2797477410
  0
VERTEX
  8
Layer0$C$L0
 62
     3
 10
-125.1417641146
 20
166.1962992124
  0
SEQEND
  8
Layer0$C$L0
 62
     3
  0
POLYLINE
  8
Layer0$C$L0
 62
     3
 66
     1
  0
VERTEX
  8
Layer0$C$L0
 62
     3
 10
-125.1417641146
 20
166.1962992124
  0
VERTEX
  8
Layer0$C$L0
 62
     3
 10
-125.1177207360
 20
166.0672781652
  0
VERTEX
  8
Layer0$C$L0
 62
     3
 10
-125.0600395329
 20
165.9817721854
  0
SEQEND
  8
Layer0$C$L0
 62
     3
  0
ARC
  8
Layer0$C$L0
 62
     3
 10
-124.8356602206
 20
166.2430494363
 40
0.3444007515
 50
229.3447214414
 51
275.1659353084
  0
POLYLINE
  8
Layer0$C$L0
 62
     3
 66
     1
  0
VERTEX
  8
Layer0$C$L0
 62
     3
 10
-124.8046502150
 20
165.9000476037
  0
VERTEX
  8
Layer0$C$L0
 62
     3
 10
-124.6698632208
 20
165.9232107657
  0
VERTEX
  8
Layer0$C$L0
 62
     3
 10
-124.5799076153
 20
165.9817721854
  0
SEQEND
  8
Layer0$C$L0
 62
     3
  0
POLYLINE
  8
Layer0$C$L0
 62
     3
 66
     1
  0
VERTEX
  8
Layer0$C$L0
 62
     3
 10
-124.5799076153
 20
165.9817721854
  0
VERTEX
  8
Layer0$C$L0
 62
     3
 10
-124.5152093910
 20
166.0768393171
  0
VERTEX
  8
Layer0$C$L0
 62
     3
 10
-124.4981830336
 20
166.1656524943
  0
SEQEND
  8
Layer0$C$L0
 62
     3
  0
LINE
  8
Layer0$C$L0
 62
     3
 10
-124.4981830336
 20
166.1656524943
 11
-124.4981830336
 21
166.2473770760
  0
LINE
  8
Layer0$C$L0
 62
     3
 10
-124.4981830336
 20
166.2473770760
 11
-124.3245182974
 21
166.2473770760
  0
LINE
  8
Layer0$C$L0
 62
     3
 10
-124.3245182974
 20
166.2473770760
 11
-124.3245182974
 21
166.1860836397
  0
POLYLINE
  8
Layer0$C$L0
 62
     3
 66
     1
  0
VERTEX
  8
Layer0$C$L0
 62
     3
 10
-124.3245182974
 20
166.1860836397
  0
VERTEX
  8
Layer0$C$L0
 62
     3
 10
-124.2957945772
 20
166.0806775375
  0
VERTEX
  8
Layer0$C$L0
 62
     3
 10
-124.2427937157
 20
166.0124189035
  0
SEQEND
  8
Layer0$C$L0
 62
     3
  0
POLYLINE
  8
Layer0$C$L0
 62
     3
 66
     1
  0
VERTEX
  8
Layer0$C$L0
 62
     3
 10
-124.2427937157
 20
166.0124189035
  0
VERTEX
  8
Layer0$C$L0
 62
     3
 10
-124.1191859759
 20
165.9436875495
  0
VERTEX
  8
Layer0$C$L0
 62
     3
 10
-124.0078355432
 20
165.9306943218
  0
SEQEND
  8
Layer0$C$L0
 62
     3
  0
POLYLINE
  8
Layer0$C$L0
 62
     3
 66
     1
  0
VERTEX
  8
Layer0$C$L0
 62
     3
 10
-124.0078355432
 20
165.9306943218
  0
VERTEX
  8
Layer0$C$L0
 62
     3
 10
-123.8788059843
 20
165.9547222924
  0
VERTEX
  8
Layer0$C$L0
 62
     3
 10
-123.7933085162
 20
166.0124189035
  0
SEQEND
  8
Layer0$C$L0
 62
     3
  0
POLYLINE
  8
Layer0$C$L0
 62
     3
 66
     1
  0
VERTEX
  8
Layer0$C$L0
 62
     3
 10
-123.7933085162
 20
166.0124189035
  0
VERTEX
  8
Layer0$C$L0
 62
     3
 10
-123.7427123826
 20
166.0980421917
  0
VERTEX
  8
Layer0$C$L0
 62
     3
 10
-123.7320150799
 20
166.1758680670
  0
SEQEND
  8
Layer0$C$L0
 62
     3
  0
POLYLINE
  8
Layer0$C$L0
 62
     3
 66
     1
  0
VERTEX
  8
Layer0$C$L0
 62
     3
 10
-123.7320150799
 20
166.1758680670
  0
VERTEX
  8
Layer0$C$L0
 62
     3
 10
-123.7554852294
 20
166.2749230255
  0
VERTEX
  8
Layer0$C$L0
 62
     3
 10
-123.8035240889
 20
166.3393172304
  0
SEQEND
  8
Layer0$C$L0
 62
     3
  0
POLYLINE
  8
Layer0$C$L0
 62
     3
 66
     1
  0
VERTEX
  8
Layer0$C$L0
 62
     3
 10
-123.8035240889
 20
166.3393172304
  0
VERTEX
  8
Layer0$C$L0
 62
     3
 10
-123.9442823126
 20
166.4131859592
  0
VERTEX
  8
Layer0$C$L0
 62
     3
 10
-124.0691289795
 20
166.4312573849
  0
SEQEND
  8
Layer0$C$L0
 62
     3
  0
LINE
  8
Layer0$C$L0
 62
     3
 10
-124.0691289795
 20
166.4312573849
 11
-124.0691289795
 21
166.6559999846
  0
POLYLINE
  8
Layer0$C$L0
 62
     3
 66
     1
  0
VERTEX
  8
Layer0$C$L0
 62
     3
 10
-123.9953820507
 20
156.6579001294
  0
VERTEX
  8
Layer0$C$L0
 62
     3
 10
-123.8927168309
 20
156.6422235923
  0
VERTEX
  8
Layer0$C$L0
 62
     3
 10
-123.6994685514
 20
156.5225803253
  0
SEQEND
  8
Layer0$C$L0
 62
     3
  0
POLYLINE
  8
Layer0$C$L0
 62
     3
 66
     1
  0
VERTEX
  8
Layer0$C$L0
 62
     3
 10
-123.6994685514
 20
156.5225803253
  0
VERTEX
  8
Layer0$C$L0
 62
     3
 10
-123.5924951453
 20
156.3582205567
  0
VERTEX
  8
Layer0$C$L0
 62
     3
 10
-123.5666661061
 20
156.2058975711
  0
SEQEND
  8
Layer0$C$L0
 62
     3
  0
POLYLINE
  8
Layer0$C$L0
 62
     3
 66
     1
  0
VERTEX
  8
Layer0$C$L0
 62
     3
 10
-123.5666661061
 20
156.2058975711
  0
VERTEX
  8
Layer0$C$L0
 62
     3
 10
-123.6049842379
 20
155.9912164993
  0
VERTEX
  8
Layer0$C$L0
 62
     3
 10
-123.6994685514
 20
155.8483525261
  0
SEQEND
  8
Layer0$C$L0
 62
     3
  0
POLYLINE
  8
Layer0$C$L0
 62
     3
 66
     1
  0
VERTEX
  8
Layer0$C$L0
 62
     3
 10
-123.6994685514
 20
155.8483525261
  0
VERTEX
  8
Layer0$C$L0
 62
     3
 10
-123.8695240396
 20
155.7405291470
  0
VERTEX
  8
Layer0$C$L0
 62
     3
 10
-124.0263668783
 20
155.7155500808
  0
SEQEND
  8
Layer0$C$L0
 62
     3
  0
POLYLINE
  8
Layer0$C$L0
 62
     3
 66
     1
  0
VERTEX
  8
Layer0$C$L0
 62
     3
 10
-124.0263668783
 20
155.7155500808
  0
VERTEX
  8
Layer0$C$L0
 62
     3
 10
-124.2809662593
 20
155.7630984220
  0
VERTEX
  8
Layer0$C$L0
 62
     3
 10
-124.4554209323
 20
155.8687836715
  0
SEQEND
  8
Layer0$C$L0
 62
     3
  0
POLYLINE
  8
Layer0$C$L0
 62
     3
 66
     1
  0
VERTEX
  8
Layer0$C$L0
 62
     3
 10
-124.4554209323
 20
155.8687836715
  0
VERTEX
  8
Layer0$C$L0
 62
     3
 10
-124.6464485790
 20
156.0321312907
  0
VERTEX
  8
Layer0$C$L0
 62
     3
 10
-124.7925348320
 20
156.1650352803
  0
SEQEND
  8
Layer0$C$L0
 62
     3
  0
LINE
  8
Layer0$C$L0
 62
     3
 10
-124.7925348320
 20
156.1650352803
 11
-124.9764151408
 21
156.3284844437
  0
POLYLINE
  8
Layer0$C$L0
 62
     3
 66
     1
  0
VERTEX
  8
Layer0$C$L0
 62
     3
 10
-124.9764151408
 20
156.3284844437
  0
VERTEX
  8
Layer0$C$L0
 62
     3
 10
-125.0654517625
 20
156.4004685913
  0
VERTEX
  8
Layer0$C$L0
 62
     3
 10
-125.1398643043
 20
156.4510713163
  0
SEQEND
  8
Layer0$C$L0
 62
     3
  0
LINE
  8
Layer0$C$L0
 62
     3
 10
-125.1398643043
 20
156.4510713163
 11
-125.1398643043
 21
155.6849033626
  0
LINE
  8
Layer0$C$L0
 62
     3
 10
-125.1398643043
 20
155.6849033626
 11
-125.3332034768
 21
155.6849033626
  0
LINE
  8
Layer0$C$L0
 62
     3
 10
-125.3332034768
 20
155.6849033626
 11
-125.3332034768
 21
156.7268917796
  0
LINE
  8
Layer0$C$L0
 62
     3
 10
-125.3332034768
 20
156.7268917796
 11
-125.1602954497
 21
156.7268917796
  0
POLYLINE
  8
Layer0$C$L0
 62
     3
 66
     1
  0
VERTEX
  8
Layer0$C$L0
 62
     3
 10
-125.1602954497
 20
156.7268917796
  0
VERTEX
  8
Layer0$C$L0
 62
     3
 10
-124.9920314904
 20
156.6434846960
  0
VERTEX
  8
Layer0$C$L0
 62
     3
 10
-124.8742594137
 20
156.5532270435
  0
SEQEND
  8
Layer0$C$L0
 62
     3
  0
POLYLINE
  8
Layer0$C$L0
 62
     3
 66
     1
  0
VERTEX
  8
Layer0$C$L0
 62
     3
 10
-124.8742594137
 20
156.5532270435
  0
VERTEX
  8
Layer0$C$L0
 62
     3
 10
-124.6178470700
 20
156.3175557226
  0
VERTEX
  8
Layer0$C$L0
 62
     3
 10
-124.4145586415
 20
156.1343885621
  0
SEQEND
  8
Layer0$C$L0
 62
     3
  0
POLYLINE
  8
Layer0$C$L0
 62
     3
 66
     1
  0
VERTEX
  8
Layer0$C$L0
 62
     3
 10
-124.4145586415
 20
156.1343885621
  0
VERTEX
  8
Layer0$C$L0
 62
     3
 10
-124.2131350377
 20
155.9988400868
  0
VERTEX
  8
Layer0$C$L0
 62
     3
 10
-124.0263668783
 20
155.9607238260
  0
SEQEND
  8
Layer0$C$L0
 62
     3
  0
POLYLINE
  8
Layer0$C$L0
 62
     3
 66
     1
  0
VERTEX
  8
Layer0$C$L0
 62
     3
 10
-124.0263668783
 20
155.9607238260
  0
VERTEX
  8
Layer0$C$L0
 62
     3
 10
-123.9031518063
 20
155.9856899907
  0
VERTEX
  8
Layer0$C$L0
 62
     3
 10
-123.8220554240
 20
156.0424484077
  0
SEQEND
  8
Layer0$C$L0
 62
     3
  0
POLYLINE
  8
Layer0$C$L0
 62
     3
 66
     1
  0
VERTEX
  8
Layer0$C$L0
 62
     3
 10
-123.8220554240
 20
156.0424484077
  0
VERTEX
  8
Layer0$C$L0
 62
     3
 10
-123.7721924618
 20
156.1223150861
  0
VERTEX
  8
Layer0$C$L0
 62
     3
 10
-123.7607619877
 20
156.1956819984
  0
SEQEND
  8
Layer0$C$L0
 62
     3
  0
POLYLINE
  8
Layer0$C$L0
 62
     3
 66
     1
  0
VERTEX
  8
Layer0$C$L0
 62
     3
 10
-123.7607619877
 20
156.1956819984
  0
VERTEX
  8
Layer0$C$L0
 62
     3
 10
-123.7807213518
 20
156.2822003924
  0
VERTEX
  8
Layer0$C$L0
 62
     3
 10
-123.8220554240
 20
156.3387000164
  0
SEQEND
  8
Layer0$C$L0
 62
     3
  0
ARC
  8
Layer0$C$L0
 62
     3
 10
-124.1351003623
 20
155.9676552523
 40
0.4854599370
 50
49.8461726223
 51
95.2594505311
  0
LINE
  8
Layer0$C$L0
 62
     3
 10
-124.1796004690
 20
156.4510713163
 11
-124.1796004690
 21
156.6522371573
  0
POLYLINE
  8
Layer0$C$L0
 62
     3
 66
     1
  0
VERTEX
  8
Layer0$C$L0
 62
     3
 10
-123.7927939580
 20
146.3259215352
  0
VERTEX
  8
Layer0$C$L0
 62
     3
 10
-123.6871693406
 20
146.2501705033
  0
VERTEX
  8
Layer0$C$L0
 62
     3
 10
-123.5884825037
 20
146.2237658081
  0
SEQEND
  8
Layer0$C$L0
 62
     3
  0
LINE
  8
Layer0$C$L0
 62
     3
 10
-123.5884825037
 20
146.2237658081
 11
-123.5884825037
 21
146.1011789355
  0
LINE
  8
Layer0$C$L0
 62
     3
 10
-123.5884825037
 20
146.1011789355
 11
-125.3557765835
 21
146.1011789355
  0
LINE
  8
Layer0$C$L0
 62
     3
 10
-125.3557765835
 20
146.1011789355
 11
-125.3557765835
 21
146.3429474898
  0
LINE
  8
Layer0$C$L0
 62
     3
 10
-125.3557765835
 20
146.3429474898
 11
-123.9952136396
 21
146.3429474898
  0
LINE
  8
Layer0$C$L0
 62
     3
 10
-123.9952136396
 20
146.3429474898
 11
-123.9952136396
 21
146.6426042894
  0
LINE
  8
Layer0$C$L0
 62
     3
 10
-123.9952136396
 20
146.6426042894
 11
-123.8745185397
 21
146.6426042894
  0
LINE
  8
Layer0$C$L0
 62
     3
 10
-123.8745185397
 20
146.6426042894
 11
-123.8745185397
 21
146.5506641350
  0
POLYLINE
  8
Layer0$C$L0
 62
     3
 66
     1
  0
VERTEX
  8
Layer0$C$L0
 62
     3
 10
-123.8745185397
 20
146.5506641350
  0
VERTEX
  8
Layer0$C$L0
 62
     3
 10
-123.8513434497
 20
146.4158809560
  0
VERTEX
  8
Layer0$C$L0
 62
     3
 10
-123.7927939580
 20
146.3259215352
  0
SEQEND
  8
Layer0$C$L0
 62
     3
  0
LINE
  8
Layer0$C$L0
 62
     3
 10
-122.9953820507
 20
141.2522371573
 11
-122.9953820507
 21
141.3522371573
  0
ARC
  8
Layer0$C$L0
 62
     3
 10
-123.4953820507
 20
141.3522371573
 40
0.5000000000
 50
0.0000000000
 51
90.0000000000
  0
ARC
  8
Layer0$C$L0
 62
     3
 10
-123.4953820507
 20
150.9522371573
 40
0.5000000000
 50
270.0000000000
 51
360.0000000000
  0
LINE
  8
Layer0$C$L0
 62
     3
 10
-122.9953820507
 20
150.9522371573
 11
-122.9953820507
 21
151.3522371573
  0
ARC
  8
Layer0$C$L0
 62
     3
 10
-123.4953820507
 20
151.3522371573
 40
0.5000000000
 50
0.0000000000
 51
90.0000000000
  0
ARC
  8
Layer0$C$L0
 62
     3
 10
-123.4953820507
 20
160.9522371573
 40
0.5000000000
 50
270.0000000000
 51
360.0000000000
  0
LINE
  8
Layer0$C$L0
 62
     3
 10
-122.9953820507
 20
160.9522371573
 11
-122.9953820507
 21
161.3522371573
  0
ARC
  8
Layer0$C$L0
 62
     3
 10
-123.4953820507
 20
161.3522371573
 40
0.5000000000
 50
0.0000000000
 51
90.0000000000
  0
ARC
  8
Layer0$C$L0
 62
     3
 10
-123.4953820507
 20
170.9522371573
 40
0.5000000000
 50
270.0000000000
 51
360.0000000000
  0
LINE
  8
Layer0$C$L0
 62
     3
 10
-122.9953820507
 20
170.9522371573
 11
-122.9953820507
 21
171.0522371573
  0
ARC
  8
Layer0$C$L0
 62
     3
 10
-117.7953820507
 20
170.5522371573
 40
0.5000000000
 50
0.0000000000
 51
90.0000000000
  0
LINE
  8
Layer0$C$L0
 62
     3
 10
-117.2953820507
 20
170.5522371573
 11
-117.2953820507
 21
170.3329319384
  0
LINE
  8
Layer0$C$L0
 62
     3
 10
-117.2953820507
 20
150.1522371573
 11
-117.2953820507
 21
141.7522371573
  0
ARC
  8
Layer0$C$L0
 62
     3
 10
-117.7953820507
 20
141.7522371573
 40
0.5000000000
 50
270.0000000000
 51
360.0000000000
  0
LINE
  8
Layer0$C$L0
 62
     3
 10
-125.7953820507
 20
167.9522371573
 11
-128.2953820507
 21
167.9522371573
  0
LINE
  8
Layer0$C$L0
 62
     3
 10
-125.7953820507
 20
157.9522371573
 11
-128.2953820507
 21
157.9522371573
  0
LINE
  8
Layer0$C$L0
 62
     3
 10
-125.7953820507
 20
164.3522371573
 11
-128.2953820507
 21
164.3522371573
  0
LINE
  8
Layer0$C$L0
 62
     3
 10
-125.7953820507
 20
147.9522371573
 11
-128.2953820507
 21
147.9522371573
  0
LINE
  8
Layer0$C$L0
 62
     3
 10
-125.7953820507
 20
154.3522371573
 11
-128.2953820507
 21
154.3522371573
  0
LINE
  8
Layer0$C$L0
 62
     3
 10
-125.7953820507
 20
144.3522371573
 11
-128.2953820507
 21
144.3522371573
  0
LINE
  8
Layer0$C$L0
 62
     3
 10
-123.4953820507
 20
141.2522371573
 11
-128.2953820507
 21
141.2522371573
  0
ARC
  8
Layer1$C$L1
  6
DASH
 62
     3
 10
-45.7550635999
 20
115.3437629044
 40
0.5000000000
 50
70.0000000000
 51
160.0000000000
  0
ARC
  8
Layer0$C$L0
  6
DASH
 62
     3
 10
-40.1169078752
 20
113.2916420445
 40
0.5000000000
 50
340.0000000000
 51
430.0000000000
  0
LINE
  8
Layer0$C$L0
  6
DASH
 62
     3
 10
-39.9458978035
 20
113.7614883549
 11
-45.5840535282
 21
115.8136092148
  0
LINE
  8
Layer1$C$L1
  6
DASH
 62
     3
 10
-50.8924422331
 20
102.6908333146
 11
-46.2249099103
 21
115.5147729761
  0
LINE
  8
Layer1$C$L1
  6
DASH
 62
     3
 10
-41.2519144606
 20
108.7113348800
 11
-39.6470615648
 21
113.1206319728
  0
LINE
  8
Layer1$C$L1
  6
DASH
 62
     3
 10
-49.0427034403
 20
111.1430230624
 11
-49.0427034403
 21
115.8352990208
  0
LINE
  8
Layer1$C$L1
  6
DASH
 62
     3
 10
-56.0427034403
 20
111.3352990208
 11
-56.0427034403
 21
116.3352990208
  0
ARC
  8
Layer0$C$L0
 62
     3
 10
-54.6418644178
 20
93.7350714295
 40
28.4999999997
 50
60.7516416621
 51
85.1490977962
  0
LINE
  8
Layer1$C$L1
 62
     3
 10
-52.2315773645
 20
122.1330159023
 11
-48.8735954515
 21
122.5875930897
  0
LINE
  8
Layer1$C$L1
 62
     3
 10
-49.5576532324
 20
120.7080723691
 11
-52.2315952939
 21
122.1328859770
  0
INSERT
  8
Layer8$C$L8
 62
     5
 66
     1
  2
Cadra_attr_1
 10
0.000000
 20
0.000000
  0
ATTRIB
  8
Layer8$C$L8
 62
     5
 10
-46.747117
 20
18.500000
 40
0.156000
  1
  
  2
20
 70
    11
  0
SEQEND
  8
Layer8$C$L8
 62
     5
  0
LINE
  8
Layer0$C$L0
  6
CENTER
 62
     3
 10
-52.0427034403
 20
120.1702319900
 11
-52.0427034403
 21
64.1352990208
  0
LINE
  8
Layer0$C$L0
  6
CENTER
 62
     3
 10
-34.0427034403
 20
87.8352990208
 11
-70.0427034403
 21
87.8352990208
  0
LINE
  8
Layer0$C$L0
  6
CENTER
 62
     3
 10
-153.5953820507
 20
156.1522371573
 11
-105.1953820507
 21
156.1522371573
  0
LINE
  8
Layer0$C$L0
  6
CENTER
 62
     3
 10
-105.1953820507
 20
87.8352990208
 11
-153.5953820507
 21
87.8352990208
  0
ARC
  8
Layer0$C$L0
  6
DASH
 62
     3
 10
-49.5427034403
 20
115.8352990208
 40
0.5000000000
 50
0.0000000000
 51
45.5858639149
  0
LINE
  8
Layer0$C$L0
  6
CENTER
 62
     3
 10
-52.0427034403
 20
87.8352990208
 11
-41.2690689254
 21
117.4356165755
  0
ENDSEC
  0
EOF
