  0
SECTION
  2
HEADER
  9
$ACADVER
  1
AC1004
  9
$ANGBASE
 50
0.0000000000
  9
$ANGDIR
 70
     0
  9
$ATTDIA
 70
     0
  9
$ATTMODE
 70
     1
  9
$ATTREQ
 70
     1
  9
$AUNITS
 70
     0
  9
$AUPREC
 70
     0
  9
$AXISMODE
 70
     0
  9
$AXISUNIT
 10
0.0000000000
 20
0.0000000000
  9
$BLIPMODE
 70
     1
  9
$CECOLOR
 62
   256
  9
$CELTYPE
  6
BYLAYER
  9
$CHAMFERA
 40
0.0000000000
  9
$CHAMFERB
 40
0.0000000000
  9
$CLAYER
  8
0
  9
$COORDS
 70
     0
  9
$DIMALT
 70
     0
  9
$DIMALTD
 70
     2
  9
$DIMALTF
 40
25.4000000000
  9
$DIMAPOST
  1

  9
$DIMASO
 70
     1
  9
$DIMASZ
 40
1.9727878460
  9
$DIMBLK
  1

  9
$DIMBLK1
  1

  9
$DIMBLK2
  1

  9
$DIMCEN
 40
9.0000000000E-02
  9
$DIMDLE
 40
0.0000000000
  9
$DIMDLI
 40
0.3800000000
  9
$DIMEXE
 40
3.8099999428
  9
$DIMEXO
 40
2.5399999619
  9
$DIMLFAC
 40
1.0000000000
  9
$DIMLIM
 70
     0
  9
$DIMPOST
  1

  9
$DIMRND
 40
0.0000000000
  9
$DIMSCALE
 40
1.0000000000
  9
$DIMSE1
 70
     0
  9
$DIMSE2
 70
     0
  9
$DIMSHO
 70
     0
  9
$DIMTAD
 70
     0
  9
$DIMTIH
 70
     0
  9
$DIMTM
 40
0.0000000000
  9
$DIMTOH
 70
     1
  9
$DIMTOL
 70
     0
  9
$DIMTP
 40
0.0000000000
  9
$DIMTSZ
 40
0.0000000000
  9
$DIMTXT
 40
2.9999940395
  9
$DIMZIN
 70
     0
  9
$DRAGMODE
 70
     1
  9
$ELEVATION
 40
0.0000000000
  9
$EXTMAX
 10
3.1750000000
 20
285.9482849121
 30
0.0000000000
  9
$EXTMIN
 10
-322.7791259766
 20
-3.1750000000
 30
0.0000000000
  9
$FASTZOOM
 70
     1
  9
$FILLETRAD
 40
6.2500000000E-02
  9
$FILLMODE
 70
     1
  9
$GRIDMODE
 70
     0
  9
$GRIDUNIT
 10
0.0000000000
 20
0.0000000000
  9
$INSBASE
 10
0.0000000000
 20
0.0000000000
 30
0.0000000000
  9
$LIMCHECK
 70
     0
  9
$LIMMAX
 10
3.1750000000
 20
285.9482849121
  9
$LIMMIN
 10
-322.7791259766
 20
-3.1750000000
  9
$LTSCALE
 40
1.0000000000
  9
$LUNITS
 70
     2
  9
$LUPREC
 70
     3
  9
$MEASUREMENT
 70
     0
  9
$MENU
  1
ACAD
  9
$MIRRTEXT
 70
     0
  9
$ORTHOMODE
 70
     0
  9
$OSMODE
 70
     0
  9
$PDMODE
 70
     0
  9
$PDSIZE
 40
0.0000000000
  9
$PLINEWID
 40
0.0000000000
  9
$PROXYGRAPHICS
 70
     0
  9
$QTEXTMODE
 70
     0
  9
$REGENMODE
 70
     1
  9
$SKETCHINC
 40
0.1000000000
  9
$SKPOLY
 70
     0
  9
$SNAPANG
 50
0.0000000000
  9
$SNAPBASE
 10
0.0000000000
 20
0.0000000000
  9
$SNAPISOPAIR
 70
     0
  9
$SNAPMODE
 70
     0
  9
$SNAPSTYLE
 70
     0
  9
$SNAPUNIT
 10
1.0000000000
 20
1.0000000000
  9
$SPLFRAME
 70
     0
  9
$SPLINESEGS
 70
     8
  9
$TDCREATE
 40
2455273.6807175974
  9
$TDINDWG
 40
0.0000000000
  9
$TDUPDATE
 40
2455273.6807175974
  9
$TDUSRTIMER
 40
0.0000000000
  9
$TEXTSIZE
 40
2.9999940395
  9
$TEXTSTYLE
  7
STANDARD
  9
$THICKNESS
 40
0.0000000000
  9
$TRACEWID
 40
5.0000000000E-02
  9
$USERI1
 70
     0
  9
$USERI2
 70
     0
  9
$USERI3
 70
     0
  9
$USERI4
 70
     0
  9
$USERI5
 70
     0
  9
$USERR1
 40
0.0000000000
  9
$USERR2
 40
0.0000000000
  9
$USERR3
 40
0.0000000000
  9
$USERR4
 40
0.0000000000
  9
$USERR5
 40
0.0000000000
  9
$USRTIMER
 70
     1
  9
$VIEWCTR
 10
-159.8020629883
 20
141.3866424561
  9
$VIEWDIR
 10
0.0000000000
 20
0.0000000000
 30
1.0000000000
  9
$VIEWSIZE
 40
289.1232849121
  0
ENDSEC
  0
SECTION
  2
TABLES
  0
TABLE
  2
LTYPE
 70
     2
  0
LTYPE
  2
SOLID
  3
Solid
 70
    64
 72
    65
 73
     0
 40
0.0000000000
  0
LTYPE
  2
CENTER
  3
Center
 70
    64
 72
    65
 73
     4
 40
9.1000000238
 49
6.5000000000
 49
-0.8000000119
 49
1.0000000000
 49
-0.8000000119
  0
ENDTAB
  0
TABLE
  2
LAYER
 70
     4
  0
LAYER
  2
Layer0$C$L0
 70
     0
  6
SOLID
 62
     3
  0
LAYER
  2
Layer1$C$L1
 70
     0
  6
SOLID
 62
     3
  0
LAYER
  2
Layer6$C$L6
 70
     0
  6
SOLID
 62
    31
  0
LAYER
  2
Layer8$C$L8
 70
     0
  6
SOLID
 62
     7
  0
ENDTAB
  0
TABLE
  2
STYLE
 70
     1
  0
STYLE
  2
STANDARD
  3
txt
  4

 40
0.0000000000
 41
1.0000000000
 42
2.9999940395
 50
0.0000000000
 70
     0
 71
     0
  0
ENDTAB
  0
ENDSEC
  0
SECTION
  2
BLOCKS
  0
BLOCK
  8
Layer8$C$L8
  2
Cadra_attr_0
 70
     2
 10
0.0000000000
 20
0.0000000000
  0
TEXT
  8
Layer8$C$L8
 10
-67.5451324410
 20
29.8423401868
 40
4.1671714783
  1
CS-VL2-46S
 41
0.8595637381
 72
     5
 11
-35.3075870008
 21
29.8423401868
  0
ATTDEF
  8
Layer8$C$L8
 10
-51.426361
 20
31.925925
 40
0.156000
  1
峀>嶬
  3

  2
10
 70
    11
  0
ENDBLK
  8
Layer8$C$L8
  0
BLOCK
  8
Layer8$C$L8
  2
Cadra_attr_1
 70
     2
 10
0.000000
 20
0.000000
  0
TEXT
  8
Layer8$C$L8
 62
     5
 10
-66.0872999535
 20
16.0000000000
 40
5.0000000000
  1
MA4-A04436
 41
0.8595637381
 72
     5
 11
-27.4069317370
 21
16.0000000000
  0
ATTDEF
  8
Layer8$C$L8
 62
     5
 10
-46.747117
 20
18.500000
 40
0.156000
  1
  
  3

  2
20
 70
    11
  0
ENDBLK
  8
Layer8$C$L8
  0
ENDSEC
  0
SECTION
  2
ENTITIES
  0
LINE
  8
Layer1$C$L1
  6
CENTER
 62
     3
 10
-266.4041190596
 20
184.2732895699
 11
-266.4041190596
 21
282.7732895699
  0
LINE
  8
Layer1$C$L1
  6
CENTER
 62
     3
 10
-239.1541190596
 20
213.2732895699
 11
-239.1541190596
 21
233.2732895699
  0
LINE
  8
Layer1$C$L1
  6
CENTER
 62
     3
 10
-293.6541190596
 20
213.2732895699
 11
-293.6541190596
 21
233.2732895699
  0
LINE
  8
Layer0$C$L0
 62
     3
 10
-290.4041190596
 20
216.2732895699
 11
-296.9041190596
 21
216.2732895699
  0
LINE
  8
Layer0$C$L0
 62
     3
 10
-235.9041190596
 20
216.2732895699
 11
-242.4041190596
 21
216.2732895699
  0
LINE
  8
Layer0$C$L0
 62
     3
 10
-222.3118039709
 20
214.2752126326
 11
-222.3657067612
 21
200.2604871723
  0
LINE
  8
Layer0$C$L0
 62
     3
 10
-235.9041190596
 20
231.7732895699
 11
-235.9041190596
 21
214.7732895699
  0
LINE
  8
Layer0$C$L0
 62
     3
 10
-242.4041190596
 20
231.7732895699
 11
-242.4041190596
 21
214.7732895699
  0
LINE
  8
Layer0$C$L0
 62
     3
 10
-244.6041190596
 20
190.2732895699
 11
-287.4041190596
 21
190.2732895699
  0
LINE
  8
Layer0$C$L0
 62
     3
 10
-290.4041190596
 20
214.7732895699
 11
-290.4041190596
 21
231.7732895699
  0
LINE
  8
Layer0$C$L0
 62
     3
 10
-296.9041190596
 20
231.7732895699
 11
-296.9041190596
 21
214.7732895699
  0
LINE
  8
Layer0$C$L0
 62
     3
 10
-310.4425313581
 20
200.2604871723
 11
-310.4964341483
 21
214.2752126326
  0
ARC
  8
Layer0$C$L0
 62
     3
 10
-227.3656697793
 20
200.2797177993
 40
5.0000000000
 50
301.0231432622
 51
359.7796327039
  0
ARC
  8
Layer0$C$L0
 62
     3
 10
-245.4041190596
 20
230.2732895699
 40
40.0000000000
 50
271.1459919984
 51
301.0231432622
  0
ARC
  8
Layer0$C$L0
 62
     3
 10
-287.4041190596
 20
230.2732895699
 40
40.0000000000
 50
238.9768567378
 51
270.0000000000
  0
ARC
  8
Layer0$C$L0
 62
     3
 10
-305.4425683399
 20
200.2797177993
 40
5.0000000000
 50
180.2203672961
 51
238.9768567378
  0
LINE
  8
Layer0$C$L0
 62
     3
 10
-312.0136570676
 20
215.2715164791
 11
-312.0721757213
 21
231.7732895699
  0
ARC
  8
Layer0$C$L0
 62
     3
 10
-310.9964304502
 20
214.2732895699
 40
0.5000000000
 50
0.2203672961
 51
90.0000000000
  0
ARC
  8
Layer0$C$L0
 62
     3
 10
-311.5136602115
 20
215.2732895699
 40
0.5000000000
 50
180.2031816706
 51
270.0000000000
  0
LINE
  8
Layer0$C$L0
 62
     3
 10
-220.7360623979
 20
231.7732895699
 11
-220.7945810516
 21
215.2715164791
  0
LINE
  8
Layer0$C$L0
 62
     3
 10
-221.2945779078
 20
214.7732895699
 11
-311.5136602115
 21
214.7732895699
  0
ARC
  8
Layer0$C$L0
 62
     3
 10
-221.8118076691
 20
214.2732895699
 40
0.5000000000
 50
90.0000000000
 51
179.7796327039
  0
ARC
  8
Layer0$C$L0
 62
     3
 10
-221.2945779078
 20
215.2732895699
 40
0.5000000000
 50
270.0000000000
 51
359.7968183294
  0
LINE
  8
Layer1$C$L1
  6
CENTER
 62
     3
 10
-239.1541190596
 20
125.0577270193
 11
-239.1541190596
 21
134.2577270193
  0
LINE
  8
Layer1$C$L1
  6
CENTER
 62
     3
 10
-293.6541190596
 20
125.0577270193
 11
-293.6541190596
 21
134.2577270193
  0
LINE
  8
Layer1$C$L1
  6
CENTER
 62
     3
 10
-164.6886755933
 20
96.5577270193
 11
-100.6886755933
 21
96.5577270193
  0
LINE
  8
Layer1$C$L1
  6
CENTER
 62
     3
 10
-266.4041190596
 20
59.0134999483
 11
-266.4041190596
 21
137.2577270193
  0
LINE
  8
Layer1$C$L1
  6
CENTER
 62
     3
 10
-319.6041190596
 20
96.5577270193
 11
-213.2041190596
 21
96.5577270193
  0
LINE
  8
Layer0$C$L0
 62
     3
 10
-312.0996032188
 20
78.3077270193
 11
-312.0992249598
 21
72.0446065203
  0
LINE
  8
Layer0$C$L0
 62
     3
 10
-312.1023058561
 20
123.0573344548
 11
-312.0999655867
 21
84.3077270193
  0
LINE
  8
Layer0$C$L0
 62
     3
 10
-290.4041190596
 20
129.5577270193
 11
-242.4041190596
 21
129.5577270193
  0
LINE
  8
Layer0$C$L0
 62
     3
 10
-305.6023178373
 20
129.5577270193
 11
-296.9041190596
 21
129.5577270193
  0
LINE
  8
Layer0$C$L0
 62
     3
 10
-296.9041190596
 20
128.2577270193
 11
-290.4041190596
 21
128.2577270193
  0
LINE
  8
Layer0$C$L0
 62
     3
 10
-242.4041190596
 20
128.2577270193
 11
-235.9041190596
 21
128.2577270193
  0
LINE
  8
Layer0$C$L0
 62
     3
 10
-235.9041190596
 20
129.5577270193
 11
-227.2059322395
 21
129.5577270193
  0
LINE
  8
Layer0$C$L0
 62
     3
 10
-220.7059322395
 20
84.3077270193
 11
-220.7059322395
 21
123.0577270193
  0
LINE
  8
Layer0$C$L0
 62
     3
 10
-220.7059322395
 20
72.0446367177
 11
-220.7059322395
 21
78.3077270193
  0
LINE
  8
Layer0$C$L0
 62
     3
 10
-219.2041190596
 20
106.3077270193
 11
-219.2041190596
 21
72.2577270193
  0
LINE
  8
Layer0$C$L0
 62
     3
 10
-219.2041190596
 20
123.2577270193
 11
-219.2041190596
 21
117.3077270193
  0
LINE
  8
Layer0$C$L0
 62
     3
 10
-220.7041190596
 20
116.8077270193
 11
-220.7041190596
 21
123.2577270193
  0
LINE
  8
Layer0$C$L0
 62
     3
 10
-222.2041190596
 20
114.8077270193
 11
-222.2041190596
 21
115.0577270193
  0
LINE
  8
Layer0$C$L0
 62
     3
 10
-222.2041190596
 20
108.5577270193
 11
-222.2041190596
 21
108.8077270193
  0
LINE
  8
Layer0$C$L0
 62
     3
 10
-220.7964413055
 20
71.7577270193
 11
-219.7041190596
 21
71.7577270193
  0
LINE
  8
Layer0$C$L0
 62
     3
 10
-305.6041190596
 20
131.2577270193
 11
-227.2041190596
 21
131.2577270193
  0
LINE
  8
Layer0$C$L0
 62
     3
 10
-310.6041190596
 20
114.8077270193
 11
-310.6041190596
 21
115.0577270193
  0
LINE
  8
Layer0$C$L0
 62
     3
 10
-310.6041190596
 20
108.5577270193
 11
-310.6041190596
 21
108.8077270193
  0
LINE
  8
Layer0$C$L0
 62
     3
 10
-312.1041190596
 20
116.8077270193
 11
-312.1041190596
 21
123.2577270193
  0
LINE
  8
Layer0$C$L0
 62
     3
 10
-312.6041190596
 20
78.3077270193
 11
-312.6041190596
 21
84.3077270193
  0
LINE
  8
Layer0$C$L0
 62
     3
 10
-313.1041190596
 20
116.8077270193
 11
-312.1019284132
 21
116.8077270193
  0
LINE
  8
Layer0$C$L0
 62
     3
 10
-313.6041190596
 20
123.2577270193
 11
-313.6041190596
 21
117.3077270193
  0
LINE
  8
Layer0$C$L0
 62
     3
 10
-313.1041190596
 20
71.7577270193
 11
-312.0087158947
 21
71.7577270193
  0
LINE
  8
Layer0$C$L0
 62
     3
 10
-313.1041190596
 20
106.8077270193
 11
-312.1041190596
 21
106.8077270193
  0
LINE
  8
Layer0$C$L0
 62
     3
 10
-313.6041190596
 20
106.3077270193
 11
-313.6041190596
 21
72.2577270193
  0
ARC
  8
Layer0$C$L0
 62
     3
 10
-227.2041190596
 20
123.2577270193
 40
8.0000000000
 50
2.0355549961E-13
 51
90.0000000000
  0
ARC
  8
Layer0$C$L0
 62
     3
 10
-305.6041190596
 20
123.2577270193
 40
8.0000000000
 50
90.0000000000
 51
180.0000000000
  0
ARC
  8
Layer0$C$L0
 62
     3
 10
-227.2041190596
 20
123.2577270193
 40
6.5000000000
 50
0.0000000000
 51
90.0000000000
  0
ARC
  8
Layer0$C$L0
 62
     3
 10
-305.6041190596
 20
123.2577270193
 40
6.5000000000
 50
90.0000000000
 51
180.0000000000
  0
LINE
  8
Layer1$C$L1
 62
     3
 10
-288.6541190596
 20
129.5577270193
 11
-288.6541190596
 21
129.7577270193
  0
LINE
  8
Layer1$C$L1
 62
     3
 10
-298.6541190596
 20
129.5577270193
 11
-298.6541190596
 21
129.7577270193
  0
LINE
  8
Layer1$C$L1
 62
     3
 10
-234.1541190596
 20
129.5577270193
 11
-234.1541190596
 21
129.7577270193
  0
LINE
  8
Layer1$C$L1
 62
     3
 10
-244.1541190596
 20
129.5577270193
 11
-244.1541190596
 21
129.7577270193
  0
LINE
  8
Layer0$C$L0
 62
     3
 10
-219.7041190596
 20
106.8077270193
 11
-220.7041190596
 21
106.8077270193
  0
LINE
  8
Layer0$C$L0
 62
     3
 10
-219.7041190596
 20
116.8077270193
 11
-220.7059322395
 21
116.8077270193
  0
LINE
  8
Layer0$C$L0
 62
     3
 10
-220.7041190596
 20
71.7577270193
 11
-220.7041190596
 21
78.3077270193
  0
LINE
  8
Layer0$C$L0
 62
     3
 10
-220.7041190596
 20
84.3077270193
 11
-220.7041190596
 21
106.8077270193
  0
LINE
  8
Layer0$C$L0
 62
     3
 10
-312.1041190596
 20
71.7577270193
 11
-312.1041190596
 21
78.3077270193
  0
LINE
  8
Layer0$C$L0
 62
     3
 10
-312.1041190596
 20
84.3077270193
 11
-312.1041190596
 21
106.8077270193
  0
LINE
  8
Layer0$C$L0
 62
     3
 10
-236.1541190596
 20
129.7577270193
 11
-227.2041190596
 21
129.7577270193
  0
LINE
  8
Layer0$C$L0
 62
     3
 10
-305.6041190596
 20
129.7577270193
 11
-296.6541190596
 21
129.7577270193
  0
LINE
  8
Layer0$C$L0
 62
     3
 10
-290.6541190596
 20
129.7577270193
 11
-242.1541190596
 21
129.7577270193
  0
LINE
  8
Layer0$C$L0
 62
     3
 10
-311.1041190596
 20
108.8077270193
 11
-310.6041190596
 21
108.8077270193
  0
LINE
  8
Layer0$C$L0
 62
     3
 10
-311.1041190596
 20
114.8077270193
 11
-310.6041190596
 21
114.8077270193
  0
LINE
  8
Layer1$C$L1
 62
     3
 10
-221.2041190596
 20
78.3077270193
 11
-221.2041190596
 21
84.3077270193
  0
LINE
  8
Layer1$C$L1
 62
     3
 10
-311.1041190596
 20
108.8077270193
 11
-311.1041190596
 21
114.8077270193
  0
LINE
  8
Layer0$C$L0
 62
     3
 10
-220.2041190596
 20
84.3077270193
 11
-221.2041190596
 21
84.3077270193
  0
LINE
  8
Layer0$C$L0
 62
     3
 10
-220.2041190596
 20
78.3077270193
 11
-221.2041190596
 21
78.3077270193
  0
LINE
  8
Layer0$C$L0
 62
     3
 10
-312.6041190596
 20
78.3077270193
 11
-311.6041190596
 21
78.3077270193
  0
LINE
  8
Layer0$C$L0
 62
     3
 10
-312.6041190596
 20
84.3077270193
 11
-311.6041190596
 21
84.3077270193
  0
LINE
  8
Layer1$C$L1
 62
     3
 10
-311.6041190596
 20
78.3077270193
 11
-311.6041190596
 21
84.3077270193
  0
LINE
  8
Layer1$C$L1
 62
     3
 10
-221.7041190596
 20
108.8077270193
 11
-221.7041190596
 21
114.8077270193
  0
LINE
  8
Layer0$C$L0
 62
     3
 10
-221.7041190596
 20
114.8077270193
 11
-222.2041190596
 21
114.8077270193
  0
LINE
  8
Layer0$C$L0
 62
     3
 10
-221.7041190596
 20
108.8077270193
 11
-222.2041190596
 21
108.8077270193
  0
LINE
  8
Layer0$C$L0
 62
     3
 10
-296.6541190596
 20
129.2577270193
 11
-290.6541190596
 21
129.2577270193
  0
LINE
  8
Layer0$C$L0
 62
     3
 10
-242.1541190596
 20
129.2577270193
 11
-236.1541190596
 21
129.2577270193
  0
LINE
  8
Layer0$C$L0
 62
     3
 10
-296.6541190596
 20
130.2577270193
 11
-290.6541190596
 21
130.2577270193
  0
LINE
  8
Layer0$C$L0
 62
     3
 10
-242.1541190596
 20
130.2577270193
 11
-236.1541190596
 21
130.2577270193
  0
LINE
  8
Layer1$C$L1
 62
     3
 10
-220.2041190596
 20
78.3077270193
 11
-220.2041190596
 21
84.3077270193
  0
LINE
  8
Layer1$C$L1
 62
     3
 10
-290.6541190596
 20
129.2577270193
 11
-290.6541190596
 21
130.2577270193
  0
LINE
  8
Layer1$C$L1
 62
     3
 10
-296.6541190596
 20
129.2577270193
 11
-296.6541190596
 21
130.2577270193
  0
LINE
  8
Layer1$C$L1
 62
     3
 10
-242.1541190596
 20
129.2577270193
 11
-242.1541190596
 21
130.2577270193
  0
LINE
  8
Layer1$C$L1
 62
     3
 10
-236.1541190596
 20
129.2577270193
 11
-236.1541190596
 21
130.2577270193
  0
ARC
  8
Layer0$C$L0
 62
     3
 10
-313.1041190596
 20
72.2577270193
 40
0.5000000000
 50
180.0000000000
 51
270.0000000000
  0
ARC
  8
Layer0$C$L0
 62
     3
 10
-313.1041190596
 20
106.3077270193
 40
0.5000000000
 50
90.0000000000
 51
180.0000000000
  0
ARC
  8
Layer0$C$L0
 62
     3
 10
-313.1041190596
 20
117.3077270193
 40
0.5000000000
 50
180.0000000000
 51
270.0000000000
  0
ARC
  8
Layer0$C$L0
 62
     3
 10
-219.7041190596
 20
72.2577270193
 40
0.5000000000
 50
270.0000000000
 51
360.0000000000
  0
ARC
  8
Layer0$C$L0
 62
     3
 10
-219.7041190596
 20
106.3077270193
 40
0.5000000000
 50
0.0000000000
 51
90.0000000000
  0
ARC
  8
Layer0$C$L0
 62
     3
 10
-219.7041190596
 20
117.3077270193
 40
0.5000000000
 50
270.0000000000
 51
360.0000000000
  0
TEXT
  8
Layer8$C$L8
 62
     3
 10
-273.1308411675
 20
69.5577270193
 40
4.0000000000
  1
俠俽亅倁俴俀
 41
0.3074844418
 72
     5
 11
-259.6015257289
 21
69.5577270193
  0
ARC
  8
Layer0$C$L0
 62
     3
 10
-232.6541190596
 20
117.4577270193
 40
3.2500000000
 50
270.0000000000
 51
450.0000000000
  0
ARC
  8
Layer0$C$L0
 62
     3
 10
-232.6541190596
 20
85.4577270193
 40
3.2500000000
 50
270.0000000000
 51
450.0000000000
  0
ARC
  8
Layer0$C$L0
 62
     3
 10
-232.6541190596
 20
107.6577270193
 40
3.2500000000
 50
270.0000000000
 51
450.0000000000
  0
ARC
  8
Layer0$C$L0
 62
     3
 10
-232.6541190596
 20
75.6577270193
 40
3.2500000000
 50
270.0000000000
 51
450.0000000000
  0
ARC
  8
Layer0$C$L0
 62
     3
 10
-246.1541190596
 20
85.4577270193
 40
3.2500000000
 50
90.0000000000
 51
270.0000000000
  0
ARC
  8
Layer0$C$L0
 62
     3
 10
-246.1541190596
 20
75.6577270193
 40
3.2500000000
 50
90.0000000000
 51
270.0000000000
  0
ARC
  8
Layer0$C$L0
 62
     3
 10
-246.1541190596
 20
107.6577270193
 40
3.2500000000
 50
90.0000000000
 51
270.0000000000
  0
ARC
  8
Layer0$C$L0
 62
     3
 10
-246.1541190596
 20
117.4577270193
 40
3.2500000000
 50
90.0000000000
 51
270.0000000000
  0
CIRCLE
  8
Layer0$C$L0
 62
     3
 10
-250.4041190596
 20
96.5577270193
 40
1.7500000000
  0
CIRCLE
  8
Layer0$C$L0
 62
     3
 10
-282.4041190596
 20
96.5577270193
 40
1.7500000000
  0
ARC
  8
Layer0$C$L0
 62
     3
 10
-286.6541190596
 20
85.4577270193
 40
3.2500000000
 50
270.0000000000
 51
450.0000000000
  0
ARC
  8
Layer0$C$L0
 62
     3
 10
-286.6541190596
 20
107.6577270193
 40
3.2500000000
 50
270.0000000000
 51
450.0000000000
  0
ARC
  8
Layer0$C$L0
 62
     3
 10
-286.6541190596
 20
75.6577270193
 40
3.2500000000
 50
270.0000000000
 51
450.0000000000
  0
ARC
  8
Layer0$C$L0
 62
     3
 10
-286.6541190596
 20
117.4577270193
 40
3.2500000000
 50
270.0000000000
 51
450.0000000000
  0
ARC
  8
Layer0$C$L0
 62
     3
 10
-300.1541190596
 20
107.6577270193
 40
3.2500000000
 50
90.0000000000
 51
270.0000000000
  0
ARC
  8
Layer0$C$L0
 62
     3
 10
-300.1541190596
 20
117.4577270193
 40
3.2500000000
 50
90.0000000000
 51
270.0000000000
  0
ARC
  8
Layer0$C$L0
 62
     3
 10
-300.1541190596
 20
75.6577270193
 40
3.2500000000
 50
90.0000000000
 51
270.0000000000
  0
ARC
  8
Layer0$C$L0
 62
     3
 10
-300.1541190596
 20
85.4577270193
 40
3.2500000000
 50
90.0000000000
 51
270.0000000000
  0
LINE
  8
Layer0$C$L0
 62
     3
 10
-220.7954775807
 20
71.5490763069
 11
-220.7910379915
 21
71.5446367177
  0
LINE
  8
Layer0$C$L0
 62
     3
 10
-222.2910379915
 20
84.5577270193
 11
-220.7254332176
 21
84.5577270193
  0
LINE
  8
Layer0$C$L0
 62
     3
 10
-222.2910379915
 20
78.0577270193
 11
-220.7059322395
 21
78.0577270193
  0
LINE
  8
Layer0$C$L0
 62
     3
 10
-222.2910379915
 20
123.0577270193
 11
-222.2910379915
 21
70.0134999483
  0
LINE
  8
Layer0$C$L0
 62
     3
 10
-222.2910379915
 20
108.5577270193
 11
-220.7059322395
 21
108.5577270193
  0
LINE
  8
Layer0$C$L0
 62
     3
 10
-222.2910379915
 20
115.0577270193
 11
-220.7059322395
 21
115.0577270193
  0
LINE
  8
Layer0$C$L0
 62
     3
 10
-222.3598919886
 20
71.5446367177
 11
-221.2059322395
 21
71.5446367177
  0
LINE
  8
Layer0$C$L0
 62
     3
 10
-235.9041190596
 20
129.5577270193
 11
-235.9041190596
 21
128.0577270193
  0
LINE
  8
Layer0$C$L0
 62
     3
 10
-305.5172001277
 20
128.0577270193
 11
-227.2910379915
 21
128.0577270193
  0
LINE
  8
Layer0$C$L0
 62
     3
 10
-242.4041190596
 20
129.5577270193
 11
-242.4041190596
 21
128.0577270193
  0
LINE
  8
Layer0$C$L0
 62
     3
 10
-245.4041190596
 20
94.0577270193
 11
-245.4041190596
 21
99.0577270193
  0
LINE
  8
Layer0$C$L0
 62
     3
 10
-245.9041190596
 20
94.4529114608
 11
-245.4041190596
 21
94.4529114608
  0
LINE
  8
Layer0$C$L0
 62
     3
 10
-245.9041190596
 20
98.6625425779
 11
-245.9041190596
 21
94.4529114608
  0
LINE
  8
Layer0$C$L0
 62
     3
 10
-245.9041190596
 20
98.6625425779
 11
-245.4041190596
 21
98.6625425779
  0
LINE
  8
Layer0$C$L0
 62
     3
 10
-246.1541190596
 20
110.9077270193
 11
-232.6541190596
 21
110.9077270193
  0
LINE
  8
Layer0$C$L0
 62
     3
 10
-246.1541190596
 20
82.2077270193
 11
-232.6541190596
 21
82.2077270193
  0
LINE
  8
Layer0$C$L0
 62
     3
 10
-246.1541190596
 20
78.9077270193
 11
-232.6541190596
 21
78.9077270193
  0
LINE
  8
Layer0$C$L0
 62
     3
 10
-246.1541190596
 20
72.4077270193
 11
-232.6541190596
 21
72.4077270193
  0
LINE
  8
Layer0$C$L0
 62
     3
 10
-246.1541190596
 20
114.2077270193
 11
-232.6541190596
 21
114.2077270193
  0
LINE
  8
Layer0$C$L0
 62
     3
 10
-246.1541190596
 20
120.7077270193
 11
-232.6541190596
 21
120.7077270193
  0
LINE
  8
Layer0$C$L0
 62
     3
 10
-246.1541190596
 20
104.4077270193
 11
-232.6541190596
 21
104.4077270193
  0
LINE
  8
Layer0$C$L0
 62
     3
 10
-246.1541190596
 20
88.7077270193
 11
-232.6541190596
 21
88.7077270193
  0
LINE
  8
Layer0$C$L0
 62
     3
 10
-247.4041190596
 20
94.0577270193
 11
-247.4041190596
 21
99.0577270193
  0
LINE
  8
Layer0$C$L0
 62
     3
 10
-247.4041190596
 20
94.0577270193
 11
-245.4041190596
 21
94.0577270193
  0
LINE
  8
Layer0$C$L0
 62
     3
 10
-247.4041190596
 20
99.0577270193
 11
-245.4041190596
 21
99.0577270193
  0
LINE
  8
Layer0$C$L0
 62
     3
 10
-256.4041190596
 20
77.5577270193
 11
-256.4041190596
 21
115.5577270193
  0
LINE
  8
Layer0$C$L0
 62
     3
 10
-275.4041190596
 20
116.5577270193
 11
-257.4041190596
 21
116.5577270193
  0
LINE
  8
Layer0$C$L0
 62
     3
 10
-276.4041190596
 20
77.5577270193
 11
-276.4041190596
 21
115.5577270193
  0
LINE
  8
Layer0$C$L0
 62
     3
 10
-275.4041190596
 20
76.5577270193
 11
-257.4041190596
 21
76.5577270193
  0
LINE
  8
Layer0$C$L0
 62
     3
 10
-285.4041190596
 20
94.0577270193
 11
-285.4041190596
 21
99.0577270193
  0
LINE
  8
Layer0$C$L0
 62
     3
 10
-286.9041190596
 20
98.6625425779
 11
-286.9041190596
 21
94.4529114608
  0
LINE
  8
Layer0$C$L0
 62
     3
 10
-287.4041190596
 20
99.0577270193
 11
-285.4041190596
 21
99.0577270193
  0
LINE
  8
Layer0$C$L0
 62
     3
 10
-287.4041190596
 20
99.0577270193
 11
-287.4041190596
 21
94.0577270193
  0
LINE
  8
Layer0$C$L0
 62
     3
 10
-287.4041190596
 20
94.4529114608
 11
-286.9041190596
 21
94.4529114608
  0
LINE
  8
Layer0$C$L0
 62
     3
 10
-287.4041190596
 20
98.6625425779
 11
-286.9041190596
 21
98.6625425779
  0
LINE
  8
Layer0$C$L0
 62
     3
 10
-287.4041190596
 20
94.0577270193
 11
-285.4041190596
 21
94.0577270193
  0
LINE
  8
Layer0$C$L0
 62
     3
 10
-290.4041190596
 20
129.5577270193
 11
-290.4041190596
 21
128.0577270193
  0
LINE
  8
Layer0$C$L0
 62
     3
 10
-296.9041190596
 20
128.0577270193
 11
-296.9041190596
 21
129.5577270193
  0
LINE
  8
Layer0$C$L0
 62
     3
 10
-300.1541190596
 20
72.4077270193
 11
-286.6541190596
 21
72.4077270193
  0
LINE
  8
Layer0$C$L0
 62
     3
 10
-300.1541190596
 20
104.4077270193
 11
-286.6541190596
 21
104.4077270193
  0
LINE
  8
Layer0$C$L0
 62
     3
 10
-300.1541190596
 20
120.7077270193
 11
-286.6541190596
 21
120.7077270193
  0
LINE
  8
Layer0$C$L0
 62
     3
 10
-300.1541190596
 20
82.2077270193
 11
-286.6541190596
 21
82.2077270193
  0
LINE
  8
Layer0$C$L0
 62
     3
 10
-300.1541190596
 20
78.9077270193
 11
-286.6541190596
 21
78.9077270193
  0
LINE
  8
Layer0$C$L0
 62
     3
 10
-300.1541190596
 20
110.9077270193
 11
-286.6541190596
 21
110.9077270193
  0
LINE
  8
Layer0$C$L0
 62
     3
 10
-300.1541190596
 20
114.2077270193
 11
-286.6541190596
 21
114.2077270193
  0
LINE
  8
Layer0$C$L0
 62
     3
 10
-300.1541190596
 20
88.7077270193
 11
-286.6541190596
 21
88.7077270193
  0
LINE
  8
Layer0$C$L0
 62
     3
 10
-305.5172001277
 20
65.0134999483
 11
-227.2910379915
 21
65.0134999483
  0
LINE
  8
Layer0$C$L0
 62
     3
 10
-310.5172001277
 20
123.0577270193
 11
-310.5172001277
 21
70.0134999483
  0
LINE
  8
Layer0$C$L0
 62
     3
 10
-311.5992249607
 20
71.5446367177
 11
-310.4483461307
 21
71.5446367177
  0
LINE
  8
Layer0$C$L0
 62
     3
 10
-312.0995881201
 20
78.0577270193
 11
-310.5172001277
 21
78.0577270193
  0
LINE
  8
Layer0$C$L0
 62
     3
 10
-312.1018227225
 20
115.0577270193
 11
-310.5172001277
 21
115.0577270193
  0
LINE
  8
Layer0$C$L0
 62
     3
 10
-312.1014301572
 20
108.5577270193
 11
-310.5172001277
 21
108.5577270193
  0
LINE
  8
Layer0$C$L0
 62
     3
 10
-312.0999806854
 20
84.5577270193
 11
-310.5172001277
 21
84.5577270193
  0
ARC
  8
Layer0$C$L0
 62
     3
 10
-275.4041190596
 20
115.5577270193
 40
1.0000000000
 50
90.0000000000
 51
180.0000000000
  0
ARC
  8
Layer0$C$L0
 62
     3
 10
-275.4041190596
 20
77.5577270193
 40
1.0000000000
 50
180.0000000000
 51
270.0000000000
  0
ARC
  8
Layer0$C$L0
 62
     3
 10
-257.4041190596
 20
77.5577270193
 40
1.0000000000
 50
270.0000000000
 51
360.0000000000
  0
ARC
  8
Layer0$C$L0
 62
     3
 10
-257.4041190596
 20
115.5577270193
 40
1.0000000000
 50
0.0000000000
 51
90.0000000000
  0
ARC
  8
Layer0$C$L0
 62
     3
 10
-227.2059322395
 20
123.0577270193
 40
6.5000000000
 50
360.0000000000
 51
450.0000000000
  0
ARC
  8
Layer0$C$L0
 62
     3
 10
-305.6023178373
 20
123.0577270193
 40
6.5000000000
 50
90.0000000000
 51
180.0034603590
  0
ARC
  8
Layer0$C$L0
 62
     3
 10
-221.2059322395
 20
72.0446367177
 40
0.5000000000
 50
270.0000000000
 51
360.0000000000
  0
ARC
  8
Layer0$C$L0
 62
     3
 10
-311.5992249607
 20
72.0446367177
 40
0.5000000000
 50
180.0034603590
 51
270.0000000000
  0
ARC
  8
Layer0$C$L0
 62
     3
 10
-227.2910379915
 20
123.0577270193
 40
5.0000000000
 50
0.0000000000
 51
90.0000000000
  0
ARC
  8
Layer0$C$L0
 62
     3
 10
-305.5172001277
 20
123.0577270193
 40
5.0000000000
 50
90.0000000000
 51
180.0000000000
  0
ARC
  8
Layer0$C$L0
 62
     3
 10
-227.2910379915
 20
70.0134999483
 40
5.0000000000
 50
270.0000000000
 51
360.0000000000
  0
ARC
  8
Layer0$C$L0
 62
     3
 10
-305.5172001277
 20
70.0134999483
 40
5.0000000000
 50
180.0000000000
 51
270.0000000000
  0
CIRCLE
  8
Layer1$C$L1
 62
     3
 10
-254.9041190596
 20
74.0577270193
 40
1.7500000000
  0
CIRCLE
  8
Layer1$C$L1
 62
     3
 10
-277.9041190596
 20
74.0577270193
 40
1.7500000000
  0
CIRCLE
  8
Layer1$C$L1
 62
     3
 10
-277.9041190596
 20
119.0577270193
 40
1.7500000000
  0
CIRCLE
  8
Layer1$C$L1
 62
     3
 10
-254.9041190596
 20
119.0577270193
 40
1.7500000000
  0
LINE
  8
Layer1$C$L1
  6
CENTER
 62
     3
 10
-307.6041190596
 20
111.8077270193
 11
-315.1041190596
 21
111.8077270193
  0
LINE
  8
Layer1$C$L1
  6
CENTER
 62
     3
 10
-307.6041190596
 20
81.3077270193
 11
-315.1041190596
 21
81.3077270193
  0
LINE
  8
Layer1$C$L1
  6
CENTER
 62
     3
 10
-225.2041190596
 20
81.3077270193
 11
-217.7041190596
 21
81.3077270193
  0
LINE
  8
Layer1$C$L1
  6
CENTER
 62
     3
 10
-225.2041190596
 20
111.8077270193
 11
-217.7041190596
 21
111.8077270193
  0
LINE
  8
Layer1$C$L1
  6
CENTER
 62
     3
 10
-135.6886755933
 20
81.3077270193
 11
-112.6886755933
 21
81.3077270193
  0
LINE
  8
Layer1$C$L1
  6
CENTER
 62
     3
 10
-135.6886755933
 20
111.8077270193
 11
-112.6886755933
 21
111.8077270193
  0
LINE
  8
Layer0$C$L0
 62
     3
 10
-117.1886755933
 20
108.5577270193
 11
-117.1886755933
 21
115.0577270193
  0
LINE
  8
Layer0$C$L0
 62
     3
 10
-117.1886755933
 20
116.8077270193
 11
-117.1886755933
 21
130.7577270193
  0
POLYLINE
  8
Layer0$C$L0
 62
     3
 66
     1
  0
VERTEX
  8
Layer0$C$L0
 62
     3
 10
-156.6022285790
 20
103.7197962983
  0
VERTEX
  8
Layer0$C$L0
 62
     3
 10
-156.2570927077
 20
103.8722377916
  0
VERTEX
  8
Layer0$C$L0
 62
     3
 10
-155.8679385346
 20
104.4117677403
  0
VERTEX
  8
Layer0$C$L0
 62
     3
 10
-155.5511900557
 20
105.2849429448
  0
VERTEX
  8
Layer0$C$L0
 62
     3
 10
-155.3766969402
 20
106.3331591198
  0
VERTEX
  8
Layer0$C$L0
 62
     3
 10
-155.3492811530
 20
106.9697962983
  0
VERTEX
  8
Layer0$C$L0
 62
     3
 10
-155.4194936837
 20
107.9826280783
  0
VERTEX
  8
Layer0$C$L0
 62
     3
 10
-155.6139725372
 20
108.8801244920
  0
VERTEX
  8
Layer0$C$L0
 62
     3
 10
-155.9081230346
 20
109.6043340723
  0
VERTEX
  8
Layer0$C$L0
 62
     3
 10
-156.2777978601
 20
110.0848141942
  0
VERTEX
  8
Layer0$C$L0
 62
     3
 10
-156.6022285790
 20
110.2197962983
  0
SEQEND
  8
Layer0$C$L0
 62
     3
  0
POLYLINE
  8
Layer0$C$L0
 62
     3
 66
     1
  0
VERTEX
  8
Layer0$C$L0
 62
     3
 10
-156.6022285790
 20
113.5197962983
  0
VERTEX
  8
Layer0$C$L0
 62
     3
 10
-156.2570927077
 20
113.6722377916
  0
VERTEX
  8
Layer0$C$L0
 62
     3
 10
-155.8679385346
 20
114.2117677403
  0
VERTEX
  8
Layer0$C$L0
 62
     3
 10
-155.5511900557
 20
115.0849429448
  0
VERTEX
  8
Layer0$C$L0
 62
     3
 10
-155.3766969402
 20
116.1331591198
  0
VERTEX
  8
Layer0$C$L0
 62
     3
 10
-155.3492811530
 20
116.7697962983
  0
VERTEX
  8
Layer0$C$L0
 62
     3
 10
-155.4194936837
 20
117.7826280783
  0
VERTEX
  8
Layer0$C$L0
 62
     3
 10
-155.6139725372
 20
118.6801244920
  0
VERTEX
  8
Layer0$C$L0
 62
     3
 10
-155.9081230346
 20
119.4043340723
  0
VERTEX
  8
Layer0$C$L0
 62
     3
 10
-156.2777978601
 20
119.8848141942
  0
VERTEX
  8
Layer0$C$L0
 62
     3
 10
-156.6022285790
 20
120.0197962983
  0
SEQEND
  8
Layer0$C$L0
 62
     3
  0
POLYLINE
  8
Layer0$C$L0
 62
     3
 66
     1
  0
VERTEX
  8
Layer0$C$L0
 62
     3
 10
-156.6022285790
 20
78.2197962983
  0
VERTEX
  8
Layer0$C$L0
 62
     3
 10
-156.2570927077
 20
78.0673548050
  0
VERTEX
  8
Layer0$C$L0
 62
     3
 10
-155.8679385346
 20
77.5278248563
  0
VERTEX
  8
Layer0$C$L0
 62
     3
 10
-155.5511900557
 20
76.6546496518
  0
VERTEX
  8
Layer0$C$L0
 62
     3
 10
-155.3766969402
 20
75.6064334768
  0
VERTEX
  8
Layer0$C$L0
 62
     3
 10
-155.3492811530
 20
74.9697962983
  0
VERTEX
  8
Layer0$C$L0
 62
     3
 10
-155.4194936837
 20
73.9569645183
  0
VERTEX
  8
Layer0$C$L0
 62
     3
 10
-155.6139725372
 20
73.0594681046
  0
VERTEX
  8
Layer0$C$L0
 62
     3
 10
-155.9081230346
 20
72.3352585243
  0
VERTEX
  8
Layer0$C$L0
 62
     3
 10
-156.2777978601
 20
71.8547784024
  0
VERTEX
  8
Layer0$C$L0
 62
     3
 10
-156.6022285790
 20
71.7197962983
  0
SEQEND
  8
Layer0$C$L0
 62
     3
  0
POLYLINE
  8
Layer0$C$L0
 62
     3
 66
     1
  0
VERTEX
  8
Layer0$C$L0
 62
     3
 10
-156.6022285790
 20
88.0197962983
  0
VERTEX
  8
Layer0$C$L0
 62
     3
 10
-156.2570927077
 20
87.8673548050
  0
VERTEX
  8
Layer0$C$L0
 62
     3
 10
-155.8679385346
 20
87.3278248563
  0
VERTEX
  8
Layer0$C$L0
 62
     3
 10
-155.5511900557
 20
86.4546496518
  0
VERTEX
  8
Layer0$C$L0
 62
     3
 10
-155.3766969402
 20
85.4064334768
  0
VERTEX
  8
Layer0$C$L0
 62
     3
 10
-155.3492811530
 20
84.7697962983
  0
VERTEX
  8
Layer0$C$L0
 62
     3
 10
-155.4194936837
 20
83.7569645183
  0
VERTEX
  8
Layer0$C$L0
 62
     3
 10
-155.6139725372
 20
82.8594681046
  0
VERTEX
  8
Layer0$C$L0
 62
     3
 10
-155.9081230346
 20
82.1352585243
  0
VERTEX
  8
Layer0$C$L0
 62
     3
 10
-156.2777978601
 20
81.6547784024
  0
VERTEX
  8
Layer0$C$L0
 62
     3
 10
-156.6022285790
 20
81.5197962983
  0
SEQEND
  8
Layer0$C$L0
 62
     3
  0
LINE
  8
Layer0$C$L0
 62
     3
 10
-158.1886755933
 20
110.2197962983
 11
-156.6022285790
 21
110.2197962983
  0
LINE
  8
Layer0$C$L0
 62
     3
 10
-158.1886755933
 20
88.0197962983
 11
-156.6022285790
 21
88.0197962983
  0
LINE
  8
Layer0$C$L0
 62
     3
 10
-158.1886755933
 20
78.2197962983
 11
-156.6022285790
 21
78.2197962983
  0
LINE
  8
Layer0$C$L0
 62
     3
 10
-158.1886755933
 20
120.0197962983
 11
-156.6022285790
 21
120.0197962983
  0
LINE
  8
Layer0$C$L0
 62
     3
 10
-158.1886755933
 20
113.5197962983
 11
-156.6022285790
 21
113.5197962983
  0
LINE
  8
Layer0$C$L0
 62
     3
 10
-158.1886755933
 20
81.5197962983
 11
-156.6022285790
 21
81.5197962983
  0
LINE
  8
Layer0$C$L0
 62
     3
 10
-158.1886755933
 20
103.7197962983
 11
-156.6022285790
 21
103.7197962983
  0
LINE
  8
Layer0$C$L0
 62
     3
 10
-158.1886755933
 20
71.7197962983
 11
-156.6022285790
 21
71.7197962983
  0
LINE
  8
Layer0$C$L0
 62
     3
 10
-157.1886755933
 20
108.8697962983
 11
-155.6117345168
 21
108.8697962983
  0
LINE
  8
Layer0$C$L0
 62
     3
 10
-157.1886755933
 20
78.2197962983
 11
-157.1886755933
 21
71.7197962983
  0
LINE
  8
Layer0$C$L0
 62
     3
 10
-157.1886755933
 20
82.8697962983
 11
-155.6117345168
 21
82.8697962983
  0
LINE
  8
Layer0$C$L0
 62
     3
 10
-157.1886755933
 20
120.0197962983
 11
-157.1886755933
 21
113.5197962983
  0
LINE
  8
Layer0$C$L0
 62
     3
 10
-157.1886755933
 20
110.2197962983
 11
-157.1886755933
 21
103.7197962983
  0
LINE
  8
Layer0$C$L0
 62
     3
 10
-157.1886755933
 20
88.0197962983
 11
-157.1886755933
 21
81.5197962983
  0
LINE
  8
Layer0$C$L0
 62
     3
 10
-134.1886755933
 20
129.0577270193
 11
-134.1886755933
 21
72.0577270193
  0
ARC
  8
Layer0$C$L0
 62
     3
 10
-110.1886755933
 20
73.5577270193
 40
2.0000000000
 50
270.0000000000
 51
295.8419327632
  0
LINE
  8
Layer0$C$L0
 62
     3
 10
-108.1886755933
 20
116.8077270193
 11
-108.1886755933
 21
106.8077270193
  0
LINE
  8
Layer0$C$L0
 62
     3
 10
-145.1886755933
 20
71.5577270193
 11
-110.1886755933
 21
71.5577270193
  0
ARC
  8
Layer1$C$L1
 62
     3
 10
-146.6886755933
 20
66.4577270193
 40
1.5000000000
 50
269.5224932534
 51
360.0000000000
  0
LINE
  8
Layer1$C$L1
 62
     3
 10
-153.7303454356
 20
65.0163620178
 11
-146.7011765460
 21
64.9577791115
  0
ARC
  8
Layer0$C$L0
 62
     3
 10
-153.6886755933
 20
70.0161883772
 40
5.0000000000
 50
180.0000000000
 51
269.5224932534
  0
LINE
  8
Layer0$C$L0
 62
     3
 10
-145.1886755933
 20
66.4702284062
 11
-145.1886755933
 21
71.5577270193
  0
LINE
  8
Layer0$C$L0
 62
     3
 10
-158.6886755933
 20
70.0385332322
 11
-158.6886755933
 21
123.0769208065
  0
ARC
  8
Layer0$C$L0
 62
     3
 10
-133.6886755933
 20
72.0577270193
 40
0.5000000000
 50
180.0000000000
 51
270.0000000000
  0
LINE
  8
Layer1$C$L1
 62
     3
 10
-132.6886755933
 20
78.0577270193
 11
-132.6886755933
 21
84.5577270193
  0
LINE
  8
Layer1$C$L1
 62
     3
 10
-132.6886755933
 20
108.5577270193
 11
-132.6886755933
 21
115.0577270193
  0
LINE
  8
Layer0$C$L0
 62
     3
 10
-114.1886755933
 20
108.5577270193
 11
-114.1886755933
 21
115.0577270193
  0
LINE
  8
Layer0$C$L0
 62
     3
 10
-134.1886755933
 20
108.5577270193
 11
-114.1886755933
 21
108.5577270193
  0
LINE
  8
Layer0$C$L0
 62
     3
 10
-134.1886755933
 20
115.0577270193
 11
-114.1886755933
 21
115.0577270193
  0
LINE
  8
Layer0$C$L0
 62
     3
 10
-134.1886755933
 20
78.0577270193
 11
-117.1886755933
 21
78.0577270193
  0
LINE
  8
Layer0$C$L0
 62
     3
 10
-134.1886755933
 20
84.5577270193
 11
-117.1886755933
 21
84.5577270193
  0
ARC
  8
Layer0$C$L0
 62
     3
 10
-158.1886755933
 20
120.5197962983
 40
0.5000000000
 50
180.0000000000
 51
270.0000000000
  0
ARC
  8
Layer0$C$L0
 62
     3
 10
-158.1886755933
 20
113.0197962983
 40
0.5000000000
 50
90.0000000000
 51
180.0000000000
  0
ARC
  8
Layer0$C$L0
 62
     3
 10
-158.1886755933
 20
110.7197962983
 40
0.5000000000
 50
180.0000000000
 51
270.0000000000
  0
ARC
  8
Layer0$C$L0
 62
     3
 10
-158.1886755933
 20
103.2197962983
 40
0.5000000000
 50
90.0000000000
 51
180.0000000000
  0
ARC
  8
Layer0$C$L0
 62
     3
 10
-158.1886755933
 20
88.5197962983
 40
0.5000000000
 50
180.0000000000
 51
270.0000000000
  0
ARC
  8
Layer0$C$L0
 62
     3
 10
-158.1886755933
 20
81.0197962983
 40
0.5000000000
 50
90.0000000000
 51
180.0000000000
  0
ARC
  8
Layer0$C$L0
 62
     3
 10
-158.1886755933
 20
78.7197962983
 40
0.5000000000
 50
180.0000000000
 51
270.0000000000
  0
ARC
  8
Layer0$C$L0
 62
     3
 10
-158.1886755933
 20
71.2197962983
 40
0.5000000000
 50
90.0000000000
 51
180.0000000000
  0
ARC
  8
Layer0$C$L0
 62
     3
 10
-134.6886755933
 20
128.5577270193
 40
0.5000000000
 50
270.0000000000
 51
360.0000000000
  0
ARC
  8
Layer0$C$L0
 62
     3
 10
-133.6886755933
 20
129.0577270193
 40
0.5000000000
 50
90.0000000000
 51
180.0000000000
  0
ARC
  8
Layer0$C$L0
 62
     3
 10
-153.6886755933
 20
123.0577270193
 40
5.0000000000
 50
90.0000000000
 51
180.0000000000
  0
LINE
  8
Layer1$C$L1
 62
     3
 10
-133.6886755933
 20
129.5577270193
 11
-117.1886755933
 21
129.5577270193
  0
LINE
  8
Layer1$C$L1
 62
     3
 10
-153.6886755933
 20
128.0577270193
 11
-134.6886755933
 21
128.0577270193
  0
LINE
  8
Layer0$C$L0
 62
     3
 10
-116.1886755933
 20
108.8077270193
 11
-116.1886755933
 21
114.8077270193
  0
LINE
  8
Layer0$C$L0
 62
     3
 10
-114.1886755933
 20
108.8077270193
 11
-114.1886755933
 21
114.8077270193
  0
LINE
  8
Layer1$C$L1
 62
     3
 10
-117.1886755933
 20
108.8077270193
 11
-114.1886755933
 21
108.8077270193
  0
LINE
  8
Layer1$C$L1
 62
     3
 10
-117.1886755933
 20
114.8077270193
 11
-114.1886755933
 21
114.8077270193
  0
LINE
  8
Layer0$C$L0
 62
     3
 10
-313.1041190596
 20
242.2732895699
 11
-219.7041190596
 21
242.2732895699
  0
ARC
  8
Layer0$C$L0
 62
     3
 10
-219.7041190596
 20
232.2732895699
 40
0.5000000000
 50
270.0000000000
 51
360.0000000000
  0
ARC
  8
Layer0$C$L0
 62
     3
 10
-313.1041190596
 20
232.2732895699
 40
0.5000000000
 50
180.0000000000
 51
270.0000000000
  0
ARC
  8
Layer0$C$L0
 62
     3
 10
-313.1041190596
 20
241.7732895699
 40
0.5000000000
 50
90.0000000000
 51
180.0000000000
  0
ARC
  8
Layer0$C$L0
 62
     3
 10
-219.7041190596
 20
241.7732895699
 40
0.5000000000
 50
360.0000000000
 51
450.0000000000
  0
LINE
  8
Layer0$C$L0
 62
     3
 10
-219.7041190596
 20
231.7732895699
 11
-313.1041190596
 21
231.7732895699
  0
LINE
  8
Layer0$C$L0
 62
     3
 10
-219.2041190596
 20
241.7732895699
 11
-219.2041190596
 21
232.2732895699
  0
LINE
  8
Layer0$C$L0
 62
     3
 10
-313.6041190596
 20
241.7732895699
 11
-313.6041190596
 21
232.2732895699
  0
LINE
  8
Layer0$C$L0
 62
     3
 10
-310.2041190596
 20
276.7732895699
 11
-222.6041190596
 21
276.7732895699
  0
ARC
  8
Layer0$C$L0
 62
     3
 10
-116.6886755933
 20
130.7577270193
 40
0.5000000000
 50
90.0000000000
 51
180.0000000000
  0
ARC
  8
Layer0$C$L0
 62
     3
 10
-107.1886755933
 20
130.7577270193
 40
0.5000000000
 50
1.2213329977E-12
 51
90.0000000000
  0
ARC
  8
Layer0$C$L0
 62
     3
 10
-107.1886755933
 20
72.2577270193
 40
0.5000000000
 50
270.0000000000
 51
360.0000000000
  0
ARC
  8
Layer0$C$L0
 62
     3
 10
-106.1886755933
 20
128.7577270193
 40
0.5000000000
 50
180.0000000000
 51
270.0000000000
  0
ARC
  8
Layer0$C$L0
 62
     3
 10
-74.1886755933
 20
73.7577270193
 40
2.0000000000
 50
270.0000000000
 51
360.0000000000
  0
ARC
  8
Layer0$C$L0
 62
     3
 10
-72.6886755933
 20
127.7577270193
 40
0.5000000000
 50
4.0711099923E-13
 51
90.0000000000
  0
LINE
  8
Layer0$C$L0
 62
     3
 10
-117.1886755933
 20
71.7577270193
 11
-117.1886755933
 21
106.8077270193
  0
LINE
  8
Layer0$C$L0
 62
     3
 10
-107.1886755933
 20
131.2577270193
 11
-116.6886755933
 21
131.2577270193
  0
LINE
  8
Layer0$C$L0
 62
     3
 10
-106.6886755933
 20
116.8077270193
 11
-106.6886755933
 21
130.7577270193
  0
LINE
  8
Layer0$C$L0
 62
     3
 10
-106.6886755933
 20
72.2577270193
 11
-106.6886755933
 21
106.8077270193
  0
LINE
  8
Layer0$C$L0
 62
     3
 10
-106.6886755933
 20
106.8077270193
 11
-117.1886755933
 21
106.8077270193
  0
LINE
  8
Layer0$C$L0
 62
     3
 10
-106.6886755933
 20
116.8077270193
 11
-117.1886755933
 21
116.8077270193
  0
LINE
  8
Layer0$C$L0
 62
     3
 10
-74.1886755933
 20
71.7577270193
 11
-117.1886755933
 21
71.7577270193
  0
LINE
  8
Layer0$C$L0
 62
     3
 10
-72.6886755933
 20
128.2577270193
 11
-106.1886755933
 21
128.2577270193
  0
LINE
  8
Layer0$C$L0
 62
     3
 10
-72.1886755933
 20
73.7577270193
 11
-72.1886755933
 21
127.7577270193
  0
LINE
  8
Layer1$C$L1
 62
     3
 10
-310.2041190596
 20
276.7732895699
 11
-310.5063807865
 21
242.7688453010
  0
LINE
  8
Layer1$C$L1
 62
     3
 10
-222.6041190596
 20
276.7732895699
 11
-222.3018573328
 21
242.7688453010
  0
ARC
  8
Layer1$C$L1
 62
     3
 10
-311.0063610346
 20
242.7732895699
 40
0.5000000000
 50
270.0000000000
 51
359.4907175950
  0
ARC
  8
Layer1$C$L1
 62
     3
 10
-221.8018770847
 20
242.7732895699
 40
0.5000000000
 50
180.5092824050
 51
270.0000000000
  0
INSERT
  8
Layer8$C$L8
 66
     1
  2
Cadra_attr_0
 10
0.000000
 20
0.000000
  0
ATTRIB
  8
Layer8$C$L8
 10
-51.426361
 20
31.925925
 40
0.156000
  1
峀>嶬
  2
10
 70
    11
  0
SEQEND
  8
Layer8$C$L8
  0
INSERT
  8
Layer8$C$L8
 62
     5
 66
     1
  2
Cadra_attr_1
 10
0.000000
 20
0.000000
  0
ATTRIB
  8
Layer8$C$L8
 62
     5
 10
-46.747117
 20
18.500000
 40
0.156000
  1
  
  2
20
 70
    11
  0
SEQEND
  8
Layer8$C$L8
 62
     5
  0
ENDSEC
  0
EOF
