  0
SECTION
  2
HEADER
  9
$ACADVER
  1
AC1004
  9
$ANGBASE
 50
0.0000000000
  9
$ANGDIR
 70
     0
  9
$ATTDIA
 70
     0
  9
$ATTMODE
 70
     1
  9
$ATTREQ
 70
     1
  9
$AUNITS
 70
     0
  9
$AUPREC
 70
     0
  9
$AXISMODE
 70
     0
  9
$AXISUNIT
 10
0.0000000000
 20
0.0000000000
  9
$BLIPMODE
 70
     1
  9
$CECOLOR
 62
   256
  9
$CELTYPE
  6
BYLAYER
  9
$CHAMFERA
 40
0.0000000000
  9
$CHAMFERB
 40
0.0000000000
  9
$CLAYER
  8
0
  9
$COORDS
 70
     0
  9
$DIMALT
 70
     0
  9
$DIMALTD
 70
     2
  9
$DIMALTF
 40
25.4000000000
  9
$DIMAPOST
  1

  9
$DIMASO
 70
     1
  9
$DIMASZ
 40
1.9727878460
  9
$DIMBLK
  1

  9
$DIMBLK1
  1

  9
$DIMBLK2
  1

  9
$DIMCEN
 40
9.0000000000E-02
  9
$DIMDLE
 40
0.0000000000
  9
$DIMDLI
 40
0.3800000000
  9
$DIMEXE
 40
3.8099999428
  9
$DIMEXO
 40
2.5399999619
  9
$DIMLFAC
 40
1.0000000000
  9
$DIMLIM
 70
     0
  9
$DIMPOST
  1

  9
$DIMRND
 40
0.0000000000
  9
$DIMSCALE
 40
1.0000000000
  9
$DIMSE1
 70
     0
  9
$DIMSE2
 70
     0
  9
$DIMSHO
 70
     0
  9
$DIMTAD
 70
     0
  9
$DIMTIH
 70
     0
  9
$DIMTM
 40
0.0000000000
  9
$DIMTOH
 70
     1
  9
$DIMTOL
 70
     0
  9
$DIMTP
 40
0.0000000000
  9
$DIMTSZ
 40
0.0000000000
  9
$DIMTXT
 40
2.9999940395
  9
$DIMZIN
 70
     0
  9
$DRAGMODE
 70
     1
  9
$ELEVATION
 40
0.0000000000
  9
$EXTMAX
 10
3.1750000000
 20
167.0086181641
 30
0.0000000000
  9
$EXTMIN
 10
-150.2750518799
 20
-3.1750000000
 30
0.0000000000
  9
$FASTZOOM
 70
     1
  9
$FILLETRAD
 40
6.2500000000E-02
  9
$FILLMODE
 70
     1
  9
$GRIDMODE
 70
     0
  9
$GRIDUNIT
 10
0.0000000000
 20
0.0000000000
  9
$INSBASE
 10
0.0000000000
 20
0.0000000000
 30
0.0000000000
  9
$LIMCHECK
 70
     0
  9
$LIMMAX
 10
3.1750000000
 20
167.0086181641
  9
$LIMMIN
 10
-150.2750518799
 20
-3.1750000000
  9
$LTSCALE
 40
1.0000000000
  9
$LUNITS
 70
     2
  9
$LUPREC
 70
     3
  9
$MEASUREMENT
 70
     0
  9
$MENU
  1
ACAD
  9
$MIRRTEXT
 70
     0
  9
$ORTHOMODE
 70
     0
  9
$OSMODE
 70
     0
  9
$PDMODE
 70
     0
  9
$PDSIZE
 40
0.0000000000
  9
$PLINEWID
 40
0.0000000000
  9
$PROXYGRAPHICS
 70
     0
  9
$QTEXTMODE
 70
     0
  9
$REGENMODE
 70
     1
  9
$SKETCHINC
 40
0.1000000000
  9
$SKPOLY
 70
     0
  9
$SNAPANG
 50
0.0000000000
  9
$SNAPBASE
 10
0.0000000000
 20
0.0000000000
  9
$SNAPISOPAIR
 70
     0
  9
$SNAPMODE
 70
     0
  9
$SNAPSTYLE
 70
     0
  9
$SNAPUNIT
 10
1.0000000000
 20
1.0000000000
  9
$SPLFRAME
 70
     0
  9
$SPLINESEGS
 70
     8
  9
$TDCREATE
 40
2455212.6121527826
  9
$TDINDWG
 40
0.0000000000
  9
$TDUPDATE
 40
2455212.6121527826
  9
$TDUSRTIMER
 40
0.0000000000
  9
$TEXTSIZE
 40
2.9999940395
  9
$TEXTSTYLE
  7
STANDARD
  9
$THICKNESS
 40
0.0000000000
  9
$TRACEWID
 40
5.0000000000E-02
  9
$USERI1
 70
     0
  9
$USERI2
 70
     0
  9
$USERI3
 70
     0
  9
$USERI4
 70
     0
  9
$USERI5
 70
     0
  9
$USERR1
 40
0.0000000000
  9
$USERR2
 40
0.0000000000
  9
$USERR3
 40
0.0000000000
  9
$USERR4
 40
0.0000000000
  9
$USERR5
 40
0.0000000000
  9
$USRTIMER
 70
     1
  9
$VIEWCTR
 10
-73.5500259399
 20
81.9168090820
  9
$VIEWDIR
 10
0.0000000000
 20
0.0000000000
 30
1.0000000000
  9
$VIEWSIZE
 40
170.1836181641
  0
ENDSEC
  0
SECTION
  2
TABLES
  0
TABLE
  2
LTYPE
 70
     2
  0
LTYPE
  2
SOLID
  3
Solid
 70
    64
 72
    65
 73
     0
 40
0.0000000000
  0
LTYPE
  2
CENTER
  3
Center
 70
    64
 72
    65
 73
     4
 40
9.1000000238
 49
6.5000000000
 49
-0.8000000119
 49
1.0000000000
 49
-0.8000000119
  0
ENDTAB
  0
TABLE
  2
LAYER
 70
     3
  0
LAYER
  2
Layer1$C$L1
 70
     0
  6
SOLID
 62
     3
  0
LAYER
  2
Layer6$C$L6
 70
     0
  6
SOLID
 62
    31
  0
LAYER
  2
Layer8$C$L8
 70
     0
  6
SOLID
 62
     7
  0
ENDTAB
  0
TABLE
  2
STYLE
 70
     1
  0
STYLE
  2
STANDARD
  3
txt
  4

 40
0.0000000000
 41
1.0000000000
 42
2.5000000000
 50
0.0000000000
 70
     0
 71
     0
  0
ENDTAB
  0
ENDSEC
  0
SECTION
  2
BLOCKS
  0
BLOCK
  8
Layer8$C$L8
  2
Cadra_attr_0
 70
     2
 10
0.0000000000
 20
0.0000000000
  0
TEXT
  8
Layer8$C$L8
 10
-67.1377250336
 20
26.1756735201
 40
4.1671714783
  1
CQM-0
 41
0.9477472874
 72
     5
 11
-51.3400231757
 21
26.1756735201
  0
ATTDEF
  8
Layer8$C$L8
 10
-59.238874
 20
28.259260
 40
0.156000
  1
ìL>ÄK
  3

  2
10
 70
    11
  0
ENDBLK
  8
Layer8$C$L8
  0
BLOCK
  8
Layer8$C$L8
  2
Cadra_attr_1
 70
     2
 10
0.000000
 20
0.000000
  0
TEXT
  8
Layer8$C$L8
 62
     5
 10
-66.0872999535
 20
16.0000000000
 40
5.0000000000
  1
MA4-A03862
 41
0.8595637381
 72
     5
 11
-27.4069317370
 21
16.0000000000
  0
ATTDEF
  8
Layer8$C$L8
 62
     5
 10
-46.747117
 20
18.500000
 40
0.156000
  1
  
  3

  2
20
 70
    11
  0
ENDBLK
  8
Layer8$C$L8
  0
ENDSEC
  0
SECTION
  2
ENTITIES
  0
ARC
  8
Layer1$C$L1
 10
-141.1000538788
 20
157.8336172222
 40
1.0000000000
 50
90.0000000000
 51
180.0000000000
  0
ARC
  8
Layer1$C$L1
 10
-141.1000538788
 20
157.8336172222
 40
1.7000000000
 50
90.0000000000
 51
180.0000000000
  0
LINE
  8
Layer1$C$L1
 10
-142.8000538788
 20
99.8336172222
 11
-142.8000538788
 21
157.8336172222
  0
LINE
  8
Layer1$C$L1
 10
-142.1000538788
 20
99.8336172222
 11
-142.1000538788
 21
157.8336172222
  0
LINE
  8
Layer1$C$L1
 10
-83.1000538788
 20
159.5336172222
 11
-141.1000538788
 21
159.5336172222
  0
LINE
  8
Layer1$C$L1
 10
-83.1000538788
 20
158.8336172222
 11
-141.1000538788
 21
158.8336172222
  0
LINE
  8
Layer1$C$L1
 10
-82.1000538788
 20
99.8336172222
 11
-82.1000538788
 21
157.8336172222
  0
LINE
  8
Layer1$C$L1
 10
-81.4000538788
 20
99.8336172222
 11
-81.4000538788
 21
157.8336172222
  0
ARC
  8
Layer1$C$L1
 10
-83.1000538788
 20
157.8336172222
 40
1.7000000000
 50
0.0000000000
 51
90.0000000000
  0
ARC
  8
Layer1$C$L1
 10
-83.1000538788
 20
157.8336172222
 40
1.0000000000
 50
0.0000000000
 51
90.0000000000
  0
ARC
  8
Layer1$C$L1
 10
-83.1000538788
 20
99.8336172222
 40
1.0000000000
 50
270.0000000000
 51
360.0000000000
  0
ARC
  8
Layer1$C$L1
 10
-83.1000538788
 20
99.8336172222
 40
1.7000000000
 50
270.0000000000
 51
360.0000000000
  0
LINE
  8
Layer1$C$L1
 10
-141.1000538788
 20
98.1336172222
 11
-83.1000538788
 21
98.1336172222
  0
LINE
  8
Layer1$C$L1
 10
-141.1000538788
 20
98.8336172222
 11
-83.1000538788
 21
98.8336172222
  0
CIRCLE
  8
Layer1$C$L1
 10
-112.1000538788
 20
128.8336172222
 40
6.5000000000
  0
ARC
  8
Layer1$C$L1
 10
-112.1000538788
 20
183.8336172222
 40
35.0000000000
 50
262.2802160977
 51
277.7197839023
  0
ARC
  8
Layer1$C$L1
 10
-116.6000538788
 20
150.6372318768
 40
1.5000000000
 50
180.0000000000
 51
262.2802160977
  0
ARC
  8
Layer1$C$L1
 10
-107.6000538788
 20
150.6372318768
 40
1.5000000000
 50
277.7197839023
 51
360.0000000000
  0
ARC
  8
Layer1$C$L1
 10
-107.6000538788
 20
152.0300025676
 40
1.5000000000
 50
0.0000000000
 51
82.2802160977
  0
ARC
  8
Layer1$C$L1
 10
-116.6000538788
 20
152.0300025676
 40
1.5000000000
 50
97.7197839023
 51
180.0000000000
  0
ARC
  8
Layer1$C$L1
 10
-112.1000538788
 20
118.8336172222
 40
35.0000000000
 50
82.2802160977
 51
97.7197839023
  0
LINE
  8
Layer1$C$L1
 10
-96.8503817512
 20
128.7336172222
 11
-105.6008231551
 21
128.7336172222
  0
LINE
  8
Layer1$C$L1
 10
-96.8503817512
 20
128.9336172222
 11
-105.6008231551
 21
128.9336172222
  0
LINE
  8
Layer1$C$L1
 10
-96.8503817512
 20
128.9336172222
 11
-96.8503817512
 21
128.7336172222
  0
INSERT
  8
Layer8$C$L8
 66
     1
  2
Cadra_attr_0
 10
0.000000
 20
0.000000
  0
ATTRIB
  8
Layer8$C$L8
 10
-59.238874
 20
28.259260
 40
0.156000
  1
ìL>ÄK
  2
10
 70
    11
  0
SEQEND
  8
Layer8$C$L8
  0
LINE
  8
Layer1$C$L1
 10
-118.1000538788
 20
150.6372318768
 11
-118.1000538788
 21
152.0300025676
  0
LINE
  8
Layer1$C$L1
 10
-106.1000538788
 20
150.6372318768
 11
-106.1000538788
 21
152.0300025676
  0
LINE
  8
Layer1$C$L1
  6
CENTER
 10
-120.8124222606
 20
151.3336172222
 11
-103.8722836343
 21
151.3336172222
  0
LINE
  8
Layer1$C$L1
  6
CENTER
 10
-92.1000538788
 20
125.1642201739
 11
-92.1000538788
 21
132.0852083000
  0
CIRCLE
  8
Layer1$C$L1
 10
-92.1000538788
 20
128.8336172222
 40
1.7500000000
  0
CIRCLE
  8
Layer1$C$L1
 10
-132.1000538788
 20
128.8336172222
 40
1.7500000000
  0
LINE
  8
Layer1$C$L1
  6
CENTER
 10
-132.1000538788
 20
125.1642201739
 11
-132.1000538788
 21
132.0852083000
  0
LINE
  8
Layer1$C$L1
 10
-112.0000538788
 20
113.5839450945
 11
-112.0000538788
 21
122.3343864985
  0
LINE
  8
Layer1$C$L1
 10
-112.2000538788
 20
113.5839450945
 11
-112.2000538788
 21
122.3343864985
  0
LINE
  8
Layer1$C$L1
 10
-112.2000538788
 20
113.5839450945
 11
-112.0000538788
 21
113.5839450945
  0
LINE
  8
Layer1$C$L1
 10
-112.0000538788
 20
144.0832893498
 11
-112.2000538788
 21
144.0832893498
  0
LINE
  8
Layer1$C$L1
 10
-112.0000538788
 20
144.0832893498
 11
-112.0000538788
 21
135.3328479459
  0
LINE
  8
Layer1$C$L1
 10
-112.2000538788
 20
144.0832893498
 11
-112.2000538788
 21
135.3328479459
  0
LINE
  8
Layer1$C$L1
 10
-101.3876179846
 20
139.6874744726
 11
-107.5751144397
 21
133.4999780175
  0
LINE
  8
Layer1$C$L1
 10
-101.2461966284
 20
139.5460531164
 11
-107.4336930835
 21
133.3585566613
  0
LINE
  8
Layer1$C$L1
 10
-101.2461966284
 20
139.5460531164
 11
-101.3876179846
 21
139.6874744726
  0
LINE
  8
Layer1$C$L1
 10
-101.2461966284
 20
118.1211813280
 11
-101.3876179846
 21
117.9797599717
  0
LINE
  8
Layer1$C$L1
 10
-101.2461966284
 20
118.1211813280
 11
-107.4336930835
 21
124.3086777831
  0
LINE
  8
Layer1$C$L1
 10
-101.3876179846
 20
117.9797599717
 11
-107.5751144397
 21
124.1672564268
  0
LINE
  8
Layer1$C$L1
 10
-122.8124897730
 20
117.9797599717
 11
-116.6249933179
 21
124.1672564268
  0
LINE
  8
Layer1$C$L1
 10
-122.9539111292
 20
118.1211813280
 11
-116.7664146742
 21
124.3086777831
  0
LINE
  8
Layer1$C$L1
 10
-122.9539111292
 20
118.1211813280
 11
-122.8124897730
 21
117.9797599717
  0
LINE
  8
Layer1$C$L1
 10
-127.3497260064
 20
128.9336172222
 11
-127.3497260064
 21
128.7336172222
  0
LINE
  8
Layer1$C$L1
 10
-122.9539111292
 20
139.5460531164
 11
-122.8124897730
 21
139.6874744726
  0
LINE
  8
Layer1$C$L1
 10
-122.9539111292
 20
139.5460531164
 11
-116.7664146742
 21
133.3585566613
  0
LINE
  8
Layer1$C$L1
 10
-122.8124897730
 20
139.6874744726
 11
-116.6249933179
 21
133.4999780175
  0
LINE
  8
Layer1$C$L1
 10
-127.3497260064
 20
128.9336172222
 11
-118.5992846025
 21
128.9336172222
  0
LINE
  8
Layer1$C$L1
 10
-127.3497260064
 20
128.7336172222
 11
-118.5992846025
 21
128.7336172222
  0
LINE
  8
Layer1$C$L1
 10
-144.0000538788
 20
55.9739934884
 11
-144.0000538788
 21
56.4739934884
  0
LINE
  8
Layer1$C$L1
 10
-80.2000538788
 20
55.9739934884
 11
-144.0000538788
 21
55.9739934884
  0
LINE
  8
Layer1$C$L1
 10
-80.2000538788
 20
56.4739934884
 11
-144.0000538788
 21
56.4739934884
  0
LINE
  8
Layer1$C$L1
 10
-81.2000538788
 20
96.9336172222
 11
-143.0000538788
 21
96.9336172222
  0
LINE
  8
Layer1$C$L1
 10
-80.2000538788
 20
97.9336172222
 11
-80.2000538788
 21
159.7336172222
  0
ARC
  8
Layer1$C$L1
 10
-81.2000538788
 20
97.9336172222
 40
1.0000000000
 50
270.0000000000
 51
360.0000000000
  0
ARC
  8
Layer1$C$L1
 10
-81.2000538788
 20
159.7336172222
 40
1.0000000000
 50
0.0000000000
 51
90.0000000000
  0
LINE
  8
Layer1$C$L1
 10
-81.2000538788
 20
160.7336172222
 11
-143.0000538788
 21
160.7336172222
  0
LINE
  8
Layer1$C$L1
 10
-144.0000538788
 20
159.7336172222
 11
-144.0000538788
 21
97.9336172222
  0
ARC
  8
Layer1$C$L1
 10
-143.0000538788
 20
159.7336172222
 40
1.0000000000
 50
90.0000000000
 51
180.0000000000
  0
ARC
  8
Layer1$C$L1
 10
-141.1000538788
 20
99.8336172222
 40
1.7000000000
 50
180.0000000000
 51
270.0000000000
  0
ARC
  8
Layer1$C$L1
 10
-141.1000538788
 20
99.8336172222
 40
1.0000000000
 50
180.0000000000
 51
270.0000000000
  0
LINE
  8
Layer1$C$L1
  6
CENTER
 10
-112.1000538788
 20
93.8336172222
 11
-112.1000538788
 21
163.8336172222
  0
LINE
  8
Layer1$C$L1
  6
CENTER
 10
-112.1000538788
 20
52.9739934884
 11
-112.1000538788
 21
59.4739934884
  0
LINE
  8
Layer1$C$L1
 10
-80.2000538788
 20
55.9739934884
 11
-80.2000538788
 21
56.4739934884
  0
ARC
  8
Layer1$C$L1
 10
-143.0000538788
 20
97.9336172222
 40
1.0000000000
 50
180.0000000000
 51
270.0000000000
  0
LINE
  8
Layer1$C$L1
  6
CENTER
 10
-147.1000538788
 20
128.8336172222
 11
-77.1000538788
 21
128.8336172222
  0
INSERT
  8
Layer8$C$L8
 62
     5
 66
     1
  2
Cadra_attr_1
 10
0.000000
 20
0.000000
  0
ATTRIB
  8
Layer8$C$L8
 62
     5
 10
-46.747117
 20
18.500000
 40
0.156000
  1
  
  2
20
 70
    11
  0
SEQEND
  8
Layer8$C$L8
 62
     5
  0
ENDSEC
  0
EOF
