  0
SECTION
  2
HEADER
  9
$ACADVER
  1
AC1015
  9
$ACADMAINTVER
 70
    13
  9
$DWGCODEPAGE
  3
ANSI_932
  9
$INSBASE
 10
0.0
 20
0.0
 30
0.0
  9
$EXTMIN
 10
-0.0229326551519762
 20
-0.0006393201344963
 30
-0.0000000349181948
  9
$EXTMAX
 10
210.0143776649479
 20
297.005855514922
 30
0.0000000814935747
  9
$LIMMIN
 10
-183.9851959229
 20
-3.174999999999998
  9
$LIMMAX
 10
3.174999999999998
 20
291.2585876465
  9
$ORTHOMODE
 70
     0
  9
$REGENMODE
 70
     1
  9
$FILLMODE
 70
     1
  9
$QTEXTMODE
 70
     0
  9
$MIRRTEXT
 70
     0
  9
$LTSCALE
 40
1.0
  9
$ATTMODE
 70
     1
  9
$TEXTSIZE
 40
2.999994039499997
  9
$TRACEWID
 40
0.05
  9
$TEXTSTYLE
  7
STANDARD
  9
$CLAYER
  8
0
  9
$CELTYPE
  6
ByLayer
  9
$CECOLOR
 62
   256
  9
$CELTSCALE
 40
1.0
  9
$DISPSILH
 70
     0
  9
$DIMSCALE
 40
1.0
  9
$DIMASZ
 40
1.9727878465
  9
$DIMEXO
 40
2.539999961899999
  9
$DIMDLI
 40
0.38
  9
$DIMRND
 40
0.0
  9
$DIMDLE
 40
0.0
  9
$DIMEXE
 40
3.809999942799997
  9
$DIMTP
 40
0.0
  9
$DIMTM
 40
0.0
  9
$DIMTXT
 40
2.999994039499997
  9
$DIMCEN
 40
0.09
  9
$DIMTSZ
 40
0.0
  9
$DIMTOL
 70
     0
  9
$DIMLIM
 70
     0
  9
$DIMTIH
 70
     0
  9
$DIMTOH
 70
     1
  9
$DIMSE1
 70
     0
  9
$DIMSE2
 70
     0
  9
$DIMTAD
 70
     0
  9
$DIMZIN
 70
     0
  9
$DIMBLK
  1

  9
$DIMASO
 70
     1
  9
$DIMSHO
 70
     0
  9
$DIMPOST
  1

  9
$DIMAPOST
  1

  9
$DIMALT
 70
     0
  9
$DIMALTD
 70
     2
  9
$DIMALTF
 40
25.4
  9
$DIMLFAC
 40
1.0
  9
$DIMTOFL
 70
     0
  9
$DIMTVP
 40
0.0
  9
$DIMTIX
 70
     0
  9
$DIMSOXD
 70
     0
  9
$DIMSAH
 70
     0
  9
$DIMBLK1
  1

  9
$DIMBLK2
  1

  9
$DIMSTYLE
  2
Standard
  9
$DIMCLRD
 70
     0
  9
$DIMCLRE
 70
     0
  9
$DIMCLRT
 70
     0
  9
$DIMTFAC
 40
1.0
  9
$DIMGAP
 40
0.09
  9
$DIMJUST
 70
     0
  9
$DIMSD1
 70
     0
  9
$DIMSD2
 70
     0
  9
$DIMTOLJ
 70
     1
  9
$DIMTZIN
 70
     0
  9
$DIMALTZ
 70
     0
  9
$DIMALTTZ
 70
     0
  9
$DIMUPT
 70
     0
  9
$DIMDEC
 70
     4
  9
$DIMTDEC
 70
     4
  9
$DIMALTU
 70
     2
  9
$DIMALTTD
 70
     2
  9
$DIMTXSTY
  7
STANDARD
  9
$DIMAUNIT
 70
     0
  9
$DIMADEC
 70
     0
  9
$DIMALTRND
 40
0.0
  9
$DIMAZIN
 70
     0
  9
$DIMDSEP
 70
    46
  9
$DIMATFIT
 70
     3
  9
$DIMFRAC
 70
     0
  9
$DIMLDRBLK
  1

  9
$DIMLUNIT
 70
     2
  9
$DIMLWD
 70
    -2
  9
$DIMLWE
 70
    -2
  9
$DIMTMOVE
 70
     0
  9
$LUNITS
 70
     2
  9
$LUPREC
 70
     3
  9
$SKETCHINC
 40
0.1
  9
$FILLETRAD
 40
0.0625
  9
$AUNITS
 70
     0
  9
$AUPREC
 70
     0
  9
$MENU
  1
ACAD
  9
$ELEVATION
 40
0.0
  9
$PELEVATION
 40
0.0
  9
$THICKNESS
 40
0.0
  9
$LIMCHECK
 70
     0
  9
$CHAMFERA
 40
0.0
  9
$CHAMFERB
 40
0.0
  9
$CHAMFERC
 40
0.0
  9
$CHAMFERD
 40
0.0
  9
$SKPOLY
 70
     0
  9
$TDCREATE
 40
2453377.955324074
  9
$TDUCREATE
 40
2453377.580324074
  9
$TDUPDATE
 40
2453390.676494676
  9
$TDUUPDATE
 40
2453390.301494676
  9
$TDINDWG
 40
0.0022071991
  9
$TDUSRTIMER
 40
0.0022066551
  9
$USRTIMER
 70
     1
  9
$ANGBASE
 50
0.0
  9
$ANGDIR
 70
     0
  9
$PDMODE
 70
     0
  9
$PDSIZE
 40
0.0
  9
$PLINEWID
 40
0.0
  9
$SPLFRAME
 70
     0
  9
$SPLINETYPE
 70
     6
  9
$SPLINESEGS
 70
     8
  9
$HANDSEED
  5
45C
  9
$SURFTAB1
 70
     6
  9
$SURFTAB2
 70
     6
  9
$SURFTYPE
 70
     6
  9
$SURFU
 70
     6
  9
$SURFV
 70
     6
  9
$UCSBASE
  2

  9
$UCSNAME
  2

  9
$UCSORG
 10
0.0
 20
0.0
 30
0.0
  9
$UCSXDIR
 10
1.0
 20
0.0
 30
0.0
  9
$UCSYDIR
 10
0.0
 20
1.0
 30
0.0
  9
$UCSORTHOREF
  2

  9
$UCSORTHOVIEW
 70
     0
  9
$UCSORGTOP
 10
0.0
 20
0.0
 30
0.0
  9
$UCSORGBOTTOM
 10
0.0
 20
0.0
 30
0.0
  9
$UCSORGLEFT
 10
0.0
 20
0.0
 30
0.0
  9
$UCSORGRIGHT
 10
0.0
 20
0.0
 30
0.0
  9
$UCSORGFRONT
 10
0.0
 20
0.0
 30
0.0
  9
$UCSORGBACK
 10
0.0
 20
0.0
 30
0.0
  9
$PUCSBASE
  2

  9
$PUCSNAME
  2

  9
$PUCSORG
 10
0.0
 20
0.0
 30
0.0
  9
$PUCSXDIR
 10
1.0
 20
0.0
 30
0.0
  9
$PUCSYDIR
 10
0.0
 20
1.0
 30
0.0
  9
$PUCSORTHOREF
  2

  9
$PUCSORTHOVIEW
 70
     0
  9
$PUCSORGTOP
 10
0.0
 20
0.0
 30
0.0
  9
$PUCSORGBOTTOM
 10
0.0
 20
0.0
 30
0.0
  9
$PUCSORGLEFT
 10
0.0
 20
0.0
 30
0.0
  9
$PUCSORGRIGHT
 10
0.0
 20
0.0
 30
0.0
  9
$PUCSORGFRONT
 10
0.0
 20
0.0
 30
0.0
  9
$PUCSORGBACK
 10
0.0
 20
0.0
 30
0.0
  9
$USERI1
 70
    24
  9
$USERI2
 70
     0
  9
$USERI3
 70
     0
  9
$USERI4
 70
     0
  9
$USERI5
 70
     0
  9
$USERR1
 40
0.0
  9
$USERR2
 40
0.0
  9
$USERR3
 40
0.0
  9
$USERR4
 40
0.0
  9
$USERR5
 40
0.0
  9
$WORLDVIEW
 70
     1
  9
$SHADEDGE
 70
     3
  9
$SHADEDIF
 70
    70
  9
$TILEMODE
 70
     1
  9
$MAXACTVP
 70
    64
  9
$PINSBASE
 10
0.0
 20
0.0
 30
0.0
  9
$PLIMCHECK
 70
     0
  9
$PEXTMIN
 10
1.000000000000000E+20
 20
1.000000000000000E+20
 30
1.000000000000000E+20
  9
$PEXTMAX
 10
-1.000000000000000E+20
 20
-1.000000000000000E+20
 30
-1.000000000000000E+20
  9
$PLIMMIN
 10
0.0
 20
0.0
  9
$PLIMMAX
 10
12.0
 20
9.0
  9
$UNITMODE
 70
     0
  9
$VISRETAIN
 70
     1
  9
$PLINEGEN
 70
     0
  9
$PSLTSCALE
 70
     1
  9
$TREEDEPTH
 70
  3020
  9
$CMLSTYLE
  2
Standard
  9
$CMLJUST
 70
     0
  9
$CMLSCALE
 40
1.0
  9
$PROXYGRAPHICS
 70
     1
  9
$MEASUREMENT
 70
     0
  9
$CELWEIGHT
370
    -1
  9
$ENDCAPS
280
     0
  9
$JOINSTYLE
280
     0
  9
$LWDISPLAY
290
     0
  9
$INSUNITS
 70
     0
  9
$HYPERLINKBASE
  1

  9
$STYLESHEET
  1
00ものくろ0.2.ctb
  9
$XEDIT
290
     1
  9
$CEPSNTYPE
380
     0
  9
$PSTYLEMODE
290
     1
  9
$FINGERPRINTGUID
  2
{D6D1AA81-673F-47B5-A1E4-57B1204D91FC}
  9
$VERSIONGUID
  2
{E26D0D7C-71AD-4796-A0CD-04B690FEBFAC}
  9
$EXTNAMES
290
     1
  9
$PSVPSCALE
 40
0.0
  9
$OLESTARTUP
290
     0
  0
ENDSEC
  0
SECTION
  2
CLASSES
  0
CLASS
  1
ACDBDICTIONARYWDFLT
  2
AcDbDictionaryWithDefault
  3
AutoCAD 2000
 90
        0
280
     0
281
     0
  0
CLASS
  1
ACDBPLACEHOLDER
  2
AcDbPlaceHolder
  3
AutoCAD 2000
 90
        0
280
     0
281
     0
  0
CLASS
  1
LAYOUT
  2
AcDbLayout
  3
AutoCAD 2000
 90
        0
280
     0
281
     0
  0
CLASS
  1
DICTIONARYVAR
  2
AcDbDictionaryVar
  3
AutoCAD 2000
 90
        0
280
     0
281
     0
  0
ENDSEC
  0
SECTION
  2
TABLES
  0
TABLE
  2
VPORT
  5
19
330
0
100
AcDbSymbolTable
 70
     3
  0
VPORT
  5
45B
330
19
100
AcDbSymbolTableRecord
100
AcDbViewportTableRecord
  2
*Active
 70
     0
 10
0.0
 20
0.0
 11
1.0
 21
1.0
 12
104.9957225048979
 22
148.5026080973937
 13
0.0
 23
0.0
 14
1.0
 24
1.0
 15
0.0
 25
0.0
 16
0.0
 26
0.0
 36
1.0
 17
0.0
 27
0.0
 37
0.0
 40
301.3423560735244
 41
2.407317073170731
 42
50.0
 43
0.0
 44
0.0
 50
0.0
 51
0.0
 71
     0
 72
   100
 73
     1
 74
     1
 75
     0
 76
     0
 77
     0
 78
     0
281
     0
 65
     1
110
0.0
120
0.0
130
0.0
111
1.0
121
0.0
131
0.0
112
0.0
122
1.0
132
0.0
 79
     0
146
0.0
  0
ENDTAB
  0
TABLE
  2
LTYPE
  5
14
330
0
100
AcDbSymbolTable
 70
     3
  0
LTYPE
  5
15
330
14
100
AcDbSymbolTableRecord
100
AcDbLinetypeTableRecord
  2
ByBlock
 70
     0
  3

 72
    65
 73
     0
 40
0.0
  0
LTYPE
  5
16
330
14
100
AcDbSymbolTableRecord
100
AcDbLinetypeTableRecord
  2
ByLayer
 70
     0
  3

 72
    65
 73
     0
 40
0.0
  0
LTYPE
  5
8
330
14
100
AcDbSymbolTableRecord
100
AcDbLinetypeTableRecord
  2
Continuous
 70
     0
  3
Solid line
 72
    65
 73
     0
 40
0.0
  0
LTYPE
  5
2B
330
14
100
AcDbSymbolTableRecord
100
AcDbLinetypeTableRecord
  2
CENTER
 70
     0
  3
Center
 72
    65
 73
     4
 40
9.100006759199999
 49
6.5000119209
 74
     0
 49
-0.7999984026000001
 74
     0
 49
0.9999980329999999
 74
     0
 49
-0.7999984026000001
 74
     0
  0
LTYPE
  5
31
330
14
100
AcDbSymbolTableRecord
100
AcDbLinetypeTableRecord
  2
PHANTOM
 70
     0
  3
Phantom
 72
    65
 73
     6
 40
9.499981462999999
 49
4.799990654
 74
     0
 49
-0.8999982475999999
 74
     0
 49
0.9999980329999999
 74
     0
 49
-0.8999982475999999
 74
     0
 49
0.9999980329999999
 74
     0
 49
-0.8999982475999999
 74
     0
  0
ENDTAB
  0
TABLE
  2
LAYER
  5
10
330
0
100
AcDbSymbolTable
 70
     1
  0
LAYER
  5
4
330
10
100
AcDbSymbolTableRecord
100
AcDbLayerTableRecord
  2
0
 70
     0
 62
     7
  6
Continuous
370
    -3
390
5
  0
ENDTAB
  0
TABLE
  2
STYLE
  5
11
330
0
100
AcDbSymbolTable
 70
     1
  0
STYLE
  5
12
330
11
100
AcDbSymbolTableRecord
100
AcDbTextStyleTableRecord
  2
STANDARD
 70
     0
 40
0.0
 41
1.0
 50
0.0
 71
     0
 42
2.999994039499997
  3
romans.shx
  4
bigfont.shx
  0
ENDTAB
  0
TABLE
  2
VIEW
  5
17
330
0
100
AcDbSymbolTable
 70
     0
  0
ENDTAB
  0
TABLE
  2
UCS
  5
18
330
0
100
AcDbSymbolTable
 70
     0
  0
ENDTAB
  0
TABLE
  2
APPID
  5
1B
330
0
100
AcDbSymbolTable
 70
     1
  0
APPID
  5
1C
330
1B
100
AcDbSymbolTableRecord
100
AcDbRegAppTableRecord
  2
ACAD
 70
     0
  0
ENDTAB
  0
TABLE
  2
DIMSTYLE
  5
1D
330
0
100
AcDbSymbolTable
 70
     1
100
AcDbDimStyleTable
 71
     0
  0
DIMSTYLE
105
23
330
1D
100
AcDbSymbolTableRecord
100
AcDbDimStyleTableRecord
  2
Standard
 70
     0
340
12
  0
ENDTAB
  0
TABLE
  2
BLOCK_RECORD
  5
1
330
0
100
AcDbSymbolTable
 70
     1
  0
BLOCK_RECORD
  5
2
330
1
100
AcDbSymbolTableRecord
100
AcDbBlockTableRecord
  2
*Model_Space
340
A
  0
BLOCK_RECORD
  5
C
330
1
100
AcDbSymbolTableRecord
100
AcDbBlockTableRecord
  2
*Paper_Space
340
F
  0
ENDTAB
  0
ENDSEC
  0
SECTION
  2
BLOCKS
  0
BLOCK
  5
3
330
2
100
AcDbEntity
  8
0
100
AcDbBlockBegin
  2
*Model_Space
 70
     0
 10
0.0
 20
0.0
 30
0.0
  3
*Model_Space
  1

  0
ENDBLK
  5
9
330
2
100
AcDbEntity
  8
0
100
AcDbBlockEnd
  0
BLOCK
  5
D
330
C
100
AcDbEntity
 67
     1
  8
0
100
AcDbBlockBegin
  2
*Paper_Space
 70
     0
 10
0.0
 20
0.0
 30
0.0
  3
*Paper_Space
  1

  0
ENDBLK
  5
E
330
C
100
AcDbEntity
 67
     1
  8
0
100
AcDbBlockEnd
  0
ENDSEC
  0
SECTION
  2
ENTITIES
  0
LINE
  5
24
330
2
100
AcDbEntity
  8
0
100
AcDbLine
 10
210.0
 20
0.0
 30
0.0
 11
210.0
 21
297.0
 31
0.0
  0
LINE
  5
25
330
2
100
AcDbEntity
  8
0
 62
     3
100
AcDbLine
 10
122.7015409736999
 20
195.0237465013998
 30
0.0
 11
122.7015409736999
 21
226.0237465013998
 31
0.0
  0
LINE
  5
26
330
2
100
AcDbEntity
  8
0
 62
     3
100
AcDbLine
 10
123.7015409736999
 20
194.5237465013999
 30
0.0
 11
123.7015409736999
 21
226.5237465013999
 31
0.0
  0
LINE
  5
27
330
2
100
AcDbEntity
  8
0
 62
     3
100
AcDbLine
 10
114.2015409736997
 20
212.7031898607999
 30
0.0
 11
114.2015409736997
 21
227.5237465013999
 31
0.0
  0
LINE
  5
28
330
2
100
AcDbEntity
  8
0
 62
     3
100
AcDbLine
 10
57.20154097369999
 20
227.5237465013999
 30
0.0
 11
57.20154097369999
 21
212.7031898607999
 31
0.0
  0
LINE
  5
29
330
2
100
AcDbEntity
  8
0
100
AcDbLine
 10
0.0
 20
297.0
 30
0.0
 11
0.0
 21
0.0
 31
0.0
  0
LINE
  5
2A
330
2
100
AcDbEntity
  8
0
  6
CENTER
 62
     3
100
AcDbLine
 10
119.2015409736999
 20
207.5237465013997
 30
0.0
 11
119.2015409736999
 21
215.0074195970999
 31
0.0
  0
LINE
  5
2C
330
2
100
AcDbEntity
  8
0
 62
     3
100
AcDbLine
 10
112.7015409736999
 20
205.5237465013998
 30
0.0
 11
112.7015409736999
 21
215.5237465013998
 31
0.0
  0
LINE
  5
2D
330
2
100
AcDbEntity
  8
0
 62
     3
100
AcDbLine
 10
58.70154097369999
 20
215.5237465013998
 30
0.0
 11
58.70154097369999
 21
205.5237465013998
 31
0.0
  0
LINE
  5
2E
330
2
100
AcDbEntity
  8
0
 62
     3
100
AcDbLine
 10
48.70154097369999
 20
226.0237465013998
 30
0.0
 11
48.70154097369999
 21
195.0237465013998
 31
0.0
  0
LINE
  5
2F
330
2
100
AcDbEntity
  8
0
 62
     3
100
AcDbLine
 10
47.70154097369998
 20
226.5237465013999
 30
0.0
 11
47.70154097369998
 21
194.5237007250998
 31
0.0
  0
LINE
  5
30
330
2
100
AcDbEntity
  8
0
  6
PHANTOM
 62
     3
100
AcDbLine
 10
58.70154097369999
 20
192.3237465013998
 30
0.0
 11
58.70154097369999
 21
228.7237465013998
 31
0.0
  0
LINE
  5
32
330
2
100
AcDbEntity
  8
0
  6
PHANTOM
 62
     3
100
AcDbLine
 10
112.7015409736999
 20
192.3237465013998
 30
0.0
 11
112.7015409736999
 21
228.7237465013998
 31
0.0
  0
LINE
  5
33
330
2
100
AcDbEntity
  8
0
100
AcDbLine
 10
0.0
 20
0.0
 30
0.0
 11
210.0
 21
0.0
 31
0.0
  0
LINE
  5
34
330
2
100
AcDbEntity
  8
0
 62
     3
100
AcDbLine
 10
85.70154097369998
 20
206.3237495531999
 30
0.0
 11
83.90155318069998
 21
206.3237495531999
 31
0.0
  0
LINE
  5
35
330
2
100
AcDbEntity
  8
0
 62
     3
100
AcDbLine
 10
85.70154097369998
 20
204.5237465013999
 30
0.0
 11
83.90155318069998
 21
204.5237465013999
 31
0.0
  0
LINE
  5
36
330
2
100
AcDbEntity
  8
0
 62
     3
100
AcDbLine
 10
85.70154097369998
 20
203.0237465013998
 30
0.0
 11
83.90155318069998
 21
203.0237465013998
 31
0.0
  0
LINE
  5
37
330
2
100
AcDbEntity
  8
0
 62
     3
100
AcDbLine
 10
85.70154097369998
 20
197.0237465013997
 30
0.0
 11
83.90155318069998
 21
197.0237465013997
 31
0.0
  0
LINE
  5
38
330
2
100
AcDbEntity
  8
0
 62
     3
100
AcDbLine
 10
85.70154097369998
 20
195.0237465013998
 30
0.0
 11
83.90155318069998
 21
195.0237465013998
 31
0.0
  0
LINE
  5
39
330
2
100
AcDbEntity
  8
0
 62
     3
100
AcDbLine
 10
83.90155318069998
 20
139.3322334398999
 30
0.0
 11
85.70154097369998
 21
139.3322334398999
 31
0.0
  0
LINE
  5
3A
330
2
100
AcDbEntity
  8
0
 62
     3
100
AcDbLine
 10
83.90155318069998
 20
142.3322334398999
 30
0.0
 11
85.70154097369998
 21
142.3322334398999
 31
0.0
  0
LINE
  5
3B
330
2
100
AcDbEntity
  8
0
 62
     3
100
AcDbLine
 10
83.90155318069998
 20
143.8322334398999
 30
0.0
 11
85.70154097369998
 21
143.8322334398999
 31
0.0
  0
LINE
  5
3C
330
2
100
AcDbEntity
  8
0
 62
     3
100
AcDbLine
 10
83.90155318069998
 20
138.3322334398999
 30
0.0
 11
85.70154097369998
 21
138.3322334398999
 31
0.0
  0
LINE
  5
3D
330
2
100
AcDbEntity
  8
0
 62
     3
100
AcDbLine
 10
83.90155318069998
 20
137.8322334398999
 30
0.0
 11
85.70154097369998
 21
137.8322334398999
 31
0.0
  0
LINE
  5
3E
330
2
100
AcDbEntity
  8
0
  6
PHANTOM
 62
     3
100
AcDbLine
 10
58.70154097369999
 20
145.6322334399
 30
0.0
 11
112.7015409736999
 21
145.6322334399
 31
0.0
  0
LINE
  5
3F
330
2
100
AcDbEntity
  8
0
  6
PHANTOM
 62
     3
100
AcDbLine
 10
58.70154097369999
 20
140.2322334399
 30
0.0
 11
112.7015409736999
 21
140.2322334399
 31
0.0
  0
LINE
  5
40
330
2
100
AcDbEntity
  8
0
  6
PHANTOM
 62
     3
100
AcDbLine
 10
58.70154097369999
 20
192.3237465013998
 30
0.0
 11
112.7015409736999
 21
192.3237465013998
 31
0.0
  0
LINE
  5
41
330
2
100
AcDbEntity
  8
0
 62
     3
100
AcDbLine
 10
122.7016158120999
 20
193.5237465013998
 30
0.0
 11
68.70154097369999
 21
193.5237465013998
 31
0.0
  0
LINE
  5
42
330
2
100
AcDbEntity
  8
0
 62
     3
100
AcDbLine
 10
48.70154097369999
 20
120.3322334398999
 30
0.0
 11
122.7014674983998
 21
120.3322334398999
 31
0.0
  0
LINE
  5
43
330
2
100
AcDbEntity
  8
0
 62
     3
100
AcDbLine
 10
48.70154097369999
 20
118.8322334398999
 30
0.0
 11
122.7016234188998
 21
118.8322334398999
 31
0.0
  0
LINE
  5
44
330
2
100
AcDbEntity
  8
0
  6
CENTER
 62
     3
100
AcDbLine
 10
44.70154097369999
 20
210.5237465013998
 30
0.0
 11
127.1387651586999
 21
210.5237465013998
 31
0.0
  0
LINE
  5
45
330
2
100
AcDbEntity
  8
0
 62
     3
100
AcDbLine
 10
68.70154097369999
 20
143.8322334398999
 30
0.0
 11
68.70154097369999
 21
118.8322334398999
 31
0.0
  0
LINE
  5
46
330
2
100
AcDbEntity
  8
0
 62
     3
100
AcDbLine
 10
77.20154097369999
 20
143.8322334398999
 30
0.0
 11
77.20154097369999
 21
118.8322334398999
 31
0.0
  0
LINE
  5
47
330
2
100
AcDbEntity
  8
0
 62
     3
100
AcDbLine
 10
48.70154097369999
 20
120.3322334398999
 30
0.0
 11
48.70154097369999
 21
126.8322334398999
 31
0.0
  0
LINE
  5
48
330
2
100
AcDbEntity
  8
0
 62
     3
100
AcDbLine
 10
60.20154097369999
 20
143.8322334398999
 30
0.0
 11
60.20154097369999
 21
118.8322334398999
 31
0.0
  0
LINE
  5
49
330
2
100
AcDbEntity
  8
0
 62
     3
100
AcDbLine
 10
47.70154097369998
 20
119.8322181810999
 30
0.0
 11
47.70154097369998
 21
127.3322029223
 31
0.0
  0
LINE
  5
4A
330
2
100
AcDbEntity
  8
0
 62
     3
100
AcDbLine
 10
48.10154298769996
 20
119.4321362644999
 30
0.0
 11
48.70155972479998
 21
120.3321613377999
 31
0.0
  0
LINE
  5
4B
330
2
100
AcDbEntity
  8
0
 62
     3
100
AcDbLine
 10
47.70156299209998
 20
119.8321162435999
 30
0.0
 11
48.70156439089999
 21
118.8321155191
 31
0.0
  0
LINE
  5
4C
330
2
100
AcDbEntity
  8
0
 62
     3
100
AcDbLine
 10
60.20154097369999
 20
195.0237465013998
 30
0.0
 11
48.70154097369999
 21
195.0237465013998
 31
0.0
  0
LINE
  5
4D
330
2
100
AcDbEntity
  8
0
 62
     3
100
AcDbLine
 10
48.70154097369999
 20
126.8322334398999
 30
0.0
 11
57.20154097369999
 21
126.8322334398999
 31
0.0
  0
LINE
  5
4E
330
2
100
AcDbEntity
  8
0
 62
     3
100
AcDbLine
 10
48.70154097369999
 20
128.3322334398999
 30
0.0
 11
57.20154097369999
 21
128.3322334398999
 31
0.0
  0
LINE
  5
4F
330
2
100
AcDbEntity
  8
0
 62
     3
100
AcDbLine
 10
68.70154097369999
 20
193.5237465013998
 30
0.0
 11
48.70155623249999
 21
193.5237465013998
 31
0.0
  0
LINE
  5
50
330
2
100
AcDbEntity
  8
0
 62
     3
100
AcDbLine
 10
48.10153133759996
 20
127.7321375692999
 30
0.0
 11
48.70152268249999
 21
126.8321505842
 31
0.0
  0
LINE
  5
51
330
2
100
AcDbEntity
  8
0
 62
     3
100
AcDbLine
 10
47.70155535749998
 20
127.3321313228999
 30
0.0
 11
48.70155776769997
 21
128.3321526151
 31
0.0
  0
LINE
  5
52
330
2
100
AcDbEntity
  8
0
 62
     3
100
AcDbLine
 10
48.10155691859995
 20
194.1236931251999
 30
0.0
 11
48.70155672749999
 21
195.0236928063998
 31
0.0
  0
LINE
  5
53
330
2
100
AcDbEntity
  8
0
 62
     3
100
AcDbLine
 10
48.70156684449998
 20
193.5236880900999
 30
0.0
 11
47.70156266399999
 21
194.5236860327998
 31
0.0
  0
LINE
  5
54
330
2
100
AcDbEntity
  8
0
 62
     3
100
AcDbLine
 10
52.70154097369999
 20
208.2737465013998
 30
0.0
 11
51.70154097369999
 21
208.2737465013998
 31
0.0
  0
LINE
  5
55
330
2
100
AcDbEntity
  8
0
 62
     3
100
AcDbLine
 10
52.70154097369999
 20
212.7737465013999
 30
0.0
 11
51.70154097369999
 21
212.7737465013999
 31
0.0
  0
ARC
  5
56
330
2
100
AcDbEntity
  8
0
 62
     3
100
AcDbCircle
 10
51.70154097369999
 20
210.5237465013998
 30
0.0
 40
2.25
100
AcDbArc
 50
89.99998201389999
 51
269.9999460416999
  0
ARC
  5
57
330
2
100
AcDbEntity
  8
0
 62
     3
100
AcDbCircle
 10
52.70154097369999
 20
210.5237465013998
 30
0.0
 40
2.25
100
AcDbArc
 50
270.0000179861
 51
89.99998201389994
  0
LINE
  5
58
330
2
100
AcDbEntity
  8
0
  6
CENTER
 62
     3
100
AcDbLine
 10
52.20154097369999
 20
213.5237465013998
 30
0.0
 11
52.20154097369999
 21
206.8578376879999
 31
0.0
  0
LINE
  5
59
330
2
100
AcDbEntity
  8
0
 62
     3
100
AcDbLine
 10
70.40155318069998
 20
140.6322212329
 30
0.0
 11
71.25155928419997
 21
140.6322212329
 31
0.0
  0
LINE
  5
5A
330
2
100
AcDbEntity
  8
0
 62
     3
100
AcDbLine
 10
70.31945333899995
 20
143.6321749372999
 30
0.0
 11
72.0515041155
 21
144.6321749372999
 31
0.0
  0
ARC
  5
5B
330
2
100
AcDbEntity
  8
0
 62
     3
100
AcDbCircle
 10
72.05154707719998
 20
137.6322212329
 30
0.0
 40
7.0
100
AcDbArc
 50
73.742929676
 51
106.2569797102999
  0
LINE
  5
5C
330
2
100
AcDbEntity
  8
0
 62
     3
100
AcDbLine
 10
68.70155623249999
 20
141.6322212328999
 30
0.0
 11
75.40155318069998
 21
141.6322212328999
 31
0.0
  0
LINE
  5
5D
330
2
100
AcDbEntity
  8
0
 62
     3
100
AcDbLine
 10
69.30156233599999
 20
142.6322212328999
 30
0.0
 11
74.80154707719998
 21
142.6322212328999
 31
0.0
  0
LINE
  5
5E
330
2
100
AcDbEntity
  8
0
 62
     3
100
AcDbLine
 10
68.70154097369999
 20
125.8322334398999
 30
0.0
 11
74.90155318069998
 21
125.8322334398999
 31
0.0
  0
LINE
  5
5F
330
2
100
AcDbEntity
  8
0
 62
     3
100
AcDbLine
 10
68.70154097369999
 20
128.3322334398999
 30
0.0
 11
74.90155318069998
 21
128.3322334398999
 31
0.0
  0
LINE
  5
60
330
2
100
AcDbEntity
  8
0
 62
     3
100
AcDbLine
 10
68.70154097369999
 20
132.3322334398999
 30
0.0
 11
74.90155318069998
 21
132.3322334398999
 31
0.0
  0
LINE
  5
61
330
2
100
AcDbEntity
  8
0
 62
     3
100
AcDbLine
 10
68.70154097369999
 20
133.3322334398999
 30
0.0
 11
75.40155318069998
 21
133.3322334398999
 31
0.0
  0
LINE
  5
62
330
2
100
AcDbEntity
  8
0
  6
PHANTOM
 62
     3
100
AcDbLine
 10
58.70154097369999
 20
145.6322334399
 30
0.0
 11
58.70154097369999
 21
140.2322334399
 31
0.0
  0
LINE
  5
63
330
2
100
AcDbEntity
  8
0
 62
     3
100
AcDbLine
 10
63.05156233599999
 20
141.1322212328999
 30
0.0
 11
64.05156233599999
 21
141.1322212328999
 31
0.0
  0
LINE
  5
64
330
2
100
AcDbEntity
  8
0
 62
     3
100
AcDbLine
 10
62.7515592842
 20
133.3322181811
 30
0.0
 11
64.35155012889999
 21
133.3322181811
 31
0.0
  0
LINE
  5
65
330
2
100
AcDbEntity
  8
0
 62
     3
100
AcDbLine
 10
62.3515577583
 20
135.1322212329
 30
0.0
 11
64.75156691359996
 21
135.1322212329
 31
0.0
  0
LINE
  5
66
330
2
100
AcDbEntity
  8
0
 62
     3
100
AcDbLine
 10
62.0515547066
 20
135.4322090259
 30
0.0
 11
65.0515547066
 21
135.4322090259
 31
0.0
  0
LINE
  5
67
330
2
100
AcDbEntity
  8
0
 62
     3
100
AcDbLine
 10
62.05156996539997
 20
140.1322212329
 30
0.0
 11
65.0515547066
 21
140.1322212329
 31
0.0
  0
ARC
  5
68
330
2
100
AcDbEntity
  8
0
 62
     3
100
AcDbCircle
 10
63.55154707719996
 20
137.6322212329
 30
0.0
 40
7.0
100
AcDbArc
 50
73.742929676
 51
106.2569797102999
  0
LINE
  5
69
330
2
100
AcDbEntity
  8
0
 62
     3
100
AcDbLine
 10
60.80156233600002
 20
142.6322212328999
 30
0.0
 11
66.30154707719999
 21
142.6322212328999
 31
0.0
  0
LINE
  5
6A
330
2
100
AcDbEntity
  8
0
 62
     3
100
AcDbLine
 10
61.81945333899998
 20
143.6321749372999
 30
0.0
 11
63.55150411549999
 21
144.6321749372999
 31
0.0
  0
LINE
  5
6B
330
2
100
AcDbEntity
  8
0
 62
     3
100
AcDbLine
 10
60.20155623249999
 20
141.6322212328999
 30
0.0
 11
66.90155318069997
 21
141.6322212328999
 31
0.0
  0
LINE
  5
6C
330
2
100
AcDbEntity
  8
0
 62
     3
100
AcDbLine
 10
62.55158085219995
 20
141.6321181721
 30
0.0
 11
63.55158191379999
 21
142.6321192337
 31
0.0
  0
LINE
  5
6D
330
2
100
AcDbEntity
  8
0
 62
     3
100
AcDbLine
 10
60.20154097369999
 20
125.8322334398999
 30
0.0
 11
66.40155318069997
 21
125.8322334398999
 31
0.0
  0
LINE
  5
6E
330
2
100
AcDbEntity
  8
0
 62
     3
100
AcDbLine
 10
60.20154097369999
 20
128.3322334398999
 30
0.0
 11
66.40155318069997
 21
128.3322334398999
 31
0.0
  0
LINE
  5
6F
330
2
100
AcDbEntity
  8
0
 62
     3
100
AcDbLine
 10
60.20154097369999
 20
132.3322334398999
 30
0.0
 11
66.40155318069997
 21
132.3322334398999
 31
0.0
  0
LINE
  5
70
330
2
100
AcDbEntity
  8
0
 62
     3
100
AcDbLine
 10
60.20154097369999
 20
133.3322334398999
 30
0.0
 11
66.90155318069997
 21
133.3322334398999
 31
0.0
  0
LINE
  5
71
330
2
100
AcDbEntity
  8
0
 62
     3
100
AcDbLine
 10
57.20154097369999
 20
126.8322334398999
 30
0.0
 11
57.20154097369999
 21
143.8322334398999
 31
0.0
  0
LINE
  5
72
330
2
100
AcDbEntity
  8
0
 62
     3
100
AcDbLine
 10
58.70154097369999
 20
139.3322334398999
 30
0.0
 11
60.20154097369999
 21
139.3322334398999
 31
0.0
  0
LINE
  5
73
330
2
100
AcDbEntity
  8
0
 62
     3
100
AcDbLine
 10
57.20154097369999
 20
142.3322334398999
 30
0.0
 11
60.20154097369999
 21
142.3322334398999
 31
0.0
  0
LINE
  5
74
330
2
100
AcDbEntity
  8
0
 62
     3
100
AcDbLine
 10
57.20154097369999
 20
143.8322334398999
 30
0.0
 11
60.20154097369999
 21
143.8322334398999
 31
0.0
  0
LINE
  5
75
330
2
100
AcDbEntity
  8
0
 62
     3
100
AcDbLine
 10
58.70154097369999
 20
137.8322334398999
 30
0.0
 11
60.20154097369999
 21
137.8322334398999
 31
0.0
  0
LINE
  5
76
330
2
100
AcDbEntity
  8
0
 62
     3
100
AcDbLine
 10
58.70154097369999
 20
138.3322334398999
 30
0.0
 11
60.20154097369999
 21
138.3322334398999
 31
0.0
  0
LINE
  5
77
330
2
100
AcDbEntity
  8
0
 62
     3
100
AcDbLine
 10
58.70154097369999
 20
137.8322334398999
 30
0.0
 11
58.70154097369999
 21
142.3322334398999
 31
0.0
  0
LINE
  5
78
330
2
100
AcDbEntity
  8
0
 62
     3
100
AcDbLine
 10
62.3515577583
 20
135.1322212329
 30
0.0
 11
62.3515577583
 21
140.1322212329
 31
0.0
  0
LINE
  5
79
330
2
100
AcDbEntity
  8
0
 62
     3
100
AcDbLine
 10
62.0515547066
 20
135.4321937670999
 30
0.0
 11
62.0515547066
 21
140.1322212329
 31
0.0
  0
LINE
  5
7A
330
2
100
AcDbEntity
  8
0
 62
     3
100
AcDbLine
 10
60.20155623249999
 20
134.8322181811
 30
0.0
 11
60.20155623249999
 21
133.8322181810999
 31
0.0
  0
LINE
  5
7B
330
2
100
AcDbEntity
  8
0
 62
     3
100
AcDbLine
 10
62.35155147019998
 20
135.1321647761
 30
0.0
 11
62.05155115189999
 21
135.4321521724999
 31
0.0
  0
ARC
  5
7C
330
2
100
AcDbEntity
  8
0
 62
     3
100
AcDbCircle
 10
61.87187483599996
 20
143.3923072925
 30
0.0
 40
1.0
100
AcDbArc
 50
106.2569797102999
 51
174.9999923478
  0
LINE
  5
7D
330
2
100
AcDbEntity
  8
0
 62
     3
100
AcDbLine
 10
60.58041858689995
 20
140.1917487371999
 30
0.0
 11
61.90150527639997
 21
140.6321109117
 31
0.0
  0
LINE
  5
7E
330
2
100
AcDbEntity
  8
0
 62
     3
100
AcDbLine
 10
60.58041379939999
 20
141.1917486107
 30
0.0
 11
61.90150048889996
 21
141.6321107851999
 31
0.0
  0
LINE
  5
7F
330
2
100
AcDbEntity
  8
0
 62
     3
100
AcDbLine
 10
60.87561823589997
 20
143.4793702414999
 30
0.0
 11
60.80149413259997
 21
142.6321274264999
 31
0.0
  0
LINE
  5
80
330
2
100
AcDbEntity
  8
0
 62
     3
100
AcDbLine
 10
60.85155012889996
 20
141.6322212328999
 30
0.0
 11
60.85155012889996
 21
142.6322212328999
 31
0.0
  0
ARC
  5
81
330
2
100
AcDbEntity
  8
0
 62
     3
100
AcDbCircle
 10
60.51721480179998
 20
141.3815803638
 30
0.0
 40
0.1999999881
100
AcDbArc
 50
201.8017812367999
 51
288.4350810464998
  0
ARC
  5
82
330
2
100
AcDbEntity
  8
0
 62
     3
100
AcDbCircle
 10
60.51721480179998
 20
140.3815803637999
 30
0.0
 40
0.1999999881
100
AcDbArc
 50
201.8016173122999
 51
288.4351903295997
  0
LINE
  5
83
330
2
100
AcDbEntity
  8
0
 62
     3
100
AcDbLine
 10
60.40155318069998
 20
140.8822212328999
 30
0.0
 11
60.40155318069998
 21
140.3822212328999
 31
0.0
  0
LINE
  5
84
330
2
100
AcDbEntity
  8
0
 62
     3
100
AcDbLine
 10
60.20153191509996
 20
140.6321233185
 30
0.0
 11
60.33149867619997
 21
140.3072076461999
 31
0.0
  0
LINE
  5
85
330
2
100
AcDbEntity
  8
0
 62
     3
100
AcDbLine
 10
60.20154194289998
 20
141.6321172052
 30
0.0
 11
60.33150303709999
 21
141.3072157003
 31
0.0
  0
LINE
  5
86
330
2
100
AcDbEntity
  8
0
 62
     3
100
AcDbLine
 10
60.20154097369999
 20
141.8322334398999
 30
0.0
 11
60.85155012889996
 21
141.8322334398999
 31
0.0
  0
LINE
  5
87
330
2
100
AcDbEntity
  8
0
 62
     3
100
AcDbLine
 10
62.7515592842
 20
140.1322212329
 30
0.0
 11
62.7515592842
 21
140.6322212329
 31
0.0
  0
LINE
  5
88
330
2
100
AcDbEntity
  8
0
 62
     3
100
AcDbLine
 10
63.05156233599999
 20
141.6322212328999
 30
0.0
 11
63.05156233599999
 21
141.1322212328999
 31
0.0
  0
LINE
  5
89
330
2
100
AcDbEntity
  8
0
 62
     3
100
AcDbLine
 10
62.20155623250002
 20
140.1322212329
 30
0.0
 11
62.20155623250002
 21
140.6322212329
 31
0.0
  0
LINE
  5
8A
330
2
100
AcDbEntity
  8
0
 62
     3
100
AcDbLine
 10
61.90155318069997
 20
140.6322212329
 30
0.0
 11
62.7515592842
 21
140.6322212329
 31
0.0
  0
LINE
  5
8B
330
2
100
AcDbEntity
  8
0
 62
     3
100
AcDbLine
 10
64.5515547066
 20
135.1322212329
 30
0.0
 11
64.5515547066
 21
133.3322334398999
 31
0.0
  0
LINE
  5
8C
330
2
100
AcDbEntity
  8
0
 62
     3
100
AcDbLine
 10
66.90155318069997
 20
143.8322334398999
 30
0.0
 11
66.90155318069997
 21
133.3322334398999
 31
0.0
  0
LINE
  5
8D
330
2
100
AcDbEntity
  8
0
 62
     3
100
AcDbLine
 10
66.40155318069997
 20
133.3322334398999
 30
0.0
 11
66.40155318069997
 21
125.8322334398999
 31
0.0
  0
ARC
  5
8E
330
2
100
AcDbEntity
  8
0
 62
     3
100
AcDbCircle
 10
66.58589461140002
 20
141.3815803638
 30
0.0
 40
0.1999999881
100
AcDbArc
 50
251.5650095670999
 51
338.1982239995
  0
ARC
  5
8F
330
2
100
AcDbEntity
  8
0
 62
     3
100
AcDbCircle
 10
66.58589461140002
 20
140.3815803637999
 30
0.0
 40
0.1999999881
100
AcDbArc
 50
251.5649002841
 51
338.1983537731
  0
LINE
  5
90
330
2
100
AcDbEntity
  8
0
 62
     3
100
AcDbLine
 10
66.77156347339996
 20
140.3072371379
 30
0.0
 11
66.901524943
 21
140.6321384968
 31
0.0
  0
LINE
  5
91
330
2
100
AcDbEntity
  8
0
 62
     3
100
AcDbLine
 10
66.77158864589995
 20
141.3072363268
 30
0.0
 11
66.90154974009996
 21
141.6321378316999
 31
0.0
  0
LINE
  5
92
330
2
100
AcDbEntity
  8
0
 62
     3
100
AcDbLine
 10
66.25155928419997
 20
141.8322334398999
 30
0.0
 11
66.90155318069997
 21
141.8322334398999
 31
0.0
  0
LINE
  5
93
330
2
100
AcDbEntity
  8
0
 62
     3
100
AcDbLine
 10
64.75156691359996
 20
135.1322212329
 30
0.0
 11
64.75156691359996
 21
140.1322212329
 31
0.0
  0
LINE
  5
94
330
2
100
AcDbEntity
  8
0
 62
     3
100
AcDbLine
 10
65.0515547066
 20
135.4322090259
 30
0.0
 11
65.0515547066
 21
140.1322212329
 31
0.0
  0
LINE
  5
95
330
2
100
AcDbEntity
  8
0
 62
     3
100
AcDbLine
 10
64.75157789329998
 20
135.1321436507
 30
0.0
 11
65.0515756323
 21
135.4321336011
 31
0.0
  0
LINE
  5
96
330
2
100
AcDbEntity
  8
0
 62
     3
100
AcDbLine
 10
64.35155012889999
 20
140.6322212329
 30
0.0
 11
65.20155623249999
 21
140.6322212329
 31
0.0
  0
LINE
  5
97
330
2
100
AcDbEntity
  8
0
 62
     3
100
AcDbLine
 10
64.90155318069998
 20
140.1322212329
 30
0.0
 11
64.90155318069998
 21
140.6322212329
 31
0.0
  0
LINE
  5
98
330
2
100
AcDbEntity
  8
0
 62
     3
100
AcDbLine
 10
64.35155012889999
 20
140.1322212329
 30
0.0
 11
64.35155012889999
 21
140.6322212329
 31
0.0
  0
LINE
  5
99
330
2
100
AcDbEntity
  8
0
 62
     3
100
AcDbLine
 10
64.05156233599999
 20
141.6322212328999
 30
0.0
 11
64.05156233599999
 21
141.1322212328999
 31
0.0
  0
LINE
  5
9A
330
2
100
AcDbEntity
  8
0
 62
     3
100
AcDbLine
 10
64.41760046389996
 20
144.1321708561
 30
0.0
 11
63.55157507569998
 21
144.6321708561
 31
0.0
  0
LINE
  5
9B
330
2
100
AcDbEntity
  8
0
 62
     3
100
AcDbLine
 10
64.55158297539998
 20
142.6321192337
 30
0.0
 11
63.55158191379999
 21
141.6321181721
 31
0.0
  0
LINE
  5
9C
330
2
100
AcDbEntity
  8
0
 62
     3
100
AcDbLine
 10
66.7015562325
 20
140.3822212328999
 30
0.0
 11
66.7015562325
 21
140.8822212328999
 31
0.0
  0
LINE
  5
9D
330
2
100
AcDbEntity
  8
0
 62
     3
100
AcDbLine
 10
66.25155928419997
 20
142.6322212328999
 30
0.0
 11
66.25155928419997
 21
141.6322212328999
 31
0.0
  0
ARC
  5
9E
330
2
100
AcDbEntity
  8
0
 62
     3
100
AcDbCircle
 10
65.23123457719998
 20
143.3923072925
 30
0.0
 40
1.0
100
AcDbArc
 50
5.000005831000001
 51
73.7429843175
  0
LINE
  5
9F
330
2
100
AcDbEntity
  8
0
 62
     3
100
AcDbLine
 10
65.20153849419995
 20
140.6321342488999
 30
0.0
 11
66.52262559869999
 21
140.1917734024
 31
0.0
  0
LINE
  5
A0
330
2
100
AcDbEntity
  8
0
 62
     3
100
AcDbLine
 10
65.20154551809998
 20
141.6321326803999
 30
0.0
 11
66.52263220759997
 21
141.1917705058999
 31
0.0
  0
LINE
  5
A1
330
2
100
AcDbEntity
  8
0
 62
     3
100
AcDbLine
 10
66.30149243879998
 20
142.6321455047
 30
0.0
 11
66.2273670056
 21
143.4794035204
 31
0.0
  0
LINE
  5
A2
330
2
100
AcDbEntity
  8
0
 62
     3
100
AcDbLine
 10
66.90155318069997
 20
137.8322334398999
 30
0.0
 11
68.70154097369999
 21
137.8322334398999
 31
0.0
  0
LINE
  5
A3
330
2
100
AcDbEntity
  8
0
 62
     3
100
AcDbLine
 10
66.90155318069997
 20
138.3322334398999
 30
0.0
 11
68.70154097369999
 21
138.3322334398999
 31
0.0
  0
LINE
  5
A4
330
2
100
AcDbEntity
  8
0
 62
     3
100
AcDbLine
 10
68.70155623249999
 20
134.8322181811
 30
0.0
 11
68.70155623249999
 21
133.8322181810999
 31
0.0
  0
LINE
  5
A5
330
2
100
AcDbEntity
  8
0
 62
     3
100
AcDbLine
 10
66.90155318069997
 20
139.3322334398999
 30
0.0
 11
68.70154097369999
 21
139.3322334398999
 31
0.0
  0
LINE
  5
A6
330
2
100
AcDbEntity
  8
0
 62
     3
100
AcDbLine
 10
66.90155318069997
 20
142.3322334398999
 30
0.0
 11
68.70154097369999
 21
142.3322334398999
 31
0.0
  0
LINE
  5
A7
330
2
100
AcDbEntity
  8
0
 62
     3
100
AcDbLine
 10
66.90155318069997
 20
143.8322334398999
 30
0.0
 11
68.70154097369999
 21
143.8322334398999
 31
0.0
  0
LINE
  5
A8
330
2
100
AcDbEntity
  8
0
 62
     3
100
AcDbLine
 10
68.70154097369999
 20
141.8322334398999
 30
0.0
 11
69.35155012889999
 21
141.8322334398999
 31
0.0
  0
LINE
  5
A9
330
2
100
AcDbEntity
  8
0
 62
     3
100
AcDbLine
 10
69.35155012889999
 20
141.6322212328999
 30
0.0
 11
69.35155012889999
 21
142.6322212328999
 31
0.0
  0
LINE
  5
AA
330
2
100
AcDbEntity
  8
0
 62
     3
100
AcDbLine
 10
69.37561823589996
 20
143.4793702414999
 30
0.0
 11
69.30149413259997
 21
142.6321274264999
 31
0.0
  0
LINE
  5
AB
330
2
100
AcDbEntity
  8
0
 62
     3
100
AcDbLine
 10
68.70154194289998
 20
141.6321172052
 30
0.0
 11
68.83150303709999
 21
141.3072157003
 31
0.0
  0
LINE
  5
AC
330
2
100
AcDbEntity
  8
0
 62
     3
100
AcDbLine
 10
68.70153191509996
 20
140.6321233185
 30
0.0
 11
68.83149867619997
 21
140.3072076461999
 31
0.0
  0
LINE
  5
AD
330
2
100
AcDbEntity
  8
0
 62
     3
100
AcDbLine
 10
68.90155318069997
 20
140.8822212328999
 30
0.0
 11
68.90155318069997
 21
140.3822212328999
 31
0.0
  0
ARC
  5
AE
330
2
100
AcDbEntity
  8
0
 62
     3
100
AcDbCircle
 10
69.01721480179998
 20
140.3815803637999
 30
0.0
 40
0.1999999881
100
AcDbArc
 50
201.8016173122999
 51
288.4351903295997
  0
ARC
  5
AF
330
2
100
AcDbEntity
  8
0
 62
     3
100
AcDbCircle
 10
69.01721480179998
 20
141.3815803638
 30
0.0
 40
0.1999999881
100
AcDbArc
 50
201.8017812367999
 51
288.4350810464998
  0
LINE
  5
B0
330
2
100
AcDbEntity
  8
0
 62
     3
100
AcDbLine
 10
69.08041379939999
 20
141.1917486107
 30
0.0
 11
70.40150048889998
 21
141.6321107851999
 31
0.0
  0
LINE
  5
B1
330
2
100
AcDbEntity
  8
0
 62
     3
100
AcDbLine
 10
69.08041858689998
 20
140.1917487371999
 30
0.0
 11
70.40150527639998
 21
140.6321109117
 31
0.0
  0
ARC
  5
B2
330
2
100
AcDbEntity
  8
0
 62
     3
100
AcDbCircle
 10
70.37187483599999
 20
143.3923072925
 30
0.0
 40
1.0
100
AcDbArc
 50
106.2569797102999
 51
174.9999923478
  0
ARC
  5
B3
330
2
100
AcDbEntity
  8
0
 62
     3
100
AcDbCircle
 10
78.87187483599999
 20
143.3923072925
 30
0.0
 40
1.0
100
AcDbArc
 50
106.2569797102999
 51
174.9999923478
  0
LINE
  5
B4
330
2
100
AcDbEntity
  8
0
 62
     3
100
AcDbLine
 10
77.58041858689998
 20
140.1917487371999
 30
0.0
 11
78.90150527639997
 21
140.6321109117
 31
0.0
  0
LINE
  5
B5
330
2
100
AcDbEntity
  8
0
 62
     3
100
AcDbLine
 10
77.58041379939999
 20
141.1917486107
 30
0.0
 11
78.90150048889998
 21
141.6321107851999
 31
0.0
  0
LINE
  5
B6
330
2
100
AcDbEntity
  8
0
 62
     3
100
AcDbLine
 10
77.2015562325
 20
141.6322212328999
 30
0.0
 11
83.90155318069998
 21
141.6322212328999
 31
0.0
  0
LINE
  5
B7
330
2
100
AcDbEntity
  8
0
 62
     3
100
AcDbLine
 10
77.20154097369999
 20
141.8322334398999
 30
0.0
 11
77.85155012889998
 21
141.8322334398999
 31
0.0
  0
LINE
  5
B8
330
2
100
AcDbEntity
  8
0
 62
     3
100
AcDbLine
 10
77.20154097369999
 20
125.8322334398999
 30
0.0
 11
83.40155318069998
 21
125.8322334398999
 31
0.0
  0
LINE
  5
B9
330
2
100
AcDbEntity
  8
0
 62
     3
100
AcDbLine
 10
77.20154097369999
 20
128.3322334398999
 30
0.0
 11
83.40155318069998
 21
128.3322334398999
 31
0.0
  0
LINE
  5
BA
330
2
100
AcDbEntity
  8
0
 62
     3
100
AcDbLine
 10
77.20154097369999
 20
132.3322334398999
 30
0.0
 11
83.40155318069998
 21
132.3322334398999
 31
0.0
  0
LINE
  5
BB
330
2
100
AcDbEntity
  8
0
 62
     3
100
AcDbLine
 10
77.20154097369999
 20
133.3322334398999
 30
0.0
 11
83.90155318069998
 21
133.3322334398999
 31
0.0
  0
LINE
  5
BC
330
2
100
AcDbEntity
  8
0
 62
     3
100
AcDbLine
 10
73.0515547066
 20
135.1322212329
 30
0.0
 11
73.0515547066
 21
133.3322334398999
 31
0.0
  0
LINE
  5
BD
330
2
100
AcDbEntity
  8
0
 62
     3
100
AcDbLine
 10
75.40155318069998
 20
143.8322334398999
 30
0.0
 11
75.40155318069998
 21
133.3322334398999
 31
0.0
  0
LINE
  5
BE
330
2
100
AcDbEntity
  8
0
 62
     3
100
AcDbLine
 10
71.25155928419997
 20
133.3322181811
 30
0.0
 11
72.85155012889998
 21
133.3322181811
 31
0.0
  0
LINE
  5
BF
330
2
100
AcDbEntity
  8
0
 62
     3
100
AcDbLine
 10
74.90155318069998
 20
133.3322334398999
 30
0.0
 11
74.90155318069998
 21
125.8322334398999
 31
0.0
  0
LINE
  5
C0
330
2
100
AcDbEntity
  8
0
 62
     3
100
AcDbLine
 10
73.70154551809998
 20
141.6321326803999
 30
0.0
 11
75.02263220759997
 21
141.1917705058999
 31
0.0
  0
LINE
  5
C1
330
2
100
AcDbEntity
  8
0
 62
     3
100
AcDbLine
 10
73.70153849419998
 20
140.6321342488999
 30
0.0
 11
75.02262559869996
 21
140.1917734024
 31
0.0
  0
ARC
  5
C2
330
2
100
AcDbEntity
  8
0
 62
     3
100
AcDbCircle
 10
73.73123457719998
 20
143.3923072925
 30
0.0
 40
1.0
100
AcDbArc
 50
5.000005831000001
 51
73.7429843175
  0
LINE
  5
C3
330
2
100
AcDbEntity
  8
0
 62
     3
100
AcDbLine
 10
70.5515547066
 20
135.4321937670999
 30
0.0
 11
70.5515547066
 21
140.1322212329
 31
0.0
  0
LINE
  5
C4
330
2
100
AcDbEntity
  8
0
 62
     3
100
AcDbLine
 10
73.5515547066
 20
135.4322090259
 30
0.0
 11
73.5515547066
 21
140.1322212329
 31
0.0
  0
LINE
  5
C5
330
2
100
AcDbEntity
  8
0
 62
     3
100
AcDbLine
 10
70.8515577583
 20
135.1322212329
 30
0.0
 11
70.8515577583
 21
140.1322212329
 31
0.0
  0
LINE
  5
C6
330
2
100
AcDbEntity
  8
0
 62
     3
100
AcDbLine
 10
73.25156691359999
 20
135.1322212329
 30
0.0
 11
73.25156691359999
 21
140.1322212329
 31
0.0
  0
LINE
  5
C7
330
2
100
AcDbEntity
  8
0
 62
     3
100
AcDbLine
 10
70.5515547066
 20
135.4322090259
 30
0.0
 11
73.5515547066
 21
135.4322090259
 31
0.0
  0
LINE
  5
C8
330
2
100
AcDbEntity
  8
0
 62
     3
100
AcDbLine
 10
70.8515577583
 20
135.1322212329
 30
0.0
 11
73.25156691359999
 21
135.1322212329
 31
0.0
  0
LINE
  5
C9
330
2
100
AcDbEntity
  8
0
 62
     3
100
AcDbLine
 10
70.85155147019998
 20
135.1321647761
 30
0.0
 11
70.55155115189998
 21
135.4321521724999
 31
0.0
  0
LINE
  5
CA
330
2
100
AcDbEntity
  8
0
 62
     3
100
AcDbLine
 10
73.25157789329998
 20
135.1321436507
 30
0.0
 11
73.5515756323
 21
135.4321336011
 31
0.0
  0
LINE
  5
CB
330
2
100
AcDbEntity
  8
0
 62
     3
100
AcDbLine
 10
73.05158297539998
 20
142.6321192337
 30
0.0
 11
72.05158191379997
 21
141.6321181721
 31
0.0
  0
LINE
  5
CC
330
2
100
AcDbEntity
  8
0
 62
     3
100
AcDbLine
 10
72.91760046389999
 20
144.1321708561
 30
0.0
 11
72.05157507569999
 21
144.6321708561
 31
0.0
  0
LINE
  5
CD
330
2
100
AcDbEntity
  8
0
 62
     3
100
AcDbLine
 10
70.55156996539998
 20
140.1322212329
 30
0.0
 11
73.5515547066
 21
140.1322212329
 31
0.0
  0
LINE
  5
CE
330
2
100
AcDbEntity
  8
0
 62
     3
100
AcDbLine
 10
71.55156233599999
 20
141.1322212328999
 30
0.0
 11
72.55156233599999
 21
141.1322212328999
 31
0.0
  0
LINE
  5
CF
330
2
100
AcDbEntity
  8
0
 62
     3
100
AcDbLine
 10
71.55156233599999
 20
141.6322212328999
 30
0.0
 11
71.55156233599999
 21
141.1322212328999
 31
0.0
  0
LINE
  5
D0
330
2
100
AcDbEntity
  8
0
 62
     3
100
AcDbLine
 10
71.25155928419997
 20
140.1322212329
 30
0.0
 11
71.25155928419997
 21
140.6322212329
 31
0.0
  0
LINE
  5
D1
330
2
100
AcDbEntity
  8
0
 62
     3
100
AcDbLine
 10
70.70155623249997
 20
140.1322212329
 30
0.0
 11
70.70155623249997
 21
140.6322212329
 31
0.0
  0
LINE
  5
D2
330
2
100
AcDbEntity
  8
0
 62
     3
100
AcDbLine
 10
71.05158085219994
 20
141.6321181721
 30
0.0
 11
72.05158191379997
 21
142.6321192337
 31
0.0
  0
LINE
  5
D3
330
2
100
AcDbEntity
  8
0
 62
     3
100
AcDbLine
 10
72.55156233599999
 20
141.6322212328999
 30
0.0
 11
72.55156233599999
 21
141.1322212328999
 31
0.0
  0
LINE
  5
D4
330
2
100
AcDbEntity
  8
0
 62
     3
100
AcDbLine
 10
72.85155012889998
 20
140.1322212329
 30
0.0
 11
72.85155012889998
 21
140.6322212329
 31
0.0
  0
LINE
  5
D5
330
2
100
AcDbEntity
  8
0
 62
     3
100
AcDbLine
 10
73.40155318069998
 20
140.1322212329
 30
0.0
 11
73.40155318069998
 21
140.6322212329
 31
0.0
  0
LINE
  5
D6
330
2
100
AcDbEntity
  8
0
 62
     3
100
AcDbLine
 10
72.85155012889998
 20
140.6322212329
 30
0.0
 11
73.70155623249996
 21
140.6322212329
 31
0.0
  0
LINE
  5
D7
330
2
100
AcDbEntity
  8
0
 62
     3
100
AcDbLine
 10
75.40155318069998
 20
137.8322334398999
 30
0.0
 11
77.20154097369999
 21
137.8322334398999
 31
0.0
  0
LINE
  5
D8
330
2
100
AcDbEntity
  8
0
 62
     3
100
AcDbLine
 10
75.40155318069998
 20
138.3322334398999
 30
0.0
 11
77.20154097369999
 21
138.3322334398999
 31
0.0
  0
LINE
  5
D9
330
2
100
AcDbEntity
  8
0
 62
     3
100
AcDbLine
 10
77.2015562325
 20
134.8322181811
 30
0.0
 11
77.2015562325
 21
133.8322181810999
 31
0.0
  0
LINE
  5
DA
330
2
100
AcDbEntity
  8
0
 62
     3
100
AcDbLine
 10
75.40155318069998
 20
139.3322334398999
 30
0.0
 11
77.20154097369999
 21
139.3322334398999
 31
0.0
  0
LINE
  5
DB
330
2
100
AcDbEntity
  8
0
 62
     3
100
AcDbLine
 10
75.40155318069998
 20
142.3322334398999
 30
0.0
 11
77.20154097369999
 21
142.3322334398999
 31
0.0
  0
LINE
  5
DC
330
2
100
AcDbEntity
  8
0
 62
     3
100
AcDbLine
 10
75.40155318069998
 20
143.8322334398999
 30
0.0
 11
77.20154097369999
 21
143.8322334398999
 31
0.0
  0
LINE
  5
DD
330
2
100
AcDbEntity
  8
0
 62
     3
100
AcDbLine
 10
74.7515592842
 20
141.8322334398999
 30
0.0
 11
75.40155318069998
 21
141.8322334398999
 31
0.0
  0
LINE
  5
DE
330
2
100
AcDbEntity
  8
0
 62
     3
100
AcDbLine
 10
74.7515592842
 20
142.6322212328999
 30
0.0
 11
74.7515592842
 21
141.6322212328999
 31
0.0
  0
LINE
  5
DF
330
2
100
AcDbEntity
  8
0
 62
     3
100
AcDbLine
 10
74.80149243879998
 20
142.6321455047
 30
0.0
 11
74.7273670056
 21
143.4794035204
 31
0.0
  0
LINE
  5
E0
330
2
100
AcDbEntity
  8
0
 62
     3
100
AcDbLine
 10
75.27158864589998
 20
141.3072363268
 30
0.0
 11
75.40154974009997
 21
141.6321378316999
 31
0.0
  0
LINE
  5
E1
330
2
100
AcDbEntity
  8
0
 62
     3
100
AcDbLine
 10
75.27156347339996
 20
140.3072371379
 30
0.0
 11
75.401524943
 21
140.6321384968
 31
0.0
  0
LINE
  5
E2
330
2
100
AcDbEntity
  8
0
 62
     3
100
AcDbLine
 10
75.20155623249997
 20
140.3822212328999
 30
0.0
 11
75.20155623249997
 21
140.8822212328999
 31
0.0
  0
ARC
  5
E3
330
2
100
AcDbEntity
  8
0
 62
     3
100
AcDbCircle
 10
75.08589461139997
 20
140.3815803637999
 30
0.0
 40
0.1999999881
100
AcDbArc
 50
251.5649002841
 51
338.1983537731
  0
ARC
  5
E4
330
2
100
AcDbEntity
  8
0
 62
     3
100
AcDbCircle
 10
75.08589461139997
 20
141.3815803638
 30
0.0
 40
0.1999999881
100
AcDbArc
 50
251.5650095670999
 51
338.1982239995
  0
ARC
  5
E5
330
2
100
AcDbEntity
  8
0
 62
     3
100
AcDbCircle
 10
77.51721480179998
 20
141.3815803638
 30
0.0
 40
0.1999999881
100
AcDbArc
 50
201.8017812367999
 51
288.4350810464998
  0
ARC
  5
E6
330
2
100
AcDbEntity
  8
0
 62
     3
100
AcDbCircle
 10
77.51721480179998
 20
140.3815803637999
 30
0.0
 40
0.1999999881
100
AcDbArc
 50
201.8016173122999
 51
288.4351903295997
  0
LINE
  5
E7
330
2
100
AcDbEntity
  8
0
 62
     3
100
AcDbLine
 10
77.40155318069998
 20
140.8822212328999
 30
0.0
 11
77.40155318069998
 21
140.3822212328999
 31
0.0
  0
LINE
  5
E8
330
2
100
AcDbEntity
  8
0
 62
     3
100
AcDbLine
 10
77.20153191509997
 20
140.6321233185
 30
0.0
 11
77.33149867619997
 21
140.3072076461999
 31
0.0
  0
LINE
  5
E9
330
2
100
AcDbEntity
  8
0
 62
     3
100
AcDbLine
 10
77.20154194289998
 20
141.6321172052
 30
0.0
 11
77.33150303709999
 21
141.3072157003
 31
0.0
  0
LINE
  5
EA
330
2
100
AcDbEntity
  8
0
 62
     3
100
AcDbLine
 10
81.5515547066
 20
135.1322212329
 30
0.0
 11
81.5515547066
 21
133.3322334398999
 31
0.0
  0
LINE
  5
EB
330
2
100
AcDbEntity
  8
0
 62
     3
100
AcDbLine
 10
83.90155318069998
 20
143.8322334398999
 30
0.0
 11
83.90155318069998
 21
133.3322334398999
 31
0.0
  0
LINE
  5
EC
330
2
100
AcDbEntity
  8
0
 62
     3
100
AcDbLine
 10
79.7515592842
 20
133.3322181811
 30
0.0
 11
81.35155012889999
 21
133.3322181811
 31
0.0
  0
LINE
  5
ED
330
2
100
AcDbEntity
  8
0
 62
     3
100
AcDbLine
 10
83.40155318069998
 20
133.3322334398999
 30
0.0
 11
83.40155318069998
 21
125.8322334398999
 31
0.0
  0
LINE
  5
EE
330
2
100
AcDbEntity
  8
0
 62
     3
100
AcDbLine
 10
81.35155012889999
 20
140.6322212329
 30
0.0
 11
82.20155623249997
 21
140.6322212329
 31
0.0
  0
ARC
  5
EF
330
2
100
AcDbEntity
  8
0
 62
     3
100
AcDbCircle
 10
80.55154707719998
 20
137.6322212329
 30
0.0
 40
7.0
100
AcDbArc
 50
73.742929676
 51
106.2569797102999
  0
LINE
  5
F0
330
2
100
AcDbEntity
  8
0
 62
     3
100
AcDbLine
 10
77.80156233599999
 20
142.6322212328999
 30
0.0
 11
83.30154707719998
 21
142.6322212328999
 31
0.0
  0
LINE
  5
F1
330
2
100
AcDbEntity
  8
0
 62
     3
100
AcDbLine
 10
81.41760046389999
 20
144.1321708561
 30
0.0
 11
80.55157507569999
 21
144.6321708561
 31
0.0
  0
LINE
  5
F2
330
2
100
AcDbEntity
  8
0
 62
     3
100
AcDbLine
 10
81.55158297539998
 20
142.6321192337
 30
0.0
 11
80.55158191380002
 21
141.6321181721
 31
0.0
  0
LINE
  5
F3
330
2
100
AcDbEntity
  8
0
 62
     3
100
AcDbLine
 10
79.05156996539997
 20
140.1322212329
 30
0.0
 11
82.05155470660002
 21
140.1322212329
 31
0.0
  0
LINE
  5
F4
330
2
100
AcDbEntity
  8
0
 62
     3
100
AcDbLine
 10
79.35155775830003
 20
135.1322212329
 30
0.0
 11
81.75156691359999
 21
135.1322212329
 31
0.0
  0
LINE
  5
F5
330
2
100
AcDbEntity
  8
0
 62
     3
100
AcDbLine
 10
79.0515547066
 20
135.4322090259
 30
0.0
 11
82.05155470660002
 21
135.4322090259
 31
0.0
  0
LINE
  5
F6
330
2
100
AcDbEntity
  8
0
 62
     3
100
AcDbLine
 10
79.35155775830003
 20
135.1322212329
 30
0.0
 11
79.35155775830003
 21
140.1322212329
 31
0.0
  0
LINE
  5
F7
330
2
100
AcDbEntity
  8
0
 62
     3
100
AcDbLine
 10
79.0515547066
 20
135.4321937670999
 30
0.0
 11
79.0515547066
 21
140.1322212329
 31
0.0
  0
LINE
  5
F8
330
2
100
AcDbEntity
  8
0
 62
     3
100
AcDbLine
 10
79.35155147019997
 20
135.1321647761
 30
0.0
 11
79.05155115189998
 21
135.4321521724999
 31
0.0
  0
LINE
  5
F9
330
2
100
AcDbEntity
  8
0
 62
     3
100
AcDbLine
 10
79.5515808522
 20
141.6321181721
 30
0.0
 11
80.55158191380002
 21
142.6321192337
 31
0.0
  0
LINE
  5
FA
330
2
100
AcDbEntity
  8
0
 62
     3
100
AcDbLine
 10
78.90155318069997
 20
140.6322212329
 30
0.0
 11
79.7515592842
 21
140.6322212329
 31
0.0
  0
LINE
  5
FB
330
2
100
AcDbEntity
  8
0
 62
     3
100
AcDbLine
 10
78.819453339
 20
143.6321749372999
 30
0.0
 11
80.5515041155
 21
144.6321749372999
 31
0.0
  0
LINE
  5
FC
330
2
100
AcDbEntity
  8
0
 62
     3
100
AcDbLine
 10
79.2015562325
 20
140.1322212329
 30
0.0
 11
79.2015562325
 21
140.6322212329
 31
0.0
  0
LINE
  5
FD
330
2
100
AcDbEntity
  8
0
 62
     3
100
AcDbLine
 10
77.87561823589993
 20
143.4793702414999
 30
0.0
 11
77.80149413259997
 21
142.6321274264999
 31
0.0
  0
LINE
  5
FE
330
2
100
AcDbEntity
  8
0
 62
     3
100
AcDbLine
 10
77.85155012889998
 20
141.6322212328999
 30
0.0
 11
77.85155012889998
 21
142.6322212328999
 31
0.0
  0
LINE
  5
FF
330
2
100
AcDbEntity
  8
0
 62
     3
100
AcDbLine
 10
81.35155012889999
 20
140.1322212329
 30
0.0
 11
81.35155012889999
 21
140.6322212329
 31
0.0
  0
LINE
  5
100
330
2
100
AcDbEntity
  8
0
 62
     3
100
AcDbLine
 10
81.05156233599998
 20
141.6322212328999
 30
0.0
 11
81.05156233599998
 21
141.1322212328999
 31
0.0
  0
LINE
  5
101
330
2
100
AcDbEntity
  8
0
 62
     3
100
AcDbLine
 10
79.7515592842
 20
140.1322212329
 30
0.0
 11
79.7515592842
 21
140.6322212329
 31
0.0
  0
LINE
  5
102
330
2
100
AcDbEntity
  8
0
 62
     3
100
AcDbLine
 10
80.05156233599999
 20
141.6322212328999
 30
0.0
 11
80.05156233599999
 21
141.1322212328999
 31
0.0
  0
LINE
  5
103
330
2
100
AcDbEntity
  8
0
 62
     3
100
AcDbLine
 10
80.05156233599999
 20
141.1322212328999
 30
0.0
 11
81.05156233599998
 21
141.1322212328999
 31
0.0
  0
LINE
  5
104
330
2
100
AcDbEntity
  8
0
 62
     3
100
AcDbLine
 10
81.75156691359999
 20
135.1322212329
 30
0.0
 11
81.75156691359999
 21
140.1322212329
 31
0.0
  0
LINE
  5
105
330
2
100
AcDbEntity
  8
0
 62
     3
100
AcDbLine
 10
82.05155470660002
 20
135.4322090259
 30
0.0
 11
82.05155470660002
 21
140.1322212329
 31
0.0
  0
LINE
  5
106
330
2
100
AcDbEntity
  8
0
 62
     3
100
AcDbLine
 10
81.75157789329999
 20
135.1321436507
 30
0.0
 11
82.05157563230001
 21
135.4321336011
 31
0.0
  0
LINE
  5
107
330
2
100
AcDbEntity
  8
0
 62
     3
100
AcDbLine
 10
83.30149243879999
 20
142.6321455047
 30
0.0
 11
83.2273670056
 21
143.4794035204
 31
0.0
  0
ARC
  5
108
330
2
100
AcDbEntity
  8
0
 62
     3
100
AcDbCircle
 10
82.23123457719998
 20
143.3923072925
 30
0.0
 40
1.0
100
AcDbArc
 50
5.000005831000001
 51
73.7429843175
  0
LINE
  5
109
330
2
100
AcDbEntity
  8
0
 62
     3
100
AcDbLine
 10
82.20153849419999
 20
140.6321342488999
 30
0.0
 11
83.52262559869997
 21
140.1917734024
 31
0.0
  0
LINE
  5
10A
330
2
100
AcDbEntity
  8
0
 62
     3
100
AcDbLine
 10
82.20154551809997
 20
141.6321326803999
 30
0.0
 11
83.52263220759997
 21
141.1917705058999
 31
0.0
  0
LINE
  5
10B
330
2
100
AcDbEntity
  8
0
 62
     3
100
AcDbLine
 10
81.90155318069995
 20
140.1322212329
 30
0.0
 11
81.90155318069995
 21
140.6322212329
 31
0.0
  0
ARC
  5
10C
330
2
100
AcDbEntity
  8
0
 62
     3
100
AcDbCircle
 10
83.58589461139997
 20
141.3815803638
 30
0.0
 40
0.1999999881
100
AcDbArc
 50
251.5650095670999
 51
338.1982239995
  0
ARC
  5
10D
330
2
100
AcDbEntity
  8
0
 62
     3
100
AcDbCircle
 10
83.58589461139997
 20
140.3815803637999
 30
0.0
 40
0.1999999881
100
AcDbArc
 50
251.5649002841
 51
338.1983537731
  0
LINE
  5
10E
330
2
100
AcDbEntity
  8
0
 62
     3
100
AcDbLine
 10
83.70155623249997
 20
140.3822212328999
 30
0.0
 11
83.70155623249997
 21
140.8822212328999
 31
0.0
  0
LINE
  5
10F
330
2
100
AcDbEntity
  8
0
 62
     3
100
AcDbLine
 10
83.77156347339996
 20
140.3072371379
 30
0.0
 11
83.90152494299996
 21
140.6321384968
 31
0.0
  0
LINE
  5
110
330
2
100
AcDbEntity
  8
0
 62
     3
100
AcDbLine
 10
83.77158864589999
 20
141.3072363268
 30
0.0
 11
83.9015497401
 21
141.6321378316999
 31
0.0
  0
LINE
  5
111
330
2
100
AcDbEntity
  8
0
 62
     3
100
AcDbLine
 10
83.2515592842
 20
142.6322212328999
 30
0.0
 11
83.2515592842
 21
141.6322212328999
 31
0.0
  0
LINE
  5
112
330
2
100
AcDbEntity
  8
0
 62
     3
100
AcDbLine
 10
83.2515592842
 20
141.8322334398999
 30
0.0
 11
83.90155318069998
 21
141.8322334398999
 31
0.0
  0
CIRCLE
  5
113
330
2
100
AcDbEntity
  8
0
 62
     3
100
AcDbCircle
 10
72.05154707719998
 20
201.5237465013998
 30
0.0
 40
2.75
  0
LINE
  5
114
330
2
100
AcDbEntity
  8
0
 62
     3
100
AcDbLine
 10
70.65157172259998
 20
204.861773082
 30
0.0
 11
69.30779408289999
 21
204.7071361330999
 31
0.0
  0
LINE
  5
115
330
2
100
AcDbEntity
  8
0
 62
     3
100
AcDbLine
 10
70.65157102369997
 20
198.1857285702
 30
0.0
 11
69.30777822529998
 21
198.3403672633999
 31
0.0
  0
LINE
  5
116
330
2
100
AcDbEntity
  8
0
 62
     3
100
AcDbLine
 10
74.90155318069998
 20
196.0237465013998
 30
0.0
 11
68.70154097369999
 21
196.0237465013998
 31
0.0
  0
LINE
  5
117
330
2
100
AcDbEntity
  8
0
 62
     3
100
AcDbLine
 10
75.40155318069998
 20
198.0237465013998
 30
0.0
 11
68.70154097369999
 21
198.0237465013998
 31
0.0
  0
LINE
  5
118
330
2
100
AcDbEntity
  8
0
 62
     3
100
AcDbLine
 10
68.70154097369999
 20
205.7737465013999
 30
0.0
 11
75.40155318069998
 21
205.7737465013999
 31
0.0
  0
LINE
  5
119
330
2
100
AcDbEntity
  8
0
 62
     3
100
AcDbLine
 10
64.05156233599999
 20
204.8617439379999
 30
0.0
 11
63.05156233599999
 21
204.8617439379999
 31
0.0
  0
LINE
  5
11A
330
2
100
AcDbEntity
  8
0
 62
     3
100
AcDbLine
 10
64.2586408041
 20
202.2308138306
 30
0.0
 11
62.84442726589998
 21
200.8166002924
 31
0.0
  0
CIRCLE
  5
11B
330
2
100
AcDbEntity
  8
0
 62
     3
100
AcDbCircle
 10
63.55154707719996
 20
201.5237465013998
 30
0.0
 40
2.75
  0
LINE
  5
11C
330
2
100
AcDbEntity
  8
0
 62
     3
100
AcDbLine
 10
64.95155623249999
 20
204.8617286792
 30
0.0
 11
62.15155318069998
 21
204.8617286792
 31
0.0
  0
LINE
  5
11D
330
2
100
AcDbEntity
  8
0
 62
     3
100
AcDbLine
 10
64.96574757319999
 20
200.1094935232999
 30
0.0
 11
62.13733128639995
 21
202.9379098100999
 31
0.0
  0
LINE
  5
11E
330
2
100
AcDbEntity
  8
0
 62
     3
100
AcDbLine
 10
64.95155623249999
 20
198.1857643236999
 30
0.0
 11
62.15155318069998
 21
198.1857643236999
 31
0.0
  0
LINE
  5
11F
330
2
100
AcDbEntity
  8
0
 62
     3
100
AcDbLine
 10
66.40155318069997
 20
196.0237465013998
 30
0.0
 11
60.20154097369999
 21
196.0237465013998
 31
0.0
  0
LINE
  5
120
330
2
100
AcDbEntity
  8
0
 62
     3
100
AcDbLine
 10
66.90155318069997
 20
198.0237465013998
 30
0.0
 11
60.20154097369999
 21
198.0237465013998
 31
0.0
  0
LINE
  5
121
330
2
100
AcDbEntity
  8
0
 62
     3
100
AcDbLine
 10
60.20154097369999
 20
205.7737465013999
 30
0.0
 11
66.90155318069997
 21
205.7737465013999
 31
0.0
  0
LINE
  5
122
330
2
100
AcDbEntity
  8
0
 62
     3
100
AcDbLine
 10
60.21356489939996
 20
202.9237556566999
 30
0.0
 11
60.21356489939996
 21
200.1237526049
 31
0.0
  0
LINE
  5
123
330
2
100
AcDbEntity
  8
0
 62
     3
100
AcDbLine
 10
60.20154097369999
 20
206.3237495531999
 30
0.0
 11
60.20154097369999
 21
193.5237465013998
 31
0.0
  0
LINE
  5
124
330
2
100
AcDbEntity
  8
0
 62
     3
100
AcDbLine
 10
57.20154097369999
 20
208.3442878832999
 30
0.0
 11
57.20154097369999
 21
193.5237465013998
 31
0.0
  0
LINE
  5
125
330
2
100
AcDbEntity
  8
0
 62
     3
100
AcDbLine
 10
62.15156915419999
 20
198.1857388873999
 30
0.0
 11
60.80779151449997
 21
198.3403758361999
 31
0.0
  0
LINE
  5
126
330
2
100
AcDbEntity
  8
0
 62
     3
100
AcDbLine
 10
60.69807891839997
 20
199.6391975289998
 30
0.0
 11
61.66707044449998
 21
198.6702055128
 31
0.0
  0
LINE
  5
127
330
2
100
AcDbEntity
  8
0
 62
     3
100
AcDbLine
 10
60.36818101889998
 20
198.7799264758
 30
0.0
 11
60.21354240629998
 21
200.1237192741999
 31
0.0
  0
ARC
  5
128
330
2
100
AcDbEntity
  8
0
 62
     3
100
AcDbCircle
 10
60.86493208689995
 20
198.8371315111999
 30
0.0
 40
0.5
100
AcDbArc
 50
186.5645581041999
 51
263.4356051370999
  0
LINE
  5
129
330
2
100
AcDbEntity
  8
0
 62
     3
100
AcDbLine
 10
60.8473997383
 20
202.0237312426
 30
0.0
 11
60.21358015819996
 21
202.0237312426
 31
0.0
  0
LINE
  5
12A
330
2
100
AcDbEntity
  8
0
 62
     3
100
AcDbLine
 10
60.8473997383
 20
201.0237617602
 30
0.0
 11
60.21358015819996
 21
201.0237617602
 31
0.0
  0
LINE
  5
12B
330
2
100
AcDbEntity
  8
0
 62
     3
100
AcDbLine
 10
63.05153181839997
 20
198.819568645
 30
0.0
 11
63.05153181839997
 21
198.1857490648999
 31
0.0
  0
LINE
  5
12C
330
2
100
AcDbEntity
  8
0
 62
     3
100
AcDbLine
 10
60.20154097369999
 20
206.3237495531999
 30
0.0
 11
58.70154097369999
 21
206.3237495531999
 31
0.0
  0
ARC
  5
12D
330
2
100
AcDbEntity
  8
0
 62
     3
100
AcDbCircle
 10
52.70154097369999
 20
210.5237465013998
 30
0.0
 40
5.0
100
AcDbArc
 50
334.1580680677
 51
25.84193193230003
  0
LINE
  5
12E
330
2
100
AcDbEntity
  8
0
 62
     3
100
AcDbLine
 10
62.1515698531
 20
204.8617627647998
 30
0.0
 11
60.80779221339998
 21
204.7071258159999
 31
0.0
  0
LINE
  5
12F
330
2
100
AcDbEntity
  8
0
 62
     3
100
AcDbLine
 10
60.69806493929997
 20
203.408297516
 30
0.0
 11
61.66705646539998
 21
204.3772895321999
 31
0.0
  0
LINE
  5
130
330
2
100
AcDbEntity
  8
0
 62
     3
100
AcDbLine
 10
60.36817309169999
 20
204.2675558976998
 30
0.0
 11
60.21353447909999
 21
202.9237630993
 31
0.0
  0
ARC
  5
131
330
2
100
AcDbEntity
  8
0
 62
     3
100
AcDbCircle
 10
60.86493208689995
 20
204.2103614916999
 30
0.0
 40
0.5
100
AcDbArc
 50
96.56439486289999
 51
173.4354418958
  0
LINE
  5
132
330
2
100
AcDbEntity
  8
0
 62
     3
100
AcDbLine
 10
63.05156233599999
 20
204.2279243579
 30
0.0
 11
63.05156233599999
 21
204.8617439379999
 31
0.0
  0
LINE
  5
133
330
2
100
AcDbEntity
  8
0
 62
     3
100
AcDbLine
 10
68.71356489939998
 20
202.9237556566999
 30
0.0
 11
68.71356489939998
 21
200.1237526049
 31
0.0
  0
LINE
  5
134
330
2
100
AcDbEntity
  8
0
 62
     3
100
AcDbLine
 10
66.88954451369998
 20
202.9237556566999
 30
0.0
 11
66.88954451369998
 21
200.1237526049
 31
0.0
  0
LINE
  5
135
330
2
100
AcDbEntity
  8
0
 62
     3
100
AcDbLine
 10
68.70154097369999
 20
206.3237495531999
 30
0.0
 11
68.70154097369999
 21
193.5237465013998
 31
0.0
  0
LINE
  5
136
330
2
100
AcDbEntity
  8
0
 62
     3
100
AcDbLine
 10
66.90155318069997
 20
206.3237495531999
 30
0.0
 11
66.90155318069997
 21
193.5237465013998
 31
0.0
  0
ARC
  5
137
330
2
100
AcDbEntity
  8
0
 62
     3
100
AcDbCircle
 10
66.23817732619997
 20
198.8371315111999
 30
0.0
 40
0.5
100
AcDbArc
 50
276.5645401181
 51
353.4355427547
  0
LINE
  5
138
330
2
100
AcDbEntity
  8
0
 62
     3
100
AcDbLine
 10
66.88954419579999
 20
200.1237136997
 30
0.0
 11
66.73490558320001
 21
198.7799209012998
 31
0.0
  0
LINE
  5
139
330
2
100
AcDbEntity
  8
0
 62
     3
100
AcDbLine
 10
66.25572493359999
 20
202.0237312426
 30
0.0
 11
66.88954451369998
 21
202.0237312426
 31
0.0
  0
LINE
  5
13A
330
2
100
AcDbEntity
  8
0
 62
     3
100
AcDbLine
 10
66.25572493359999
 20
201.0237312426
 30
0.0
 11
66.88954451369998
 21
201.0237312426
 31
0.0
  0
LINE
  5
13B
330
2
100
AcDbEntity
  8
0
 62
     3
100
AcDbLine
 10
66.40155318069997
 20
198.0237465013998
 30
0.0
 11
66.40155318069997
 21
193.5237465013998
 31
0.0
  0
LINE
  5
13C
330
2
100
AcDbEntity
  8
0
 62
     3
100
AcDbLine
 10
66.29530460979998
 20
198.3403948094
 30
0.0
 11
64.95151181139999
 21
198.1857561162
 31
0.0
  0
LINE
  5
13D
330
2
100
AcDbEntity
  8
0
 62
     3
100
AcDbLine
 10
64.05153181839998
 20
198.819568645
 30
0.0
 11
64.05153181839998
 21
198.1857490648999
 31
0.0
  0
LINE
  5
13E
330
2
100
AcDbEntity
  8
0
 62
     3
100
AcDbLine
 10
65.43603538899998
 20
198.6701999875
 30
0.0
 11
66.40502691509997
 21
199.6391920036999
 31
0.0
  0
LINE
  5
13F
330
2
100
AcDbEntity
  8
0
 62
     3
100
AcDbLine
 10
68.70154097369999
 20
195.0237465013998
 30
0.0
 11
66.90155318069997
 21
195.0237465013998
 31
0.0
  0
LINE
  5
140
330
2
100
AcDbEntity
  8
0
 62
     3
100
AcDbLine
 10
68.70154097369999
 20
197.0237465013997
 30
0.0
 11
66.90155318069997
 21
197.0237465013997
 31
0.0
  0
ARC
  5
141
330
2
100
AcDbEntity
  8
0
 62
     3
100
AcDbCircle
 10
69.36493208690001
 20
198.8371315111999
 30
0.0
 40
0.5
100
AcDbArc
 50
186.5645581041999
 51
263.4356051370999
  0
LINE
  5
142
330
2
100
AcDbEntity
  8
0
 62
     3
100
AcDbLine
 10
69.3473997383
 20
202.0237312426
 30
0.0
 11
68.71358015819999
 21
202.0237312426
 31
0.0
  0
LINE
  5
143
330
2
100
AcDbEntity
  8
0
 62
     3
100
AcDbLine
 10
69.3473997383
 20
201.0237617602
 30
0.0
 11
68.71358015819999
 21
201.0237617602
 31
0.0
  0
LINE
  5
144
330
2
100
AcDbEntity
  8
0
 62
     3
100
AcDbLine
 10
68.86818283049999
 20
198.7799362895998
 30
0.0
 11
68.71354421789999
 21
200.1237290880998
 31
0.0
  0
LINE
  5
145
330
2
100
AcDbEntity
  8
0
 62
     3
100
AcDbLine
 10
69.19807715230001
 20
199.6391953794999
 30
0.0
 11
70.16706867849999
 21
198.6702033633
 31
0.0
  0
ARC
  5
146
330
2
100
AcDbEntity
  8
0
 62
     3
100
AcDbCircle
 10
66.23817732619997
 20
204.2103614916999
 30
0.0
 40
0.5
100
AcDbArc
 50
6.564457245299998
 51
83.43545988189999
  0
LINE
  5
147
330
2
100
AcDbEntity
  8
0
 62
     3
100
AcDbLine
 10
66.88955212299998
 20
202.9237686737999
 30
0.0
 11
66.73491351039999
 21
204.2675614721999
 31
0.0
  0
LINE
  5
148
330
2
100
AcDbEntity
  8
0
 62
     3
100
AcDbLine
 10
66.29530391099999
 20
204.7071068428
 30
0.0
 11
64.95151111249999
 21
204.861745536
 31
0.0
  0
LINE
  5
149
330
2
100
AcDbEntity
  8
0
 62
     3
100
AcDbLine
 10
64.05153181839998
 20
204.2278938403
 30
0.0
 11
64.05153181839998
 21
204.8617134204
 31
0.0
  0
LINE
  5
14A
330
2
100
AcDbEntity
  8
0
 62
     3
100
AcDbLine
 10
65.4360439733
 20
204.3772896626999
 30
0.0
 11
66.40503549940001
 21
203.4082976464999
 31
0.0
  0
LINE
  5
14B
330
2
100
AcDbEntity
  8
0
 62
     3
100
AcDbLine
 10
68.70154097369999
 20
203.0237465013998
 30
0.0
 11
66.90155318069997
 21
203.0237465013998
 31
0.0
  0
LINE
  5
14C
330
2
100
AcDbEntity
  8
0
 62
     3
100
AcDbLine
 10
68.70154097369999
 20
204.5237465013999
 30
0.0
 11
66.90155318069997
 21
204.5237465013999
 31
0.0
  0
LINE
  5
14D
330
2
100
AcDbEntity
  8
0
 62
     3
100
AcDbLine
 10
68.70154097369999
 20
206.3237495531999
 30
0.0
 11
66.90155318069997
 21
206.3237495531999
 31
0.0
  0
ARC
  5
14E
330
2
100
AcDbEntity
  8
0
 62
     3
100
AcDbCircle
 10
69.36493208690001
 20
204.2103614916999
 30
0.0
 40
0.5
100
AcDbArc
 50
96.56439486289999
 51
173.4354418958
  0
LINE
  5
14F
330
2
100
AcDbEntity
  8
0
 62
     3
100
AcDbLine
 10
68.8681749033
 20
204.2675460838998
 30
0.0
 11
68.71353629069995
 21
202.9237532854
 31
0.0
  0
LINE
  5
150
330
2
100
AcDbEntity
  8
0
 62
     3
100
AcDbLine
 10
69.19805508099995
 20
203.4082915731999
 30
0.0
 11
70.16704660719998
 21
204.3772835895
 31
0.0
  0
LINE
  5
151
330
2
100
AcDbEntity
  8
0
 62
     3
100
AcDbLine
 10
77.69808215149999
 20
203.4082872320999
 30
0.0
 11
78.66707367769999
 21
204.3772792484
 31
0.0
  0
ARC
  5
152
330
2
100
AcDbEntity
  8
0
 62
     3
100
AcDbCircle
 10
77.86493208689998
 20
204.2103614916999
 30
0.0
 40
0.5
100
AcDbArc
 50
96.56439486289999
 51
173.4354418958
  0
LINE
  5
153
330
2
100
AcDbEntity
  8
0
 62
     3
100
AcDbLine
 10
77.69806241309999
 20
199.6391794902
 30
0.0
 11
78.66705393929999
 21
198.6701874738999
 31
0.0
  0
ARC
  5
154
330
2
100
AcDbEntity
  8
0
 62
     3
100
AcDbCircle
 10
77.86493208689998
 20
198.8371315111999
 30
0.0
 40
0.5
100
AcDbArc
 50
186.5645581041999
 51
263.4356051370999
  0
LINE
  5
155
330
2
100
AcDbEntity
  8
0
 62
     3
100
AcDbLine
 10
83.90155318069998
 20
198.0237465013998
 30
0.0
 11
77.20154097369999
 21
198.0237465013998
 31
0.0
  0
LINE
  5
156
330
2
100
AcDbEntity
  8
0
 62
     3
100
AcDbLine
 10
77.20154097369999
 20
205.7737465013999
 30
0.0
 11
83.90155318069998
 21
205.7737465013999
 31
0.0
  0
LINE
  5
157
330
2
100
AcDbEntity
  8
0
 62
     3
100
AcDbLine
 10
83.40155318069998
 20
196.0237465013998
 30
0.0
 11
77.20154097369999
 21
196.0237465013998
 31
0.0
  0
LINE
  5
158
330
2
100
AcDbEntity
  8
0
 62
     3
100
AcDbLine
 10
77.84739973829999
 20
201.0237617602
 30
0.0
 11
77.21358015819999
 21
201.0237617602
 31
0.0
  0
LINE
  5
159
330
2
100
AcDbEntity
  8
0
 62
     3
100
AcDbLine
 10
77.84739973829999
 20
202.0237312426
 30
0.0
 11
77.21358015819999
 21
202.0237312426
 31
0.0
  0
LINE
  5
15A
330
2
100
AcDbEntity
  8
0
 62
     3
100
AcDbLine
 10
77.21356489939998
 20
202.9237556566999
 30
0.0
 11
77.21356489939998
 21
200.1237526049
 31
0.0
  0
LINE
  5
15B
330
2
100
AcDbEntity
  8
0
 62
     3
100
AcDbLine
 10
75.38954451369997
 20
202.9237556566999
 30
0.0
 11
75.38954451369997
 21
200.1237526049
 31
0.0
  0
LINE
  5
15C
330
2
100
AcDbEntity
  8
0
 62
     3
100
AcDbLine
 10
73.46573973789998
 20
200.1094874542
 30
0.0
 11
70.63732345119996
 21
202.9379037408999
 31
0.0
  0
LINE
  5
15D
330
2
100
AcDbEntity
  8
0
 62
     3
100
AcDbLine
 10
77.20154097369999
 20
206.3237495531999
 30
0.0
 11
77.20154097369999
 21
193.5237465013998
 31
0.0
  0
LINE
  5
15E
330
2
100
AcDbEntity
  8
0
 62
     3
100
AcDbLine
 10
75.40155318069998
 20
206.3237495531999
 30
0.0
 11
75.40155318069998
 21
193.5237465013998
 31
0.0
  0
LINE
  5
15F
330
2
100
AcDbEntity
  8
0
 62
     3
100
AcDbLine
 10
73.93603632029999
 20
198.6701832552
 30
0.0
 11
74.90502784649999
 21
199.6391752714
 31
0.0
  0
LINE
  5
160
330
2
100
AcDbEntity
  8
0
 62
     3
100
AcDbLine
 10
74.79530822369998
 20
198.3403899678
 30
0.0
 11
73.45151542529999
 21
198.1857512745999
 31
0.0
  0
LINE
  5
161
330
2
100
AcDbEntity
  8
0
 62
     3
100
AcDbLine
 10
72.75863296879998
 20
202.2308077613998
 30
0.0
 11
71.34441943069998
 21
200.8165942233
 31
0.0
  0
LINE
  5
162
330
2
100
AcDbEntity
  8
0
 62
     3
100
AcDbLine
 10
73.4515562325
 20
198.1857643236999
 30
0.0
 11
70.65155318069995
 21
198.1857643236999
 31
0.0
  0
LINE
  5
163
330
2
100
AcDbEntity
  8
0
 62
     3
100
AcDbLine
 10
71.55153181839998
 20
198.819568645
 30
0.0
 11
71.55153181839998
 21
198.1857490648999
 31
0.0
  0
LINE
  5
164
330
2
100
AcDbEntity
  8
0
 62
     3
100
AcDbLine
 10
72.55153181839998
 20
198.819568645
 30
0.0
 11
72.55153181839998
 21
198.1857490648999
 31
0.0
  0
LINE
  5
165
330
2
100
AcDbEntity
  8
0
 62
     3
100
AcDbLine
 10
74.90155318069998
 20
198.0237465013998
 30
0.0
 11
74.90155318069998
 21
193.5237465013998
 31
0.0
  0
LINE
  5
166
330
2
100
AcDbEntity
  8
0
 62
     3
100
AcDbLine
 10
77.20154097369999
 20
195.0237465013998
 30
0.0
 11
75.40155318069998
 21
195.0237465013998
 31
0.0
  0
LINE
  5
167
330
2
100
AcDbEntity
  8
0
 62
     3
100
AcDbLine
 10
77.20154097369999
 20
197.0237465013997
 30
0.0
 11
75.40155318069998
 21
197.0237465013997
 31
0.0
  0
ARC
  5
168
330
2
100
AcDbEntity
  8
0
 62
     3
100
AcDbCircle
 10
74.73817732619997
 20
198.8371315111999
 30
0.0
 40
0.5
100
AcDbArc
 50
276.5645401181
 51
353.4355427547
  0
LINE
  5
169
330
2
100
AcDbEntity
  8
0
 62
     3
100
AcDbLine
 10
74.75572493359999
 20
202.0237312426
 30
0.0
 11
75.38954451369997
 21
202.0237312426
 31
0.0
  0
LINE
  5
16A
330
2
100
AcDbEntity
  8
0
 62
     3
100
AcDbLine
 10
74.75572493359999
 20
201.0237312426
 30
0.0
 11
75.38954451369997
 21
201.0237312426
 31
0.0
  0
LINE
  5
16B
330
2
100
AcDbEntity
  8
0
 62
     3
100
AcDbLine
 10
75.38954600739998
 20
200.1237038858999
 30
0.0
 11
75.23490739479999
 21
198.7799110873999
 31
0.0
  0
LINE
  5
16C
330
2
100
AcDbEntity
  8
0
 62
     3
100
AcDbLine
 10
77.36819175409999
 20
198.7799354136999
 30
0.0
 11
77.2135531415
 21
200.1237282122
 31
0.0
  0
LINE
  5
16D
330
2
100
AcDbEntity
  8
0
 62
     3
100
AcDbLine
 10
73.93602737149999
 20
204.3772726774999
 30
0.0
 11
74.90501889769999
 21
203.4082806612999
 31
0.0
  0
LINE
  5
16E
330
2
100
AcDbEntity
  8
0
 62
     3
100
AcDbLine
 10
74.79530752489998
 20
204.7071116843
 30
0.0
 11
73.45151472649996
 21
204.8617503774999
 31
0.0
  0
LINE
  5
16F
330
2
100
AcDbEntity
  8
0
 62
     3
100
AcDbLine
 10
73.4515562325
 20
204.8617286792
 30
0.0
 11
70.65155318069995
 21
204.8617286792
 31
0.0
  0
LINE
  5
170
330
2
100
AcDbEntity
  8
0
 62
     3
100
AcDbLine
 10
72.55156233599999
 20
204.8617439379999
 30
0.0
 11
71.55156233599999
 21
204.8617439379999
 31
0.0
  0
LINE
  5
171
330
2
100
AcDbEntity
  8
0
 62
     3
100
AcDbLine
 10
71.55156233599999
 20
204.2279243579
 30
0.0
 11
71.55156233599999
 21
204.8617439379999
 31
0.0
  0
LINE
  5
172
330
2
100
AcDbEntity
  8
0
 62
     3
100
AcDbLine
 10
72.55153181839998
 20
204.2278938403
 30
0.0
 11
72.55153181839998
 21
204.8617134204
 31
0.0
  0
LINE
  5
173
330
2
100
AcDbEntity
  8
0
 62
     3
100
AcDbLine
 10
77.20154097369999
 20
206.3237495531999
 30
0.0
 11
75.40155318069998
 21
206.3237495531999
 31
0.0
  0
LINE
  5
174
330
2
100
AcDbEntity
  8
0
 62
     3
100
AcDbLine
 10
77.20154097369999
 20
204.5237465013999
 30
0.0
 11
75.40155318069998
 21
204.5237465013999
 31
0.0
  0
LINE
  5
175
330
2
100
AcDbEntity
  8
0
 62
     3
100
AcDbLine
 10
77.20154097369999
 20
203.0237465013998
 30
0.0
 11
75.40155318069998
 21
203.0237465013998
 31
0.0
  0
ARC
  5
176
330
2
100
AcDbEntity
  8
0
 62
     3
100
AcDbCircle
 10
74.73817732619997
 20
204.2103614916999
 30
0.0
 40
0.5
100
AcDbArc
 50
6.564457245299998
 51
83.43545988189999
  0
LINE
  5
177
330
2
100
AcDbEntity
  8
0
 62
     3
100
AcDbLine
 10
75.38955393459997
 20
202.9237784875999
 30
0.0
 11
75.23491532199995
 21
204.2675712861
 31
0.0
  0
LINE
  5
178
330
2
100
AcDbEntity
  8
0
 62
     3
100
AcDbLine
 10
77.36816866809999
 20
204.2675487042
 30
0.0
 11
77.21353005549997
 21
202.9237559056999
 31
0.0
  0
LINE
  5
179
330
2
100
AcDbEntity
  8
0
 62
     3
100
AcDbLine
 10
83.88954451369997
 20
202.9237556566999
 30
0.0
 11
83.88954451369997
 21
200.1237526049
 31
0.0
  0
LINE
  5
17A
330
2
100
AcDbEntity
  8
0
 62
     3
100
AcDbLine
 10
81.96573443969999
 20
200.1094874542
 30
0.0
 11
79.13731815289998
 21
202.9379037408999
 31
0.0
  0
CIRCLE
  5
17B
330
2
100
AcDbEntity
  8
0
 62
     3
100
AcDbCircle
 10
80.55154707719998
 20
201.5237465013998
 30
0.0
 40
2.75
  0
LINE
  5
17C
330
2
100
AcDbEntity
  8
0
 62
     3
100
AcDbLine
 10
83.90155318069998
 20
206.3237495531999
 30
0.0
 11
83.90155318069998
 21
193.5237465013998
 31
0.0
  0
LINE
  5
17D
330
2
100
AcDbEntity
  8
0
 62
     3
100
AcDbLine
 10
81.9515562325
 20
198.1857643236999
 30
0.0
 11
79.15155318069998
 21
198.1857643236999
 31
0.0
  0
LINE
  5
17E
330
2
100
AcDbEntity
  8
0
 62
     3
100
AcDbLine
 10
79.15156496239998
 20
198.1857296805
 30
0.0
 11
77.80778732269997
 21
198.3403666294
 31
0.0
  0
LINE
  5
17F
330
2
100
AcDbEntity
  8
0
 62
     3
100
AcDbLine
 10
81.05154707719998
 20
198.819568645
 30
0.0
 11
81.05154707719998
 21
198.1857490648999
 31
0.0
  0
LINE
  5
180
330
2
100
AcDbEntity
  8
0
 62
     3
100
AcDbLine
 10
80.05154707719999
 20
198.819568645
 30
0.0
 11
80.05154707719999
 21
198.1857490648999
 31
0.0
  0
LINE
  5
181
330
2
100
AcDbEntity
  8
0
 62
     3
100
AcDbLine
 10
81.25862767059999
 20
202.2308077613998
 30
0.0
 11
79.8444141324
 21
200.8165942233
 31
0.0
  0
LINE
  5
182
330
2
100
AcDbEntity
  8
0
 62
     3
100
AcDbLine
 10
83.40155318069998
 20
198.0237465013998
 30
0.0
 11
83.40155318069998
 21
193.5237465013998
 31
0.0
  0
LINE
  5
183
330
2
100
AcDbEntity
  8
0
 62
     3
100
AcDbLine
 10
83.29531732109998
 20
198.3403906018999
 30
0.0
 11
81.95152452269997
 21
198.1857519087
 31
0.0
  0
LINE
  5
184
330
2
100
AcDbEntity
  8
0
 62
     3
100
AcDbLine
 10
82.43604181159998
 20
198.6702004931998
 30
0.0
 11
83.40503333779997
 21
199.6391925095
 31
0.0
  0
LINE
  5
185
330
2
100
AcDbEntity
  8
0
 62
     3
100
AcDbLine
 10
83.8895397723
 20
200.1237065061999
 30
0.0
 11
83.73490115969998
 21
198.7799137077
 31
0.0
  0
LINE
  5
186
330
2
100
AcDbEntity
  8
0
 62
     3
100
AcDbLine
 10
83.25574019239997
 20
201.0237312426
 30
0.0
 11
83.88955977249997
 21
201.0237312426
 31
0.0
  0
LINE
  5
187
330
2
100
AcDbEntity
  8
0
 62
     3
100
AcDbLine
 10
83.25572493359999
 20
202.0237312426
 30
0.0
 11
83.88954451369997
 21
202.0237312426
 31
0.0
  0
ARC
  5
188
330
2
100
AcDbEntity
  8
0
 62
     3
100
AcDbCircle
 10
83.23817732619998
 20
198.8371315111999
 30
0.0
 40
0.5
100
AcDbArc
 50
276.5645401181
 51
353.4355427547
  0
LINE
  5
189
330
2
100
AcDbEntity
  8
0
 62
     3
100
AcDbLine
 10
81.9515562325
 20
204.8617286792
 30
0.0
 11
79.15155318069998
 21
204.8617286792
 31
0.0
  0
LINE
  5
18A
330
2
100
AcDbEntity
  8
0
 62
     3
100
AcDbLine
 10
79.15158081989995
 20
204.861773716
 30
0.0
 11
77.80778802149999
 21
204.7071350228
 31
0.0
  0
LINE
  5
18B
330
2
100
AcDbEntity
  8
0
 62
     3
100
AcDbLine
 10
81.05154707719998
 20
204.2278938403
 30
0.0
 11
81.05154707719998
 21
204.8617134204
 31
0.0
  0
LINE
  5
18C
330
2
100
AcDbEntity
  8
0
 62
     3
100
AcDbLine
 10
80.05156233599999
 20
204.2279243579
 30
0.0
 11
80.05156233599999
 21
204.8617439379999
 31
0.0
  0
LINE
  5
18D
330
2
100
AcDbEntity
  8
0
 62
     3
100
AcDbLine
 10
81.05156233599998
 20
204.8617439379999
 30
0.0
 11
80.05156233599999
 21
204.8617439379999
 31
0.0
  0
LINE
  5
18E
330
2
100
AcDbEntity
  8
0
 62
     3
100
AcDbLine
 10
83.29530146349998
 20
204.7071127946998
 30
0.0
 11
81.95150866509994
 21
204.8617514879
 31
0.0
  0
LINE
  5
18F
330
2
100
AcDbEntity
  8
0
 62
     3
100
AcDbLine
 10
82.43603286279995
 20
204.3772770186999
 30
0.0
 11
83.40502438899994
 21
203.4082850023998
 31
0.0
  0
LINE
  5
190
330
2
100
AcDbEntity
  8
0
 62
     3
100
AcDbLine
 10
83.88954769949998
 20
202.9237758673
 30
0.0
 11
83.7349090869
 21
204.2675686658
 31
0.0
  0
ARC
  5
191
330
2
100
AcDbEntity
  8
0
 62
     3
100
AcDbCircle
 10
83.23817732619998
 20
204.2103614916999
 30
0.0
 40
0.5
100
AcDbArc
 50
6.564457245299998
 51
83.43545988189999
  0
LINE
  5
192
330
2
100
AcDbEntity
  8
0
 62
     3
100
AcDbLine
 10
122.7015409736999
 20
126.8322334398999
 30
0.0
 11
122.7015409736999
 21
120.3322334398999
 31
0.0
  0
LINE
  5
193
330
2
100
AcDbEntity
  8
0
 62
     3
100
AcDbLine
 10
123.7015409736999
 20
127.3322029223
 30
0.0
 11
123.7015409736999
 21
119.8322181810999
 31
0.0
  0
LINE
  5
194
330
2
100
AcDbEntity
  8
0
 62
     3
100
AcDbLine
 10
111.2015409736999
 20
143.8322334398999
 30
0.0
 11
111.2015409736999
 21
118.8322334398999
 31
0.0
  0
LINE
  5
195
330
2
100
AcDbEntity
  8
0
 62
     3
100
AcDbLine
 10
94.2015409737
 20
143.8322334398999
 30
0.0
 11
94.2015409737
 21
118.8322334398999
 31
0.0
  0
LINE
  5
196
330
2
100
AcDbEntity
  8
0
 62
     3
100
AcDbLine
 10
102.7015409736999
 20
143.8322334398999
 30
0.0
 11
102.7015409736999
 21
118.8322334398999
 31
0.0
  0
LINE
  5
197
330
2
100
AcDbEntity
  8
0
 62
     3
100
AcDbLine
 10
85.70154097369998
 20
143.8322334398999
 30
0.0
 11
85.70154097369998
 21
118.8322334398999
 31
0.0
  0
LINE
  5
198
330
2
100
AcDbEntity
  8
0
 62
     3
100
AcDbLine
 10
122.7015293979998
 20
118.8321394189999
 30
0.0
 11
123.7015307967998
 21
119.8321401434
 31
0.0
  0
LINE
  5
199
330
2
100
AcDbEntity
  8
0
 62
     3
100
AcDbLine
 10
122.7015241944999
 20
120.3321483956999
 30
0.0
 11
123.3015409315999
 21
119.4321233223999
 31
0.0
  0
LINE
  5
19A
330
2
100
AcDbEntity
  8
0
 62
     3
100
AcDbLine
 10
114.2015409736997
 20
126.8322334398999
 30
0.0
 11
122.7015409736999
 21
126.8322334398999
 31
0.0
  0
LINE
  5
19B
330
2
100
AcDbEntity
  8
0
 62
     3
100
AcDbLine
 10
114.2015409736997
 20
128.3322334398999
 30
0.0
 11
122.7015409736999
 21
128.3322334398999
 31
0.0
  0
LINE
  5
19C
330
2
100
AcDbEntity
  8
0
 62
     3
100
AcDbLine
 10
122.7015409736999
 20
195.0237465013998
 30
0.0
 11
109.4015531806999
 21
195.0237465013998
 31
0.0
  0
ARC
  5
19D
330
2
100
AcDbEntity
  8
0
 62
     3
100
AcDbCircle
 10
99.23123457719999
 20
143.3923072925
 30
0.0
 40
1.0
100
AcDbArc
 50
5.000005831000001
 51
73.7429843175
  0
LINE
  5
19E
330
2
100
AcDbEntity
  8
0
 62
     3
100
AcDbLine
 10
99.20153849420001
 20
140.6321342488999
 30
0.0
 11
100.5226255986999
 21
140.1917734024
 31
0.0
  0
LINE
  5
19F
330
2
100
AcDbEntity
  8
0
 62
     3
100
AcDbLine
 10
99.20154551809998
 20
141.6321326803999
 30
0.0
 11
100.5226322075999
 21
141.1917705058999
 31
0.0
  0
LINE
  5
1A0
330
2
100
AcDbEntity
  8
0
 62
     3
100
AcDbLine
 10
94.80156233599997
 20
142.6322212328999
 30
0.0
 11
100.3015470771998
 21
142.6322212328999
 31
0.0
  0
LINE
  5
1A1
330
2
100
AcDbEntity
  8
0
 62
     3
100
AcDbLine
 10
94.2015562325
 20
141.6322212328999
 30
0.0
 11
100.9015531806999
 21
141.6322212328999
 31
0.0
  0
LINE
  5
1A2
330
2
100
AcDbEntity
  8
0
 62
     3
100
AcDbLine
 10
94.2015409737
 20
125.8322334398999
 30
0.0
 11
100.4015531806998
 21
125.8322334398999
 31
0.0
  0
LINE
  5
1A3
330
2
100
AcDbEntity
  8
0
 62
     3
100
AcDbLine
 10
94.2015409737
 20
128.3322334398999
 30
0.0
 11
100.4015531806998
 21
128.3322334398999
 31
0.0
  0
LINE
  5
1A4
330
2
100
AcDbEntity
  8
0
 62
     3
100
AcDbLine
 10
94.2015409737
 20
132.3322334398999
 30
0.0
 11
100.4015531806998
 21
132.3322334398999
 31
0.0
  0
LINE
  5
1A5
330
2
100
AcDbEntity
  8
0
 62
     3
100
AcDbLine
 10
94.2015409737
 20
133.3322334398999
 30
0.0
 11
100.9015531806999
 21
133.3322334398999
 31
0.0
  0
LINE
  5
1A6
330
2
100
AcDbEntity
  8
0
 62
     3
100
AcDbLine
 10
92.27158864589998
 20
141.3072363268
 30
0.0
 11
92.4015497401
 21
141.6321378316999
 31
0.0
  0
LINE
  5
1A7
330
2
100
AcDbEntity
  8
0
 62
     3
100
AcDbLine
 10
92.27156347339997
 20
140.3072371379
 30
0.0
 11
92.401524943
 21
140.6321384968
 31
0.0
  0
LINE
  5
1A8
330
2
100
AcDbEntity
  8
0
 62
     3
100
AcDbLine
 10
91.7515592842
 20
141.8322334398999
 30
0.0
 11
92.40155318069998
 21
141.8322334398999
 31
0.0
  0
LINE
  5
1A9
330
2
100
AcDbEntity
  8
0
 62
     3
100
AcDbLine
 10
85.7015562325
 20
141.6322212328999
 30
0.0
 11
92.40155318069998
 21
141.6322212328999
 31
0.0
  0
LINE
  5
1AA
330
2
100
AcDbEntity
  8
0
 62
     3
100
AcDbLine
 10
85.70154097369998
 20
133.3322334398999
 30
0.0
 11
92.40155318069998
 21
133.3322334398999
 31
0.0
  0
LINE
  5
1AB
330
2
100
AcDbEntity
  8
0
 62
     3
100
AcDbLine
 10
90.05155470659998
 20
135.1322212329
 30
0.0
 11
90.05155470659998
 21
133.3322334398999
 31
0.0
  0
LINE
  5
1AC
330
2
100
AcDbEntity
  8
0
 62
     3
100
AcDbLine
 10
88.2515592842
 20
133.3322181811
 30
0.0
 11
89.85155012889999
 21
133.3322181811
 31
0.0
  0
LINE
  5
1AD
330
2
100
AcDbEntity
  8
0
 62
     3
100
AcDbLine
 10
85.70154097369998
 20
125.8322334398999
 30
0.0
 11
91.90155318069997
 21
125.8322334398999
 31
0.0
  0
LINE
  5
1AE
330
2
100
AcDbEntity
  8
0
 62
     3
100
AcDbLine
 10
85.70154097369998
 20
128.3322334398999
 30
0.0
 11
91.90155318069997
 21
128.3322334398999
 31
0.0
  0
LINE
  5
1AF
330
2
100
AcDbEntity
  8
0
 62
     3
100
AcDbLine
 10
85.70154097369998
 20
132.3322334398999
 30
0.0
 11
91.90155318069997
 21
132.3322334398999
 31
0.0
  0
LINE
  5
1B0
330
2
100
AcDbEntity
  8
0
 62
     3
100
AcDbLine
 10
91.90155318069997
 20
133.3322334398999
 30
0.0
 11
91.90155318069997
 21
125.8322334398999
 31
0.0
  0
LINE
  5
1B1
330
2
100
AcDbEntity
  8
0
 62
     3
100
AcDbLine
 10
88.55156233599997
 20
141.1322212328999
 30
0.0
 11
89.55156233599998
 21
141.1322212328999
 31
0.0
  0
LINE
  5
1B2
330
2
100
AcDbEntity
  8
0
 62
     3
100
AcDbLine
 10
87.5515699654
 20
140.1322212329
 30
0.0
 11
90.5515547066
 21
140.1322212329
 31
0.0
  0
LINE
  5
1B3
330
2
100
AcDbEntity
  8
0
 62
     3
100
AcDbLine
 10
88.0515808522
 20
141.6321181721
 30
0.0
 11
89.05158191379999
 21
142.6321192337
 31
0.0
  0
LINE
  5
1B4
330
2
100
AcDbEntity
  8
0
 62
     3
100
AcDbLine
 10
87.31945333899998
 20
143.6321749372999
 30
0.0
 11
89.0515041155
 21
144.6321749372999
 31
0.0
  0
LINE
  5
1B5
330
2
100
AcDbEntity
  8
0
 62
     3
100
AcDbLine
 10
86.30156233599995
 20
142.6322212328999
 30
0.0
 11
91.80154707719998
 21
142.6322212328999
 31
0.0
  0
ARC
  5
1B6
330
2
100
AcDbEntity
  8
0
 62
     3
100
AcDbCircle
 10
89.05154707719999
 20
137.6322212329
 30
0.0
 40
7.0
100
AcDbArc
 50
73.742929676
 51
106.2569797102999
  0
LINE
  5
1B7
330
2
100
AcDbEntity
  8
0
 62
     3
100
AcDbLine
 10
87.55155470659998
 20
135.4322090259
 30
0.0
 11
90.5515547066
 21
135.4322090259
 31
0.0
  0
LINE
  5
1B8
330
2
100
AcDbEntity
  8
0
 62
     3
100
AcDbLine
 10
87.85155775829997
 20
135.1322212329
 30
0.0
 11
90.25156691359994
 21
135.1322212329
 31
0.0
  0
LINE
  5
1B9
330
2
100
AcDbEntity
  8
0
 62
     3
100
AcDbLine
 10
87.55155470659998
 20
135.4321937670999
 30
0.0
 11
87.55155470659998
 21
140.1322212329
 31
0.0
  0
LINE
  5
1BA
330
2
100
AcDbEntity
  8
0
 62
     3
100
AcDbLine
 10
87.85155775829997
 20
135.1322212329
 30
0.0
 11
87.85155775829997
 21
140.1322212329
 31
0.0
  0
LINE
  5
1BB
330
2
100
AcDbEntity
  8
0
 62
     3
100
AcDbLine
 10
85.7015562325
 20
134.8322181811
 30
0.0
 11
85.7015562325
 21
133.8322181810999
 31
0.0
  0
LINE
  5
1BC
330
2
100
AcDbEntity
  8
0
 62
     3
100
AcDbLine
 10
87.85155147019997
 20
135.1321647761
 30
0.0
 11
87.55155115189998
 21
135.4321521724999
 31
0.0
  0
LINE
  5
1BD
330
2
100
AcDbEntity
  8
0
 62
     3
100
AcDbLine
 10
86.08041379939994
 20
141.1917486107
 30
0.0
 11
87.40150048890001
 21
141.6321107851999
 31
0.0
  0
LINE
  5
1BE
330
2
100
AcDbEntity
  8
0
 62
     3
100
AcDbLine
 10
86.08041858689999
 20
140.1917487371999
 30
0.0
 11
87.40150527639997
 21
140.6321109117
 31
0.0
  0
ARC
  5
1BF
330
2
100
AcDbEntity
  8
0
 62
     3
100
AcDbCircle
 10
87.37187483599996
 20
143.3923072925
 30
0.0
 40
1.0
100
AcDbArc
 50
106.2569797102999
 51
174.9999923478
  0
LINE
  5
1C0
330
2
100
AcDbEntity
  8
0
 62
     3
100
AcDbLine
 10
85.70154097369998
 20
141.8322334398999
 30
0.0
 11
86.35155012889999
 21
141.8322334398999
 31
0.0
  0
LINE
  5
1C1
330
2
100
AcDbEntity
  8
0
 62
     3
100
AcDbLine
 10
86.35155012889999
 20
141.6322212328999
 30
0.0
 11
86.35155012889999
 21
142.6322212328999
 31
0.0
  0
LINE
  5
1C2
330
2
100
AcDbEntity
  8
0
 62
     3
100
AcDbLine
 10
86.37561823589994
 20
143.4793702414999
 30
0.0
 11
86.30149413259999
 21
142.6321274264999
 31
0.0
  0
LINE
  5
1C3
330
2
100
AcDbEntity
  8
0
 62
     3
100
AcDbLine
 10
85.70154194289996
 20
141.6321172052
 30
0.0
 11
85.83150303709999
 21
141.3072157003
 31
0.0
  0
LINE
  5
1C4
330
2
100
AcDbEntity
  8
0
 62
     3
100
AcDbLine
 10
85.70153191509996
 20
140.6321233185
 30
0.0
 11
85.83149867619999
 21
140.3072076461999
 31
0.0
  0
LINE
  5
1C5
330
2
100
AcDbEntity
  8
0
 62
     3
100
AcDbLine
 10
85.90155318069998
 20
140.8822212328999
 30
0.0
 11
85.90155318069998
 21
140.3822212328999
 31
0.0
  0
ARC
  5
1C6
330
2
100
AcDbEntity
  8
0
 62
     3
100
AcDbCircle
 10
86.01721480179998
 20
140.3815803637999
 30
0.0
 40
0.1999999881
100
AcDbArc
 50
201.8016173122999
 51
288.4351903295997
  0
ARC
  5
1C7
330
2
100
AcDbEntity
  8
0
 62
     3
100
AcDbCircle
 10
86.01721480179998
 20
141.3815803638
 30
0.0
 40
0.1999999881
100
AcDbArc
 50
201.8017812367999
 51
288.4350810464998
  0
LINE
  5
1C8
330
2
100
AcDbEntity
  8
0
 62
     3
100
AcDbLine
 10
88.55156233599997
 20
141.6322212328999
 30
0.0
 11
88.55156233599997
 21
141.1322212328999
 31
0.0
  0
LINE
  5
1C9
330
2
100
AcDbEntity
  8
0
 62
     3
100
AcDbLine
 10
88.2515592842
 20
140.1322212329
 30
0.0
 11
88.2515592842
 21
140.6322212329
 31
0.0
  0
LINE
  5
1CA
330
2
100
AcDbEntity
  8
0
 62
     3
100
AcDbLine
 10
87.70155623249996
 20
140.1322212329
 30
0.0
 11
87.70155623249996
 21
140.6322212329
 31
0.0
  0
LINE
  5
1CB
330
2
100
AcDbEntity
  8
0
 62
     3
100
AcDbLine
 10
87.40155318069998
 20
140.6322212329
 30
0.0
 11
88.2515592842
 21
140.6322212329
 31
0.0
  0
LINE
  5
1CC
330
2
100
AcDbEntity
  8
0
 62
     3
100
AcDbLine
 10
90.5515547066
 20
135.4322090259
 30
0.0
 11
90.5515547066
 21
140.1322212329
 31
0.0
  0
LINE
  5
1CD
330
2
100
AcDbEntity
  8
0
 62
     3
100
AcDbLine
 10
90.25156691359994
 20
135.1322212329
 30
0.0
 11
90.25156691359994
 21
140.1322212329
 31
0.0
  0
LINE
  5
1CE
330
2
100
AcDbEntity
  8
0
 62
     3
100
AcDbLine
 10
90.2515778933
 20
135.1321436507
 30
0.0
 11
90.55157563229995
 21
135.4321336011
 31
0.0
  0
LINE
  5
1CF
330
2
100
AcDbEntity
  8
0
 62
     3
100
AcDbLine
 10
89.85155012889999
 20
140.6322212329
 30
0.0
 11
90.7015562325
 21
140.6322212329
 31
0.0
  0
LINE
  5
1D0
330
2
100
AcDbEntity
  8
0
 62
     3
100
AcDbLine
 10
90.40155318069997
 20
140.1322212329
 30
0.0
 11
90.40155318069997
 21
140.6322212329
 31
0.0
  0
LINE
  5
1D1
330
2
100
AcDbEntity
  8
0
 62
     3
100
AcDbLine
 10
89.91760046389998
 20
144.1321708561
 30
0.0
 11
89.05157507569999
 21
144.6321708561
 31
0.0
  0
LINE
  5
1D2
330
2
100
AcDbEntity
  8
0
 62
     3
100
AcDbLine
 10
89.55156233599998
 20
141.6322212328999
 30
0.0
 11
89.55156233599998
 21
141.1322212328999
 31
0.0
  0
LINE
  5
1D3
330
2
100
AcDbEntity
  8
0
 62
     3
100
AcDbLine
 10
89.85155012889999
 20
140.1322212329
 30
0.0
 11
89.85155012889999
 21
140.6322212329
 31
0.0
  0
LINE
  5
1D4
330
2
100
AcDbEntity
  8
0
 62
     3
100
AcDbLine
 10
90.05158297539997
 20
142.6321192337
 30
0.0
 11
89.05158191379999
 21
141.6321181721
 31
0.0
  0
LINE
  5
1D5
330
2
100
AcDbEntity
  8
0
 62
     3
100
AcDbLine
 10
92.20155623249999
 20
140.3822212328999
 30
0.0
 11
92.20155623249999
 21
140.8822212328999
 31
0.0
  0
ARC
  5
1D6
330
2
100
AcDbEntity
  8
0
 62
     3
100
AcDbCircle
 10
92.08589461139998
 20
140.3815803637999
 30
0.0
 40
0.1999999881
100
AcDbArc
 50
251.5649002841
 51
338.1983537731
  0
ARC
  5
1D7
330
2
100
AcDbEntity
  8
0
 62
     3
100
AcDbCircle
 10
92.08589461139998
 20
141.3815803638
 30
0.0
 40
0.1999999881
100
AcDbArc
 50
251.5650095670999
 51
338.1982239995
  0
LINE
  5
1D8
330
2
100
AcDbEntity
  8
0
 62
     3
100
AcDbLine
 10
91.7515592842
 20
142.6322212328999
 30
0.0
 11
91.7515592842
 21
141.6322212328999
 31
0.0
  0
LINE
  5
1D9
330
2
100
AcDbEntity
  8
0
 62
     3
100
AcDbLine
 10
91.80149243879998
 20
142.6321455047
 30
0.0
 11
91.72736700559999
 21
143.4794035204
 31
0.0
  0
ARC
  5
1DA
330
2
100
AcDbEntity
  8
0
 62
     3
100
AcDbCircle
 10
90.73123457719999
 20
143.3923072925
 30
0.0
 40
1.0
100
AcDbArc
 50
5.000005831000001
 51
73.7429843175
  0
LINE
  5
1DB
330
2
100
AcDbEntity
  8
0
 62
     3
100
AcDbLine
 10
90.70154551809997
 20
141.6321326803999
 30
0.0
 11
92.02263220759993
 21
141.1917705058999
 31
0.0
  0
LINE
  5
1DC
330
2
100
AcDbEntity
  8
0
 62
     3
100
AcDbLine
 10
90.7015384942
 20
140.6321342488999
 30
0.0
 11
92.02262559869998
 21
140.1917734024
 31
0.0
  0
LINE
  5
1DD
330
2
100
AcDbEntity
  8
0
 62
     3
100
AcDbLine
 10
98.55155470660001
 20
135.1322212329
 30
0.0
 11
98.55155470660001
 21
133.3322334398999
 31
0.0
  0
LINE
  5
1DE
330
2
100
AcDbEntity
  8
0
 62
     3
100
AcDbLine
 10
92.40155318069998
 20
143.8322334398999
 30
0.0
 11
92.40155318069998
 21
133.3322334398999
 31
0.0
  0
LINE
  5
1DF
330
2
100
AcDbEntity
  8
0
 62
     3
100
AcDbLine
 10
96.7515592842
 20
133.3322181811
 30
0.0
 11
98.35155012889998
 21
133.3322181811
 31
0.0
  0
LINE
  5
1E0
330
2
100
AcDbEntity
  8
0
 62
     3
100
AcDbLine
 10
95.90155318069998
 20
140.6322212329
 30
0.0
 11
96.7515592842
 21
140.6322212329
 31
0.0
  0
LINE
  5
1E1
330
2
100
AcDbEntity
  8
0
 62
     3
100
AcDbLine
 10
95.819453339
 20
143.6321749372999
 30
0.0
 11
97.55150411549999
 21
144.6321749372999
 31
0.0
  0
ARC
  5
1E2
330
2
100
AcDbEntity
  8
0
 62
     3
100
AcDbCircle
 10
97.55154707719999
 20
137.6322212329
 30
0.0
 40
7.0
100
AcDbArc
 50
73.742929676
 51
106.2569797102999
  0
LINE
  5
1E3
330
2
100
AcDbEntity
  8
0
 62
     3
100
AcDbLine
 10
92.40155318069998
 20
137.8322334398999
 30
0.0
 11
94.2015409737
 21
137.8322334398999
 31
0.0
  0
LINE
  5
1E4
330
2
100
AcDbEntity
  8
0
 62
     3
100
AcDbLine
 10
92.40155318069998
 20
138.3322334398999
 30
0.0
 11
94.2015409737
 21
138.3322334398999
 31
0.0
  0
LINE
  5
1E5
330
2
100
AcDbEntity
  8
0
 62
     3
100
AcDbLine
 10
94.2015562325
 20
134.8322181811
 30
0.0
 11
94.2015562325
 21
133.8322181810999
 31
0.0
  0
LINE
  5
1E6
330
2
100
AcDbEntity
  8
0
 62
     3
100
AcDbLine
 10
92.40155318069998
 20
139.3322334398999
 30
0.0
 11
94.2015409737
 21
139.3322334398999
 31
0.0
  0
LINE
  5
1E7
330
2
100
AcDbEntity
  8
0
 62
     3
100
AcDbLine
 10
92.40155318069998
 20
142.3322334398999
 30
0.0
 11
94.2015409737
 21
142.3322334398999
 31
0.0
  0
LINE
  5
1E8
330
2
100
AcDbEntity
  8
0
 62
     3
100
AcDbLine
 10
92.40155318069998
 20
143.8322334398999
 30
0.0
 11
94.2015409737
 21
143.8322334398999
 31
0.0
  0
ARC
  5
1E9
330
2
100
AcDbEntity
  8
0
 62
     3
100
AcDbCircle
 10
94.51721480179998
 20
141.3815803638
 30
0.0
 40
0.1999999881
100
AcDbArc
 50
201.8017812367999
 51
288.4350810464998
  0
ARC
  5
1EA
330
2
100
AcDbEntity
  8
0
 62
     3
100
AcDbCircle
 10
94.51721480179998
 20
140.3815803637999
 30
0.0
 40
0.1999999881
100
AcDbArc
 50
201.8016173122999
 51
288.4351903295997
  0
LINE
  5
1EB
330
2
100
AcDbEntity
  8
0
 62
     3
100
AcDbLine
 10
94.40155318069997
 20
140.8822212328999
 30
0.0
 11
94.40155318069997
 21
140.3822212328999
 31
0.0
  0
LINE
  5
1EC
330
2
100
AcDbEntity
  8
0
 62
     3
100
AcDbLine
 10
94.20153191509996
 20
140.6321233185
 30
0.0
 11
94.3314986762
 21
140.3072076461999
 31
0.0
  0
LINE
  5
1ED
330
2
100
AcDbEntity
  8
0
 62
     3
100
AcDbLine
 10
94.20154194289995
 20
141.6321172052
 30
0.0
 11
94.33150303709998
 21
141.3072157003
 31
0.0
  0
LINE
  5
1EE
330
2
100
AcDbEntity
  8
0
 62
     3
100
AcDbLine
 10
94.87561823589993
 20
143.4793702414999
 30
0.0
 11
94.80149413259994
 21
142.6321274264999
 31
0.0
  0
LINE
  5
1EF
330
2
100
AcDbEntity
  8
0
 62
     3
100
AcDbLine
 10
94.85155012889999
 20
141.6322212328999
 30
0.0
 11
94.85155012889999
 21
142.6322212328999
 31
0.0
  0
LINE
  5
1F0
330
2
100
AcDbEntity
  8
0
 62
     3
100
AcDbLine
 10
94.2015409737
 20
141.8322334398999
 30
0.0
 11
94.85155012889999
 21
141.8322334398999
 31
0.0
  0
ARC
  5
1F1
330
2
100
AcDbEntity
  8
0
 62
     3
100
AcDbCircle
 10
95.87187483599995
 20
143.3923072925
 30
0.0
 40
1.0
100
AcDbArc
 50
106.2569797102999
 51
174.9999923478
  0
LINE
  5
1F2
330
2
100
AcDbEntity
  8
0
 62
     3
100
AcDbLine
 10
94.58041858689998
 20
140.1917487371999
 30
0.0
 11
95.90150527639996
 21
140.6321109117
 31
0.0
  0
LINE
  5
1F3
330
2
100
AcDbEntity
  8
0
 62
     3
100
AcDbLine
 10
94.58041379939993
 20
141.1917486107
 30
0.0
 11
95.9015004889
 21
141.6321107851999
 31
0.0
  0
LINE
  5
1F4
330
2
100
AcDbEntity
  8
0
 62
     3
100
AcDbLine
 10
98.75156691359997
 20
135.1322212329
 30
0.0
 11
98.75156691359997
 21
140.1322212329
 31
0.0
  0
LINE
  5
1F5
330
2
100
AcDbEntity
  8
0
 62
     3
100
AcDbLine
 10
96.3515577583
 20
135.1322212329
 30
0.0
 11
96.3515577583
 21
140.1322212329
 31
0.0
  0
LINE
  5
1F6
330
2
100
AcDbEntity
  8
0
 62
     3
100
AcDbLine
 10
99.05155470659998
 20
135.4322090259
 30
0.0
 11
99.05155470659998
 21
140.1322212329
 31
0.0
  0
LINE
  5
1F7
330
2
100
AcDbEntity
  8
0
 62
     3
100
AcDbLine
 10
96.05155470660001
 20
135.4321937670999
 30
0.0
 11
96.05155470660001
 21
140.1322212329
 31
0.0
  0
LINE
  5
1F8
330
2
100
AcDbEntity
  8
0
 62
     3
100
AcDbLine
 10
96.3515577583
 20
135.1322212329
 30
0.0
 11
98.75156691359997
 21
135.1322212329
 31
0.0
  0
LINE
  5
1F9
330
2
100
AcDbEntity
  8
0
 62
     3
100
AcDbLine
 10
96.05155470660001
 20
135.4322090259
 30
0.0
 11
99.05155470659998
 21
135.4322090259
 31
0.0
  0
LINE
  5
1FA
330
2
100
AcDbEntity
  8
0
 62
     3
100
AcDbLine
 10
96.35155147019998
 20
135.1321647761
 30
0.0
 11
96.05155115190001
 21
135.4321521724999
 31
0.0
  0
LINE
  5
1FB
330
2
100
AcDbEntity
  8
0
 62
     3
100
AcDbLine
 10
98.75157789330001
 20
135.1321436507
 30
0.0
 11
99.05157563229998
 21
135.4321336011
 31
0.0
  0
LINE
  5
1FC
330
2
100
AcDbEntity
  8
0
 62
     3
100
AcDbLine
 10
98.4176004639
 20
144.1321708561
 30
0.0
 11
97.55157507569997
 21
144.6321708561
 31
0.0
  0
LINE
  5
1FD
330
2
100
AcDbEntity
  8
0
 62
     3
100
AcDbLine
 10
98.5515829754
 20
142.6321192337
 30
0.0
 11
97.55158191379997
 21
141.6321181721
 31
0.0
  0
LINE
  5
1FE
330
2
100
AcDbEntity
  8
0
 62
     3
100
AcDbLine
 10
97.05156233600002
 20
141.1322212328999
 30
0.0
 11
98.05156233600001
 21
141.1322212328999
 31
0.0
  0
LINE
  5
1FF
330
2
100
AcDbEntity
  8
0
 62
     3
100
AcDbLine
 10
96.05156996540001
 20
140.1322212329
 30
0.0
 11
99.05155470659998
 21
140.1322212329
 31
0.0
  0
LINE
  5
200
330
2
100
AcDbEntity
  8
0
 62
     3
100
AcDbLine
 10
96.20155623249999
 20
140.1322212329
 30
0.0
 11
96.20155623249999
 21
140.6322212329
 31
0.0
  0
LINE
  5
201
330
2
100
AcDbEntity
  8
0
 62
     3
100
AcDbLine
 10
96.7515592842
 20
140.1322212329
 30
0.0
 11
96.7515592842
 21
140.6322212329
 31
0.0
  0
LINE
  5
202
330
2
100
AcDbEntity
  8
0
 62
     3
100
AcDbLine
 10
97.05156233600002
 20
141.6322212328999
 30
0.0
 11
97.05156233600002
 21
141.1322212328999
 31
0.0
  0
LINE
  5
203
330
2
100
AcDbEntity
  8
0
 62
     3
100
AcDbLine
 10
96.55158085220001
 20
141.6321181721
 30
0.0
 11
97.55158191379997
 21
142.6321192337
 31
0.0
  0
LINE
  5
204
330
2
100
AcDbEntity
  8
0
 62
     3
100
AcDbLine
 10
98.90155318069998
 20
140.1322212329
 30
0.0
 11
98.90155318069998
 21
140.6322212329
 31
0.0
  0
LINE
  5
205
330
2
100
AcDbEntity
  8
0
 62
     3
100
AcDbLine
 10
98.35155012889998
 20
140.1322212329
 30
0.0
 11
98.35155012889998
 21
140.6322212329
 31
0.0
  0
LINE
  5
206
330
2
100
AcDbEntity
  8
0
 62
     3
100
AcDbLine
 10
98.05156233600001
 20
141.6322212328999
 30
0.0
 11
98.05156233600001
 21
141.1322212328999
 31
0.0
  0
LINE
  5
207
330
2
100
AcDbEntity
  8
0
 62
     3
100
AcDbLine
 10
98.35155012889998
 20
140.6322212329
 30
0.0
 11
99.2015562325
 21
140.6322212329
 31
0.0
  0
LINE
  5
208
330
2
100
AcDbEntity
  8
0
  6
PHANTOM
 62
     3
100
AcDbLine
 10
112.7015409736999
 20
145.6322334399
 30
0.0
 11
112.7015409736999
 21
140.2322334399
 31
0.0
  0
LINE
  5
209
330
2
100
AcDbEntity
  8
0
 62
     3
100
AcDbLine
 10
106.8515501288999
 20
140.6322212329
 30
0.0
 11
107.7015562324999
 21
140.6322212329
 31
0.0
  0
LINE
  5
20A
330
2
100
AcDbEntity
  8
0
 62
     3
100
AcDbLine
 10
104.5515699653999
 20
140.1322212329
 30
0.0
 11
107.5515547065998
 21
140.1322212329
 31
0.0
  0
LINE
  5
20B
330
2
100
AcDbEntity
  8
0
 62
     3
100
AcDbLine
 10
104.5515547065999
 20
135.4322090259
 30
0.0
 11
107.5515547065998
 21
135.4322090259
 31
0.0
  0
LINE
  5
20C
330
2
100
AcDbEntity
  8
0
 62
     3
100
AcDbLine
 10
104.8515577582999
 20
135.1322212329
 30
0.0
 11
107.2515669135998
 21
135.1322212329
 31
0.0
  0
LINE
  5
20D
330
2
100
AcDbEntity
  8
0
 62
     3
100
AcDbLine
 10
102.7015562324999
 20
141.6322212328999
 30
0.0
 11
109.4015531806999
 21
141.6322212328999
 31
0.0
  0
LINE
  5
20E
330
2
100
AcDbEntity
  8
0
 62
     3
100
AcDbLine
 10
107.0515829753999
 20
142.6321192337
 30
0.0
 11
106.0515819137999
 21
141.6321181721
 31
0.0
  0
LINE
  5
20F
330
2
100
AcDbEntity
  8
0
 62
     3
100
AcDbLine
 10
103.3015623359997
 20
142.6322212328999
 30
0.0
 11
108.8015470771999
 21
142.6322212328999
 31
0.0
  0
ARC
  5
210
330
2
100
AcDbEntity
  8
0
 62
     3
100
AcDbCircle
 10
106.0515470771999
 20
137.6322212329
 30
0.0
 40
7.0
100
AcDbArc
 50
73.742929676
 51
106.2569797102999
  0
LINE
  5
211
330
2
100
AcDbEntity
  8
0
 62
     3
100
AcDbLine
 10
102.7015409736999
 20
125.8322334398999
 30
0.0
 11
108.9015531806999
 21
125.8322334398999
 31
0.0
  0
LINE
  5
212
330
2
100
AcDbEntity
  8
0
 62
     3
100
AcDbLine
 10
102.7015409736999
 20
128.3322334398999
 30
0.0
 11
108.9015531806999
 21
128.3322334398999
 31
0.0
  0
LINE
  5
213
330
2
100
AcDbEntity
  8
0
 62
     3
100
AcDbLine
 10
102.7015409736999
 20
132.3322334398999
 30
0.0
 11
108.9015531806999
 21
132.3322334398999
 31
0.0
  0
LINE
  5
214
330
2
100
AcDbEntity
  8
0
 62
     3
100
AcDbLine
 10
102.7015409736999
 20
133.3322334398999
 30
0.0
 11
109.4015531806999
 21
133.3322334398999
 31
0.0
  0
LINE
  5
215
330
2
100
AcDbEntity
  8
0
 62
     3
100
AcDbLine
 10
100.9015531806999
 20
143.8322334398999
 30
0.0
 11
100.9015531806999
 21
133.3322334398999
 31
0.0
  0
LINE
  5
216
330
2
100
AcDbEntity
  8
0
 62
     3
100
AcDbLine
 10
100.4015531806998
 20
133.3322334398999
 30
0.0
 11
100.4015531806998
 21
125.8322334398999
 31
0.0
  0
LINE
  5
217
330
2
100
AcDbEntity
  8
0
 62
     3
100
AcDbLine
 10
105.2515592842
 20
133.3322181811
 30
0.0
 11
106.8515501288999
 21
133.3322181811
 31
0.0
  0
LINE
  5
218
330
2
100
AcDbEntity
  8
0
 62
     3
100
AcDbLine
 10
103.3756182358999
 20
143.4793702414999
 30
0.0
 11
103.3014941325999
 21
142.6321274264999
 31
0.0
  0
LINE
  5
219
330
2
100
AcDbEntity
  8
0
 62
     3
100
AcDbLine
 10
103.0804137993999
 20
141.1917486107
 30
0.0
 11
104.4015004888997
 21
141.6321107851999
 31
0.0
  0
LINE
  5
21A
330
2
100
AcDbEntity
  8
0
 62
     3
100
AcDbLine
 10
103.0804185868998
 20
140.1917487371999
 30
0.0
 11
104.4015052763999
 21
140.6321109117
 31
0.0
  0
ARC
  5
21B
330
2
100
AcDbEntity
  8
0
 62
     3
100
AcDbCircle
 10
104.3718748359999
 20
143.3923072925
 30
0.0
 40
1.0
100
AcDbArc
 50
106.2569797102999
 51
174.9999923478
  0
LINE
  5
21C
330
2
100
AcDbEntity
  8
0
 62
     3
100
AcDbLine
 10
102.7015409736999
 20
141.8322334398999
 30
0.0
 11
103.3515501288998
 21
141.8322334398999
 31
0.0
  0
LINE
  5
21D
330
2
100
AcDbEntity
  8
0
 62
     3
100
AcDbLine
 10
100.9015531806999
 20
137.8322334398999
 30
0.0
 11
102.7015409736999
 21
137.8322334398999
 31
0.0
  0
LINE
  5
21E
330
2
100
AcDbEntity
  8
0
 62
     3
100
AcDbLine
 10
100.9015531806999
 20
138.3322334398999
 30
0.0
 11
102.7015409736999
 21
138.3322334398999
 31
0.0
  0
LINE
  5
21F
330
2
100
AcDbEntity
  8
0
 62
     3
100
AcDbLine
 10
100.9015531806999
 20
139.3322334398999
 30
0.0
 11
102.7015409736999
 21
139.3322334398999
 31
0.0
  0
LINE
  5
220
330
2
100
AcDbEntity
  8
0
 62
     3
100
AcDbLine
 10
100.9015531806999
 20
142.3322334398999
 30
0.0
 11
102.7015409736999
 21
142.3322334398999
 31
0.0
  0
LINE
  5
221
330
2
100
AcDbEntity
  8
0
 62
     3
100
AcDbLine
 10
100.9015531806999
 20
143.8322334398999
 30
0.0
 11
102.7015409736999
 21
143.8322334398999
 31
0.0
  0
ARC
  5
222
330
2
100
AcDbEntity
  8
0
 62
     3
100
AcDbCircle
 10
100.5858946113999
 20
141.3815803638
 30
0.0
 40
0.1999999881
100
AcDbArc
 50
251.5650095670999
 51
338.1982239995
  0
ARC
  5
223
330
2
100
AcDbEntity
  8
0
 62
     3
100
AcDbCircle
 10
100.5858946113999
 20
140.3815803637999
 30
0.0
 40
0.1999999881
100
AcDbArc
 50
251.5649002841
 51
338.1983537731
  0
LINE
  5
224
330
2
100
AcDbEntity
  8
0
 62
     3
100
AcDbLine
 10
100.7015562324999
 20
140.3822212328999
 30
0.0
 11
100.7015562324999
 21
140.8822212328999
 31
0.0
  0
LINE
  5
225
330
2
100
AcDbEntity
  8
0
 62
     3
100
AcDbLine
 10
100.7715634733999
 20
140.3072371379
 30
0.0
 11
100.9015249429999
 21
140.6321384968
 31
0.0
  0
LINE
  5
226
330
2
100
AcDbEntity
  8
0
 62
     3
100
AcDbLine
 10
100.7715886458999
 20
141.3072363268
 30
0.0
 11
100.9015497400999
 21
141.6321378316999
 31
0.0
  0
LINE
  5
227
330
2
100
AcDbEntity
  8
0
 62
     3
100
AcDbLine
 10
100.3014924387999
 20
142.6321455047
 30
0.0
 11
100.2273670055998
 21
143.4794035204
 31
0.0
  0
LINE
  5
228
330
2
100
AcDbEntity
  8
0
 62
     3
100
AcDbLine
 10
100.2515592841999
 20
142.6322212328999
 30
0.0
 11
100.2515592841999
 21
141.6322212328999
 31
0.0
  0
LINE
  5
229
330
2
100
AcDbEntity
  8
0
 62
     3
100
AcDbLine
 10
100.2515592841999
 20
141.8322334398999
 30
0.0
 11
100.9015531806999
 21
141.8322334398999
 31
0.0
  0
LINE
  5
22A
330
2
100
AcDbEntity
  8
0
 62
     3
100
AcDbLine
 10
102.9015531806999
 20
140.8822212328999
 30
0.0
 11
102.9015531806999
 21
140.3822212328999
 31
0.0
  0
LINE
  5
22B
330
2
100
AcDbEntity
  8
0
 62
     3
100
AcDbLine
 10
102.7015419428998
 20
141.6321172052
 30
0.0
 11
102.8315030370999
 21
141.3072157003
 31
0.0
  0
LINE
  5
22C
330
2
100
AcDbEntity
  8
0
 62
     3
100
AcDbLine
 10
102.7015319150997
 20
140.6321233185
 30
0.0
 11
102.8314986761999
 21
140.3072076461999
 31
0.0
  0
ARC
  5
22D
330
2
100
AcDbEntity
  8
0
 62
     3
100
AcDbCircle
 10
103.0172148017999
 20
140.3815803637999
 30
0.0
 40
0.1999999881
100
AcDbArc
 50
201.8016173122999
 51
288.4351903295997
  0
ARC
  5
22E
330
2
100
AcDbEntity
  8
0
 62
     3
100
AcDbCircle
 10
103.0172148017999
 20
141.3815803638
 30
0.0
 40
0.1999999881
100
AcDbArc
 50
201.8017812367999
 51
288.4350810464998
  0
LINE
  5
22F
330
2
100
AcDbEntity
  8
0
 62
     3
100
AcDbLine
 10
104.5515547065999
 20
135.4321937670999
 30
0.0
 11
104.5515547065999
 21
140.1322212329
 31
0.0
  0
LINE
  5
230
330
2
100
AcDbEntity
  8
0
 62
     3
100
AcDbLine
 10
104.8515577582999
 20
135.1322212329
 30
0.0
 11
104.8515577582999
 21
140.1322212329
 31
0.0
  0
LINE
  5
231
330
2
100
AcDbEntity
  8
0
 62
     3
100
AcDbLine
 10
104.8515514701999
 20
135.1321647761
 30
0.0
 11
104.5515511518999
 21
135.4321521724999
 31
0.0
  0
LINE
  5
232
330
2
100
AcDbEntity
  8
0
 62
     3
100
AcDbLine
 10
105.0515808521998
 20
141.6321181721
 30
0.0
 11
106.0515819137999
 21
142.6321192337
 31
0.0
  0
LINE
  5
233
330
2
100
AcDbEntity
  8
0
 62
     3
100
AcDbLine
 10
104.3194533389999
 20
143.6321749372999
 30
0.0
 11
106.0515041154998
 21
144.6321749372999
 31
0.0
  0
LINE
  5
234
330
2
100
AcDbEntity
  8
0
 62
     3
100
AcDbLine
 10
104.4015531806999
 20
140.6322212329
 30
0.0
 11
105.2515592842
 21
140.6322212329
 31
0.0
  0
LINE
  5
235
330
2
100
AcDbEntity
  8
0
 62
     3
100
AcDbLine
 10
104.7015562324999
 20
140.1322212329
 30
0.0
 11
104.7015562324999
 21
140.6322212329
 31
0.0
  0
LINE
  5
236
330
2
100
AcDbEntity
  8
0
 62
     3
100
AcDbLine
 10
103.3515501288998
 20
141.6322212328999
 30
0.0
 11
103.3515501288998
 21
142.6322212328999
 31
0.0
  0
LINE
  5
237
330
2
100
AcDbEntity
  8
0
 62
     3
100
AcDbLine
 10
106.5515623359999
 20
141.6322212328999
 30
0.0
 11
106.5515623359999
 21
141.1322212328999
 31
0.0
  0
LINE
  5
238
330
2
100
AcDbEntity
  8
0
 62
     3
100
AcDbLine
 10
106.8515501288999
 20
140.1322212329
 30
0.0
 11
106.8515501288999
 21
140.6322212329
 31
0.0
  0
LINE
  5
239
330
2
100
AcDbEntity
  8
0
 62
     3
100
AcDbLine
 10
105.5515623359999
 20
141.6322212328999
 30
0.0
 11
105.5515623359999
 21
141.1322212328999
 31
0.0
  0
LINE
  5
23A
330
2
100
AcDbEntity
  8
0
 62
     3
100
AcDbLine
 10
105.2515592842
 20
140.1322212329
 30
0.0
 11
105.2515592842
 21
140.6322212329
 31
0.0
  0
LINE
  5
23B
330
2
100
AcDbEntity
  8
0
 62
     3
100
AcDbLine
 10
106.9176004638999
 20
144.1321708561
 30
0.0
 11
106.0515750756999
 21
144.6321708561
 31
0.0
  0
LINE
  5
23C
330
2
100
AcDbEntity
  8
0
 62
     3
100
AcDbLine
 10
105.5515623359999
 20
141.1322212328999
 30
0.0
 11
106.5515623359999
 21
141.1322212328999
 31
0.0
  0
LINE
  5
23D
330
2
100
AcDbEntity
  8
0
 62
     3
100
AcDbLine
 10
107.0515547065999
 20
135.1322212329
 30
0.0
 11
107.0515547065999
 21
133.3322334398999
 31
0.0
  0
LINE
  5
23E
330
2
100
AcDbEntity
  8
0
 62
     3
100
AcDbLine
 10
109.4015531806999
 20
143.8322334398999
 30
0.0
 11
109.4015531806999
 21
133.3322334398999
 31
0.0
  0
LINE
  5
23F
330
2
100
AcDbEntity
  8
0
 62
     3
100
AcDbLine
 10
114.2015409736997
 20
143.8322334398999
 30
0.0
 11
114.2015409736997
 21
126.8322334398999
 31
0.0
  0
LINE
  5
240
330
2
100
AcDbEntity
  8
0
 62
     3
100
AcDbLine
 10
108.9015531806999
 20
133.3322334398999
 30
0.0
 11
108.9015531806999
 21
125.8322334398999
 31
0.0
  0
LINE
  5
241
330
2
100
AcDbEntity
  8
0
 62
     3
100
AcDbLine
 10
109.4015531806999
 20
139.3322334398999
 30
0.0
 11
112.7015409736999
 21
139.3322334398999
 31
0.0
  0
LINE
  5
242
330
2
100
AcDbEntity
  8
0
 62
     3
100
AcDbLine
 10
109.4015531806999
 20
142.3322334398999
 30
0.0
 11
114.2015409736997
 21
142.3322334398999
 31
0.0
  0
LINE
  5
243
330
2
100
AcDbEntity
  8
0
 62
     3
100
AcDbLine
 10
109.4015531806999
 20
143.8322334398999
 30
0.0
 11
114.2015409736997
 21
143.8322334398999
 31
0.0
  0
LINE
  5
244
330
2
100
AcDbEntity
  8
0
 62
     3
100
AcDbLine
 10
109.4015531806999
 20
137.8322334398999
 30
0.0
 11
112.7015409736999
 21
137.8322334398999
 31
0.0
  0
LINE
  5
245
330
2
100
AcDbEntity
  8
0
 62
     3
100
AcDbLine
 10
109.4015531806999
 20
138.3322334398999
 30
0.0
 11
112.7015409736999
 21
138.3322334398999
 31
0.0
  0
LINE
  5
246
330
2
100
AcDbEntity
  8
0
 62
     3
100
AcDbLine
 10
107.5515547065998
 20
135.4322090259
 30
0.0
 11
107.5515547065998
 21
140.1322212329
 31
0.0
  0
LINE
  5
247
330
2
100
AcDbEntity
  8
0
 62
     3
100
AcDbLine
 10
107.2515669135998
 20
135.1322212329
 30
0.0
 11
107.2515669135998
 21
140.1322212329
 31
0.0
  0
LINE
  5
248
330
2
100
AcDbEntity
  8
0
 62
     3
100
AcDbLine
 10
107.2515778932998
 20
135.1321436507
 30
0.0
 11
107.5515756322998
 21
135.4321336011
 31
0.0
  0
LINE
  5
249
330
2
100
AcDbEntity
  8
0
 62
     3
100
AcDbLine
 10
108.7515592841999
 20
141.8322334398999
 30
0.0
 11
109.4015531806999
 21
141.8322334398999
 31
0.0
  0
LINE
  5
24A
330
2
100
AcDbEntity
  8
0
 62
     3
100
AcDbLine
 10
107.7015455180999
 20
141.6321326803999
 30
0.0
 11
109.0226322075999
 21
141.1917705058999
 31
0.0
  0
LINE
  5
24B
330
2
100
AcDbEntity
  8
0
 62
     3
100
AcDbLine
 10
107.7015384941998
 20
140.6321342488999
 30
0.0
 11
109.0226255986999
 21
140.1917734024
 31
0.0
  0
ARC
  5
24C
330
2
100
AcDbEntity
  8
0
 62
     3
100
AcDbCircle
 10
107.7312345771999
 20
143.3923072925
 30
0.0
 40
1.0
100
AcDbArc
 50
5.000005831000001
 51
73.7429843175
  0
LINE
  5
24D
330
2
100
AcDbEntity
  8
0
 62
     3
100
AcDbLine
 10
108.7515592841999
 20
142.6322212328999
 30
0.0
 11
108.7515592841999
 21
141.6322212328999
 31
0.0
  0
LINE
  5
24E
330
2
100
AcDbEntity
  8
0
 62
     3
100
AcDbLine
 10
108.8014924387999
 20
142.6321455047
 30
0.0
 11
108.7273670055998
 21
143.4794035204
 31
0.0
  0
LINE
  5
24F
330
2
100
AcDbEntity
  8
0
 62
     3
100
AcDbLine
 10
107.4015531806999
 20
140.1322212329
 30
0.0
 11
107.4015531806999
 21
140.6322212329
 31
0.0
  0
LINE
  5
250
330
2
100
AcDbEntity
  8
0
 62
     3
100
AcDbLine
 10
109.2715886458998
 20
141.3072363268
 30
0.0
 11
109.4015497400999
 21
141.6321378316999
 31
0.0
  0
LINE
  5
251
330
2
100
AcDbEntity
  8
0
 62
     3
100
AcDbLine
 10
109.2715634733999
 20
140.3072371379
 30
0.0
 11
109.4015249429999
 21
140.6321384968
 31
0.0
  0
LINE
  5
252
330
2
100
AcDbEntity
  8
0
 62
     3
100
AcDbLine
 10
109.2015562325
 20
140.3822212328999
 30
0.0
 11
109.2015562325
 21
140.8822212328999
 31
0.0
  0
ARC
  5
253
330
2
100
AcDbEntity
  8
0
 62
     3
100
AcDbCircle
 10
109.0858946113999
 20
140.3815803637999
 30
0.0
 40
0.1999999881
100
AcDbArc
 50
251.5649002841
 51
338.1983537731
  0
ARC
  5
254
330
2
100
AcDbEntity
  8
0
 62
     3
100
AcDbCircle
 10
109.0858946113999
 20
141.3815803638
 30
0.0
 40
0.1999999881
100
AcDbArc
 50
251.5650095670999
 51
338.1982239995
  0
LINE
  5
255
330
2
100
AcDbEntity
  8
0
 62
     3
100
AcDbLine
 10
112.7015409736999
 20
142.3322334398999
 30
0.0
 11
112.7015409736999
 21
137.8322334398999
 31
0.0
  0
LINE
  5
256
330
2
100
AcDbEntity
  8
0
 62
     3
100
AcDbLine
 10
99.43603286280001
 20
204.3772770186999
 30
0.0
 11
100.4050243889998
 21
203.4082850023998
 31
0.0
  0
LINE
  5
257
330
2
100
AcDbEntity
  8
0
 62
     3
100
AcDbLine
 10
99.43604181159997
 20
198.6702004931998
 30
0.0
 11
100.4050333377999
 21
199.6391925095
 31
0.0
  0
CIRCLE
  5
258
330
2
100
AcDbEntity
  8
0
 62
     3
100
AcDbCircle
 10
97.55154707719999
 20
201.5237465013998
 30
0.0
 40
2.75
  0
LINE
  5
259
330
2
100
AcDbEntity
  8
0
 62
     3
100
AcDbLine
 10
100.2953014634999
 20
204.7071127946998
 30
0.0
 11
98.9515086651
 21
204.8617514879
 31
0.0
  0
LINE
  5
25A
330
2
100
AcDbEntity
  8
0
 62
     3
100
AcDbLine
 10
100.2953173210999
 20
198.3403906018999
 30
0.0
 11
98.95152452269996
 21
198.1857519087
 31
0.0
  0
LINE
  5
25B
330
2
100
AcDbEntity
  8
0
 62
     3
100
AcDbLine
 10
100.4015531806998
 20
196.0237465013998
 30
0.0
 11
94.2015409737
 21
196.0237465013998
 31
0.0
  0
LINE
  5
25C
330
2
100
AcDbEntity
  8
0
 62
     3
100
AcDbLine
 10
94.2015409737
 20
205.7737465013999
 30
0.0
 11
100.9015531806999
 21
205.7737465013999
 31
0.0
  0
LINE
  5
25D
330
2
100
AcDbEntity
  8
0
 62
     3
100
AcDbLine
 10
100.9015531806999
 20
198.0237465013998
 30
0.0
 11
94.2015409737
 21
198.0237465013998
 31
0.0
  0
LINE
  5
25E
330
2
100
AcDbEntity
  8
0
 62
     3
100
AcDbLine
 10
92.38956104659999
 20
202.9237677979
 30
0.0
 11
92.23492243409998
 21
204.2675605963
 31
0.0
  0
LINE
  5
25F
330
2
100
AcDbEntity
  8
0
 62
     3
100
AcDbLine
 10
92.38953796070001
 20
200.1237163199999
 30
0.0
 11
92.23489934809999
 21
198.7799235216
 31
0.0
  0
LINE
  5
260
330
2
100
AcDbEntity
  8
0
 62
     3
100
AcDbLine
 10
92.40155318069998
 20
198.0237465013998
 30
0.0
 11
85.70154097369998
 21
198.0237465013998
 31
0.0
  0
LINE
  5
261
330
2
100
AcDbEntity
  8
0
 62
     3
100
AcDbLine
 10
91.75572493359998
 20
202.0237312426
 30
0.0
 11
92.3895445137
 21
202.0237312426
 31
0.0
  0
LINE
  5
262
330
2
100
AcDbEntity
  8
0
 62
     3
100
AcDbLine
 10
91.75572493359998
 20
201.0237312426
 30
0.0
 11
92.3895445137
 21
201.0237312426
 31
0.0
  0
LINE
  5
263
330
2
100
AcDbEntity
  8
0
 62
     3
100
AcDbLine
 10
85.70154097369998
 20
205.7737465013999
 30
0.0
 11
92.40155318069998
 21
205.7737465013999
 31
0.0
  0
LINE
  5
264
330
2
100
AcDbEntity
  8
0
 62
     3
100
AcDbLine
 10
85.71356489939999
 20
202.9237556566999
 30
0.0
 11
85.71356489939999
 21
200.1237526049
 31
0.0
  0
CIRCLE
  5
265
330
2
100
AcDbEntity
  8
0
 62
     3
100
AcDbCircle
 10
89.05154707719999
 20
201.5237465013998
 30
0.0
 40
2.75
  0
LINE
  5
266
330
2
100
AcDbEntity
  8
0
 62
     3
100
AcDbLine
 10
90.46574699540002
 20
200.1094982437999
 30
0.0
 11
87.63733070859997
 21
202.9379145304999
 31
0.0
  0
LINE
  5
267
330
2
100
AcDbEntity
  8
0
 62
     3
100
AcDbLine
 10
85.70154097369998
 20
206.3237495531999
 30
0.0
 11
85.70154097369998
 21
193.5237465013998
 31
0.0
  0
LINE
  5
268
330
2
100
AcDbEntity
  8
0
 62
     3
100
AcDbLine
 10
89.7586294367
 20
202.2308077613998
 30
0.0
 11
88.34442668809996
 21
200.8166050129
 31
0.0
  0
LINE
  5
269
330
2
100
AcDbEntity
  8
0
 62
     3
100
AcDbLine
 10
90.4515562325
 20
198.1857643236999
 30
0.0
 11
87.65155318069998
 21
198.1857643236999
 31
0.0
  0
LINE
  5
26A
330
2
100
AcDbEntity
  8
0
 62
     3
100
AcDbLine
 10
91.90155318069997
 20
196.0237465013998
 30
0.0
 11
85.70154097369998
 21
196.0237465013998
 31
0.0
  0
LINE
  5
26B
330
2
100
AcDbEntity
  8
0
 62
     3
100
AcDbLine
 10
86.19806417920001
 20
199.6391816396998
 30
0.0
 11
87.1670557054
 21
198.6701896233997
 31
0.0
  0
LINE
  5
26C
330
2
100
AcDbEntity
  8
0
 62
     3
100
AcDbLine
 10
87.65156309289997
 20
198.1857399977
 30
0.0
 11
86.30778545319998
 21
198.3403769464999
 31
0.0
  0
ARC
  5
26D
330
2
100
AcDbEntity
  8
0
 62
     3
100
AcDbCircle
 10
86.36493208689998
 20
198.8371315111999
 30
0.0
 40
0.5
100
AcDbArc
 50
186.5645581041999
 51
263.4356051370999
  0
LINE
  5
26E
330
2
100
AcDbEntity
  8
0
 62
     3
100
AcDbLine
 10
86.34739973829999
 20
202.0237312426
 30
0.0
 11
85.71358015819999
 21
202.0237312426
 31
0.0
  0
LINE
  5
26F
330
2
100
AcDbEntity
  8
0
 62
     3
100
AcDbLine
 10
86.34739973829999
 20
201.0237617602
 30
0.0
 11
85.71358015819999
 21
201.0237617602
 31
0.0
  0
LINE
  5
270
330
2
100
AcDbEntity
  8
0
 62
     3
100
AcDbLine
 10
85.86818819809996
 20
198.7799407586
 30
0.0
 11
85.71354958549997
 21
200.1237335571
 31
0.0
  0
LINE
  5
271
330
2
100
AcDbEntity
  8
0
 62
     3
100
AcDbLine
 10
88.55153181839998
 20
198.819568645
 30
0.0
 11
88.55153181839998
 21
198.1857490648999
 31
0.0
  0
LINE
  5
272
330
2
100
AcDbEntity
  8
0
 62
     3
100
AcDbLine
 10
91.90155318069997
 20
198.0237465013998
 30
0.0
 11
91.90155318069997
 21
193.5237465013998
 31
0.0
  0
LINE
  5
273
330
2
100
AcDbEntity
  8
0
 62
     3
100
AcDbLine
 10
91.79531370719997
 20
198.3403954434
 30
0.0
 11
90.45152090869994
 21
198.1857567501999
 31
0.0
  0
LINE
  5
274
330
2
100
AcDbEntity
  8
0
 62
     3
100
AcDbLine
 10
89.55153181839998
 20
198.819568645
 30
0.0
 11
89.55153181839998
 21
198.1857490648999
 31
0.0
  0
ARC
  5
275
330
2
100
AcDbEntity
  8
0
 62
     3
100
AcDbCircle
 10
91.73817732619999
 20
198.8371315111999
 30
0.0
 40
0.5
100
AcDbArc
 50
276.5645401181
 51
353.4355427547
  0
LINE
  5
276
330
2
100
AcDbEntity
  8
0
 62
     3
100
AcDbLine
 10
90.93603278809997
 20
198.6701875541
 30
0.0
 11
91.9050351039
 21
199.6391903599999
 31
0.0
  0
LINE
  5
277
330
2
100
AcDbEntity
  8
0
 62
     3
100
AcDbLine
 10
89.55156233599998
 20
204.8617439379999
 30
0.0
 11
88.55156233599997
 21
204.8617439379999
 31
0.0
  0
LINE
  5
278
330
2
100
AcDbEntity
  8
0
 62
     3
100
AcDbLine
 10
90.4515562325
 20
204.8617286792
 30
0.0
 11
87.65155318069998
 21
204.8617286792
 31
0.0
  0
LINE
  5
279
330
2
100
AcDbEntity
  8
0
 62
     3
100
AcDbLine
 10
86.19807312799997
 20
203.4082742929999
 30
0.0
 11
87.1670754438
 21
204.3772770988999
 31
0.0
  0
LINE
  5
27A
330
2
100
AcDbEntity
  8
0
 62
     3
100
AcDbLine
 10
87.65157895039994
 20
204.8617633987999
 30
0.0
 11
86.307786152
 21
204.7071247055999
 31
0.0
  0
ARC
  5
27B
330
2
100
AcDbEntity
  8
0
 62
     3
100
AcDbCircle
 10
86.36493208689998
 20
204.2103614916999
 30
0.0
 40
0.5
100
AcDbArc
 50
96.56439486289999
 51
173.4354418958
  0
LINE
  5
27C
330
2
100
AcDbEntity
  8
0
 62
     3
100
AcDbLine
 10
85.86818027089995
 20
204.2675416149
 30
0.0
 11
85.71354165829996
 21
202.9237488164
 31
0.0
  0
LINE
  5
27D
330
2
100
AcDbEntity
  8
0
 62
     3
100
AcDbLine
 10
88.55156233599997
 20
204.2279243579
 30
0.0
 11
88.55156233599997
 21
204.8617439379999
 31
0.0
  0
LINE
  5
27E
330
2
100
AcDbEntity
  8
0
 62
     3
100
AcDbLine
 10
91.79529784959999
 20
204.7071079531
 30
0.0
 11
90.4515050512
 21
204.8617466462999
 31
0.0
  0
LINE
  5
27F
330
2
100
AcDbEntity
  8
0
 62
     3
100
AcDbLine
 10
89.55153181839998
 20
204.2278938403
 30
0.0
 11
89.55153181839998
 21
204.8617134204
 31
0.0
  0
ARC
  5
280
330
2
100
AcDbEntity
  8
0
 62
     3
100
AcDbCircle
 10
91.73817732619999
 20
204.2103614916999
 30
0.0
 40
0.5
100
AcDbArc
 50
6.564457245299998
 51
83.43545988189999
  0
LINE
  5
281
330
2
100
AcDbEntity
  8
0
 62
     3
100
AcDbLine
 10
90.93603462889999
 20
204.3772791682
 30
0.0
 11
91.90502615509997
 21
203.4082871518999
 31
0.0
  0
LINE
  5
282
330
2
100
AcDbEntity
  8
0
 62
     3
100
AcDbLine
 10
98.96573443969998
 20
200.1094874542
 30
0.0
 11
96.13731815290002
 21
202.9379037408999
 31
0.0
  0
LINE
  5
283
330
2
100
AcDbEntity
  8
0
 62
     3
100
AcDbLine
 10
94.2135648994
 20
202.9237556566999
 30
0.0
 11
94.2135648994
 21
200.1237526049
 31
0.0
  0
LINE
  5
284
330
2
100
AcDbEntity
  8
0
 62
     3
100
AcDbLine
 10
92.3895445137
 20
202.9237556566999
 30
0.0
 11
92.3895445137
 21
200.1237526049
 31
0.0
  0
LINE
  5
285
330
2
100
AcDbEntity
  8
0
 62
     3
100
AcDbLine
 10
94.2015409737
 20
206.3237495531999
 30
0.0
 11
94.2015409737
 21
193.5237465013998
 31
0.0
  0
LINE
  5
286
330
2
100
AcDbEntity
  8
0
 62
     3
100
AcDbLine
 10
92.40155318069998
 20
206.3237495531999
 30
0.0
 11
92.40155318069998
 21
193.5237465013998
 31
0.0
  0
LINE
  5
287
330
2
100
AcDbEntity
  8
0
 62
     3
100
AcDbLine
 10
96.15156496240002
 20
198.1857296805
 30
0.0
 11
94.8077873227
 21
198.3403666294
 31
0.0
  0
LINE
  5
288
330
2
100
AcDbEntity
  8
0
 62
     3
100
AcDbLine
 10
94.2015409737
 20
195.0237465013998
 30
0.0
 11
92.40155318069998
 21
195.0237465013998
 31
0.0
  0
LINE
  5
289
330
2
100
AcDbEntity
  8
0
 62
     3
100
AcDbLine
 10
94.2015409737
 20
197.0237465013997
 30
0.0
 11
92.40155318069998
 21
197.0237465013997
 31
0.0
  0
ARC
  5
28A
330
2
100
AcDbEntity
  8
0
 62
     3
100
AcDbCircle
 10
94.86493208689998
 20
198.8371315111999
 30
0.0
 40
0.5
100
AcDbArc
 50
186.5645581041999
 51
263.4356051370999
  0
LINE
  5
28B
330
2
100
AcDbEntity
  8
0
 62
     3
100
AcDbLine
 10
94.8473997383
 20
202.0237312426
 30
0.0
 11
94.21358015819999
 21
202.0237312426
 31
0.0
  0
LINE
  5
28C
330
2
100
AcDbEntity
  8
0
 62
     3
100
AcDbLine
 10
94.8473997383
 20
201.0237617602
 30
0.0
 11
94.21358015819999
 21
201.0237617602
 31
0.0
  0
LINE
  5
28D
330
2
100
AcDbEntity
  8
0
 62
     3
100
AcDbLine
 10
94.36819175409999
 20
198.7799354136999
 30
0.0
 11
94.21355314149996
 21
200.1237282122
 31
0.0
  0
LINE
  5
28E
330
2
100
AcDbEntity
  8
0
 62
     3
100
AcDbLine
 10
94.69806241309999
 20
199.6391794902
 30
0.0
 11
95.66705393929998
 21
198.6701874738999
 31
0.0
  0
LINE
  5
28F
330
2
100
AcDbEntity
  8
0
 62
     3
100
AcDbLine
 10
98.2586276706
 20
202.2308077613998
 30
0.0
 11
96.84441413240001
 21
200.8165942233
 31
0.0
  0
LINE
  5
290
330
2
100
AcDbEntity
  8
0
 62
     3
100
AcDbLine
 10
98.95155623249999
 20
198.1857643236999
 30
0.0
 11
96.15155318069998
 21
198.1857643236999
 31
0.0
  0
LINE
  5
291
330
2
100
AcDbEntity
  8
0
 62
     3
100
AcDbLine
 10
97.05154707719998
 20
198.819568645
 30
0.0
 11
97.05154707719998
 21
198.1857490648999
 31
0.0
  0
LINE
  5
292
330
2
100
AcDbEntity
  8
0
 62
     3
100
AcDbLine
 10
98.05154707719999
 20
198.819568645
 30
0.0
 11
98.05154707719999
 21
198.1857490648999
 31
0.0
  0
LINE
  5
293
330
2
100
AcDbEntity
  8
0
 62
     3
100
AcDbLine
 10
96.15158081990001
 20
204.861773716
 30
0.0
 11
94.80778802149997
 21
204.7071350228
 31
0.0
  0
LINE
  5
294
330
2
100
AcDbEntity
  8
0
 62
     3
100
AcDbLine
 10
94.2015409737
 20
203.0237465013998
 30
0.0
 11
92.40155318069998
 21
203.0237465013998
 31
0.0
  0
LINE
  5
295
330
2
100
AcDbEntity
  8
0
 62
     3
100
AcDbLine
 10
94.2015409737
 20
204.5237465013999
 30
0.0
 11
92.40155318069998
 21
204.5237465013999
 31
0.0
  0
LINE
  5
296
330
2
100
AcDbEntity
  8
0
 62
     3
100
AcDbLine
 10
94.2015409737
 20
206.3237495531999
 30
0.0
 11
92.40155318069998
 21
206.3237495531999
 31
0.0
  0
ARC
  5
297
330
2
100
AcDbEntity
  8
0
 62
     3
100
AcDbCircle
 10
94.86493208689998
 20
204.2103614916999
 30
0.0
 40
0.5
100
AcDbArc
 50
96.56439486289999
 51
173.4354418958
  0
LINE
  5
298
330
2
100
AcDbEntity
  8
0
 62
     3
100
AcDbLine
 10
94.36816866809994
 20
204.2675487042
 30
0.0
 11
94.21353005549997
 21
202.9237559056999
 31
0.0
  0
LINE
  5
299
330
2
100
AcDbEntity
  8
0
 62
     3
100
AcDbLine
 10
94.69808215149999
 20
203.4082872320999
 30
0.0
 11
95.66707367769998
 21
204.3772792484
 31
0.0
  0
LINE
  5
29A
330
2
100
AcDbEntity
  8
0
 62
     3
100
AcDbLine
 10
98.95155623249999
 20
204.8617286792
 30
0.0
 11
96.15155318069998
 21
204.8617286792
 31
0.0
  0
LINE
  5
29B
330
2
100
AcDbEntity
  8
0
 62
     3
100
AcDbLine
 10
98.05156233600001
 20
204.8617439379999
 30
0.0
 11
97.05156233600002
 21
204.8617439379999
 31
0.0
  0
LINE
  5
29C
330
2
100
AcDbEntity
  8
0
 62
     3
100
AcDbLine
 10
97.05156233600002
 20
204.2279243579
 30
0.0
 11
97.05156233600002
 21
204.8617439379999
 31
0.0
  0
LINE
  5
29D
330
2
100
AcDbEntity
  8
0
 62
     3
100
AcDbLine
 10
98.05154707719999
 20
204.2278938403
 30
0.0
 11
98.05154707719999
 21
204.8617134204
 31
0.0
  0
CIRCLE
  5
29E
330
2
100
AcDbEntity
  8
0
 62
     3
100
AcDbCircle
 10
106.0515470771999
 20
201.5237465013998
 30
0.0
 40
2.75
  0
LINE
  5
29F
330
2
100
AcDbEntity
  8
0
 62
     3
100
AcDbLine
 10
102.7015409736999
 20
205.7737465013999
 30
0.0
 11
109.4015531806999
 21
205.7737465013999
 31
0.0
  0
LINE
  5
2A0
330
2
100
AcDbEntity
  8
0
 62
     3
100
AcDbLine
 10
107.4657542527999
 20
200.1095090333999
 30
0.0
 11
104.6373379659997
 21
202.9379253200999
 31
0.0
  0
LINE
  5
2A1
330
2
100
AcDbEntity
  8
0
 62
     3
100
AcDbLine
 10
107.4515562325
 20
198.1857643236999
 30
0.0
 11
104.6515531806999
 21
198.1857643236999
 31
0.0
  0
LINE
  5
2A2
330
2
100
AcDbEntity
  8
0
 62
     3
100
AcDbLine
 10
107.4515562325
 20
204.8617439379999
 30
0.0
 11
104.6515531806999
 21
204.8617439379999
 31
0.0
  0
LINE
  5
2A3
330
2
100
AcDbEntity
  8
0
 62
     3
100
AcDbLine
 10
108.9015531806999
 20
196.0237465013998
 30
0.0
 11
102.7015409736999
 21
196.0237465013998
 31
0.0
  0
LINE
  5
2A4
330
2
100
AcDbEntity
  8
0
 62
     3
100
AcDbLine
 10
109.4015531806999
 20
198.0237465013998
 30
0.0
 11
102.7015409736999
 21
198.0237465013998
 31
0.0
  0
LINE
  5
2A5
330
2
100
AcDbEntity
  8
0
 62
     3
100
AcDbLine
 10
100.8895445136999
 20
202.9237556566999
 30
0.0
 11
100.8895445136999
 21
200.1237526049
 31
0.0
  0
LINE
  5
2A6
330
2
100
AcDbEntity
  8
0
 62
     3
100
AcDbLine
 10
102.7135648993998
 20
202.9237556566999
 30
0.0
 11
102.7135648993998
 21
200.1237526049
 31
0.0
  0
LINE
  5
2A7
330
2
100
AcDbEntity
  8
0
 62
     3
100
AcDbLine
 10
100.9015531806999
 20
206.3237495531999
 30
0.0
 11
100.9015531806999
 21
193.5237465013998
 31
0.0
  0
LINE
  5
2A8
330
2
100
AcDbEntity
  8
0
 62
     3
100
AcDbLine
 10
102.7015409736999
 20
206.3237495531999
 30
0.0
 11
102.7015409736999
 21
193.5237465013998
 31
0.0
  0
LINE
  5
2A9
330
2
100
AcDbEntity
  8
0
 62
     3
100
AcDbLine
 10
103.1980498575
 20
199.6392312887
 30
0.0
 11
104.1670413836999
 21
198.6702392724
 31
0.0
  0
LINE
  5
2AA
330
2
100
AcDbEntity
  8
0
 62
     3
100
AcDbLine
 10
104.6515720650999
 20
198.1857648395999
 30
0.0
 11
103.3077792666999
 21
198.3404035328
 31
0.0
  0
LINE
  5
2AB
330
2
100
AcDbEntity
  8
0
 62
     3
100
AcDbLine
 10
103.3473997383
 20
202.0237617602
 30
0.0
 11
102.7135801581999
 21
202.0237617602
 31
0.0
  0
LINE
  5
2AC
330
2
100
AcDbEntity
  8
0
 62
     3
100
AcDbLine
 10
103.3473997383
 20
201.0237617602
 30
0.0
 11
102.7135801581999
 21
201.0237617602
 31
0.0
  0
LINE
  5
2AD
330
2
100
AcDbEntity
  8
0
 62
     3
100
AcDbLine
 10
100.4015531806998
 20
198.0237465013998
 30
0.0
 11
100.4015531806998
 21
193.5237465013998
 31
0.0
  0
LINE
  5
2AE
330
2
100
AcDbEntity
  8
0
 62
     3
100
AcDbLine
 10
102.7015409736999
 20
195.0237465013998
 30
0.0
 11
100.9015531806999
 21
195.0237465013998
 31
0.0
  0
LINE
  5
2AF
330
2
100
AcDbEntity
  8
0
 62
     3
100
AcDbLine
 10
102.7015409736999
 20
197.0237465013997
 30
0.0
 11
100.9015531806999
 21
197.0237465013997
 31
0.0
  0
ARC
  5
2B0
330
2
100
AcDbEntity
  8
0
 62
     3
100
AcDbCircle
 10
100.2381773261999
 20
198.8371315111999
 30
0.0
 40
0.5
100
AcDbArc
 50
276.5645401181
 51
353.4355427547
  0
LINE
  5
2B1
330
2
100
AcDbEntity
  8
0
 62
     3
100
AcDbLine
 10
100.2557249335999
 20
202.0237312426
 30
0.0
 11
100.8895445136999
 21
202.0237312426
 31
0.0
  0
LINE
  5
2B2
330
2
100
AcDbEntity
  8
0
 62
     3
100
AcDbLine
 10
100.2557401923998
 20
201.0237312426
 30
0.0
 11
100.8895597724999
 21
201.0237312426
 31
0.0
  0
LINE
  5
2B3
330
2
100
AcDbEntity
  8
0
 62
     3
100
AcDbLine
 10
100.8895397722998
 20
200.1237065061999
 30
0.0
 11
100.7349011596998
 21
198.7799137077
 31
0.0
  0
ARC
  5
2B4
330
2
100
AcDbEntity
  8
0
 62
     3
100
AcDbCircle
 10
103.3649320868998
 20
198.8371315111999
 30
0.0
 40
0.5
100
AcDbArc
 50
186.5645581041999
 51
263.4356051370999
  0
LINE
  5
2B5
330
2
100
AcDbEntity
  8
0
 62
     3
100
AcDbLine
 10
102.8682087243999
 20
198.779946972
 30
0.0
 11
102.7135701117999
 21
200.1237397704997
 31
0.0
  0
LINE
  5
2B6
330
2
100
AcDbEntity
  8
0
 62
     3
100
AcDbLine
 10
106.5515318183998
 20
198.8195991626
 30
0.0
 11
106.5515318183998
 21
198.1857795825
 31
0.0
  0
LINE
  5
2B7
330
2
100
AcDbEntity
  8
0
 62
     3
100
AcDbLine
 10
105.5515318183998
 20
198.8195991626
 30
0.0
 11
105.5515318183998
 21
198.1857795825
 31
0.0
  0
LINE
  5
2B8
330
2
100
AcDbEntity
  8
0
 62
     3
100
AcDbLine
 10
106.7586474836999
 20
202.2308293405999
 30
0.0
 11
105.3444339454999
 21
200.8166158024998
 31
0.0
  0
LINE
  5
2B9
330
2
100
AcDbEntity
  8
0
 62
     3
100
AcDbLine
 10
104.1670395428999
 20
204.3772058707
 30
0.0
 11
103.1980480167
 21
203.4082138545
 31
0.0
  0
LINE
  5
2BA
330
2
100
AcDbEntity
  8
0
 62
     3
100
AcDbLine
 10
103.3077799655
 20
204.7070981193
 30
0.0
 11
104.6515576051999
 21
204.8617350680999
 31
0.0
  0
LINE
  5
2BB
330
2
100
AcDbEntity
  8
0
 62
     3
100
AcDbLine
 10
102.7015409736999
 20
203.0237465013998
 30
0.0
 11
100.9015531806999
 21
203.0237465013998
 31
0.0
  0
LINE
  5
2BC
330
2
100
AcDbEntity
  8
0
 62
     3
100
AcDbLine
 10
102.7015409736999
 20
204.5237465013999
 30
0.0
 11
100.9015531806999
 21
204.5237465013999
 31
0.0
  0
LINE
  5
2BD
330
2
100
AcDbEntity
  8
0
 62
     3
100
AcDbLine
 10
102.7015409736999
 20
206.3237495531999
 30
0.0
 11
100.9015531806999
 21
206.3237495531999
 31
0.0
  0
ARC
  5
2BE
330
2
100
AcDbEntity
  8
0
 62
     3
100
AcDbCircle
 10
100.2381773261999
 20
204.2103614916999
 30
0.0
 40
0.5
100
AcDbArc
 50
6.564457245299998
 51
83.43545988189999
  0
LINE
  5
2BF
330
2
100
AcDbEntity
  8
0
 62
     3
100
AcDbLine
 10
100.8895476994999
 20
202.9237758673
 30
0.0
 11
100.7349090868999
 21
204.2675686658
 31
0.0
  0
ARC
  5
2C0
330
2
100
AcDbEntity
  8
0
 62
     3
100
AcDbCircle
 10
103.3649320868998
 20
204.2103767504999
 30
0.0
 40
0.5
100
AcDbArc
 50
96.56439486289999
 51
173.4354965372999
  0
LINE
  5
2C1
330
2
100
AcDbEntity
  8
0
 62
     3
100
AcDbLine
 10
102.7135907576999
 20
202.9237239554998
 30
0.0
 11
102.8682276258999
 21
204.2675015952
 31
0.0
  0
LINE
  5
2C2
330
2
100
AcDbEntity
  8
0
 62
     3
100
AcDbLine
 10
106.5515318183998
 20
204.2279243579
 30
0.0
 11
106.5515318183998
 21
204.8617439379999
 31
0.0
  0
LINE
  5
2C3
330
2
100
AcDbEntity
  8
0
 62
     3
100
AcDbLine
 10
105.5515623359999
 20
204.2279243579
 30
0.0
 11
105.5515623359999
 21
204.8617439379999
 31
0.0
  0
LINE
  5
2C4
330
2
100
AcDbEntity
  8
0
 62
     3
100
AcDbLine
 10
109.3895445136999
 20
202.9237556566999
 30
0.0
 11
109.3895445136999
 21
200.1237526049
 31
0.0
  0
LINE
  5
2C5
330
2
100
AcDbEntity
  8
0
 62
     3
100
AcDbLine
 10
109.4015531806999
 20
206.3237495531999
 30
0.0
 11
109.4015531806999
 21
193.5237465013998
 31
0.0
  0
LINE
  5
2C6
330
2
100
AcDbEntity
  8
0
 62
     3
100
AcDbLine
 10
111.2015409736999
 20
206.3237495531999
 30
0.0
 11
111.2015409736999
 21
193.5237465013998
 31
0.0
  0
LINE
  5
2C7
330
2
100
AcDbEntity
  8
0
 62
     3
100
AcDbLine
 10
114.2015409736997
 20
193.5237465013998
 30
0.0
 11
114.2015409736997
 21
208.3442878832999
 31
0.0
  0
LINE
  5
2C8
330
2
100
AcDbEntity
  8
0
 62
     3
100
AcDbLine
 10
111.2015409736999
 20
197.0237465013997
 30
0.0
 11
109.4015531806999
 21
197.0237465013997
 31
0.0
  0
LINE
  5
2C9
330
2
100
AcDbEntity
  8
0
 62
     3
100
AcDbLine
 10
108.9015531806999
 20
198.0237465013998
 30
0.0
 11
108.9015531806999
 21
193.5237465013998
 31
0.0
  0
ARC
  5
2CA
330
2
100
AcDbEntity
  8
0
 62
     3
100
AcDbCircle
 10
108.7381773261999
 20
198.8371315111999
 30
0.0
 40
0.5
100
AcDbArc
 50
276.5645401181
 51
353.4355427547
  0
LINE
  5
2CB
330
2
100
AcDbEntity
  8
0
 62
     3
100
AcDbLine
 10
108.7557249335999
 20
202.0237617602
 30
0.0
 11
109.3895445136999
 21
202.0237617602
 31
0.0
  0
LINE
  5
2CC
330
2
100
AcDbEntity
  8
0
 62
     3
100
AcDbLine
 10
108.7557401923999
 20
201.0237617602
 30
0.0
 11
109.3895597724999
 21
201.0237617602
 31
0.0
  0
LINE
  5
2CD
330
2
100
AcDbEntity
  8
0
 62
     3
100
AcDbLine
 10
107.9360400455998
 20
198.6702242219
 30
0.0
 11
108.9050315716999
 21
199.6392162380998
 31
0.0
  0
LINE
  5
2CE
330
2
100
AcDbEntity
  8
0
 62
     3
100
AcDbLine
 10
108.7953495080998
 20
198.3404044078999
 30
0.0
 11
107.4515567096999
 21
198.1857657146998
 31
0.0
  0
LINE
  5
2CF
330
2
100
AcDbEntity
  8
0
 62
     3
100
AcDbLine
 10
109.3895450726998
 20
200.1237270098
 30
0.0
 11
109.2349064600999
 21
198.7799342113999
 31
0.0
  0
LINE
  5
2D0
330
2
100
AcDbEntity
  8
0
 62
     3
100
AcDbLine
 10
111.2015409736999
 20
203.0237465013998
 30
0.0
 11
109.4015531806999
 21
203.0237465013998
 31
0.0
  0
LINE
  5
2D1
330
2
100
AcDbEntity
  8
0
 62
     3
100
AcDbLine
 10
111.2015409736999
 20
204.5237465013999
 30
0.0
 11
109.4015531806999
 21
204.5237465013999
 31
0.0
  0
LINE
  5
2D2
330
2
100
AcDbEntity
  8
0
 62
     3
100
AcDbLine
 10
112.7015409736999
 20
206.3237495531999
 30
0.0
 11
109.4015531806999
 21
206.3237495531999
 31
0.0
  0
ARC
  5
2D3
330
2
100
AcDbEntity
  8
0
 62
     3
100
AcDbCircle
 10
108.7381773261999
 20
204.2103767504999
 30
0.0
 40
0.5
100
AcDbArc
 50
6.564464075399997
 51
83.43551452339999
  0
LINE
  5
2D4
330
2
100
AcDbEntity
  8
0
 62
     3
100
AcDbLine
 10
108.9050334124999
 20
203.4082289049999
 30
0.0
 11
107.9360418862999
 21
204.3772209212
 31
0.0
  0
LINE
  5
2D5
330
2
100
AcDbEntity
  8
0
 62
     3
100
AcDbLine
 10
107.4515711695999
 20
204.8617341931
 30
0.0
 11
108.7953488092999
 21
204.7070972441999
 31
0.0
  0
LINE
  5
2D6
330
2
100
AcDbEntity
  8
0
 62
     3
100
AcDbLine
 10
109.2349027173999
 20
204.2675161002
 30
0.0
 11
109.3895395856
 21
202.9237384605
 31
0.0
  0
ARC
  5
2D7
330
2
100
AcDbEntity
  8
0
 62
     3
100
AcDbCircle
 10
118.7015409736999
 20
210.5237465013998
 30
0.0
 40
5.0
100
AcDbArc
 50
154.1580252653
 51
205.8419027903
  0
LINE
  5
2D8
330
2
100
AcDbEntity
  8
0
 62
     3
100
AcDbLine
 10
122.7015407171998
 20
128.3321225114
 30
0.0
 11
123.7015431273997
 21
127.3321012192
 31
0.0
  0
LINE
  5
2D9
330
2
100
AcDbEntity
  8
0
 62
     3
100
AcDbLine
 10
122.7015273805998
 20
126.8321677582999
 30
0.0
 11
123.3015187254999
 21
127.7321547434
 31
0.0
  0
ARC
  5
2DA
330
2
100
AcDbEntity
  8
0
 62
     3
100
AcDbCircle
 10
119.7015409736999
 20
210.5237465013998
 30
0.0
 40
2.25
100
AcDbArc
 50
270.0000726275999
 51
89.99998201389994
  0
ARC
  5
2DB
330
2
100
AcDbEntity
  8
0
 62
     3
100
AcDbCircle
 10
118.7015409736999
 20
210.5237465013998
 30
0.0
 40
2.25
100
AcDbArc
 50
89.99998201389999
 51
269.9999460416999
  0
LINE
  5
2DC
330
2
100
AcDbEntity
  8
0
 62
     3
100
AcDbLine
 10
119.7015409736999
 20
208.2737465013998
 30
0.0
 11
118.7015409736999
 21
208.2737465013998
 31
0.0
  0
LINE
  5
2DD
330
2
100
AcDbEntity
  8
0
 62
     3
100
AcDbLine
 10
119.7015409736999
 20
212.7737465013999
 30
0.0
 11
118.7015409736999
 21
212.7737465013999
 31
0.0
  0
LINE
  5
2DE
330
2
100
AcDbEntity
  8
0
 62
     3
100
AcDbLine
 10
123.7015169607998
 20
194.5236414130998
 30
0.0
 11
122.7015127802999
 21
193.5236434704
 31
0.0
  0
LINE
  5
2DF
330
2
100
AcDbEntity
  8
0
 62
     3
100
AcDbLine
 10
122.7015081476999
 20
195.0236671681999
 30
0.0
 11
123.3014994925997
 21
194.1236801830999
 31
0.0
  0
LINE
  5
2E0
330
2
100
AcDbEntity
  8
0
 62
     3
100
AcDbLine
 10
187.5465447337998
 20
127.5822334399
 30
0.0
 11
187.5465447337998
 21
119.5823097339
 31
0.0
  0
LINE
  5
2E1
330
2
100
AcDbEntity
  8
0
 62
     3
100
AcDbLine
 10
186.4968010813999
 20
122.5322456468999
 30
0.0
 11
186.4968010813999
 21
120.8322486986999
 31
0.0
  0
LINE
  5
2E2
330
2
100
AcDbEntity
  8
0
  6
CENTER
 62
     3
100
AcDbLine
 10
183.7968041332
 20
127.0322914232999
 30
0.0
 11
183.7968041332
 21
120.0322914233
 31
0.0
  0
LINE
  5
2E3
330
2
100
AcDbEntity
  8
0
 62
     3
100
AcDbLine
 10
182.2379329177
 20
120.8322484119999
 30
0.0
 11
180.2966092795999
 21
123.5324951757
 31
0.0
  0
CIRCLE
  5
2E4
330
2
100
AcDbEntity
  8
0
 62
     3
100
AcDbCircle
 10
183.7968041332
 20
123.5322914233
 30
0.0
 40
1.899999618499998
  0
LINE
  5
2E5
330
2
100
AcDbEntity
  8
0
 62
     3
100
AcDbLine
 10
188.2968041332
 20
142.3322334398999
 30
0.0
 11
188.2968041332
 21
120.3322334398999
 31
0.0
  0
LINE
  5
2E6
330
2
100
AcDbEntity
  8
0
  6
CENTER
 62
     3
100
AcDbLine
 10
171.2968041332
 20
117.1985817064999
 30
0.0
 11
171.2968041332
 21
145.1821632494999
 31
0.0
  0
LINE
  5
2E7
330
2
100
AcDbEntity
  8
0
  6
CENTER
 62
     3
100
AcDbLine
 10
158.7968041331999
 20
127.0322456468999
 30
0.0
 11
158.7968041331999
 21
120.0322456469
 31
0.0
  0
LINE
  5
2E8
330
2
100
AcDbEntity
  8
0
 62
     3
100
AcDbLine
 10
160.3556639490999
 20
120.8322399635
 30
0.0
 11
162.2969964943998
 21
123.5324991164
 31
0.0
  0
LINE
  5
2E9
330
2
100
AcDbEntity
  8
0
 62
     3
100
AcDbLine
 10
156.0968071848999
 20
120.8322486986999
 30
0.0
 11
156.0968071848999
 21
122.5322456468999
 31
0.0
  0
LINE
  5
2EA
330
2
100
AcDbEntity
  8
0
 62
     3
100
AcDbLine
 10
155.0470635326
 20
119.5823097339
 30
0.0
 11
155.0470635326
 21
127.5822334399
 31
0.0
  0
CIRCLE
  5
2EB
330
2
100
AcDbEntity
  8
0
 62
     3
100
AcDbCircle
 10
158.7968041331999
 20
123.5322456468999
 30
0.0
 40
1.899999618499998
  0
LINE
  5
2EC
330
2
100
AcDbEntity
  8
0
 62
     3
100
AcDbLine
 10
154.2968041331999
 20
120.3322334398999
 30
0.0
 11
154.2968041331999
 21
142.3322334398999
 31
0.0
  0
LINE
  5
2ED
330
2
100
AcDbEntity
  8
0
 62
     3
100
AcDbLine
 10
155.0470635326
 20
119.5823097339
 30
0.0
 11
187.5465447337998
 21
119.5823097339
 31
0.0
  0
LINE
  5
2EE
330
2
100
AcDbEntity
  8
0
 62
     3
100
AcDbLine
 10
155.7971398264998
 20
118.8322334398999
 30
0.0
 11
186.7963311106999
 21
118.8322334398999
 31
0.0
  0
TEXT
  5
2EF
330
2
100
AcDbEntity
  8
0
 62
     5
100
AcDbText
 10
145.0
 20
10.0
 30
0.0
 40
5.0
  1
ＭＡ４-Ｂ００３３２Ｃ
 41
0.8418911459846409
 72
     5
 11
199.0413935612998
 21
10.0
 31
0.0
100
AcDbText
  0
LINE
  5
2F0
330
2
100
AcDbEntity
  8
0
 62
     3
100
AcDbLine
 10
156.0968071848999
 20
120.8322486986999
 30
0.0
 11
160.3556725414
 21
120.8322486986999
 31
0.0
  0
LINE
  5
2F1
330
2
100
AcDbEntity
  8
0
 62
     3
100
AcDbLine
 10
154.2968641687999
 20
120.3322839701999
 30
0.0
 11
155.7971882021
 21
118.8322811309
 31
0.0
  0
LINE
  5
2F2
330
2
100
AcDbEntity
  8
0
 62
     3
100
AcDbLine
 10
158.1968132884
 20
121.3322486987
 30
0.0
 11
159.3968102367
 21
121.3322486987
 31
0.0
  0
LINE
  5
2F3
330
2
100
AcDbEntity
  8
0
 62
     3
100
AcDbLine
 10
158.1968132884
 20
120.8322486986999
 30
0.0
 11
158.1968132884
 21
121.3322486987
 31
0.0
  0
LINE
  5
2F4
330
2
100
AcDbEntity
  8
0
 62
     3
100
AcDbLine
 10
159.3968102367
 20
120.8322486986999
 30
0.0
 11
159.3968102367
 21
121.3322486987
 31
0.0
  0
LINE
  5
2F5
330
2
100
AcDbEntity
  8
0
 62
     3
100
AcDbLine
 10
186.7964491532999
 20
118.8323533351999
 30
0.0
 11
188.2967947680998
 21
120.3323777513
 31
0.0
  0
LINE
  5
2F6
330
2
100
AcDbEntity
  8
0
 62
     3
100
AcDbLine
 10
182.2379357249999
 20
120.8322486986999
 30
0.0
 11
186.4968010813999
 21
120.8322486986999
 31
0.0
  0
LINE
  5
2F7
330
2
100
AcDbEntity
  8
0
  6
CENTER
 62
     3
100
AcDbLine
 10
151.7968041331999
 20
123.5322914233
 30
0.0
 11
190.7968041331999
 21
123.5322914233
 31
0.0
  0
LINE
  5
2F8
330
2
100
AcDbEntity
  8
0
 62
     3
100
AcDbLine
 10
155.0470635326
 20
127.5822334399
 30
0.0
 11
187.5465447337998
 21
127.5822334399
 31
0.0
  0
LINE
  5
2F9
330
2
100
AcDbEntity
  8
0
 62
     3
100
AcDbLine
 10
155.7968193919999
 20
143.8322334398999
 30
0.0
 11
186.7968956858999
 21
143.8322334398999
 31
0.0
  0
LINE
  5
2FA
330
2
100
AcDbEntity
  8
0
 62
     3
100
AcDbLine
 10
155.7968193919999
 20
128.3322334398999
 30
0.0
 11
186.7968041332
 21
128.3322334398999
 31
0.0
  0
LINE
  5
2FB
330
2
100
AcDbEntity
  8
0
  6
PHANTOM
 62
     3
100
AcDbLine
 10
155.4863464953999
 20
144.7322334398999
 30
0.0
 11
187.1072617709999
 21
144.7322334398999
 31
0.0
  0
LINE
  5
2FC
330
2
100
AcDbEntity
  8
0
  6
PHANTOM
 62
     3
100
AcDbLine
 10
155.4863464953999
 20
145.6322334399
 30
0.0
 11
187.1072617709999
 21
145.6322334399
 31
0.0
  0
LINE
  5
2FD
330
2
100
AcDbEntity
  8
0
 62
     3
100
AcDbLine
 10
160.3557488352999
 20
126.2322425952
 30
0.0
 11
156.0968071848999
 21
126.2322425952
 31
0.0
  0
ARC
  5
2FE
330
2
100
AcDbEntity
  8
0
  6
PHANTOM
 62
     3
100
AcDbCircle
 10
155.4863464953999
 20
143.4322334399
 30
0.0
 40
2.2
100
AcDbArc
 50
90.0
 51
194.9790771150999
  0
ARC
  5
2FF
330
2
100
AcDbEntity
  8
0
  6
PHANTOM
 62
     3
100
AcDbCircle
 10
155.4863464953999
 20
143.4322334399
 30
0.0
 40
1.3
100
AcDbArc
 50
90.0
 51
194.9790771150999
  0
LINE
  5
300
330
2
100
AcDbEntity
  8
0
 62
     3
100
AcDbLine
 10
154.2969363462999
 20
126.832356578
 30
0.0
 11
155.7969553031998
 21
128.3323623850999
 31
0.0
  0
LINE
  5
301
330
2
100
AcDbEntity
  8
0
 62
     3
100
AcDbLine
 10
156.0974434702998
 20
122.5327413228
 30
0.0
 11
156.5968013472998
 21
122.9322367876999
 31
0.0
  0
LINE
  5
302
330
2
100
AcDbEntity
  8
0
 62
     3
100
AcDbLine
 10
156.5968048920999
 20
124.1327770927999
 30
0.0
 11
156.0971297493999
 21
124.5325110892
 31
0.0
  0
LINE
  5
303
330
2
100
AcDbEntity
  8
0
 62
     3
100
AcDbLine
 10
156.0968071848999
 20
124.5322151293999
 30
0.0
 11
156.0968071848999
 21
126.2322425952
 31
0.0
  0
LINE
  5
304
330
2
100
AcDbEntity
  8
0
 62
     3
100
AcDbLine
 10
155.2975104016999
 20
123.5328071095999
 30
0.0
 11
156.0973975815999
 21
122.5329519508
 31
0.0
  0
LINE
  5
305
330
2
100
AcDbEntity
  8
0
 62
     3
100
AcDbLine
 10
155.2971579947
 20
123.5326386059
 30
0.0
 11
156.0970928351999
 21
124.5325533401999
 31
0.0
  0
LINE
  5
306
330
2
100
AcDbEntity
  8
0
 62
     3
100
AcDbLine
 10
156.5968071848999
 20
124.1327858081
 30
0.0
 11
156.5968071848999
 21
122.9322548022
 31
0.0
  0
LINE
  5
307
330
2
100
AcDbEntity
  8
0
 62
     3
100
AcDbLine
 10
154.2969159219999
 20
142.3323258186
 30
0.0
 11
155.7969426338999
 21
143.8323455761999
 31
0.0
  0
ARC
  5
308
330
2
100
AcDbEntity
  8
0
  6
PHANTOM
 62
     3
100
AcDbCircle
 10
154.4757110135999
 20
140.6322334399
 30
0.0
 40
0.4
100
AcDbArc
 50
270.0
 51
14.97907711510003
  0
LINE
  5
309
330
2
100
AcDbEntity
  8
0
  6
PHANTOM
 62
     3
100
AcDbLine
 10
154.2305201369998
 20
143.0962272529999
 30
0.0
 11
154.8621191238999
 21
140.7356199589
 31
0.0
  0
LINE
  5
30A
330
2
100
AcDbEntity
  8
0
  6
PHANTOM
 62
     3
100
AcDbLine
 10
154.3721935175998
 20
140.2322334399
 30
0.0
 11
154.4757110135999
 21
140.2322334399
 31
0.0
  0
LINE
  5
30B
330
2
100
AcDbEntity
  8
0
  6
PHANTOM
 62
     3
100
AcDbLine
 10
153.3611018888999
 20
142.8636075851999
 30
0.0
 11
153.9857854073
 21
140.5288469209
 31
0.0
  0
ARC
  5
30C
330
2
100
AcDbEntity
  8
0
  6
PHANTOM
 62
     3
100
AcDbCircle
 10
154.3721935175998
 20
140.6322334399
 30
0.0
 40
0.4
100
AcDbArc
 50
194.9790771150999
 51
270.0
  0
LINE
  5
30D
330
2
100
AcDbEntity
  8
0
 62
     3
100
AcDbLine
 10
160.3557442893999
 20
126.2322259128
 30
0.0
 11
162.2970055775
 21
123.5320658738
 31
0.0
  0
LINE
  5
30E
330
2
100
AcDbEntity
  8
0
 62
     3
100
AcDbLine
 10
158.1968132884
 20
125.7322425952
 30
0.0
 11
158.1968132884
 21
126.2322425952
 31
0.0
  0
LINE
  5
30F
330
2
100
AcDbEntity
  8
0
 62
     3
100
AcDbLine
 10
159.3968102367
 20
125.7322425952
 30
0.0
 11
159.3968102367
 21
126.2322425952
 31
0.0
  0
LINE
  5
310
330
2
100
AcDbEntity
  8
0
 62
     3
100
AcDbLine
 10
158.1968132884
 20
125.7322425952
 30
0.0
 11
159.3968102367
 21
125.7322425952
 31
0.0
  0
LINE
  5
311
330
2
100
AcDbEntity
  8
0
 62
     3
100
AcDbLine
 10
160.9968010813998
 20
124.1322517505
 30
0.0
 11
160.9968010813998
 21
122.9329261889
 31
0.0
  0
LINE
  5
312
330
2
100
AcDbEntity
  8
0
 62
     3
100
AcDbLine
 10
161.5485876620999
 20
122.4914854473999
 30
0.0
 11
160.9968156762999
 21
122.9329131611999
 31
0.0
  0
LINE
  5
313
330
2
100
AcDbEntity
  8
0
 62
     3
100
AcDbLine
 10
160.9967911658999
 20
124.1322389733999
 30
0.0
 11
161.5483092726998
 21
124.5734467064
 31
0.0
  0
ARC
  5
314
330
2
100
AcDbEntity
  8
0
 62
     3
100
AcDbCircle
 10
162.2967888744
 20
137.6322212329
 30
0.0
 40
7.0
100
AcDbArc
 50
73.742929676
 51
106.2569797102999
  0
LINE
  5
315
330
2
100
AcDbEntity
  8
0
 62
     3
100
AcDbLine
 10
160.9112066209999
 20
143.8322334398999
 30
0.0
 11
162.2967459126999
 21
144.6321749372999
 31
0.0
  0
ARC
  5
316
330
2
100
AcDbEntity
  8
0
 62
     3
100
AcDbCircle
 10
160.6171166331999
 20
143.3923072925
 30
0.0
 40
1.0
100
AcDbArc
 50
106.2569797102999
 51
153.9008308504
  0
LINE
  5
317
330
2
100
AcDbEntity
  8
0
 62
     3
100
AcDbLine
 10
163.1628422610999
 20
144.1321708561
 30
0.0
 11
162.2968168728999
 21
144.6321708561
 31
0.0
  0
ARC
  5
318
330
2
100
AcDbEntity
  8
0
 62
     3
100
AcDbCircle
 10
163.9764763744
 20
143.3923072925
 30
0.0
 40
1.0
100
AcDbArc
 50
26.0991691496
 51
73.7429843175
  0
LINE
  5
319
330
2
100
AcDbEntity
  8
0
 62
     3
100
AcDbLine
 10
169.5468041332
 20
128.3322334398999
 30
0.0
 11
169.5468041332
 21
143.8322334398999
 31
0.0
  0
ARC
  5
31A
330
2
100
AcDbEntity
  8
0
  6
PHANTOM
 62
     3
100
AcDbCircle
 10
187.1072617709999
 20
143.4322334399
 30
0.0
 40
1.3
100
AcDbArc
 50
345.0209228848998
 51
90.0
  0
ARC
  5
31B
330
2
100
AcDbEntity
  8
0
  6
PHANTOM
 62
     3
100
AcDbCircle
 10
187.1072617709999
 20
143.4322334399
 30
0.0
 40
2.2
100
AcDbArc
 50
345.0209228848998
 51
90.0
  0
LINE
  5
31C
330
2
100
AcDbEntity
  8
0
 62
     3
100
AcDbLine
 10
186.7967135313999
 20
143.8324175433999
 30
0.0
 11
188.2967294536999
 21
142.3324085753999
 31
0.0
  0
LINE
  5
31D
330
2
100
AcDbEntity
  8
0
 62
     3
100
AcDbLine
 10
186.796650705
 20
128.3323672275999
 30
0.0
 11
188.296669662
 21
126.8323614205999
 31
0.0
  0
LINE
  5
31E
330
2
100
AcDbEntity
  8
0
 62
     3
100
AcDbLine
 10
178.9112066209999
 20
143.8322334398999
 30
0.0
 11
180.2967459126998
 21
144.6321749372999
 31
0.0
  0
ARC
  5
31F
330
2
100
AcDbEntity
  8
0
 62
     3
100
AcDbCircle
 10
180.2967888743999
 20
137.6322212329
 30
0.0
 40
7.0
100
AcDbArc
 50
73.742929676
 51
106.2569797102999
  0
LINE
  5
320
330
2
100
AcDbEntity
  8
0
 62
     3
100
AcDbLine
 10
173.0468041331999
 20
143.8322334398999
 30
0.0
 11
173.0468041331999
 21
128.3322334398999
 31
0.0
  0
ARC
  5
321
330
2
100
AcDbEntity
  8
0
 62
     3
100
AcDbCircle
 10
178.6171166332
 20
143.3923072925
 30
0.0
 40
1.0
100
AcDbArc
 50
106.2569797102999
 51
153.9008308504
  0
LINE
  5
322
330
2
100
AcDbEntity
  8
0
 62
     3
100
AcDbLine
 10
186.4968010813999
 20
126.2322425952
 30
0.0
 11
182.2378746897999
 21
126.2322425952
 31
0.0
  0
LINE
  5
323
330
2
100
AcDbEntity
  8
0
 62
     3
100
AcDbLine
 10
182.2378614845
 20
126.2322298534999
 30
0.0
 11
180.2966091035998
 21
123.5320822036999
 31
0.0
  0
LINE
  5
324
330
2
100
AcDbEntity
  8
0
 62
     3
100
AcDbLine
 10
186.4968010813999
 20
126.2322425952
 30
0.0
 11
186.4968010813999
 21
124.5322456468999
 31
0.0
  0
LINE
  5
325
330
2
100
AcDbEntity
  8
0
 62
     3
100
AcDbLine
 10
186.4969992056999
 20
122.532521315
 30
0.0
 11
187.2969435783
 21
123.5324479645
 31
0.0
  0
LINE
  5
326
330
2
100
AcDbEntity
  8
0
 62
     3
100
AcDbLine
 10
186.4971252261999
 20
124.5325478824999
 30
0.0
 11
187.2971363236
 21
123.5325378274
 31
0.0
  0
LINE
  5
327
330
2
100
AcDbEntity
  8
0
 62
     3
100
AcDbLine
 10
181.1628422611
 20
144.1321708561
 30
0.0
 11
180.2968168728998
 21
144.6321708561
 31
0.0
  0
ARC
  5
328
330
2
100
AcDbEntity
  8
0
 62
     3
100
AcDbCircle
 10
181.9764763743999
 20
143.3923072925
 30
0.0
 40
1.0
100
AcDbArc
 50
26.0991691496
 51
73.7429843175
  0
LINE
  5
329
330
2
100
AcDbEntity
  8
0
  6
PHANTOM
 62
     3
100
AcDbLine
 10
188.2214147486999
 20
140.2322334399
 30
0.0
 11
188.1178972527997
 21
140.2322334399
 31
0.0
  0
LINE
  5
32A
330
2
100
AcDbEntity
  8
0
  6
PHANTOM
 62
     3
100
AcDbLine
 10
188.3630881293997
 20
143.0962272529999
 30
0.0
 11
187.7314891424999
 21
140.7356199589
 31
0.0
  0
ARC
  5
32B
330
2
100
AcDbEntity
  8
0
  6
PHANTOM
 62
     3
100
AcDbCircle
 10
188.2214147486999
 20
140.6322334399
 30
0.0
 40
0.4
100
AcDbArc
 50
270.0
 51
345.0209228848998
  0
ARC
  5
32C
330
2
100
AcDbEntity
  8
0
  6
PHANTOM
 62
     3
100
AcDbCircle
 10
188.1178972527997
 20
140.6322334399
 30
0.0
 40
0.4
100
AcDbArc
 50
165.0209228849
 51
270.0
  0
LINE
  5
32D
330
2
100
AcDbEntity
  8
0
  6
PHANTOM
 62
     3
100
AcDbLine
 10
189.2325063774999
 20
142.8636075851999
 30
0.0
 11
188.6078228589999
 21
140.5288469209
 31
0.0
  0
LINE
  5
334
330
2
100
AcDbEntity
  8
0
100
AcDbLine
 10
210.0
 20
297.0
 30
0.0
 11
0.0
 21
297.0
 31
0.0
  0
LINE
  5
338
330
2
100
AcDbEntity
  8
0
 62
     3
100
AcDbLine
 10
83.90155318069998
 20
214.7237434496997
 30
0.0
 11
85.70154097369998
 21
214.7237434496997
 31
0.0
  0
LINE
  5
339
330
2
100
AcDbEntity
  8
0
 62
     3
100
AcDbLine
 10
83.90155318069998
 20
216.5237465013998
 30
0.0
 11
85.70154097369998
 21
216.5237465013998
 31
0.0
  0
LINE
  5
33A
330
2
100
AcDbEntity
  8
0
 62
     3
100
AcDbLine
 10
83.90155318069998
 20
218.0237465013998
 30
0.0
 11
85.70154097369998
 21
218.0237465013998
 31
0.0
  0
LINE
  5
33B
330
2
100
AcDbEntity
  8
0
 62
     3
100
AcDbLine
 10
83.90155318069998
 20
224.0237465013998
 30
0.0
 11
85.70154097369998
 21
224.0237465013998
 31
0.0
  0
LINE
  5
33C
330
2
100
AcDbEntity
  8
0
 62
     3
100
AcDbLine
 10
83.90155318069998
 20
226.0237465013998
 30
0.0
 11
85.70154097369998
 21
226.0237465013998
 31
0.0
  0
LINE
  5
33D
330
2
100
AcDbEntity
  8
0
  6
PHANTOM
 62
     3
100
AcDbLine
 10
58.70154097369999
 20
228.7237465013998
 30
0.0
 11
112.7015409736999
 21
228.7237465013998
 31
0.0
  0
LINE
  5
33E
330
2
100
AcDbEntity
  8
0
 62
     3
100
AcDbLine
 10
48.70155623249999
 20
227.5237465013999
 30
0.0
 11
122.7014147111999
 21
227.5237465013999
 31
0.0
  0
LINE
  5
33F
330
2
100
AcDbEntity
  8
0
 62
     3
100
AcDbLine
 10
48.70154097369999
 20
226.0237465013998
 30
0.0
 11
60.20154097369999
 21
226.0237465013998
 31
0.0
  0
LINE
  5
340
330
2
100
AcDbEntity
  8
0
 62
     3
100
AcDbLine
 10
48.70153373879998
 20
226.0236581263999
 30
0.0
 11
48.10160164229998
 21
226.923556239
 31
0.0
  0
LINE
  5
341
330
2
100
AcDbEntity
  8
0
 62
     3
100
AcDbLine
 10
47.70165476819999
 20
226.523534782
 30
0.0
 11
48.70165894869998
 21
227.5235327247
 31
0.0
  0
CIRCLE
  5
342
330
2
100
AcDbEntity
  8
0
 62
     3
100
AcDbCircle
 10
72.05154707719998
 20
219.5237465013998
 30
0.0
 40
2.75
  0
LINE
  5
343
330
2
100
AcDbEntity
  8
0
 62
     3
100
AcDbLine
 10
69.30773416949998
 20
216.3404501827999
 30
0.0
 11
70.65152696789997
 21
216.1858114895999
 31
0.0
  0
LINE
  5
344
330
2
100
AcDbEntity
  8
0
 62
     3
100
AcDbLine
 10
69.30773431279999
 20
222.7070535098
 30
0.0
 11
70.6515271113
 21
222.8616922029998
 31
0.0
  0
LINE
  5
345
330
2
100
AcDbEntity
  8
0
 62
     3
100
AcDbLine
 10
68.70154097369999
 20
225.0237465013998
 30
0.0
 11
74.90155318069998
 21
225.0237465013998
 31
0.0
  0
LINE
  5
346
330
2
100
AcDbEntity
  8
0
 62
     3
100
AcDbLine
 10
68.70154097369999
 20
223.0237465013998
 30
0.0
 11
75.40155318069998
 21
223.0237465013998
 31
0.0
  0
LINE
  5
347
330
2
100
AcDbEntity
  8
0
 62
     3
100
AcDbLine
 10
68.70154097369999
 20
215.2737465013998
 30
0.0
 11
75.40155318069998
 21
215.2737465013998
 31
0.0
  0
LINE
  5
348
330
2
100
AcDbEntity
  8
0
 62
     3
100
AcDbLine
 10
63.05156233599999
 20
216.1857490649
 30
0.0
 11
64.05154707719998
 21
216.1857490649
 31
0.0
  0
LINE
  5
349
330
2
100
AcDbEntity
  8
0
 62
     3
100
AcDbLine
 10
62.84443198629998
 20
220.2307729220998
 30
0.0
 11
64.25864552449997
 21
218.8165593838998
 31
0.0
  0
CIRCLE
  5
34A
330
2
100
AcDbEntity
  8
0
 62
     3
100
AcDbCircle
 10
63.55154707719996
 20
219.5237465013998
 30
0.0
 40
2.75
  0
LINE
  5
34B
330
2
100
AcDbEntity
  8
0
 62
     3
100
AcDbLine
 10
62.15155318069998
 20
216.1857643237
 30
0.0
 11
64.95155623249999
 21
216.1857643237
 31
0.0
  0
LINE
  5
34C
330
2
100
AcDbEntity
  8
0
 62
     3
100
AcDbLine
 10
62.13733600689995
 20
218.1094634044
 30
0.0
 11
64.96575229359999
 21
220.9378796912
 31
0.0
  0
LINE
  5
34D
330
2
100
AcDbEntity
  8
0
 62
     3
100
AcDbLine
 10
62.15155318069998
 20
222.8617286792
 30
0.0
 11
64.95155623249999
 21
222.8617286792
 31
0.0
  0
LINE
  5
34E
330
2
100
AcDbEntity
  8
0
 62
     3
100
AcDbLine
 10
60.20154097369999
 20
225.0237465013998
 30
0.0
 11
66.40155318069997
 21
225.0237465013998
 31
0.0
  0
LINE
  5
34F
330
2
100
AcDbEntity
  8
0
 62
     3
100
AcDbLine
 10
60.20154097369999
 20
223.0237465013998
 30
0.0
 11
66.90155318069997
 21
223.0237465013998
 31
0.0
  0
LINE
  5
350
330
2
100
AcDbEntity
  8
0
 62
     3
100
AcDbLine
 10
60.20154097369999
 20
215.2737465013998
 30
0.0
 11
66.90155318069997
 21
215.2737465013998
 31
0.0
  0
LINE
  5
351
330
2
100
AcDbEntity
  8
0
 62
     3
100
AcDbLine
 10
60.20154097369999
 20
227.5237465013999
 30
0.0
 11
60.20154097369999
 21
214.7237434496997
 31
0.0
  0
LINE
  5
352
330
2
100
AcDbEntity
  8
0
 62
     3
100
AcDbLine
 10
58.70154097369999
 20
214.7237434496997
 30
0.0
 11
60.20154097369999
 21
214.7237434496997
 31
0.0
  0
LINE
  5
353
330
2
100
AcDbEntity
  8
0
 62
     3
100
AcDbLine
 10
60.21356489939996
 20
220.9237403979
 30
0.0
 11
60.21356489939996
 21
218.1237373462
 31
0.0
  0
LINE
  5
354
330
2
100
AcDbEntity
  8
0
 62
     3
100
AcDbLine
 10
60.80773055559999
 20
216.3404453412999
 30
0.0
 11
62.15152335399998
 21
216.1858066479998
 31
0.0
  0
LINE
  5
355
330
2
100
AcDbEntity
  8
0
 62
     3
100
AcDbLine
 10
61.66704397639995
 20
216.6703230763999
 30
0.0
 11
60.69805245019995
 21
217.6393150927
 31
0.0
  0
LINE
  5
356
330
2
100
AcDbEntity
  8
0
 62
     3
100
AcDbLine
 10
60.2136026867
 20
218.1238038153999
 30
0.0
 11
60.36824129929996
 21
216.7800110169
 31
0.0
  0
ARC
  5
357
330
2
100
AcDbEntity
  8
0
 62
     3
100
AcDbCircle
 10
60.86493208689995
 20
216.8371315111999
 30
0.0
 40
0.5
100
AcDbArc
 50
186.5645034627
 51
263.4355504954999
  0
LINE
  5
358
330
2
100
AcDbEntity
  8
0
 62
     3
100
AcDbLine
 10
60.21356489939996
 20
219.0236854662999
 30
0.0
 11
60.84738447949996
 21
219.0236854662999
 31
0.0
  0
LINE
  5
359
330
2
100
AcDbEntity
  8
0
 62
     3
100
AcDbLine
 10
63.05156233599999
 20
216.1857490649
 30
0.0
 11
63.05156233599999
 21
216.819568645
 31
0.0
  0
LINE
  5
35A
330
2
100
AcDbEntity
  8
0
 62
     3
100
AcDbLine
 10
60.80773069889997
 20
222.7070583512999
 30
0.0
 11
62.15152349729999
 21
222.8616970445
 31
0.0
  0
LINE
  5
35B
330
2
100
AcDbEntity
  8
0
 62
     3
100
AcDbLine
 10
61.6670438214
 20
222.3771494943
 30
0.0
 11
60.69805229529999
 21
221.4081574781
 31
0.0
  0
LINE
  5
35C
330
2
100
AcDbEntity
  8
0
 62
     3
100
AcDbLine
 10
60.21360834199999
 20
220.9236786088
 30
0.0
 11
60.36824695459998
 21
222.2674714073
 31
0.0
  0
ARC
  5
35D
330
2
100
AcDbEntity
  8
0
 62
     3
100
AcDbCircle
 10
60.86493208689995
 20
222.2103614917
 30
0.0
 40
0.5
100
AcDbArc
 50
96.56444950450001
 51
173.4354965372999
  0
LINE
  5
35E
330
2
100
AcDbEntity
  8
0
 62
     3
100
AcDbLine
 10
60.21358015819996
 20
220.0237312426
 30
0.0
 11
60.8473997383
 21
220.0237312426
 31
0.0
  0
LINE
  5
35F
330
2
100
AcDbEntity
  8
0
 62
     3
100
AcDbLine
 10
63.05159285349998
 20
222.8616676439999
 30
0.0
 11
63.05159285349998
 21
222.2278480638999
 31
0.0
  0
LINE
  5
360
330
2
100
AcDbEntity
  8
0
 62
     3
100
AcDbLine
 10
66.40155318069997
 20
227.5237465013999
 30
0.0
 11
66.40155318069997
 21
223.0237465013998
 31
0.0
  0
LINE
  5
361
330
2
100
AcDbEntity
  8
0
 62
     3
100
AcDbLine
 10
68.70154097369999
 20
227.5237465013999
 30
0.0
 11
68.70154097369999
 21
214.7237434496997
 31
0.0
  0
LINE
  5
362
330
2
100
AcDbEntity
  8
0
 62
     3
100
AcDbLine
 10
66.90155318069997
 20
227.5237465013999
 30
0.0
 11
66.90155318069997
 21
214.7237434496997
 31
0.0
  0
ARC
  5
363
330
2
100
AcDbEntity
  8
0
 62
     3
100
AcDbCircle
 10
66.23817732619997
 20
222.2103614917
 30
0.0
 40
0.5
100
AcDbArc
 50
6.564460660399999
 51
83.43551452339999
  0
LINE
  5
364
330
2
100
AcDbEntity
  8
0
 62
     3
100
AcDbLine
 10
66.734869965
 20
222.2674804705999
 30
0.0
 11
66.88950857759997
 21
220.9236876722
 31
0.0
  0
LINE
  5
365
330
2
100
AcDbEntity
  8
0
 62
     3
100
AcDbLine
 10
66.88954451369998
 20
220.0236854662999
 30
0.0
 11
66.25572493359999
 21
220.0236854662999
 31
0.0
  0
ARC
  5
366
330
2
100
AcDbEntity
  8
0
 62
     3
100
AcDbCircle
 10
66.23817732619997
 20
216.8371315111999
 30
0.0
 40
0.5
100
AcDbArc
 50
276.5644854766
 51
353.4355393395998
  0
LINE
  5
367
330
2
100
AcDbEntity
  8
0
 62
     3
100
AcDbLine
 10
66.73486046159999
 20
216.7800036979998
 30
0.0
 11
66.88949907419999
 21
218.1237964965
 31
0.0
  0
LINE
  5
368
330
2
100
AcDbEntity
  8
0
 62
     3
100
AcDbLine
 10
66.88952925489997
 20
219.0236854662999
 30
0.0
 11
66.25570967479996
 21
219.0236854662999
 31
0.0
  0
LINE
  5
369
330
2
100
AcDbEntity
  8
0
 62
     3
100
AcDbLine
 10
64.95155761159998
 20
216.1858238768
 30
0.0
 11
66.29535041
 21
216.3404625701
 31
0.0
  0
LINE
  5
36A
330
2
100
AcDbEntity
  8
0
 62
     3
100
AcDbLine
 10
64.05157759479999
 20
216.1857032884998
 30
0.0
 11
64.05157759479999
 21
216.8195228686
 31
0.0
  0
LINE
  5
36B
330
2
100
AcDbEntity
  8
0
 62
     3
100
AcDbLine
 10
66.40505742940002
 20
217.6393109161
 30
0.0
 11
65.4360659033
 21
216.6703188997999
 31
0.0
  0
LINE
  5
36C
330
2
100
AcDbEntity
  8
0
 62
     3
100
AcDbLine
 10
64.95155746819998
 20
222.8616798157
 30
0.0
 11
66.29535026669998
 21
222.7070411224999
 31
0.0
  0
LINE
  5
36D
330
2
100
AcDbEntity
  8
0
 62
     3
100
AcDbLine
 10
64.05157759479999
 20
222.8616676439999
 30
0.0
 11
64.05157759479999
 21
222.2278480638999
 31
0.0
  0
LINE
  5
36E
330
2
100
AcDbEntity
  8
0
 62
     3
100
AcDbLine
 10
66.40505758439997
 20
221.4081616546998
 30
0.0
 11
65.43606605819999
 21
222.3771536709
 31
0.0
  0
LINE
  5
36F
330
2
100
AcDbEntity
  8
0
 62
     3
100
AcDbLine
 10
68.71356489939998
 20
220.9237403979
 30
0.0
 11
68.71356489939998
 21
218.1237373462
 31
0.0
  0
LINE
  5
370
330
2
100
AcDbEntity
  8
0
 62
     3
100
AcDbLine
 10
66.88954451369998
 20
220.9237403979
 30
0.0
 11
66.88954451369998
 21
218.1237373462
 31
0.0
  0
LINE
  5
371
330
2
100
AcDbEntity
  8
0
 62
     3
100
AcDbLine
 10
66.90155318069997
 20
218.0237465013998
 30
0.0
 11
68.70154097369999
 21
218.0237465013998
 31
0.0
  0
LINE
  5
372
330
2
100
AcDbEntity
  8
0
 62
     3
100
AcDbLine
 10
66.90155318069997
 20
216.5237465013998
 30
0.0
 11
68.70154097369999
 21
216.5237465013998
 31
0.0
  0
LINE
  5
373
330
2
100
AcDbEntity
  8
0
 62
     3
100
AcDbLine
 10
66.90155318069997
 20
214.7237434496997
 30
0.0
 11
68.70154097369999
 21
214.7237434496997
 31
0.0
  0
ARC
  5
374
330
2
100
AcDbEntity
  8
0
 62
     3
100
AcDbCircle
 10
69.36493208690001
 20
216.8371315111999
 30
0.0
 40
0.5
100
AcDbArc
 50
186.5645034627
 51
263.4355504954999
  0
LINE
  5
375
330
2
100
AcDbEntity
  8
0
 62
     3
100
AcDbLine
 10
68.71360449829999
 20
218.1238136292
 30
0.0
 11
68.86824311089998
 21
216.7800208307999
 31
0.0
  0
LINE
  5
376
330
2
100
AcDbEntity
  8
0
 62
     3
100
AcDbLine
 10
68.71356489939998
 20
219.0236854662999
 30
0.0
 11
69.3473844795
 21
219.0236854662999
 31
0.0
  0
LINE
  5
377
330
2
100
AcDbEntity
  8
0
 62
     3
100
AcDbLine
 10
70.16705299989999
 20
216.6703101372998
 30
0.0
 11
69.19805068409999
 21
217.6393129431999
 31
0.0
  0
LINE
  5
378
330
2
100
AcDbEntity
  8
0
 62
     3
100
AcDbLine
 10
66.90155318069997
 20
224.0237465013998
 30
0.0
 11
68.70154097369999
 21
224.0237465013998
 31
0.0
  0
ARC
  5
379
330
2
100
AcDbEntity
  8
0
 62
     3
100
AcDbCircle
 10
69.36493208690001
 20
222.2103614917
 30
0.0
 40
0.5
100
AcDbArc
 50
96.56444950450001
 51
173.4354965372999
  0
LINE
  5
37A
330
2
100
AcDbEntity
  8
0
 62
     3
100
AcDbLine
 10
68.71358015819999
 20
220.0237312426
 30
0.0
 11
69.3473997383
 21
220.0237312426
 31
0.0
  0
LINE
  5
37B
330
2
100
AcDbEntity
  8
0
 62
     3
100
AcDbLine
 10
68.71361015359997
 20
220.9236687949999
 30
0.0
 11
68.86824876619994
 21
222.2674615934
 31
0.0
  0
LINE
  5
37C
330
2
100
AcDbEntity
  8
0
 62
     3
100
AcDbLine
 10
70.16705284489998
 20
222.3771624334
 30
0.0
 11
69.19805052920001
 21
221.4081596276
 31
0.0
  0
LINE
  5
37D
330
2
100
AcDbEntity
  8
0
 62
     3
100
AcDbLine
 10
66.90155318069997
 20
226.0237465013998
 30
0.0
 11
68.70154097369999
 21
226.0237465013998
 31
0.0
  0
ARC
  5
37E
330
2
100
AcDbEntity
  8
0
 62
     3
100
AcDbCircle
 10
77.86493208689998
 20
222.2103614917
 30
0.0
 40
0.5
100
AcDbArc
 50
96.56444950450001
 51
173.4354965372999
  0
LINE
  5
37F
330
2
100
AcDbEntity
  8
0
 62
     3
100
AcDbLine
 10
78.66705107889998
 20
222.3771645829
 30
0.0
 11
77.69805955269998
 21
221.4081725665999
 31
0.0
  0
ARC
  5
380
330
2
100
AcDbEntity
  8
0
 62
     3
100
AcDbCircle
 10
77.86493208689998
 20
216.8371315111999
 30
0.0
 40
0.5
100
AcDbArc
 50
186.5645034627
 51
263.4355504954999
  0
LINE
  5
381
330
2
100
AcDbEntity
  8
0
 62
     3
100
AcDbLine
 10
78.66705123379998
 20
216.6703079878999
 30
0.0
 11
77.69805970759998
 21
217.6393000040999
 31
0.0
  0
LINE
  5
382
330
2
100
AcDbEntity
  8
0
 62
     3
100
AcDbLine
 10
77.20154097369999
 20
215.2737465013998
 30
0.0
 11
83.90155318069998
 21
215.2737465013998
 31
0.0
  0
LINE
  5
383
330
2
100
AcDbEntity
  8
0
 62
     3
100
AcDbLine
 10
77.21356489939998
 20
219.0236854662999
 30
0.0
 11
77.84738447949999
 21
219.0236854662999
 31
0.0
  0
LINE
  5
384
330
2
100
AcDbEntity
  8
0
 62
     3
100
AcDbLine
 10
77.21358015819999
 20
220.0237312426
 30
0.0
 11
77.84739973829999
 21
220.0237312426
 31
0.0
  0
LINE
  5
385
330
2
100
AcDbEntity
  8
0
 62
     3
100
AcDbLine
 10
77.20154097369999
 20
225.0237465013998
 30
0.0
 11
83.40155318069998
 21
225.0237465013998
 31
0.0
  0
LINE
  5
386
330
2
100
AcDbEntity
  8
0
 62
     3
100
AcDbLine
 10
77.20154097369999
 20
223.0237465013998
 30
0.0
 11
83.90155318069998
 21
223.0237465013998
 31
0.0
  0
LINE
  5
387
330
2
100
AcDbEntity
  8
0
 62
     3
100
AcDbLine
 10
74.90155318069998
 20
227.5237465013999
 30
0.0
 11
74.90155318069998
 21
223.0237465013998
 31
0.0
  0
LINE
  5
388
330
2
100
AcDbEntity
  8
0
 62
     3
100
AcDbLine
 10
75.40155318069998
 20
227.5237465013999
 30
0.0
 11
75.40155318069998
 21
214.7237434496997
 31
0.0
  0
LINE
  5
389
330
2
100
AcDbEntity
  8
0
 62
     3
100
AcDbLine
 10
77.20154097369999
 20
227.5237465013999
 30
0.0
 11
77.20154097369999
 21
214.7237434496997
 31
0.0
  0
LINE
  5
38A
330
2
100
AcDbEntity
  8
0
 62
     3
100
AcDbLine
 10
74.90505581829999
 20
221.4081595052
 30
0.0
 11
73.93606429209999
 21
222.3771515213999
 31
0.0
  0
LINE
  5
38B
330
2
100
AcDbEntity
  8
0
 62
     3
100
AcDbLine
 10
73.4515593378
 20
222.8616694986
 30
0.0
 11
74.7953521362
 21
222.7070308053
 31
0.0
  0
LINE
  5
38C
330
2
100
AcDbEntity
  8
0
 62
     3
100
AcDbLine
 10
74.9050556633
 20
217.6393130655998
 30
0.0
 11
73.93606413719997
 21
216.6703210493
 31
0.0
  0
LINE
  5
38D
330
2
100
AcDbEntity
  8
0
 62
     3
100
AcDbLine
 10
73.45155948109999
 20
216.1858341939999
 30
0.0
 11
74.79535227959996
 21
216.3404728871998
 31
0.0
  0
LINE
  5
38E
330
2
100
AcDbEntity
  8
0
 62
     3
100
AcDbLine
 10
71.34443022029998
 20
220.2307729220998
 30
0.0
 11
72.75864375839998
 21
218.8165593838998
 31
0.0
  0
LINE
  5
38F
330
2
100
AcDbEntity
  8
0
 62
     3
100
AcDbLine
 10
70.63733424079998
 20
218.1094634044
 30
0.0
 11
73.46575052750001
 21
220.9378796912
 31
0.0
  0
LINE
  5
390
330
2
100
AcDbEntity
  8
0
 62
     3
100
AcDbLine
 10
70.65155318069995
 20
216.1857643237
 30
0.0
 11
73.4515562325
 21
216.1857643237
 31
0.0
  0
LINE
  5
391
330
2
100
AcDbEntity
  8
0
 62
     3
100
AcDbLine
 10
71.55156233599999
 20
216.1857490649
 30
0.0
 11
72.55154707719999
 21
216.1857490649
 31
0.0
  0
LINE
  5
392
330
2
100
AcDbEntity
  8
0
 62
     3
100
AcDbLine
 10
71.55156233599999
 20
216.1857490649
 30
0.0
 11
71.55156233599999
 21
216.819568645
 31
0.0
  0
LINE
  5
393
330
2
100
AcDbEntity
  8
0
 62
     3
100
AcDbLine
 10
72.55157759479999
 20
216.1857032884998
 30
0.0
 11
72.55157759479999
 21
216.8195228686
 31
0.0
  0
LINE
  5
394
330
2
100
AcDbEntity
  8
0
 62
     3
100
AcDbLine
 10
70.65155318069995
 20
222.8617286792
 30
0.0
 11
73.4515562325
 21
222.8617286792
 31
0.0
  0
LINE
  5
395
330
2
100
AcDbEntity
  8
0
 62
     3
100
AcDbLine
 10
71.55159285349999
 20
222.8616676439999
 30
0.0
 11
71.55159285349999
 21
222.2278480638999
 31
0.0
  0
LINE
  5
396
330
2
100
AcDbEntity
  8
0
 62
     3
100
AcDbLine
 10
72.55157759479999
 20
222.8616676439999
 30
0.0
 11
72.55157759479999
 21
222.2278480638999
 31
0.0
  0
LINE
  5
397
330
2
100
AcDbEntity
  8
0
 62
     3
100
AcDbLine
 10
75.38954451369997
 20
220.9237403979
 30
0.0
 11
75.38954451369997
 21
218.1237373462
 31
0.0
  0
LINE
  5
398
330
2
100
AcDbEntity
  8
0
 62
     3
100
AcDbLine
 10
77.21356489939998
 20
220.9237403979
 30
0.0
 11
77.21356489939998
 21
218.1237373462
 31
0.0
  0
LINE
  5
399
330
2
100
AcDbEntity
  8
0
 62
     3
100
AcDbLine
 10
75.40155318069998
 20
218.0237465013998
 30
0.0
 11
77.20154097369999
 21
218.0237465013998
 31
0.0
  0
LINE
  5
39A
330
2
100
AcDbEntity
  8
0
 62
     3
100
AcDbLine
 10
75.40155318069998
 20
216.5237465013998
 30
0.0
 11
77.20154097369999
 21
216.5237465013998
 31
0.0
  0
LINE
  5
39B
330
2
100
AcDbEntity
  8
0
 62
     3
100
AcDbLine
 10
75.40155318069998
 20
214.7237434496997
 30
0.0
 11
77.20154097369999
 21
214.7237434496997
 31
0.0
  0
ARC
  5
39C
330
2
100
AcDbEntity
  8
0
 62
     3
100
AcDbCircle
 10
74.73817732619997
 20
216.8371315111999
 30
0.0
 40
0.5
100
AcDbArc
 50
276.5644854766
 51
353.4355393395998
  0
LINE
  5
39D
330
2
100
AcDbEntity
  8
0
 62
     3
100
AcDbLine
 10
75.23486227320001
 20
216.7799938841999
 30
0.0
 11
75.3895008858
 21
218.1237866826
 31
0.0
  0
LINE
  5
39E
330
2
100
AcDbEntity
  8
0
 62
     3
100
AcDbLine
 10
75.3895292549
 20
219.0236854662999
 30
0.0
 11
74.75570967479999
 21
219.0236854662999
 31
0.0
  0
LINE
  5
39F
330
2
100
AcDbEntity
  8
0
 62
     3
100
AcDbLine
 10
77.21360805429998
 20
218.1238082844
 30
0.0
 11
77.36824666689995
 21
216.7800154859
 31
0.0
  0
LINE
  5
3A0
330
2
100
AcDbEntity
  8
0
 62
     3
100
AcDbLine
 10
75.40155318069998
 20
224.0237465013998
 30
0.0
 11
77.20154097369999
 21
224.0237465013998
 31
0.0
  0
ARC
  5
3A1
330
2
100
AcDbEntity
  8
0
 62
     3
100
AcDbCircle
 10
74.73817732619997
 20
222.2103614917
 30
0.0
 40
0.5
100
AcDbArc
 50
6.564460660399999
 51
83.43551452339999
  0
LINE
  5
3A2
330
2
100
AcDbEntity
  8
0
 62
     3
100
AcDbLine
 10
75.38954451369997
 20
220.0236854662999
 30
0.0
 11
74.75572493359999
 21
220.0236854662999
 31
0.0
  0
LINE
  5
3A3
330
2
100
AcDbEntity
  8
0
 62
     3
100
AcDbLine
 10
75.23487177659998
 20
222.2674902845
 30
0.0
 11
75.38951038919998
 21
220.923697486
 31
0.0
  0
LINE
  5
3A4
330
2
100
AcDbEntity
  8
0
 62
     3
100
AcDbLine
 10
77.21359855089997
 20
220.9236758843
 30
0.0
 11
77.36823716349997
 21
222.2674686827
 31
0.0
  0
LINE
  5
3A5
330
2
100
AcDbEntity
  8
0
 62
     3
100
AcDbLine
 10
75.40155318069998
 20
226.0237465013998
 30
0.0
 11
77.20154097369999
 21
226.0237465013998
 31
0.0
  0
LINE
  5
3A6
330
2
100
AcDbEntity
  8
0
 62
     3
100
AcDbLine
 10
83.40155318069998
 20
227.5237465013999
 30
0.0
 11
83.40155318069998
 21
223.0237465013998
 31
0.0
  0
LINE
  5
3A7
330
2
100
AcDbEntity
  8
0
 62
     3
100
AcDbLine
 10
83.90155318069998
 20
227.5237465013999
 30
0.0
 11
83.90155318069998
 21
214.7237434496997
 31
0.0
  0
LINE
  5
3A8
330
2
100
AcDbEntity
  8
0
 62
     3
100
AcDbLine
 10
79.15155318069998
 20
222.8617286792
 30
0.0
 11
81.9515562325
 21
222.8617286792
 31
0.0
  0
LINE
  5
3A9
330
2
100
AcDbEntity
  8
0
 62
     3
100
AcDbLine
 10
79.15155318069998
 20
216.1857643237
 30
0.0
 11
81.9515562325
 21
216.1857643237
 31
0.0
  0
CIRCLE
  5
3AA
330
2
100
AcDbEntity
  8
0
 62
     3
100
AcDbCircle
 10
80.55154707719998
 20
219.5237465013998
 30
0.0
 40
2.75
  0
LINE
  5
3AB
330
2
100
AcDbEntity
  8
0
 62
     3
100
AcDbLine
 10
79.13733247469997
 20
218.1094634044
 30
0.0
 11
81.96574876139996
 21
220.9378796912
 31
0.0
  0
LINE
  5
3AC
330
2
100
AcDbEntity
  8
0
 62
     3
100
AcDbLine
 10
79.8444284542
 20
220.2307729220998
 30
0.0
 11
81.25864199229999
 21
218.8165593838998
 31
0.0
  0
LINE
  5
3AD
330
2
100
AcDbEntity
  8
0
 62
     3
100
AcDbLine
 10
77.80773778339997
 20
216.3404550244
 30
0.0
 11
79.15153058189997
 21
216.1858163312
 31
0.0
  0
LINE
  5
3AE
330
2
100
AcDbEntity
  8
0
 62
     3
100
AcDbLine
 10
81.05157759479999
 20
216.1857032884998
 30
0.0
 11
81.05157759479999
 21
216.8195228686
 31
0.0
  0
LINE
  5
3AF
330
2
100
AcDbEntity
  8
0
 62
     3
100
AcDbLine
 10
80.05156233599999
 20
216.1857490649
 30
0.0
 11
80.05156233599999
 21
216.819568645
 31
0.0
  0
LINE
  5
3B0
330
2
100
AcDbEntity
  8
0
 62
     3
100
AcDbLine
 10
80.05156233599999
 20
216.1857490649
 30
0.0
 11
81.05154707719998
 21
216.1857490649
 31
0.0
  0
LINE
  5
3B1
330
2
100
AcDbEntity
  8
0
 62
     3
100
AcDbLine
 10
77.80773792679998
 20
222.7070486681998
 30
0.0
 11
79.15153072519999
 21
222.8616873613999
 31
0.0
  0
LINE
  5
3B2
330
2
100
AcDbEntity
  8
0
 62
     3
100
AcDbLine
 10
81.05157759479999
 20
222.8616676439999
 30
0.0
 11
81.05157759479999
 21
222.2278480638999
 31
0.0
  0
LINE
  5
3B3
330
2
100
AcDbEntity
  8
0
 62
     3
100
AcDbLine
 10
80.05159285349998
 20
222.8616676439999
 30
0.0
 11
80.05159285349998
 21
222.2278480638999
 31
0.0
  0
LINE
  5
3B4
330
2
100
AcDbEntity
  8
0
 62
     3
100
AcDbLine
 10
83.88954451369997
 20
220.9237403979
 30
0.0
 11
83.88954451369997
 21
218.1237373462
 31
0.0
  0
LINE
  5
3B5
330
2
100
AcDbEntity
  8
0
 62
     3
100
AcDbLine
 10
81.95156309499997
 20
216.1858293524999
 30
0.0
 11
83.29535589349999
 21
216.3404680456999
 31
0.0
  0
LINE
  5
3B6
330
2
100
AcDbEntity
  8
0
 62
     3
100
AcDbLine
 10
83.40505389729996
 20
217.639315215
 30
0.0
 11
82.43606237109998
 21
216.6703231987999
 31
0.0
  0
ARC
  5
3B7
330
2
100
AcDbEntity
  8
0
 62
     3
100
AcDbCircle
 10
83.23817732619998
 20
216.8371315111999
 30
0.0
 40
0.5
100
AcDbArc
 50
276.5644854766
 51
353.4355393395998
  0
LINE
  5
3B8
330
2
100
AcDbEntity
  8
0
 62
     3
100
AcDbLine
 10
83.7348658292
 20
216.7799992289999
 30
0.0
 11
83.88950444179997
 21
218.1237920275
 31
0.0
  0
LINE
  5
3B9
330
2
100
AcDbEntity
  8
0
 62
     3
100
AcDbLine
 10
83.88952925489997
 20
219.0236854662999
 30
0.0
 11
83.25570967479999
 21
219.0236854662999
 31
0.0
  0
LINE
  5
3BA
330
2
100
AcDbEntity
  8
0
 62
     3
100
AcDbLine
 10
83.4050540522
 20
221.4081573556998
 30
0.0
 11
82.43606252599997
 21
222.3771493719
 31
0.0
  0
LINE
  5
3BB
330
2
100
AcDbEntity
  8
0
 62
     3
100
AcDbLine
 10
81.95156295169999
 20
222.8616743401
 30
0.0
 11
83.29535575009998
 21
222.7070356468999
 31
0.0
  0
ARC
  5
3BC
330
2
100
AcDbEntity
  8
0
 62
     3
100
AcDbCircle
 10
83.23817732619998
 20
222.2103614917
 30
0.0
 40
0.5
100
AcDbArc
 50
6.564460660399999
 51
83.43551452339999
  0
LINE
  5
3BD
330
2
100
AcDbEntity
  8
0
 62
     3
100
AcDbLine
 10
83.88954451369997
 20
220.0236854662999
 30
0.0
 11
83.25572493359999
 21
220.0236854662999
 31
0.0
  0
LINE
  5
3BE
330
2
100
AcDbEntity
  8
0
 62
     3
100
AcDbLine
 10
83.73487533259995
 20
222.2674849395999
 30
0.0
 11
83.88951394519995
 21
220.9236921411
 31
0.0
  0
LINE
  5
3BF
330
2
100
AcDbEntity
  8
0
 62
     3
100
AcDbLine
 10
109.4015531806999
 20
226.0237465013998
 30
0.0
 11
122.7015409736999
 21
226.0237465013998
 31
0.0
  0
LINE
  5
3C0
330
2
100
AcDbEntity
  8
0
 62
     3
100
AcDbLine
 10
100.4050505199999
 20
221.4081530566999
 30
0.0
 11
99.4360589939
 21
222.3771450729998
 31
0.0
  0
LINE
  5
3C1
330
2
100
AcDbEntity
  8
0
 62
     3
100
AcDbLine
 10
100.4050611546998
 20
217.6393087244
 30
0.0
 11
99.43606962849996
 21
216.6703167082
 31
0.0
  0
CIRCLE
  5
3C2
330
2
100
AcDbEntity
  8
0
 62
     3
100
AcDbCircle
 10
97.55154707719999
 20
219.5237465013998
 30
0.0
 40
2.75
  0
LINE
  5
3C3
330
2
100
AcDbEntity
  8
0
 62
     3
100
AcDbLine
 10
94.2015409737
 20
223.0237465013998
 30
0.0
 11
100.9015531806999
 21
223.0237465013998
 31
0.0
  0
LINE
  5
3C4
330
2
100
AcDbEntity
  8
0
 62
     3
100
AcDbLine
 10
98.95156857849995
 20
216.1858348280999
 30
0.0
 11
100.2953613768999
 21
216.3404735212999
 31
0.0
  0
LINE
  5
3C5
330
2
100
AcDbEntity
  8
0
 62
     3
100
AcDbLine
 10
94.2015409737
 20
215.2737465013998
 30
0.0
 11
100.9015531806999
 21
215.2737465013998
 31
0.0
  0
LINE
  5
3C6
330
2
100
AcDbEntity
  8
0
 62
     3
100
AcDbLine
 10
98.95155327639997
 20
222.8616706088999
 30
0.0
 11
100.2953460747999
 21
222.7070319156998
 31
0.0
  0
LINE
  5
3C7
330
2
100
AcDbEntity
  8
0
 62
     3
100
AcDbLine
 10
94.2015409737
 20
225.0237465013998
 30
0.0
 11
100.4015531806998
 21
225.0237465013998
 31
0.0
  0
LINE
  5
3C8
330
2
100
AcDbEntity
  8
0
 62
     3
100
AcDbLine
 10
92.23487177660002
 20
222.2674902845
 30
0.0
 11
92.38951038919998
 21
220.923697486
 31
0.0
  0
LINE
  5
3C9
330
2
100
AcDbEntity
  8
0
 62
     3
100
AcDbLine
 10
92.2348622732
 20
216.7799938841999
 30
0.0
 11
92.38950088580001
 21
218.1237866826
 31
0.0
  0
LINE
  5
3CA
330
2
100
AcDbEntity
  8
0
 62
     3
100
AcDbLine
 10
85.70154097369998
 20
215.2737465013998
 30
0.0
 11
92.40155318069998
 21
215.2737465013998
 31
0.0
  0
LINE
  5
3CB
330
2
100
AcDbEntity
  8
0
 62
     3
100
AcDbLine
 10
85.70154097369998
 20
223.0237465013998
 30
0.0
 11
92.40155318069998
 21
223.0237465013998
 31
0.0
  0
LINE
  5
3CC
330
2
100
AcDbEntity
  8
0
 62
     3
100
AcDbLine
 10
92.3895445137
 20
220.0236854662999
 30
0.0
 11
91.75572493359998
 21
220.0236854662999
 31
0.0
  0
LINE
  5
3CD
330
2
100
AcDbEntity
  8
0
 62
     3
100
AcDbLine
 10
92.38952925489996
 20
219.0236854662999
 30
0.0
 11
91.75570967479997
 21
219.0236854662999
 31
0.0
  0
LINE
  5
3CE
330
2
100
AcDbEntity
  8
0
 62
     3
100
AcDbLine
 10
91.90155318069997
 20
227.5237465013999
 30
0.0
 11
91.90155318069997
 21
223.0237465013998
 31
0.0
  0
LINE
  5
3CF
330
2
100
AcDbEntity
  8
0
 62
     3
100
AcDbLine
 10
85.70154097369998
 20
227.5237465013999
 30
0.0
 11
85.70154097369998
 21
214.7237434496997
 31
0.0
  0
LINE
  5
3D0
330
2
100
AcDbEntity
  8
0
 62
     3
100
AcDbLine
 10
87.65155318069998
 20
222.8617286792
 30
0.0
 11
90.4515562325
 21
222.8617286792
 31
0.0
  0
LINE
  5
3D1
330
2
100
AcDbEntity
  8
0
 62
     3
100
AcDbLine
 10
88.55156233599997
 20
216.1857490649
 30
0.0
 11
89.55154707719998
 21
216.1857490649
 31
0.0
  0
LINE
  5
3D2
330
2
100
AcDbEntity
  8
0
 62
     3
100
AcDbLine
 10
87.65155318069998
 20
216.1857643237
 30
0.0
 11
90.4515562325
 21
216.1857643237
 31
0.0
  0
LINE
  5
3D3
330
2
100
AcDbEntity
  8
0
 62
     3
100
AcDbLine
 10
87.63733424079999
 20
218.1094634044
 30
0.0
 11
90.46575052749998
 21
220.9378796912
 31
0.0
  0
LINE
  5
3D4
330
2
100
AcDbEntity
  8
0
 62
     3
100
AcDbLine
 10
88.34443022029999
 20
220.2307729220998
 30
0.0
 11
89.75864375839995
 21
218.8165593838998
 31
0.0
  0
CIRCLE
  5
3D5
330
2
100
AcDbEntity
  8
0
 62
     3
100
AcDbCircle
 10
89.05154707719999
 20
219.5237465013998
 30
0.0
 40
2.75
  0
LINE
  5
3D6
330
2
100
AcDbEntity
  8
0
 62
     3
100
AcDbLine
 10
85.70154097369998
 20
225.0237465013998
 30
0.0
 11
91.90155318069997
 21
225.0237465013998
 31
0.0
  0
LINE
  5
3D7
330
2
100
AcDbEntity
  8
0
 62
     3
100
AcDbLine
 10
85.71356489939999
 20
220.9237403979
 30
0.0
 11
85.71356489939999
 21
218.1237373462
 31
0.0
  0
LINE
  5
3D8
330
2
100
AcDbEntity
  8
0
 62
     3
100
AcDbLine
 10
86.30773416949995
 20
216.3404501827999
 30
0.0
 11
87.6515269679
 21
216.1858114895999
 31
0.0
  0
LINE
  5
3D9
330
2
100
AcDbEntity
  8
0
 62
     3
100
AcDbLine
 10
87.1670529999
 20
216.6703101372998
 30
0.0
 11
86.1980506841
 21
217.6393129431999
 31
0.0
  0
LINE
  5
3DA
330
2
100
AcDbEntity
  8
0
 62
     3
100
AcDbLine
 10
85.71356489939999
 20
219.0236854662999
 30
0.0
 11
86.34738447949997
 21
219.0236854662999
 31
0.0
  0
LINE
  5
3DB
330
2
100
AcDbEntity
  8
0
 62
     3
100
AcDbLine
 10
85.71360449829999
 20
218.1238136292
 30
0.0
 11
85.86824311089998
 21
216.7800208307999
 31
0.0
  0
ARC
  5
3DC
330
2
100
AcDbEntity
  8
0
 62
     3
100
AcDbCircle
 10
86.36493208689998
 20
216.8371315111999
 30
0.0
 40
0.5
100
AcDbArc
 50
186.5645034627
 51
263.4355504954999
  0
LINE
  5
3DD
330
2
100
AcDbEntity
  8
0
 62
     3
100
AcDbLine
 10
88.55156233599997
 20
216.1857490649
 30
0.0
 11
88.55156233599997
 21
216.819568645
 31
0.0
  0
LINE
  5
3DE
330
2
100
AcDbEntity
  8
0
 62
     3
100
AcDbLine
 10
86.30773431279994
 20
222.7070535098
 30
0.0
 11
87.65152711129999
 21
222.8616922029998
 31
0.0
  0
LINE
  5
3DF
330
2
100
AcDbEntity
  8
0
 62
     3
100
AcDbLine
 10
87.16705284489998
 20
222.3771624334
 30
0.0
 11
86.19805052919998
 21
221.4081596276
 31
0.0
  0
LINE
  5
3E0
330
2
100
AcDbEntity
  8
0
 62
     3
100
AcDbLine
 10
85.71361015359997
 20
220.9236687949999
 30
0.0
 11
85.86824876619997
 21
222.2674615934
 31
0.0
  0
LINE
  5
3E1
330
2
100
AcDbEntity
  8
0
 62
     3
100
AcDbLine
 10
85.71358015819999
 20
220.0237312426
 30
0.0
 11
86.34739973829999
 21
220.0237312426
 31
0.0
  0
ARC
  5
3E2
330
2
100
AcDbEntity
  8
0
 62
     3
100
AcDbCircle
 10
86.36493208689998
 20
222.2103614917
 30
0.0
 40
0.5
100
AcDbArc
 50
96.56444950450001
 51
173.4354965372999
  0
LINE
  5
3E3
330
2
100
AcDbEntity
  8
0
 62
     3
100
AcDbLine
 10
88.55159285349998
 20
222.8616676439999
 30
0.0
 11
88.55159285349998
 21
222.2278480638999
 31
0.0
  0
LINE
  5
3E4
330
2
100
AcDbEntity
  8
0
 62
     3
100
AcDbLine
 10
90.45155948109998
 20
216.1858341939999
 30
0.0
 11
91.7953522796
 21
216.3404728871998
 31
0.0
  0
LINE
  5
3E5
330
2
100
AcDbEntity
  8
0
 62
     3
100
AcDbLine
 10
89.5515775948
 20
216.1857032884998
 30
0.0
 11
89.5515775948
 21
216.8195228686
 31
0.0
  0
LINE
  5
3E6
330
2
100
AcDbEntity
  8
0
 62
     3
100
AcDbLine
 10
91.90505566330001
 20
217.6393130655998
 30
0.0
 11
90.93606413719999
 21
216.6703210493
 31
0.0
  0
ARC
  5
3E7
330
2
100
AcDbEntity
  8
0
 62
     3
100
AcDbCircle
 10
91.73817732619999
 20
216.8371315111999
 30
0.0
 40
0.5
100
AcDbArc
 50
276.5644854766
 51
353.4355393395998
  0
LINE
  5
3E8
330
2
100
AcDbEntity
  8
0
 62
     3
100
AcDbLine
 10
90.4515593378
 20
222.8616694986
 30
0.0
 11
91.79535213619994
 21
222.7070308053
 31
0.0
  0
LINE
  5
3E9
330
2
100
AcDbEntity
  8
0
 62
     3
100
AcDbLine
 10
89.5515775948
 20
222.8616676439999
 30
0.0
 11
89.5515775948
 21
222.2278480638999
 31
0.0
  0
LINE
  5
3EA
330
2
100
AcDbEntity
  8
0
 62
     3
100
AcDbLine
 10
91.9050558183
 20
221.4081595052
 30
0.0
 11
90.93606429209998
 21
222.3771515213999
 31
0.0
  0
ARC
  5
3EB
330
2
100
AcDbEntity
  8
0
 62
     3
100
AcDbCircle
 10
91.73817732619999
 20
222.2103614917
 30
0.0
 40
0.5
100
AcDbArc
 50
6.564460660399999
 51
83.43551452339999
  0
LINE
  5
3EC
330
2
100
AcDbEntity
  8
0
 62
     3
100
AcDbLine
 10
92.40155318069998
 20
227.5237465013999
 30
0.0
 11
92.40155318069998
 21
214.7237434496997
 31
0.0
  0
LINE
  5
3ED
330
2
100
AcDbEntity
  8
0
 62
     3
100
AcDbLine
 10
94.2015409737
 20
227.5237465013999
 30
0.0
 11
94.2015409737
 21
214.7237434496997
 31
0.0
  0
LINE
  5
3EE
330
2
100
AcDbEntity
  8
0
 62
     3
100
AcDbLine
 10
94.8077434102
 20
222.7070541437999
 30
0.0
 11
96.15153620860002
 21
222.861692837
 31
0.0
  0
LINE
  5
3EF
330
2
100
AcDbEntity
  8
0
 62
     3
100
AcDbLine
 10
94.80772810809998
 20
216.3404512932
 30
0.0
 11
96.15152090649999
 21
216.1858125999998
 31
0.0
  0
LINE
  5
3F0
330
2
100
AcDbEntity
  8
0
 62
     3
100
AcDbLine
 10
92.3895445137
 20
220.9237403979
 30
0.0
 11
92.3895445137
 21
218.1237373462
 31
0.0
  0
LINE
  5
3F1
330
2
100
AcDbEntity
  8
0
 62
     3
100
AcDbLine
 10
94.2135648994
 20
220.9237403979
 30
0.0
 11
94.2135648994
 21
218.1237373462
 31
0.0
  0
LINE
  5
3F2
330
2
100
AcDbEntity
  8
0
 62
     3
100
AcDbLine
 10
92.40155318069998
 20
214.7237434496997
 30
0.0
 11
94.2015409737
 21
214.7237434496997
 31
0.0
  0
LINE
  5
3F3
330
2
100
AcDbEntity
  8
0
 62
     3
100
AcDbLine
 10
92.40155318069998
 20
216.5237465013998
 30
0.0
 11
94.2015409737
 21
216.5237465013998
 31
0.0
  0
LINE
  5
3F4
330
2
100
AcDbEntity
  8
0
 62
     3
100
AcDbLine
 10
92.40155318069998
 20
218.0237465013998
 30
0.0
 11
94.2015409737
 21
218.0237465013998
 31
0.0
  0
ARC
  5
3F5
330
2
100
AcDbEntity
  8
0
 62
     3
100
AcDbCircle
 10
94.86493208689998
 20
216.8371315111999
 30
0.0
 40
0.5
100
AcDbArc
 50
186.5645034627
 51
263.4355504954999
  0
LINE
  5
3F6
330
2
100
AcDbEntity
  8
0
 62
     3
100
AcDbLine
 10
94.21361342189999
 20
218.1238127532999
 30
0.0
 11
94.36825203449997
 21
216.7800199548998
 31
0.0
  0
LINE
  5
3F7
330
2
100
AcDbEntity
  8
0
 62
     3
100
AcDbLine
 10
94.21358015819999
 20
219.0236854662999
 30
0.0
 11
94.8473997383
 21
219.0236854662999
 31
0.0
  0
LINE
  5
3F8
330
2
100
AcDbEntity
  8
0
 62
     3
100
AcDbLine
 10
95.66705849120001
 20
216.6703144785
 30
0.0
 11
94.698066965
 21
217.6393064946998
 31
0.0
  0
LINE
  5
3F9
330
2
100
AcDbEntity
  8
0
 62
     3
100
AcDbLine
 10
92.40155318069998
 20
224.0237465013998
 30
0.0
 11
94.2015409737
 21
224.0237465013998
 31
0.0
  0
ARC
  5
3FA
330
2
100
AcDbEntity
  8
0
 62
     3
100
AcDbCircle
 10
94.86493208689998
 20
222.2103614917
 30
0.0
 40
0.5
100
AcDbArc
 50
96.56444950450001
 51
173.4354965372999
  0
LINE
  5
3FB
330
2
100
AcDbEntity
  8
0
 62
     3
100
AcDbLine
 10
94.21358015819999
 20
220.0237312426
 30
0.0
 11
94.8473997383
 21
220.0237312426
 31
0.0
  0
LINE
  5
3FC
330
2
100
AcDbEntity
  8
0
 62
     3
100
AcDbLine
 10
94.21360391849992
 20
220.9236714153
 30
0.0
 11
94.36824253109998
 21
222.2674642137
 31
0.0
  0
LINE
  5
3FD
330
2
100
AcDbEntity
  8
0
 62
     3
100
AcDbLine
 10
95.66706912589998
 20
222.3771473026999
 30
0.0
 11
94.69807759970001
 21
221.4081552863999
 31
0.0
  0
LINE
  5
3FE
330
2
100
AcDbEntity
  8
0
 62
     3
100
AcDbLine
 10
96.84442492199998
 20
220.2307729220998
 30
0.0
 11
98.25863846019998
 21
218.8165593838998
 31
0.0
  0
LINE
  5
3FF
330
2
100
AcDbEntity
  8
0
 62
     3
100
AcDbLine
 10
96.1373289425
 20
218.1094634044
 30
0.0
 11
98.96574522930002
 21
220.9378796912
 31
0.0
  0
LINE
  5
400
330
2
100
AcDbEntity
  8
0
 62
     3
100
AcDbLine
 10
96.15155318069998
 20
216.1857643237
 30
0.0
 11
98.95155623249999
 21
216.1857643237
 31
0.0
  0
LINE
  5
401
330
2
100
AcDbEntity
  8
0
 62
     3
100
AcDbLine
 10
97.05156233600002
 20
216.1857490649
 30
0.0
 11
98.05156233600001
 21
216.1857490649
 31
0.0
  0
LINE
  5
402
330
2
100
AcDbEntity
  8
0
 62
     3
100
AcDbLine
 10
97.05156233600002
 20
216.1857490649
 30
0.0
 11
97.05156233600002
 21
216.819568645
 31
0.0
  0
LINE
  5
403
330
2
100
AcDbEntity
  8
0
 62
     3
100
AcDbLine
 10
98.0515775948
 20
216.1857032884998
 30
0.0
 11
98.0515775948
 21
216.8195228686
 31
0.0
  0
LINE
  5
404
330
2
100
AcDbEntity
  8
0
 62
     3
100
AcDbLine
 10
96.15155318069998
 20
222.8617286792
 30
0.0
 11
98.95155623249999
 21
222.8617286792
 31
0.0
  0
LINE
  5
405
330
2
100
AcDbEntity
  8
0
 62
     3
100
AcDbLine
 10
97.05159285349999
 20
222.8616676439999
 30
0.0
 11
97.05159285349999
 21
222.2278480638999
 31
0.0
  0
LINE
  5
406
330
2
100
AcDbEntity
  8
0
 62
     3
100
AcDbLine
 10
98.0515775948
 20
222.8616676439999
 30
0.0
 11
98.0515775948
 21
222.2278480638999
 31
0.0
  0
LINE
  5
407
330
2
100
AcDbEntity
  8
0
 62
     3
100
AcDbLine
 10
92.40155318069998
 20
226.0237465013998
 30
0.0
 11
94.2015409737
 21
226.0237465013998
 31
0.0
  0
CIRCLE
  5
408
330
2
100
AcDbEntity
  8
0
 62
     3
100
AcDbCircle
 10
106.0515470771999
 20
219.5237465013998
 30
0.0
 40
2.75
  0
LINE
  5
409
330
2
100
AcDbEntity
  8
0
 62
     3
100
AcDbLine
 10
104.6515531806999
 20
216.1857643237
 30
0.0
 11
107.4515562325
 21
216.1857643237
 31
0.0
  0
LINE
  5
40A
330
2
100
AcDbEntity
  8
0
 62
     3
100
AcDbLine
 10
102.7015409736999
 20
215.2737465013998
 30
0.0
 11
109.4015531806999
 21
215.2737465013998
 31
0.0
  0
LINE
  5
40B
330
2
100
AcDbEntity
  8
0
 62
     3
100
AcDbLine
 10
104.6373379659997
 20
218.1094526148
 30
0.0
 11
107.4657542527999
 21
220.9378689016
 31
0.0
  0
LINE
  5
40C
330
2
100
AcDbEntity
  8
0
 62
     3
100
AcDbLine
 10
104.6515531806999
 20
222.8617286792
 30
0.0
 11
107.4515562325
 21
222.8617286792
 31
0.0
  0
LINE
  5
40D
330
2
100
AcDbEntity
  8
0
 62
     3
100
AcDbLine
 10
102.7015409736999
 20
225.0237465013998
 30
0.0
 11
108.9015531806999
 21
225.0237465013998
 31
0.0
  0
LINE
  5
40E
330
2
100
AcDbEntity
  8
0
 62
     3
100
AcDbLine
 10
102.7015409736999
 20
223.0237465013998
 30
0.0
 11
111.2015409736999
 21
223.0237465013998
 31
0.0
  0
LINE
  5
40F
330
2
100
AcDbEntity
  8
0
 62
     3
100
AcDbLine
 10
100.4015531806998
 20
227.5237465013999
 30
0.0
 11
100.4015531806998
 21
223.0237465013998
 31
0.0
  0
LINE
  5
410
330
2
100
AcDbEntity
  8
0
 62
     3
100
AcDbLine
 10
100.9015531806999
 20
227.5237465013999
 30
0.0
 11
100.9015531806999
 21
214.7237434496997
 31
0.0
  0
LINE
  5
411
330
2
100
AcDbEntity
  8
0
 62
     3
100
AcDbLine
 10
102.7015409736999
 20
227.5237465013999
 30
0.0
 11
102.7015409736999
 21
214.7237434496997
 31
0.0
  0
LINE
  5
412
330
2
100
AcDbEntity
  8
0
 62
     3
100
AcDbLine
 10
104.1670349909999
 20
222.3771170833999
 30
0.0
 11
103.1980434649
 21
221.4081250670999
 31
0.0
  0
LINE
  5
413
330
2
100
AcDbEntity
  8
0
 62
     3
100
AcDbLine
 10
103.3077184509999
 20
222.7070306546999
 30
0.0
 11
104.6515112494999
 21
222.8616693478999
 31
0.0
  0
LINE
  5
414
330
2
100
AcDbEntity
  8
0
 62
     3
100
AcDbLine
 10
102.7135801581999
 20
220.0237312426
 30
0.0
 11
103.3473997383
 21
220.0237312426
 31
0.0
  0
LINE
  5
415
330
2
100
AcDbEntity
  8
0
 62
     3
100
AcDbLine
 10
104.1670351459997
 20
216.6703554873997
 30
0.0
 11
103.1980436197998
 21
217.6393475035999
 31
0.0
  0
LINE
  5
416
330
2
100
AcDbEntity
  8
0
 62
     3
100
AcDbLine
 10
103.3077031488998
 20
216.3404747822998
 30
0.0
 11
104.6514959473998
 21
216.1858360891
 31
0.0
  0
LINE
  5
417
330
2
100
AcDbEntity
  8
0
 62
     3
100
AcDbLine
 10
102.7135496406998
 20
219.0236549486999
 30
0.0
 11
103.3473692206999
 21
219.0236549486999
 31
0.0
  0
LINE
  5
418
330
2
100
AcDbEntity
  8
0
 62
     3
100
AcDbLine
 10
100.8895445136999
 20
220.9237403979
 30
0.0
 11
100.8895445136999
 21
218.1237373462
 31
0.0
  0
LINE
  5
419
330
2
100
AcDbEntity
  8
0
 62
     3
100
AcDbLine
 10
102.7135648993998
 20
220.9237403979
 30
0.0
 11
102.7135648993998
 21
218.1237373462
 31
0.0
  0
LINE
  5
41A
330
2
100
AcDbEntity
  8
0
 62
     3
100
AcDbLine
 10
100.9015531806999
 20
218.0237465013998
 30
0.0
 11
102.7015409736999
 21
218.0237465013998
 31
0.0
  0
LINE
  5
41B
330
2
100
AcDbEntity
  8
0
 62
     3
100
AcDbLine
 10
100.9015531806999
 20
216.5237465013998
 30
0.0
 11
102.7015409736999
 21
216.5237465013998
 31
0.0
  0
LINE
  5
41C
330
2
100
AcDbEntity
  8
0
 62
     3
100
AcDbLine
 10
100.9015531806999
 20
214.7237434496997
 30
0.0
 11
102.7015409736999
 21
214.7237434496997
 31
0.0
  0
ARC
  5
41D
330
2
100
AcDbEntity
  8
0
 62
     3
100
AcDbCircle
 10
100.2381773261999
 20
216.8371315111999
 30
0.0
 40
0.5
100
AcDbArc
 50
276.5644854766
 51
353.4355393395998
  0
LINE
  5
41E
330
2
100
AcDbEntity
  8
0
 62
     3
100
AcDbLine
 10
100.7348711967999
 20
216.7799947601
 30
0.0
 11
100.8895098093999
 21
218.1237875584999
 31
0.0
  0
LINE
  5
41F
330
2
100
AcDbEntity
  8
0
 62
     3
100
AcDbLine
 10
100.8895445136999
 20
219.0236854662999
 30
0.0
 11
100.2557249335999
 21
219.0236854662999
 31
0.0
  0
ARC
  5
420
330
2
100
AcDbEntity
  8
0
 62
     3
100
AcDbCircle
 10
103.3649320868998
 20
216.8371315111999
 30
0.0
 40
0.5
100
AcDbArc
 50
186.5645034627
 51
263.4355504954999
  0
LINE
  5
421
330
2
100
AcDbEntity
  8
0
 62
     3
100
AcDbLine
 10
102.7135866603999
 20
218.1238039195999
 30
0.0
 11
102.8682252729999
 21
216.7800111212
 31
0.0
  0
LINE
  5
422
330
2
100
AcDbEntity
  8
0
 62
     3
100
AcDbLine
 10
100.9015531806999
 20
224.0237465013998
 30
0.0
 11
102.7015409736999
 21
224.0237465013998
 31
0.0
  0
ARC
  5
423
330
2
100
AcDbEntity
  8
0
 62
     3
100
AcDbCircle
 10
100.2381773261999
 20
222.2103614917
 30
0.0
 40
0.5
100
AcDbArc
 50
6.564460660399999
 51
83.43551452339999
  0
LINE
  5
424
330
2
100
AcDbEntity
  8
0
 62
     3
100
AcDbLine
 10
100.8895445136999
 20
220.0236854662999
 30
0.0
 11
100.2557249335999
 21
220.0236854662999
 31
0.0
  0
LINE
  5
425
330
2
100
AcDbEntity
  8
0
 62
     3
100
AcDbLine
 10
100.7348807001999
 20
222.2674894085999
 30
0.0
 11
100.8895193127999
 21
220.9236966100998
 31
0.0
  0
ARC
  5
426
330
2
100
AcDbEntity
  8
0
 62
     3
100
AcDbCircle
 10
103.3649320868998
 20
222.2103614917
 30
0.0
 40
0.5
100
AcDbArc
 50
96.56444950450001
 51
173.4354965372999
  0
LINE
  5
427
330
2
100
AcDbEntity
  8
0
 62
     3
100
AcDbLine
 10
102.7135771569999
 20
220.9236802489999
 30
0.0
 11
102.8682157695999
 21
222.2674730473999
 31
0.0
  0
LINE
  5
428
330
2
100
AcDbEntity
  8
0
 62
     3
100
AcDbLine
 10
105.3444339454999
 20
220.2307621324999
 30
0.0
 11
106.7586474836999
 21
218.8165485943
 31
0.0
  0
LINE
  5
429
330
2
100
AcDbEntity
  8
0
 62
     3
100
AcDbLine
 10
106.5515318183998
 20
216.185672771
 30
0.0
 11
106.5515318183998
 21
216.819492351
 31
0.0
  0
LINE
  5
42A
330
2
100
AcDbEntity
  8
0
 62
     3
100
AcDbLine
 10
105.5515623359999
 20
216.1857490649
 30
0.0
 11
105.5515623359999
 21
216.819568645
 31
0.0
  0
LINE
  5
42B
330
2
100
AcDbEntity
  8
0
 62
     3
100
AcDbLine
 10
105.5515623359999
 20
216.1857490649
 30
0.0
 11
106.5515013008
 21
216.1857490649
 31
0.0
  0
LINE
  5
42C
330
2
100
AcDbEntity
  8
0
 62
     3
100
AcDbLine
 10
106.5515318183998
 20
222.8616371263999
 30
0.0
 11
106.5515318183998
 21
222.2278175463999
 31
0.0
  0
LINE
  5
42D
330
2
100
AcDbEntity
  8
0
 62
     3
100
AcDbLine
 10
105.5515623359999
 20
222.8616371263999
 30
0.0
 11
105.5515623359999
 21
222.2278175463999
 31
0.0
  0
LINE
  5
42E
330
2
100
AcDbEntity
  8
0
 62
     3
100
AcDbLine
 10
100.9015531806999
 20
226.0237465013998
 30
0.0
 11
102.7015409736999
 21
226.0237465013998
 31
0.0
  0
LINE
  5
42F
330
2
100
AcDbEntity
  8
0
 62
     3
100
AcDbLine
 10
108.9015531806999
 20
227.5237465013999
 30
0.0
 11
108.9015531806999
 21
223.0237465013998
 31
0.0
  0
LINE
  5
430
330
2
100
AcDbEntity
  8
0
 62
     3
100
AcDbLine
 10
109.4015531806999
 20
227.5237465013999
 30
0.0
 11
109.4015531806999
 21
214.7237434496997
 31
0.0
  0
LINE
  5
431
330
2
100
AcDbEntity
  8
0
 62
     3
100
AcDbLine
 10
111.2015409736999
 20
227.5237465013999
 30
0.0
 11
111.2015409736999
 21
214.7237434496997
 31
0.0
  0
LINE
  5
432
330
2
100
AcDbEntity
  8
0
 62
     3
100
AcDbLine
 10
109.4015531806999
 20
224.0237465013998
 30
0.0
 11
111.2015409736999
 21
224.0237465013998
 31
0.0
  0
LINE
  5
433
330
2
100
AcDbEntity
  8
0
 62
     3
100
AcDbLine
 10
109.4015531806999
 20
218.0237465013998
 30
0.0
 11
111.2015409736999
 21
218.0237465013998
 31
0.0
  0
LINE
  5
434
330
2
100
AcDbEntity
  8
0
 62
     3
100
AcDbLine
 10
109.4015531806999
 20
216.5237465013998
 30
0.0
 11
111.2015409736999
 21
216.5237465013998
 31
0.0
  0
LINE
  5
435
330
2
100
AcDbEntity
  8
0
 62
     3
100
AcDbLine
 10
109.4015531806999
 20
214.7237434496997
 30
0.0
 11
112.7015409736999
 21
214.7237434496997
 31
0.0
  0
LINE
  5
436
330
2
100
AcDbEntity
  8
0
 62
     3
100
AcDbLine
 10
109.3895445136999
 20
220.9237403979
 30
0.0
 11
109.3895445136999
 21
218.1237373462
 31
0.0
  0
ARC
  5
437
330
2
100
AcDbEntity
  8
0
 62
     3
100
AcDbCircle
 10
108.7381773261999
 20
216.8371315111999
 30
0.0
 40
0.5
100
AcDbArc
 50
276.5644854766
 51
353.4355393395998
  0
LINE
  5
438
330
2
100
AcDbEntity
  8
0
 62
     3
100
AcDbLine
 10
109.3894987372999
 20
219.0236549486999
 30
0.0
 11
108.7556791573
 21
219.0236549486999
 31
0.0
  0
LINE
  5
439
330
2
100
AcDbEntity
  8
0
 62
     3
100
AcDbLine
 10
108.9050378093999
 20
217.6393108739
 30
0.0
 11
107.9360462832999
 21
216.6703188577
 31
0.0
  0
LINE
  5
43A
330
2
100
AcDbEntity
  8
0
 62
     3
100
AcDbLine
 10
107.4515721924
 20
216.1858299864998
 30
0.0
 11
108.7953498320999
 21
216.3404669353
 31
0.0
  0
LINE
  5
43B
330
2
100
AcDbEntity
  8
0
 62
     3
100
AcDbLine
 10
109.2348461796997
 20
216.7800187525
 30
0.0
 11
109.3894847922999
 21
218.123811551
 31
0.0
  0
ARC
  5
43C
330
2
100
AcDbEntity
  8
0
 62
     3
100
AcDbCircle
 10
108.7381773261999
 20
222.2103614917
 30
0.0
 40
0.5
100
AcDbArc
 50
6.564460660399999
 51
83.43551452339999
  0
LINE
  5
43D
330
2
100
AcDbEntity
  8
0
 62
     3
100
AcDbLine
 10
109.3894987372999
 20
220.0236549487
 30
0.0
 11
108.7556791573
 21
220.0236549487
 31
0.0
  0
LINE
  5
43E
330
2
100
AcDbEntity
  8
0
 62
     3
100
AcDbLine
 10
108.9050379643999
 20
221.4081616967999
 30
0.0
 11
107.9360464381999
 21
222.3771537130999
 31
0.0
  0
LINE
  5
43F
330
2
100
AcDbEntity
  8
0
 62
     3
100
AcDbLine
 10
107.4515568902999
 20
222.8616754504999
 30
0.0
 11
108.7953345299997
 21
222.7070385016999
 31
0.0
  0
LINE
  5
440
330
2
100
AcDbEntity
  8
0
 62
     3
100
AcDbLine
 10
109.2348556831
 20
222.2674654161
 30
0.0
 11
109.3894942956999
 21
220.9236726176998
 31
0.0
  0
LINE
  5
441
330
2
100
AcDbEntity
  8
0
 62
     3
100
AcDbLine
 10
122.7015130617999
 20
227.5236481513998
 30
0.0
 11
123.7015172422998
 21
226.5236502087
 31
0.0
  0
LINE
  5
442
330
2
100
AcDbEntity
  8
0
 62
     3
100
AcDbLine
 10
123.3015457573999
 20
226.9236368934999
 30
0.0
 11
122.7015544124998
 21
226.0236499083998
 31
0.0
  0
TEXT
  5
457
330
2
100
AcDbEntity
  8
0
 62
     7
100
AcDbText
 10
146.0
 20
85.00000295524989
 30
0.0
 40
2.999994089499998
  1
BTBH15C6
 11
146.0
 21
86.49999999999989
 31
0.0
100
AcDbText
 73
     2
  0
ENDSEC
  0
SECTION
  2
OBJECTS
  0
DICTIONARY
  5
7
330
0
100
AcDbDictionary
281
     1
  3
ACAD_GROUP
350
1F
  3
ACAD_LAYOUT
350
B
  3
ACAD_MLINESTYLE
350
20
  3
ACAD_PLOTSETTINGS
350
21
  3
ACAD_PLOTSTYLENAME
350
6
  3
AcDbVariableDictionary
350
458
  0
DICTIONARY
  5
1F
102
{ACAD_REACTORS
330
7
102
}
330
7
100
AcDbDictionary
281
     1
  0
DICTIONARY
  5
B
102
{ACAD_REACTORS
330
7
102
}
330
7
100
AcDbDictionary
281
     1
  3
Model
350
A
  3
ﾚｲｱｳﾄ1
350
F
  0
DICTIONARY
  5
20
102
{ACAD_REACTORS
330
7
102
}
330
7
100
AcDbDictionary
281
     1
  3
Standard
350
22
  0
DICTIONARY
  5
21
102
{ACAD_REACTORS
330
7
102
}
330
7
100
AcDbDictionary
281
     1
  0
ACDBDICTIONARYWDFLT
  5
6
102
{ACAD_REACTORS
330
7
102
}
330
7
100
AcDbDictionary
281
     1
  3
Normal
350
5
100
AcDbDictionaryWithDefault
340
5
  0
DICTIONARY
  5
458
102
{ACAD_REACTORS
330
7
102
}
330
7
100
AcDbDictionary
281
     1
  3
DIMASSOC
350
459
  0
LAYOUT
  5
A
102
{ACAD_REACTORS
330
B
102
}
330
B
100
AcDbPlotSettings
  1

  2
none_device
  4
Letter_(8.50_x_11.00_Inches)
  6

 40
6.349999904632568
 41
6.349999904632568
 42
6.350006103515625
 43
6.350006103515625
 44
215.8999938964843
 45
279.3999938964843
 46
0.0
 47
0.0
 48
0.0
 49
0.0
140
0.0
141
0.0
142
1.0
143
1.0
 70
 11952
 72
     0
 73
     1
 74
     0
  7

 75
     0
147
1.0
148
1160.156570509351
149
55.08167645995978
100
AcDbLayout
  1
Model
 70
     1
 71
     0
 10
0.0
 20
0.0
 11
12.0
 21
9.0
 12
0.0
 22
0.0
 32
0.0
 14
0.0
 24
0.0
 34
0.0
 15
0.0
 25
0.0
 35
0.0
146
0.0
 13
0.0
 23
0.0
 33
0.0
 16
1.0
 26
0.0
 36
0.0
 17
0.0
 27
1.0
 37
0.0
 76
     0
330
2
  0
LAYOUT
  5
F
102
{ACAD_REACTORS
330
B
102
}
330
B
100
AcDbPlotSettings
  1

  2
C:\Program Files\AutoCAD 2000i\plotters\DWF Classic.pc3
  4

  6

 40
0.0
 41
0.0
 42
0.0
 43
0.0
 44
0.0
 45
0.0
 46
0.0
 47
0.0
 48
0.0
 49
0.0
140
0.0
141
0.0
142
1.0
143
1.0
 70
   688
 72
     0
 73
     0
 74
     5
  7

 75
    16
147
1.0
148
0.0
149
0.0
100
AcDbLayout
  1
ﾚｲｱｳﾄ1
 70
     1
 71
     1
 10
0.0
 20
0.0
 11
12.0
 21
9.0
 12
0.0
 22
0.0
 32
0.0
 14
1.000000000000000E+20
 24
1.000000000000000E+20
 34
1.000000000000000E+20
 15
-1.000000000000000E+20
 25
-1.000000000000000E+20
 35
-1.000000000000000E+20
146
0.0
 13
0.0
 23
0.0
 33
0.0
 16
1.0
 26
0.0
 36
0.0
 17
0.0
 27
1.0
 37
0.0
 76
     0
330
C
  0
MLINESTYLE
  5
22
102
{ACAD_REACTORS
330
20
102
}
330
20
100
AcDbMlineStyle
  2
STANDARD
 70
     0
  3

 62
   256
 51
90.0
 52
90.0
 71
     2
 49
0.5
 62
   256
  6
BYLAYER
 49
-0.5
 62
   256
  6
BYLAYER
  0
ACDBPLACEHOLDER
  5
5
102
{ACAD_REACTORS
330
6
102
}
330
6
  0
DICTIONARYVAR
  5
459
102
{ACAD_REACTORS
330
458
102
}
330
458
100
DictionaryVariables
280
     0
  1
1
  0
ENDSEC
  0
EOF
