  0
SECTION
  2
HEADER
  9
$ACADVER
  1
AC1015
  9
$ACADMAINTVER
 70
    13
  9
$DWGCODEPAGE
  3
ANSI_932
  9
$INSBASE
 10
0.0
 20
0.0
 30
0.0
  9
$EXTMIN
 10
-0.0015092409423687
 20
-0.0006173322358336
 30
-0.0000000000000058
  9
$EXTMAX
 10
210.0251513113378
 20
297.0079347828193
 30
0.0000000000000104
  9
$LIMMIN
 10
-192.5699737549
 20
-3.174999999999998
  9
$LIMMAX
 10
3.174999999999998
 20
291.2585876465
  9
$ORTHOMODE
 70
     0
  9
$REGENMODE
 70
     1
  9
$FILLMODE
 70
     1
  9
$QTEXTMODE
 70
     0
  9
$MIRRTEXT
 70
     0
  9
$LTSCALE
 40
1.0
  9
$ATTMODE
 70
     1
  9
$TEXTSIZE
 40
2.999994039499997
  9
$TRACEWID
 40
0.05
  9
$TEXTSTYLE
  7
STANDARD
  9
$CLAYER
  8
0
  9
$CELTYPE
  6
ByLayer
  9
$CECOLOR
 62
   256
  9
$CELTSCALE
 40
1.0
  9
$DISPSILH
 70
     0
  9
$DIMSCALE
 40
1.0
  9
$DIMASZ
 40
1.9727878465
  9
$DIMEXO
 40
2.539999961899999
  9
$DIMDLI
 40
0.38
  9
$DIMRND
 40
0.0
  9
$DIMDLE
 40
0.0
  9
$DIMEXE
 40
3.809999942799997
  9
$DIMTP
 40
0.0
  9
$DIMTM
 40
0.0
  9
$DIMTXT
 40
2.999994039499997
  9
$DIMCEN
 40
0.09
  9
$DIMTSZ
 40
0.0
  9
$DIMTOL
 70
     0
  9
$DIMLIM
 70
     0
  9
$DIMTIH
 70
     0
  9
$DIMTOH
 70
     1
  9
$DIMSE1
 70
     0
  9
$DIMSE2
 70
     0
  9
$DIMTAD
 70
     0
  9
$DIMZIN
 70
     0
  9
$DIMBLK
  1

  9
$DIMASO
 70
     1
  9
$DIMSHO
 70
     0
  9
$DIMPOST
  1

  9
$DIMAPOST
  1

  9
$DIMALT
 70
     0
  9
$DIMALTD
 70
     2
  9
$DIMALTF
 40
25.4
  9
$DIMLFAC
 40
1.0
  9
$DIMTOFL
 70
     0
  9
$DIMTVP
 40
0.0
  9
$DIMTIX
 70
     0
  9
$DIMSOXD
 70
     0
  9
$DIMSAH
 70
     0
  9
$DIMBLK1
  1

  9
$DIMBLK2
  1

  9
$DIMSTYLE
  2
Standard
  9
$DIMCLRD
 70
     0
  9
$DIMCLRE
 70
     0
  9
$DIMCLRT
 70
     0
  9
$DIMTFAC
 40
1.0
  9
$DIMGAP
 40
0.09
  9
$DIMJUST
 70
     0
  9
$DIMSD1
 70
     0
  9
$DIMSD2
 70
     0
  9
$DIMTOLJ
 70
     1
  9
$DIMTZIN
 70
     0
  9
$DIMALTZ
 70
     0
  9
$DIMALTTZ
 70
     0
  9
$DIMUPT
 70
     0
  9
$DIMDEC
 70
     4
  9
$DIMTDEC
 70
     4
  9
$DIMALTU
 70
     2
  9
$DIMALTTD
 70
     2
  9
$DIMTXSTY
  7
STANDARD
  9
$DIMAUNIT
 70
     0
  9
$DIMADEC
 70
     0
  9
$DIMALTRND
 40
0.0
  9
$DIMAZIN
 70
     0
  9
$DIMDSEP
 70
    46
  9
$DIMATFIT
 70
     3
  9
$DIMFRAC
 70
     0
  9
$DIMLDRBLK
  1

  9
$DIMLUNIT
 70
     2
  9
$DIMLWD
 70
    -2
  9
$DIMLWE
 70
    -2
  9
$DIMTMOVE
 70
     0
  9
$LUNITS
 70
     2
  9
$LUPREC
 70
     3
  9
$SKETCHINC
 40
0.1
  9
$FILLETRAD
 40
0.0625
  9
$AUNITS
 70
     0
  9
$AUPREC
 70
     0
  9
$MENU
  1
ACAD
  9
$ELEVATION
 40
0.0
  9
$PELEVATION
 40
0.0
  9
$THICKNESS
 40
0.0
  9
$LIMCHECK
 70
     0
  9
$CHAMFERA
 40
0.0
  9
$CHAMFERB
 40
0.0
  9
$CHAMFERC
 40
0.0
  9
$CHAMFERD
 40
0.0
  9
$SKPOLY
 70
     0
  9
$TDCREATE
 40
2453377.956921296
  9
$TDUCREATE
 40
2453377.581921296
  9
$TDUPDATE
 40
2453390.680086261
  9
$TDUUPDATE
 40
2453390.305086261
  9
$TDINDWG
 40
0.0021511458
  9
$TDUSRTIMER
 40
0.0021511458
  9
$USRTIMER
 70
     1
  9
$ANGBASE
 50
0.0
  9
$ANGDIR
 70
     0
  9
$PDMODE
 70
     0
  9
$PDSIZE
 40
0.0
  9
$PLINEWID
 40
0.0
  9
$SPLFRAME
 70
     0
  9
$SPLINETYPE
 70
     6
  9
$SPLINESEGS
 70
     8
  9
$HANDSEED
  5
1DF
  9
$SURFTAB1
 70
     6
  9
$SURFTAB2
 70
     6
  9
$SURFTYPE
 70
     6
  9
$SURFU
 70
     6
  9
$SURFV
 70
     6
  9
$UCSBASE
  2

  9
$UCSNAME
  2

  9
$UCSORG
 10
0.0
 20
0.0
 30
0.0
  9
$UCSXDIR
 10
1.0
 20
0.0
 30
0.0
  9
$UCSYDIR
 10
0.0
 20
1.0
 30
0.0
  9
$UCSORTHOREF
  2

  9
$UCSORTHOVIEW
 70
     0
  9
$UCSORGTOP
 10
0.0
 20
0.0
 30
0.0
  9
$UCSORGBOTTOM
 10
0.0
 20
0.0
 30
0.0
  9
$UCSORGLEFT
 10
0.0
 20
0.0
 30
0.0
  9
$UCSORGRIGHT
 10
0.0
 20
0.0
 30
0.0
  9
$UCSORGFRONT
 10
0.0
 20
0.0
 30
0.0
  9
$UCSORGBACK
 10
0.0
 20
0.0
 30
0.0
  9
$PUCSBASE
  2

  9
$PUCSNAME
  2

  9
$PUCSORG
 10
0.0
 20
0.0
 30
0.0
  9
$PUCSXDIR
 10
1.0
 20
0.0
 30
0.0
  9
$PUCSYDIR
 10
0.0
 20
1.0
 30
0.0
  9
$PUCSORTHOREF
  2

  9
$PUCSORTHOVIEW
 70
     0
  9
$PUCSORGTOP
 10
0.0
 20
0.0
 30
0.0
  9
$PUCSORGBOTTOM
 10
0.0
 20
0.0
 30
0.0
  9
$PUCSORGLEFT
 10
0.0
 20
0.0
 30
0.0
  9
$PUCSORGRIGHT
 10
0.0
 20
0.0
 30
0.0
  9
$PUCSORGFRONT
 10
0.0
 20
0.0
 30
0.0
  9
$PUCSORGBACK
 10
0.0
 20
0.0
 30
0.0
  9
$USERI1
 70
    24
  9
$USERI2
 70
     0
  9
$USERI3
 70
     0
  9
$USERI4
 70
     0
  9
$USERI5
 70
     0
  9
$USERR1
 40
0.0
  9
$USERR2
 40
0.0
  9
$USERR3
 40
0.0
  9
$USERR4
 40
0.0
  9
$USERR5
 40
0.0
  9
$WORLDVIEW
 70
     1
  9
$SHADEDGE
 70
     3
  9
$SHADEDIF
 70
    70
  9
$TILEMODE
 70
     1
  9
$MAXACTVP
 70
    64
  9
$PINSBASE
 10
0.0
 20
0.0
 30
0.0
  9
$PLIMCHECK
 70
     0
  9
$PEXTMIN
 10
1.000000000000000E+20
 20
1.000000000000000E+20
 30
1.000000000000000E+20
  9
$PEXTMAX
 10
-1.000000000000000E+20
 20
-1.000000000000000E+20
 30
-1.000000000000000E+20
  9
$PLIMMIN
 10
0.0
 20
0.0
  9
$PLIMMAX
 10
12.0
 20
9.0
  9
$UNITMODE
 70
     0
  9
$VISRETAIN
 70
     1
  9
$PLINEGEN
 70
     0
  9
$PSLTSCALE
 70
     1
  9
$TREEDEPTH
 70
  3020
  9
$CMLSTYLE
  2
Standard
  9
$CMLJUST
 70
     0
  9
$CMLSCALE
 40
1.0
  9
$PROXYGRAPHICS
 70
     1
  9
$MEASUREMENT
 70
     0
  9
$CELWEIGHT
370
    -1
  9
$ENDCAPS
280
     0
  9
$JOINSTYLE
280
     0
  9
$LWDISPLAY
290
     0
  9
$INSUNITS
 70
     0
  9
$HYPERLINKBASE
  1

  9
$STYLESHEET
  1

  9
$XEDIT
290
     1
  9
$CEPSNTYPE
380
     0
  9
$PSTYLEMODE
290
     1
  9
$FINGERPRINTGUID
  2
{CA3D37C1-1814-4810-8764-BEB2537FF769}
  9
$VERSIONGUID
  2
{560A89E7-6A88-4CED-8D51-CDD3725776FD}
  9
$EXTNAMES
290
     1
  9
$PSVPSCALE
 40
0.0
  9
$OLESTARTUP
290
     0
  0
ENDSEC
  0
SECTION
  2
CLASSES
  0
CLASS
  1
ACDBDICTIONARYWDFLT
  2
AcDbDictionaryWithDefault
  3
AutoCAD 2000
 90
        0
280
     0
281
     0
  0
CLASS
  1
ACDBPLACEHOLDER
  2
AcDbPlaceHolder
  3
AutoCAD 2000
 90
        0
280
     0
281
     0
  0
CLASS
  1
LAYOUT
  2
AcDbLayout
  3
AutoCAD 2000
 90
        0
280
     0
281
     0
  0
CLASS
  1
DICTIONARYVAR
  2
AcDbDictionaryVar
  3
AutoCAD 2000
 90
        0
280
     0
281
     0
  0
ENDSEC
  0
SECTION
  2
TABLES
  0
TABLE
  2
VPORT
  5
19
330
0
100
AcDbSymbolTable
 70
     2
  0
VPORT
  5
1DE
330
19
100
AcDbSymbolTableRecord
100
AcDbViewportTableRecord
  2
*Active
 70
     0
 10
0.0
 20
0.0
 11
1.0
 21
1.0
 12
105.0118210351977
 22
148.5036587252917
 13
0.0
 23
0.0
 14
1.0
 24
1.0
 15
0.0
 25
0.0
 16
0.0
 26
0.0
 36
1.0
 17
0.0
 27
0.0
 37
0.0
 40
301.3444433868078
 41
2.407317073170731
 42
50.0
 43
0.0
 44
0.0
 50
0.0
 51
0.0
 71
     0
 72
   100
 73
     1
 74
     1
 75
     0
 76
     0
 77
     0
 78
     0
281
     0
 65
     1
110
0.0
120
0.0
130
0.0
111
1.0
121
0.0
131
0.0
112
0.0
122
1.0
132
0.0
 79
     0
146
0.0
  0
ENDTAB
  0
TABLE
  2
LTYPE
  5
14
330
0
100
AcDbSymbolTable
 70
     3
  0
LTYPE
  5
15
330
14
100
AcDbSymbolTableRecord
100
AcDbLinetypeTableRecord
  2
ByBlock
 70
     0
  3

 72
    65
 73
     0
 40
0.0
  0
LTYPE
  5
16
330
14
100
AcDbSymbolTableRecord
100
AcDbLinetypeTableRecord
  2
ByLayer
 70
     0
  3

 72
    65
 73
     0
 40
0.0
  0
LTYPE
  5
8
330
14
100
AcDbSymbolTableRecord
100
AcDbLinetypeTableRecord
  2
Continuous
 70
     0
  3
Solid line
 72
    65
 73
     0
 40
0.0
  0
LTYPE
  5
107
330
14
100
AcDbSymbolTableRecord
100
AcDbLinetypeTableRecord
  2
CENTER
 70
     0
  3
Center
 72
    65
 73
     4
 40
9.100006759199999
 49
6.5000119209
 74
     0
 49
-0.7999984026000001
 74
     0
 49
0.9999980329999999
 74
     0
 49
-0.7999984026000001
 74
     0
  0
LTYPE
  5
3E
330
14
100
AcDbSymbolTableRecord
100
AcDbLinetypeTableRecord
  2
PHANTOM
 70
     0
  3
Phantom
 72
    65
 73
     6
 40
9.499981462999999
 49
4.799990654
 74
     0
 49
-0.8999982475999999
 74
     0
 49
0.9999980329999999
 74
     0
 49
-0.8999982475999999
 74
     0
 49
0.9999980329999999
 74
     0
 49
-0.8999982475999999
 74
     0
  0
ENDTAB
  0
TABLE
  2
LAYER
  5
10
330
0
100
AcDbSymbolTable
 70
     1
  0
LAYER
  5
4
330
10
100
AcDbSymbolTableRecord
100
AcDbLayerTableRecord
  2
0
 70
     0
 62
     7
  6
Continuous
370
    -3
390
5
  0
ENDTAB
  0
TABLE
  2
STYLE
  5
11
330
0
100
AcDbSymbolTable
 70
     1
  0
STYLE
  5
12
330
11
100
AcDbSymbolTableRecord
100
AcDbTextStyleTableRecord
  2
STANDARD
 70
     0
 40
0.0
 41
1.0
 50
0.0
 71
     0
 42
2.999994039499997
  3
romans.shx
  4
bigfont.shx
  0
ENDTAB
  0
TABLE
  2
VIEW
  5
17
330
0
100
AcDbSymbolTable
 70
     0
  0
ENDTAB
  0
TABLE
  2
UCS
  5
18
330
0
100
AcDbSymbolTable
 70
     0
  0
ENDTAB
  0
TABLE
  2
APPID
  5
1B
330
0
100
AcDbSymbolTable
 70
     1
  0
APPID
  5
1C
330
1B
100
AcDbSymbolTableRecord
100
AcDbRegAppTableRecord
  2
ACAD
 70
     0
  0
ENDTAB
  0
TABLE
  2
DIMSTYLE
  5
1D
330
0
100
AcDbSymbolTable
 70
     1
100
AcDbDimStyleTable
 71
     0
  0
DIMSTYLE
105
23
330
1D
100
AcDbSymbolTableRecord
100
AcDbDimStyleTableRecord
  2
Standard
 70
     0
340
12
  0
ENDTAB
  0
TABLE
  2
BLOCK_RECORD
  5
1
330
0
100
AcDbSymbolTable
 70
     1
  0
BLOCK_RECORD
  5
2
330
1
100
AcDbSymbolTableRecord
100
AcDbBlockTableRecord
  2
*Model_Space
340
A
  0
BLOCK_RECORD
  5
C
330
1
100
AcDbSymbolTableRecord
100
AcDbBlockTableRecord
  2
*Paper_Space
340
F
  0
ENDTAB
  0
ENDSEC
  0
SECTION
  2
BLOCKS
  0
BLOCK
  5
3
330
2
100
AcDbEntity
  8
0
100
AcDbBlockBegin
  2
*Model_Space
 70
     0
 10
0.0
 20
0.0
 30
0.0
  3
*Model_Space
  1

  0
ENDBLK
  5
9
330
2
100
AcDbEntity
  8
0
100
AcDbBlockEnd
  0
BLOCK
  5
D
330
C
100
AcDbEntity
 67
     1
  8
0
100
AcDbBlockBegin
  2
*Paper_Space
 70
     0
 10
0.0
 20
0.0
 30
0.0
  3
*Paper_Space
  1

  0
ENDBLK
  5
E
330
C
100
AcDbEntity
 67
     1
  8
0
100
AcDbBlockEnd
  0
ENDSEC
  0
SECTION
  2
ENTITIES
  0
LINE
  5
24
330
2
100
AcDbEntity
  8
0
100
AcDbLine
 10
210.0
 20
0.0
 30
0.0
 11
210.0
 21
297.0
 31
0.0
  0
LINE
  5
25
330
2
100
AcDbEntity
  8
0
 62
     3
100
AcDbLine
 10
126.6167703313999
 20
207.7131800776
 30
0.0
 11
126.6167703313999
 21
252.7131800775999
 31
0.0
  0
LINE
  5
26
330
2
100
AcDbEntity
  8
0
 62
     3
100
AcDbLine
 10
117.6167703313999
 20
206.2131800776
 30
0.0
 11
117.6167703313999
 21
228.0337214594
 31
0.0
  0
LINE
  5
27
330
2
100
AcDbEntity
  8
0
 62
     3
100
AcDbLine
 10
128.1167703314
 20
207.7131800776
 30
0.0
 11
128.1167703314
 21
252.7131800775999
 31
0.0
  0
LINE
  5
28
330
2
100
AcDbEntity
  8
0
 62
     3
100
AcDbLine
 10
116.1167703313998
 20
247.7131800775999
 30
0.0
 11
116.1167703313998
 21
212.7131800776
 31
0.0
  0
CIRCLE
  5
29
330
2
100
AcDbEntity
  8
0
 62
     3
100
AcDbCircle
 10
105.6167703314
 20
218.0131678704998
 30
0.0
 40
4.5
  0
CIRCLE
  5
2A
330
2
100
AcDbEntity
  8
0
 62
     3
100
AcDbCircle
 10
105.6167703314
 20
218.0131678704998
 30
0.0
 40
5.0
  0
CIRCLE
  5
2B
330
2
100
AcDbEntity
  8
0
 62
     3
100
AcDbCircle
 10
74.6167703314
 20
218.0131678704998
 30
0.0
 40
5.0
  0
CIRCLE
  5
2C
330
2
100
AcDbEntity
  8
0
 62
     3
100
AcDbCircle
 10
74.6167703314
 20
218.0131678704998
 30
0.0
 40
4.5
  0
CIRCLE
  5
2D
330
2
100
AcDbEntity
  8
0
 62
     3
100
AcDbCircle
 10
90.11677033140001
 20
218.0131678704998
 30
0.0
 40
5.0
  0
CIRCLE
  5
2E
330
2
100
AcDbEntity
  8
0
 62
     3
100
AcDbCircle
 10
90.11677033140001
 20
218.0131678704998
 30
0.0
 40
4.5
  0
LINE
  5
2F
330
2
100
AcDbEntity
  8
0
 62
     3
100
AcDbLine
 10
51.11677033139994
 20
247.7131800775999
 30
0.0
 11
51.11677033139994
 21
212.7131800776
 31
0.0
  0
CIRCLE
  5
30
330
2
100
AcDbEntity
  8
0
 62
     3
100
AcDbCircle
 10
59.11677033139998
 20
218.0131678704998
 30
0.0
 40
4.5
  0
CIRCLE
  5
31
330
2
100
AcDbEntity
  8
0
 62
     3
100
AcDbCircle
 10
59.11677033139998
 20
218.0131678704998
 30
0.0
 40
5.0
  0
LINE
  5
32
330
2
100
AcDbEntity
  8
0
100
AcDbLine
 10
0.0
 20
297.0
 30
0.0
 11
0.0
 21
0.0
 31
0.0
  0
LINE
  5
33
330
2
100
AcDbEntity
  8
0
 62
     3
100
AcDbLine
 10
81.11677033139995
 20
226.0131678704999
 30
0.0
 11
81.11677033139995
 21
206.2131800776
 31
0.0
  0
LINE
  5
34
330
2
100
AcDbEntity
  8
0
 62
     3
100
AcDbLine
 10
68.11677033139995
 20
226.0131678704999
 30
0.0
 11
68.11677033139995
 21
206.2131800776
 31
0.0
  0
LINE
  5
35
330
2
100
AcDbEntity
  8
0
 62
     3
100
AcDbLine
 10
112.1167703313998
 20
226.0131678704999
 30
0.0
 11
112.1167703313998
 21
206.2131800776
 31
0.0
  0
LINE
  5
36
330
2
100
AcDbEntity
  8
0
 62
     3
100
AcDbLine
 10
83.61677033140001
 20
226.0131678704999
 30
0.0
 11
83.61677033140001
 21
206.2131800776
 31
0.0
  0
LINE
  5
37
330
2
100
AcDbEntity
  8
0
 62
     3
100
AcDbLine
 10
114.6167703313998
 20
226.0131678704999
 30
0.0
 11
114.6167703313998
 21
206.2131800776
 31
0.0
  0
LINE
  5
38
330
2
100
AcDbEntity
  8
0
 62
     3
100
AcDbLine
 10
65.61677033139995
 20
226.0131678704999
 30
0.0
 11
65.61677033139995
 21
206.2131800776
 31
0.0
  0
LINE
  5
39
330
2
100
AcDbEntity
  8
0
 62
     3
100
AcDbLine
 10
52.61677033139998
 20
226.0131678704999
 30
0.0
 11
52.61677033139998
 21
206.2131800776
 31
0.0
  0
LINE
  5
3A
330
2
100
AcDbEntity
  8
0
 62
     3
100
AcDbLine
 10
40.61677033139995
 20
252.7131800775999
 30
0.0
 11
40.61677033139995
 21
207.7131800776
 31
0.0
  0
LINE
  5
3B
330
2
100
AcDbEntity
  8
0
 62
     3
100
AcDbLine
 10
49.61677033139998
 20
228.0337214594
 30
0.0
 11
49.61677033139998
 21
206.2131800776
 31
0.0
  0
LINE
  5
3C
330
2
100
AcDbEntity
  8
0
 62
     3
100
AcDbLine
 10
39.11677033139998
 20
252.7131800775999
 30
0.0
 11
39.11677033139998
 21
207.7131800776
 31
0.0
  0
LINE
  5
3D
330
2
100
AcDbEntity
  8
0
  6
PHANTOM
 62
     3
100
AcDbLine
 10
116.1167703313998
 20
204.9131800776
 30
0.0
 11
116.1167703313998
 21
255.5131800775999
 31
0.0
  0
LINE
  5
3F
330
2
100
AcDbEntity
  8
0
  6
PHANTOM
 62
     3
100
AcDbLine
 10
51.11677033139994
 20
204.9131800776
 30
0.0
 11
51.11677033139994
 21
255.5131800775999
 31
0.0
  0
LINE
  5
40
330
2
100
AcDbEntity
  8
0
 62
     3
100
AcDbLine
 10
96.61677033140001
 20
226.0131678704999
 30
0.0
 11
96.61677033140001
 21
206.2131800776
 31
0.0
  0
LINE
  5
41
330
2
100
AcDbEntity
  8
0
 62
     3
100
AcDbLine
 10
99.11677033140001
 20
226.0131678704999
 30
0.0
 11
99.11677033140001
 21
206.2131800776
 31
0.0
  0
LINE
  5
42
330
2
100
AcDbEntity
  8
0
 62
     3
100
AcDbLine
 10
149.9985565339999
 20
157.5227145920999
 30
0.0
 11
147.9985891399999
 21
155.5227640564999
 31
0.0
  0
LINE
  5
43
330
2
100
AcDbEntity
  8
0
 62
     3
100
AcDbLine
 10
147.9986533044
 20
155.5228019427999
 30
0.0
 11
149.998607886
 21
157.5227652907999
 31
0.0
  0
LINE
  5
44
330
2
100
AcDbEntity
  8
0
 62
     3
100
AcDbLine
 10
149.4983269522998
 20
128.0231036948999
 30
0.0
 11
149.9983269522997
 21
128.8891290830999
 31
0.0
  0
LINE
  5
45
330
2
100
AcDbEntity
  8
0
 62
     3
100
AcDbLine
 10
149.4979127114999
 20
128.0220112477999
 30
0.0
 11
149.9979355996998
 21
127.1559462161
 31
0.0
  0
LINE
  5
46
330
2
100
AcDbEntity
  8
0
 62
     3
100
AcDbLine
 10
147.9974923772997
 20
132.021667016
 30
0.0
 11
159.6188150091998
 21
132.021667016
 31
0.0
  0
LINE
  5
47
330
2
100
AcDbEntity
  8
0
 62
     3
100
AcDbLine
 10
149.4974923772999
 20
133.521667016
 30
0.0
 11
158.9974923772999
 21
133.521667016
 31
0.0
  0
LINE
  5
48
330
2
100
AcDbEntity
  8
0
 62
     3
100
AcDbLine
 10
147.9974923772997
 20
124.021667016
 30
0.0
 11
195.9975076360999
 21
124.021667016
 31
0.0
  0
LINE
  5
49
330
2
100
AcDbEntity
  8
0
 62
     3
100
AcDbLine
 10
149.4974923772999
 20
122.521667016
 30
0.0
 11
194.4975076360998
 21
122.521667016
 31
0.0
  0
LINE
  5
4A
330
2
100
AcDbEntity
  8
0
  6
PHANTOM
 62
     3
100
AcDbLine
 10
195.667394984
 20
160.521667016
 30
0.0
 11
148.3275897706997
 21
160.521667016
 31
0.0
  0
LINE
  5
4B
330
2
100
AcDbEntity
  8
0
  6
PHANTOM
 62
     3
100
AcDbLine
 10
195.667394984
 20
159.521667016
 30
0.0
 11
148.3275897706997
 21
159.521667016
 31
0.0
  0
TEXT
  5
4C
330
2
100
AcDbEntity
  8
0
 62
     5
100
AcDbText
 10
145.0
 20
10.0
 30
0.0
 40
5.0
  1
ＭＡ４-Ｂ００６０７Ｂ
 41
0.8418911459846414
 72
     5
 11
199.0413935612998
 21
10.0
 31
0.0
100
AcDbText
  0
LINE
  5
4D
330
2
100
AcDbEntity
  8
0
100
AcDbLine
 10
0.0
 20
0.0
 30
0.0
 11
210.0
 21
0.0
 31
0.0
  0
LINE
  5
4E
330
2
100
AcDbEntity
  8
0
 62
     3
100
AcDbLine
 10
83.61677033140001
 20
209.2131800776
 30
0.0
 11
95.6167703314
 21
209.2131800776
 31
0.0
  0
LINE
  5
4F
330
2
100
AcDbEntity
  8
0
 62
     3
100
AcDbLine
 10
87.86512638579996
 20
145.8216473809
 30
0.0
 11
90.11678462150001
 21
147.1216426482999
 31
0.0
  0
ARC
  5
50
330
2
100
AcDbEntity
  8
0
 62
     3
100
AcDbCircle
 10
90.11680084899996
 20
135.121642602
 30
0.0
 40
12.0
100
AcDbArc
 50
74.50605305159999
 51
105.4939109762
  0
LINE
  5
51
330
2
100
AcDbEntity
  8
0
 62
     3
100
AcDbLine
 10
83.64678436949999
 20
133.521667016
 30
0.0
 11
95.5867562933
 21
133.521667016
 31
0.0
  0
LINE
  5
52
330
2
100
AcDbEntity
  8
0
 62
     3
100
AcDbLine
 10
83.64678436949999
 20
139.2216639643
 30
0.0
 11
95.5867562933
 21
139.2216639643
 31
0.0
  0
LINE
  5
53
330
2
100
AcDbEntity
  8
0
 62
     3
100
AcDbLine
 10
83.64678436949999
 20
141.821654809
 30
0.0
 11
96.5867562933
 21
141.821654809
 31
0.0
  0
LINE
  5
54
330
2
100
AcDbEntity
  8
0
 62
     3
100
AcDbLine
 10
83.64678436949999
 20
130.521667016
 30
0.0
 11
95.5867562933
 21
130.521667016
 31
0.0
  0
LINE
  5
55
330
2
100
AcDbEntity
  8
0
 62
     3
100
AcDbLine
 10
95.11680084899996
 20
142.8216548089999
 30
0.0
 11
85.11680084899998
 21
142.8216548089999
 31
0.0
  0
LINE
  5
56
330
2
100
AcDbEntity
  8
0
 62
     3
100
AcDbLine
 10
85.61680084899998
 20
143.8216548089999
 30
0.0
 11
94.61680084900001
 21
143.8216548089999
 31
0.0
  0
LINE
  5
57
330
2
100
AcDbEntity
  8
0
 62
     3
100
AcDbLine
 10
83.64678436949999
 20
153.521667016
 30
0.0
 11
96.5867562933
 21
153.521667016
 31
0.0
  0
LINE
  5
58
330
2
100
AcDbEntity
  8
0
  6
PHANTOM
 62
     3
100
AcDbLine
 10
51.11677033139994
 20
204.9131800776
 30
0.0
 11
116.1167703313998
 21
204.9131800776
 31
0.0
  0
LINE
  5
59
330
2
100
AcDbEntity
  8
0
  6
PHANTOM
 62
     3
100
AcDbLine
 10
51.11677033139994
 20
160.521667016
 30
0.0
 11
116.1167703313998
 21
160.521667016
 31
0.0
  0
LINE
  5
5A
330
2
100
AcDbEntity
  8
0
  6
PHANTOM
 62
     3
100
AcDbLine
 10
51.11677033139994
 20
153.521667016
 30
0.0
 11
116.1167703313998
 21
153.521667016
 31
0.0
  0
LINE
  5
5B
330
2
100
AcDbEntity
  8
0
 62
     3
100
AcDbLine
 10
39.11677033139998
 20
124.021667016
 30
0.0
 11
128.1167703314
 21
124.021667016
 31
0.0
  0
LINE
  5
5C
330
2
100
AcDbEntity
  8
0
 62
     3
100
AcDbLine
 10
40.61677033139995
 20
122.521667016
 30
0.0
 11
126.6167927581999
 21
122.521667016
 31
0.0
  0
LINE
  5
5D
330
2
100
AcDbEntity
  8
0
 62
     3
100
AcDbLine
 10
40.61675507259997
 20
206.2131800776
 30
0.0
 11
126.6168216199999
 21
206.2131800776
 31
0.0
  0
LINE
  5
5E
330
2
100
AcDbEntity
  8
0
 62
     3
100
AcDbLine
 10
52.61677033139998
 20
209.2131800776
 30
0.0
 11
64.61677033139998
 21
209.2131800776
 31
0.0
  0
LINE
  5
5F
330
2
100
AcDbEntity
  8
0
 62
     3
100
AcDbLine
 10
56.86512700859998
 20
145.8216501731999
 30
0.0
 11
59.11678524429999
 21
147.1216454406
 31
0.0
  0
LINE
  5
60
330
2
100
AcDbEntity
  8
0
 62
     3
100
AcDbLine
 10
59.11676928189999
 20
143.8216451291
 30
0.0
 11
58.11676822029998
 21
142.8216440676
 31
0.0
  0
ARC
  5
61
330
2
100
AcDbEntity
  8
0
 62
     3
100
AcDbCircle
 10
59.11677033139998
 20
135.121642602
 30
0.0
 40
12.0
100
AcDbArc
 50
74.50605305159999
 51
105.4939109762
  0
LINE
  5
62
330
2
100
AcDbEntity
  8
0
 62
     3
100
AcDbLine
 10
54.61677033139998
 20
143.8216548089999
 30
0.0
 11
63.61677033139994
 21
143.8216548089999
 31
0.0
  0
LINE
  5
63
330
2
100
AcDbEntity
  8
0
 62
     3
100
AcDbLine
 10
64.11677033139998
 20
142.8216548089999
 30
0.0
 11
54.11677033139998
 21
142.8216548089999
 31
0.0
  0
LINE
  5
64
330
2
100
AcDbEntity
  8
0
 62
     3
100
AcDbLine
 10
52.61677033139998
 20
153.521667016
 30
0.0
 11
65.61677033139995
 21
153.521667016
 31
0.0
  0
LINE
  5
65
330
2
100
AcDbEntity
  8
0
 62
     3
100
AcDbLine
 10
52.61677033139998
 20
130.521667016
 30
0.0
 11
64.61677033139998
 21
130.521667016
 31
0.0
  0
LINE
  5
66
330
2
100
AcDbEntity
  8
0
 62
     3
100
AcDbLine
 10
52.61677033139998
 20
141.821654809
 30
0.0
 11
65.61677033139995
 21
141.821654809
 31
0.0
  0
LINE
  5
67
330
2
100
AcDbEntity
  8
0
 62
     3
100
AcDbLine
 10
52.61677033139998
 20
139.2216639643
 30
0.0
 11
64.61677033139998
 21
139.2216639643
 31
0.0
  0
LINE
  5
68
330
2
100
AcDbEntity
  8
0
 62
     3
100
AcDbLine
 10
52.61677033139998
 20
133.521667016
 30
0.0
 11
64.61677033139998
 21
133.521667016
 31
0.0
  0
LINE
  5
69
330
2
100
AcDbEntity
  8
0
 62
     3
100
AcDbLine
 10
40.61677033139995
 20
136.521667016
 30
0.0
 11
49.61677033139998
 21
136.521667016
 31
0.0
  0
LINE
  5
6A
330
2
100
AcDbEntity
  8
0
 62
     3
100
AcDbLine
 10
40.61678559019997
 20
133.521667016
 30
0.0
 11
49.61677033139998
 21
133.521667016
 31
0.0
  0
LINE
  5
6B
330
2
100
AcDbEntity
  8
0
 62
     3
100
AcDbLine
 10
39.11677033139998
 20
132.021667016
 30
0.0
 11
49.61677033139998
 21
132.021667016
 31
0.0
  0
LINE
  5
6C
330
2
100
AcDbEntity
  8
0
 62
     3
100
AcDbLine
 10
39.11677033139998
 20
135.021667016
 30
0.0
 11
49.61677033139998
 21
135.021667016
 31
0.0
  0
LINE
  5
6D
330
2
100
AcDbEntity
  8
0
 62
     3
100
AcDbLine
 10
40.61677033139995
 20
136.521667016
 30
0.0
 11
40.61677033139995
 21
122.521667016
 31
0.0
  0
LINE
  5
6E
330
2
100
AcDbEntity
  8
0
 62
     3
100
AcDbLine
 10
39.11677033139998
 20
135.021667016
 30
0.0
 11
39.11677033139998
 21
124.021667016
 31
0.0
  0
LINE
  5
6F
330
2
100
AcDbEntity
  8
0
 62
     3
100
AcDbLine
 10
39.11679176949997
 20
124.0216622504999
 30
0.0
 11
40.61679374119996
 21
122.5216610374999
 31
0.0
  0
LINE
  5
70
330
2
100
AcDbEntity
  8
0
 62
     3
100
AcDbLine
 10
39.11677107909997
 20
132.0216684138
 30
0.0
 11
40.61677874059998
 21
133.5216640634
 31
0.0
  0
LINE
  5
71
330
2
100
AcDbEntity
  8
0
 62
     3
100
AcDbLine
 10
39.11677706589995
 20
135.0216650872
 30
0.0
 11
40.61678308369997
 21
136.5216623805999
 31
0.0
  0
LINE
  5
72
330
2
100
AcDbEntity
  8
0
 62
     3
100
AcDbLine
 10
54.61676965379999
 20
143.8216197535999
 30
0.0
 11
54.74463462969999
 21
145.2831238699999
 31
0.0
  0
LINE
  5
73
330
2
100
AcDbEntity
  8
0
 62
     3
100
AcDbLine
 10
52.61677033139998
 20
157.521667016
 30
0.0
 11
52.61677033139998
 21
122.521667016
 31
0.0
  0
LINE
  5
74
330
2
100
AcDbEntity
  8
0
 62
     3
100
AcDbLine
 10
49.61677033139998
 20
157.521667016
 30
0.0
 11
49.61677033139998
 21
132.021667016
 31
0.0
  0
LINE
  5
75
330
2
100
AcDbEntity
  8
0
 62
     3
100
AcDbLine
 10
54.11677033139998
 20
142.8216548089999
 30
0.0
 11
54.11677033139998
 21
141.821654809
 31
0.0
  0
LINE
  5
76
330
2
100
AcDbEntity
  8
0
 62
     3
100
AcDbLine
 10
55.06678253839996
 20
143.8216548089999
 30
0.0
 11
55.06678253839996
 21
142.8216548089999
 31
0.0
  0
LINE
  5
77
330
2
100
AcDbEntity
  8
0
 62
     3
100
AcDbLine
 10
49.61677033139998
 20
155.521667016
 30
0.0
 11
52.61677033139998
 21
155.521667016
 31
0.0
  0
LINE
  5
78
330
2
100
AcDbEntity
  8
0
 62
     3
100
AcDbLine
 10
49.61677033139998
 20
157.521667016
 30
0.0
 11
52.61677033139998
 21
157.521667016
 31
0.0
  0
LINE
  5
79
330
2
100
AcDbEntity
  8
0
  6
PHANTOM
 62
     3
100
AcDbLine
 10
51.11677033139994
 20
160.521667016
 30
0.0
 11
51.11677033139994
 21
153.521667016
 31
0.0
  0
LINE
  5
7A
330
2
100
AcDbEntity
  8
0
 62
     3
100
AcDbLine
 10
51.11677033139994
 20
155.521667016
 30
0.0
 11
51.11677033139994
 21
148.021667016
 31
0.0
  0
LINE
  5
7B
330
2
100
AcDbEntity
  8
0
 62
     3
100
AcDbLine
 10
51.11677033139994
 20
148.021667016
 30
0.0
 11
52.61677033139998
 21
148.021667016
 31
0.0
  0
LINE
  5
7C
330
2
100
AcDbEntity
  8
0
 62
     3
100
AcDbLine
 10
51.11677033139994
 20
149.021667016
 30
0.0
 11
52.61677033139998
 21
149.021667016
 31
0.0
  0
LINE
  5
7D
330
2
100
AcDbEntity
  8
0
 62
     3
100
AcDbLine
 10
51.11677033139994
 20
151.021667016
 30
0.0
 11
52.61677033139998
 21
151.021667016
 31
0.0
  0
ARC
  5
7E
330
2
100
AcDbEntity
  8
0
 62
     3
100
AcDbCircle
 10
56.3385568304
 20
145.1436915521999
 30
0.0
 40
1.5999994278
100
AcDbArc
 50
105.4939109762
 51
174.9999923478
  0
LINE
  5
7F
330
2
100
AcDbEntity
  8
0
 62
     3
100
AcDbLine
 10
40.61675507259997
 20
207.7131800776
 30
0.0
 11
49.61677033139998
 21
207.7131800776
 31
0.0
  0
LINE
  5
80
330
2
100
AcDbEntity
  8
0
 62
     3
100
AcDbLine
 10
39.86677109979999
 20
206.9631093255998
 30
0.0
 11
40.6167772908
 21
207.7131155165999
 31
0.0
  0
LINE
  5
81
330
2
100
AcDbEntity
  8
0
 62
     3
100
AcDbLine
 10
39.11678996809996
 20
207.7131314545999
 30
0.0
 11
40.61675999259998
 21
206.2131413262999
 31
0.0
  0
LINE
  5
82
330
2
100
AcDbEntity
  8
0
 62
     3
100
AcDbLine
 10
52.61677033139998
 20
213.3131709222998
 30
0.0
 11
57.41089874939999
 21
213.3131709222998
 31
0.0
  0
LINE
  5
83
330
2
100
AcDbEntity
  8
0
 62
     3
100
AcDbLine
 10
51.11677033139994
 20
212.7131800776
 30
0.0
 11
52.61677033139998
 21
212.7131800776
 31
0.0
  0
LINE
  5
84
330
2
100
AcDbEntity
  8
0
 62
     3
100
AcDbLine
 10
72.36512700859998
 20
145.8216501731999
 30
0.0
 11
74.61678524429999
 21
147.1216454406
 31
0.0
  0
ARC
  5
85
330
2
100
AcDbEntity
  8
0
 62
     3
100
AcDbCircle
 10
74.6167703314
 20
135.121642602
 30
0.0
 40
12.0
100
AcDbArc
 50
74.50605305159999
 51
105.4939109762
  0
LINE
  5
86
330
2
100
AcDbEntity
  8
0
 62
     3
100
AcDbLine
 10
68.11677033139995
 20
153.521667016
 30
0.0
 11
81.11677033139995
 21
153.521667016
 31
0.0
  0
LINE
  5
87
330
2
100
AcDbEntity
  8
0
 62
     3
100
AcDbLine
 10
68.11677033139995
 20
141.821654809
 30
0.0
 11
81.11677033139995
 21
141.821654809
 31
0.0
  0
LINE
  5
88
330
2
100
AcDbEntity
  8
0
 62
     3
100
AcDbLine
 10
68.11677033139995
 20
130.521667016
 30
0.0
 11
80.11677033140001
 21
130.521667016
 31
0.0
  0
LINE
  5
89
330
2
100
AcDbEntity
  8
0
 62
     3
100
AcDbLine
 10
68.11677033139995
 20
139.2216639643
 30
0.0
 11
80.11677033140001
 21
139.2216639643
 31
0.0
  0
LINE
  5
8A
330
2
100
AcDbEntity
  8
0
 62
     3
100
AcDbLine
 10
68.11677033139995
 20
133.521667016
 30
0.0
 11
80.11677033140001
 21
133.521667016
 31
0.0
  0
LINE
  5
8B
330
2
100
AcDbEntity
  8
0
 62
     3
100
AcDbLine
 10
79.6167703314
 20
142.8216548089999
 30
0.0
 11
69.61677033139998
 21
142.8216548089999
 31
0.0
  0
LINE
  5
8C
330
2
100
AcDbEntity
  8
0
 62
     3
100
AcDbLine
 10
70.11677033139998
 20
143.8216548089999
 30
0.0
 11
79.11677033140001
 21
143.8216548089999
 31
0.0
  0
LINE
  5
8D
330
2
100
AcDbEntity
  8
0
 62
     3
100
AcDbLine
 10
70.11676965379999
 20
143.8216197535999
 30
0.0
 11
70.24463462969999
 21
145.2831238699999
 31
0.0
  0
LINE
  5
8E
330
2
100
AcDbEntity
  8
0
 62
     3
100
AcDbLine
 10
63.4888878241
 20
145.2831523224999
 30
0.0
 11
63.6167528
 21
143.8216482061999
 31
0.0
  0
LINE
  5
8F
330
2
100
AcDbEntity
  8
0
 62
     3
100
AcDbLine
 10
65.61677033139995
 20
157.521667016
 30
0.0
 11
65.61677033139995
 21
141.821654809
 31
0.0
  0
LINE
  5
90
330
2
100
AcDbEntity
  8
0
 62
     3
100
AcDbLine
 10
68.14678436949998
 20
157.521667016
 30
0.0
 11
68.14678436949998
 21
122.521667016
 31
0.0
  0
LINE
  5
91
330
2
100
AcDbEntity
  8
0
 62
     3
100
AcDbLine
 10
64.61677033139998
 20
141.821654809
 30
0.0
 11
64.61677033139998
 21
130.521667016
 31
0.0
  0
LINE
  5
92
330
2
100
AcDbEntity
  8
0
 62
     3
100
AcDbLine
 10
59.11676928189999
 20
142.8216440676
 30
0.0
 11
60.11677034349998
 21
143.8216451291
 31
0.0
  0
LINE
  5
93
330
2
100
AcDbEntity
  8
0
 62
     3
100
AcDbLine
 10
63.16677338319999
 20
142.8216548089999
 30
0.0
 11
63.16677338319999
 21
143.8216548089999
 31
0.0
  0
LINE
  5
94
330
2
100
AcDbEntity
  8
0
 62
     3
100
AcDbLine
 10
64.11677033139998
 20
141.821654809
 30
0.0
 11
64.11677033139998
 21
142.8216548089999
 31
0.0
  0
LINE
  5
95
330
2
100
AcDbEntity
  8
0
 62
     3
100
AcDbLine
 10
69.61677033139998
 20
142.8216548089999
 30
0.0
 11
69.61677033139998
 21
141.821654809
 31
0.0
  0
LINE
  5
96
330
2
100
AcDbEntity
  8
0
 62
     3
100
AcDbLine
 10
70.56678253839994
 20
143.8216548089999
 30
0.0
 11
70.56678253839994
 21
142.8216548089999
 31
0.0
  0
LINE
  5
97
330
2
100
AcDbEntity
  8
0
 62
     3
100
AcDbLine
 10
65.61677033139995
 20
151.021667016
 30
0.0
 11
68.14678436949998
 21
151.021667016
 31
0.0
  0
LINE
  5
98
330
2
100
AcDbEntity
  8
0
 62
     3
100
AcDbLine
 10
65.61677033139995
 20
155.521667016
 30
0.0
 11
68.14678436949998
 21
155.521667016
 31
0.0
  0
LINE
  5
99
330
2
100
AcDbEntity
  8
0
 62
     3
100
AcDbLine
 10
65.61677033139995
 20
157.521667016
 30
0.0
 11
68.14678436949998
 21
157.521667016
 31
0.0
  0
LINE
  5
9A
330
2
100
AcDbEntity
  8
0
 62
     3
100
AcDbLine
 10
65.61677033139995
 20
148.021667016
 30
0.0
 11
68.14678436949998
 21
148.021667016
 31
0.0
  0
LINE
  5
9B
330
2
100
AcDbEntity
  8
0
 62
     3
100
AcDbLine
 10
65.61677033139995
 20
149.021667016
 30
0.0
 11
68.14678436949998
 21
149.021667016
 31
0.0
  0
LINE
  5
9C
330
2
100
AcDbEntity
  8
0
 62
     3
100
AcDbLine
 10
59.11677672899998
 20
147.1216233704
 30
0.0
 11
60.24261245409999
 21
146.471621922
 31
0.0
  0
ARC
  5
9D
330
2
100
AcDbEntity
  8
0
 62
     3
100
AcDbCircle
 10
61.89499909119999
 20
145.1436915521999
 30
0.0
 40
1.5999994278
100
AcDbArc
 50
5.000005831000001
 51
74.50605305159999
  0
ARC
  5
9E
330
2
100
AcDbEntity
  8
0
 62
     3
100
AcDbCircle
 10
71.83855683039997
 20
145.1436915521999
 30
0.0
 40
1.5999994278
100
AcDbArc
 50
105.4939109762
 51
174.9999923478
  0
LINE
  5
9F
330
2
100
AcDbEntity
  8
0
 62
     3
100
AcDbLine
 10
85.61678408719998
 20
143.8216199067
 30
0.0
 11
85.74464906309998
 21
145.283124023
 31
0.0
  0
LINE
  5
A0
330
2
100
AcDbEntity
  8
0
 62
     3
100
AcDbLine
 10
78.98888782410001
 20
145.2831523224999
 30
0.0
 11
79.11675279999997
 21
143.8216482061999
 31
0.0
  0
LINE
  5
A1
330
2
100
AcDbEntity
  8
0
 62
     3
100
AcDbLine
 10
81.11677033139995
 20
157.521667016
 30
0.0
 11
81.11677033139995
 21
141.821654809
 31
0.0
  0
LINE
  5
A2
330
2
100
AcDbEntity
  8
0
 62
     3
100
AcDbLine
 10
83.64678436949999
 20
157.521667016
 30
0.0
 11
83.64678436949999
 21
122.521667016
 31
0.0
  0
LINE
  5
A3
330
2
100
AcDbEntity
  8
0
 62
     3
100
AcDbLine
 10
80.11677033140001
 20
141.821654809
 30
0.0
 11
80.11677033140001
 21
130.521667016
 31
0.0
  0
LINE
  5
A4
330
2
100
AcDbEntity
  8
0
 62
     3
100
AcDbLine
 10
74.61676928189999
 20
142.8216440676
 30
0.0
 11
75.61677034349997
 21
143.8216451291
 31
0.0
  0
LINE
  5
A5
330
2
100
AcDbEntity
  8
0
 62
     3
100
AcDbLine
 10
74.61676928189999
 20
143.8216451291
 30
0.0
 11
73.61676822029997
 21
142.8216440676
 31
0.0
  0
LINE
  5
A6
330
2
100
AcDbEntity
  8
0
 62
     3
100
AcDbLine
 10
78.66677338319999
 20
142.8216548089999
 30
0.0
 11
78.66677338319999
 21
143.8216548089999
 31
0.0
  0
LINE
  5
A7
330
2
100
AcDbEntity
  8
0
 62
     3
100
AcDbLine
 10
79.6167703314
 20
141.821654809
 30
0.0
 11
79.6167703314
 21
142.8216548089999
 31
0.0
  0
LINE
  5
A8
330
2
100
AcDbEntity
  8
0
 62
     3
100
AcDbLine
 10
85.11680084899998
 20
142.8216548089999
 30
0.0
 11
85.11680084899998
 21
141.821654809
 31
0.0
  0
LINE
  5
A9
330
2
100
AcDbEntity
  8
0
 62
     3
100
AcDbLine
 10
86.06681305599995
 20
143.8216548089999
 30
0.0
 11
86.06681305599995
 21
142.8216548089999
 31
0.0
  0
LINE
  5
AA
330
2
100
AcDbEntity
  8
0
 62
     3
100
AcDbLine
 10
81.11677033139995
 20
157.521667016
 30
0.0
 11
83.64678436949999
 21
157.521667016
 31
0.0
  0
LINE
  5
AB
330
2
100
AcDbEntity
  8
0
 62
     3
100
AcDbLine
 10
81.11677033139995
 20
155.521667016
 30
0.0
 11
83.64678436949999
 21
155.521667016
 31
0.0
  0
LINE
  5
AC
330
2
100
AcDbEntity
  8
0
 62
     3
100
AcDbLine
 10
81.11677033139995
 20
151.021667016
 30
0.0
 11
83.64678436949999
 21
151.021667016
 31
0.0
  0
LINE
  5
AD
330
2
100
AcDbEntity
  8
0
 62
     3
100
AcDbLine
 10
81.11677033139995
 20
149.021667016
 30
0.0
 11
83.64678436949999
 21
149.021667016
 31
0.0
  0
LINE
  5
AE
330
2
100
AcDbEntity
  8
0
 62
     3
100
AcDbLine
 10
81.11677033139995
 20
148.021667016
 30
0.0
 11
83.64678436949999
 21
148.021667016
 31
0.0
  0
LINE
  5
AF
330
2
100
AcDbEntity
  8
0
 62
     3
100
AcDbLine
 10
74.61677672899998
 20
147.1216233704
 30
0.0
 11
75.74261245409997
 21
146.471621922
 31
0.0
  0
ARC
  5
B0
330
2
100
AcDbEntity
  8
0
 62
     3
100
AcDbCircle
 10
77.39499909119996
 20
145.1436915521999
 30
0.0
 40
1.5999994278
100
AcDbArc
 50
5.000005831000001
 51
74.50605305159999
  0
ARC
  5
B1
330
2
100
AcDbEntity
  8
0
 62
     3
100
AcDbCircle
 10
87.33858734799998
 20
145.1436915521999
 30
0.0
 40
1.5999994278
100
AcDbArc
 50
105.4939109762
 51
174.9999923478
  0
LINE
  5
B2
330
2
100
AcDbEntity
  8
0
 62
     3
100
AcDbLine
 10
68.11677033139995
 20
209.2131800776
 30
0.0
 11
80.11677033140001
 21
209.2131800776
 31
0.0
  0
LINE
  5
B3
330
2
100
AcDbEntity
  8
0
 62
     3
100
AcDbLine
 10
65.61677033139995
 20
212.7131800776
 30
0.0
 11
68.11677033139995
 21
212.7131800776
 31
0.0
  0
LINE
  5
B4
330
2
100
AcDbEntity
  8
0
 62
     3
100
AcDbLine
 10
60.8226571722
 20
213.3131709222998
 30
0.0
 11
65.61677033139995
 21
213.3131709222998
 31
0.0
  0
LINE
  5
B5
330
2
100
AcDbEntity
  8
0
 62
     3
100
AcDbLine
 10
64.61677033139998
 20
213.3131709222998
 30
0.0
 11
64.61677033139998
 21
206.2131800776
 31
0.0
  0
LINE
  5
B6
330
2
100
AcDbEntity
  8
0
 62
     3
100
AcDbLine
 10
68.11677033139995
 20
213.3131709222998
 30
0.0
 11
72.91089874939999
 21
213.3131709222998
 31
0.0
  0
LINE
  5
B7
330
2
100
AcDbEntity
  8
0
 62
     3
100
AcDbLine
 10
81.11677033139995
 20
212.7131800776
 30
0.0
 11
83.61677033140001
 21
212.7131800776
 31
0.0
  0
LINE
  5
B8
330
2
100
AcDbEntity
  8
0
 62
     3
100
AcDbLine
 10
76.3226571722
 20
213.3131709222998
 30
0.0
 11
81.11677033139995
 21
213.3131709222998
 31
0.0
  0
LINE
  5
B9
330
2
100
AcDbEntity
  8
0
 62
     3
100
AcDbLine
 10
80.11677033140001
 20
213.3131709222998
 30
0.0
 11
80.11677033140001
 21
206.2131800776
 31
0.0
  0
LINE
  5
BA
330
2
100
AcDbEntity
  8
0
 62
     3
100
AcDbLine
 10
83.61677033140001
 20
213.3131709222998
 30
0.0
 11
88.41089874939996
 21
213.3131709222998
 31
0.0
  0
LINE
  5
BB
330
2
100
AcDbEntity
  8
0
 62
     3
100
AcDbLine
 10
117.6167703313999
 20
207.7131800776
 30
0.0
 11
126.6167855901999
 21
207.7131800776
 31
0.0
  0
LINE
  5
BC
330
2
100
AcDbEntity
  8
0
 62
     3
100
AcDbLine
 10
117.6167703313999
 20
132.021667016
 30
0.0
 11
128.1167703314
 21
132.021667016
 31
0.0
  0
LINE
  5
BD
330
2
100
AcDbEntity
  8
0
 62
     3
100
AcDbLine
 10
117.6167703313999
 20
135.021667016
 30
0.0
 11
128.1167703314
 21
135.021667016
 31
0.0
  0
LINE
  5
BE
330
2
100
AcDbEntity
  8
0
 62
     3
100
AcDbLine
 10
117.6167703313999
 20
133.521667016
 30
0.0
 11
126.6167550725999
 21
133.521667016
 31
0.0
  0
LINE
  5
BF
330
2
100
AcDbEntity
  8
0
 62
     3
100
AcDbLine
 10
117.6167703313999
 20
136.521667016
 30
0.0
 11
126.6167703313999
 21
136.521667016
 31
0.0
  0
ARC
  5
C0
330
2
100
AcDbEntity
  8
0
 62
     3
100
AcDbCircle
 10
105.6168008489997
 20
135.121642602
 30
0.0
 40
12.0
100
AcDbArc
 50
74.50605305159999
 51
105.4939109762
  0
LINE
  5
C1
330
2
100
AcDbEntity
  8
0
 62
     3
100
AcDbLine
 10
103.3651263857997
 20
145.8216473809
 30
0.0
 11
105.6167846214999
 21
147.1216426482999
 31
0.0
  0
LINE
  5
C2
330
2
100
AcDbEntity
  8
0
 62
     3
100
AcDbLine
 10
99.14678436949998
 20
153.521667016
 30
0.0
 11
112.0867562933
 21
153.521667016
 31
0.0
  0
LINE
  5
C3
330
2
100
AcDbEntity
  8
0
 62
     3
100
AcDbLine
 10
101.1168008489997
 20
143.8216548089999
 30
0.0
 11
110.1168008489999
 21
143.8216548089999
 31
0.0
  0
LINE
  5
C4
330
2
100
AcDbEntity
  8
0
 62
     3
100
AcDbLine
 10
110.6168008489997
 20
142.8216548089999
 30
0.0
 11
100.6168008489999
 21
142.8216548089999
 31
0.0
  0
LINE
  5
C5
330
2
100
AcDbEntity
  8
0
 62
     3
100
AcDbLine
 10
99.14678436949998
 20
130.521667016
 30
0.0
 11
111.0867562933
 21
130.521667016
 31
0.0
  0
LINE
  5
C6
330
2
100
AcDbEntity
  8
0
 62
     3
100
AcDbLine
 10
99.14678436949998
 20
141.821654809
 30
0.0
 11
112.0867562933
 21
141.821654809
 31
0.0
  0
LINE
  5
C7
330
2
100
AcDbEntity
  8
0
 62
     3
100
AcDbLine
 10
99.14678436949998
 20
139.2216639643
 30
0.0
 11
111.0867562933
 21
139.2216639643
 31
0.0
  0
LINE
  5
C8
330
2
100
AcDbEntity
  8
0
 62
     3
100
AcDbLine
 10
99.14678436949998
 20
133.521667016
 30
0.0
 11
111.0867562933
 21
133.521667016
 31
0.0
  0
LINE
  5
C9
330
2
100
AcDbEntity
  8
0
 62
     3
100
AcDbLine
 10
101.1167840871999
 20
143.8216199067
 30
0.0
 11
101.2446490630999
 21
145.283124023
 31
0.0
  0
LINE
  5
CA
330
2
100
AcDbEntity
  8
0
 62
     3
100
AcDbLine
 10
94.48893398880001
 20
145.2831396286
 30
0.0
 11
94.61679896479996
 21
143.8216355121999
 31
0.0
  0
LINE
  5
CB
330
2
100
AcDbEntity
  8
0
 62
     3
100
AcDbLine
 10
96.5867562933
 20
157.521667016
 30
0.0
 11
96.5867562933
 21
141.821654809
 31
0.0
  0
LINE
  5
CC
330
2
100
AcDbEntity
  8
0
 62
     3
100
AcDbLine
 10
99.11677033140001
 20
157.521667016
 30
0.0
 11
99.11677033140001
 21
122.521667016
 31
0.0
  0
LINE
  5
CD
330
2
100
AcDbEntity
  8
0
 62
     3
100
AcDbLine
 10
95.5867562933
 20
141.821654809
 30
0.0
 11
95.5867562933
 21
130.521667016
 31
0.0
  0
LINE
  5
CE
330
2
100
AcDbEntity
  8
0
 62
     3
100
AcDbLine
 10
90.11676645059996
 20
142.8216299061999
 30
0.0
 11
91.1167675122
 21
143.8216309677999
 31
0.0
  0
LINE
  5
CF
330
2
100
AcDbEntity
  8
0
 62
     3
100
AcDbLine
 10
90.11676645059996
 20
143.8216309677999
 30
0.0
 11
89.11676538909999
 21
142.8216299061999
 31
0.0
  0
LINE
  5
D0
330
2
100
AcDbEntity
  8
0
 62
     3
100
AcDbLine
 10
94.16680390080001
 20
142.8216548089999
 30
0.0
 11
94.16680390080001
 21
143.8216548089999
 31
0.0
  0
LINE
  5
D1
330
2
100
AcDbEntity
  8
0
 62
     3
100
AcDbLine
 10
95.11680084899996
 20
141.821654809
 30
0.0
 11
95.11680084899996
 21
142.8216548089999
 31
0.0
  0
LINE
  5
D2
330
2
100
AcDbEntity
  8
0
 62
     3
100
AcDbLine
 10
101.5668130559998
 20
143.8216548089999
 30
0.0
 11
101.5668130559998
 21
142.8216548089999
 31
0.0
  0
LINE
  5
D3
330
2
100
AcDbEntity
  8
0
 62
     3
100
AcDbLine
 10
100.6168008489999
 20
142.8216548089999
 30
0.0
 11
100.6168008489999
 21
141.821654809
 31
0.0
  0
LINE
  5
D4
330
2
100
AcDbEntity
  8
0
 62
     3
100
AcDbLine
 10
90.11678312179999
 20
147.1216077965
 30
0.0
 11
91.24261884689998
 21
146.4716063481
 31
0.0
  0
ARC
  5
D5
330
2
100
AcDbEntity
  8
0
 62
     3
100
AcDbCircle
 10
92.89502960879998
 20
145.1436915521999
 30
0.0
 40
1.5999994278
100
AcDbArc
 50
5.000005831000001
 51
74.50605305159999
  0
LINE
  5
D6
330
2
100
AcDbEntity
  8
0
 62
     3
100
AcDbLine
 10
96.5867562933
 20
149.021667016
 30
0.0
 11
99.11677033140001
 21
149.021667016
 31
0.0
  0
LINE
  5
D7
330
2
100
AcDbEntity
  8
0
 62
     3
100
AcDbLine
 10
96.5867562933
 20
148.021667016
 30
0.0
 11
99.11677033140001
 21
148.021667016
 31
0.0
  0
LINE
  5
D8
330
2
100
AcDbEntity
  8
0
 62
     3
100
AcDbLine
 10
96.5867562933
 20
155.521667016
 30
0.0
 11
99.11677033140001
 21
155.521667016
 31
0.0
  0
LINE
  5
D9
330
2
100
AcDbEntity
  8
0
 62
     3
100
AcDbLine
 10
96.5867562933
 20
151.021667016
 30
0.0
 11
99.11677033140001
 21
151.021667016
 31
0.0
  0
ARC
  5
DA
330
2
100
AcDbEntity
  8
0
 62
     3
100
AcDbCircle
 10
102.8385873479997
 20
145.1436915521999
 30
0.0
 40
1.5999994278
100
AcDbArc
 50
105.4939109762
 51
174.9999923478
  0
LINE
  5
DB
330
2
100
AcDbEntity
  8
0
 62
     3
100
AcDbLine
 10
96.5867562933
 20
157.521667016
 30
0.0
 11
99.11677033140001
 21
157.521667016
 31
0.0
  0
LINE
  5
DC
330
2
100
AcDbEntity
  8
0
 62
     3
100
AcDbLine
 10
117.6167703313999
 20
132.021667016
 30
0.0
 11
117.6167703313999
 21
157.521667016
 31
0.0
  0
LINE
  5
DD
330
2
100
AcDbEntity
  8
0
 62
     3
100
AcDbLine
 10
109.9889339887999
 20
145.2831396286
 30
0.0
 11
110.1167989647999
 21
143.8216355121999
 31
0.0
  0
LINE
  5
DE
330
2
100
AcDbEntity
  8
0
 62
     3
100
AcDbLine
 10
112.0867562933
 20
157.521667016
 30
0.0
 11
112.0867562933
 21
141.821654809
 31
0.0
  0
LINE
  5
DF
330
2
100
AcDbEntity
  8
0
 62
     3
100
AcDbLine
 10
114.6167703313998
 20
157.521667016
 30
0.0
 11
114.6167703313998
 21
122.521667016
 31
0.0
  0
LINE
  5
E0
330
2
100
AcDbEntity
  8
0
 62
     3
100
AcDbLine
 10
111.0867562933
 20
141.821654809
 30
0.0
 11
111.0867562933
 21
130.521667016
 31
0.0
  0
LINE
  5
E1
330
2
100
AcDbEntity
  8
0
 62
     3
100
AcDbLine
 10
105.6167664505998
 20
142.8216299061999
 30
0.0
 11
106.6167675121998
 21
143.8216309677999
 31
0.0
  0
LINE
  5
E2
330
2
100
AcDbEntity
  8
0
 62
     3
100
AcDbLine
 10
105.6167664505998
 20
143.8216309677999
 30
0.0
 11
104.6167653891
 21
142.8216299061999
 31
0.0
  0
LINE
  5
E3
330
2
100
AcDbEntity
  8
0
 62
     3
100
AcDbLine
 10
109.6668039007999
 20
142.8216548089999
 30
0.0
 11
109.6668039007999
 21
143.8216548089999
 31
0.0
  0
LINE
  5
E4
330
2
100
AcDbEntity
  8
0
 62
     3
100
AcDbLine
 10
110.6168008489997
 20
141.821654809
 30
0.0
 11
110.6168008489997
 21
142.8216548089999
 31
0.0
  0
LINE
  5
E5
330
2
100
AcDbEntity
  8
0
 62
     3
100
AcDbLine
 10
105.6167831217999
 20
147.1216077965
 30
0.0
 11
106.7426188468999
 21
146.4716063481
 31
0.0
  0
ARC
  5
E6
330
2
100
AcDbEntity
  8
0
 62
     3
100
AcDbCircle
 10
108.3950296087999
 20
145.1436915521999
 30
0.0
 40
1.5999994278
100
AcDbArc
 50
5.000005831000001
 51
74.50605305159999
  0
LINE
  5
E7
330
2
100
AcDbEntity
  8
0
  6
PHANTOM
 62
     3
100
AcDbLine
 10
116.1167703313998
 20
160.521667016
 30
0.0
 11
116.1167703313998
 21
153.521667016
 31
0.0
  0
LINE
  5
E8
330
2
100
AcDbEntity
  8
0
 62
     3
100
AcDbLine
 10
112.0867562933
 20
151.021667016
 30
0.0
 11
116.1167703313998
 21
151.021667016
 31
0.0
  0
LINE
  5
E9
330
2
100
AcDbEntity
  8
0
 62
     3
100
AcDbLine
 10
112.0867562933
 20
148.021667016
 30
0.0
 11
116.1167703313998
 21
148.021667016
 31
0.0
  0
LINE
  5
EA
330
2
100
AcDbEntity
  8
0
 62
     3
100
AcDbLine
 10
112.0867562933
 20
149.021667016
 30
0.0
 11
116.1167703313998
 21
149.021667016
 31
0.0
  0
LINE
  5
EB
330
2
100
AcDbEntity
  8
0
 62
     3
100
AcDbLine
 10
112.0867562933
 20
155.521667016
 30
0.0
 11
117.6167703313999
 21
155.521667016
 31
0.0
  0
LINE
  5
EC
330
2
100
AcDbEntity
  8
0
 62
     3
100
AcDbLine
 10
116.1167703313998
 20
148.021667016
 30
0.0
 11
116.1167703313998
 21
155.521667016
 31
0.0
  0
LINE
  5
ED
330
2
100
AcDbEntity
  8
0
 62
     3
100
AcDbLine
 10
112.0867562933
 20
157.521667016
 30
0.0
 11
117.6167703313999
 21
157.521667016
 31
0.0
  0
LINE
  5
EE
330
2
100
AcDbEntity
  8
0
 62
     3
100
AcDbLine
 10
99.11677033140001
 20
209.2131800776
 30
0.0
 11
111.1167703313998
 21
209.2131800776
 31
0.0
  0
LINE
  5
EF
330
2
100
AcDbEntity
  8
0
 62
     3
100
AcDbLine
 10
91.82265717219999
 20
213.3131709222998
 30
0.0
 11
96.61677033140001
 21
213.3131709222998
 31
0.0
  0
LINE
  5
F0
330
2
100
AcDbEntity
  8
0
 62
     3
100
AcDbLine
 10
95.6167703314
 20
213.3131709222998
 30
0.0
 11
95.6167703314
 21
206.2131800776
 31
0.0
  0
LINE
  5
F1
330
2
100
AcDbEntity
  8
0
 62
     3
100
AcDbLine
 10
99.11677033140001
 20
213.3131709222998
 30
0.0
 11
103.9108987493999
 21
213.3131709222998
 31
0.0
  0
LINE
  5
F2
330
2
100
AcDbEntity
  8
0
 62
     3
100
AcDbLine
 10
96.61677033140001
 20
212.7131800776
 30
0.0
 11
99.11677033140001
 21
212.7131800776
 31
0.0
  0
LINE
  5
F3
330
2
100
AcDbEntity
  8
0
 62
     3
100
AcDbLine
 10
107.3226571721999
 20
213.3131709222998
 30
0.0
 11
112.1167703313998
 21
213.3131709222998
 31
0.0
  0
LINE
  5
F4
330
2
100
AcDbEntity
  8
0
 62
     3
100
AcDbLine
 10
111.1167703313998
 20
213.3131709222998
 30
0.0
 11
111.1167703313998
 21
206.2131800776
 31
0.0
  0
LINE
  5
F5
330
2
100
AcDbEntity
  8
0
 62
     3
100
AcDbLine
 10
112.1167703313998
 20
212.7131800776
 30
0.0
 11
116.1167703313998
 21
212.7131800776
 31
0.0
  0
LINE
  5
F6
330
2
100
AcDbEntity
  8
0
 62
     3
100
AcDbLine
 10
126.6167464756998
 20
136.5216435236
 30
0.0
 11
128.1167524934999
 21
135.0216462302
 31
0.0
  0
LINE
  5
F7
330
2
100
AcDbEntity
  8
0
 62
     3
100
AcDbLine
 10
126.6167319348999
 20
133.5216504346
 30
0.0
 11
128.1167503860999
 21
132.0216439953
 31
0.0
  0
LINE
  5
F8
330
2
100
AcDbEntity
  8
0
 62
     3
100
AcDbLine
 10
126.6167743166999
 20
122.5216485745
 30
0.0
 11
128.1167762883999
 21
124.0216497876
 31
0.0
  0
LINE
  5
F9
330
2
100
AcDbEntity
  8
0
 62
     3
100
AcDbLine
 10
126.6167703313999
 20
122.521667016
 30
0.0
 11
126.6167703313999
 21
136.521667016
 31
0.0
  0
LINE
  5
FA
330
2
100
AcDbEntity
  8
0
 62
     3
100
AcDbLine
 10
128.1167703314
 20
124.021667016
 30
0.0
 11
128.1167703314
 21
135.021667016
 31
0.0
  0
LINE
  5
FB
330
2
100
AcDbEntity
  8
0
 62
     3
100
AcDbLine
 10
147.9974923772997
 20
124.021667016
 30
0.0
 11
147.9974923772997
 21
155.521667016
 31
0.0
  0
LINE
  5
FC
330
2
100
AcDbEntity
  8
0
 62
     3
100
AcDbLine
 10
149.4974923772999
 20
122.521667016
 30
0.0
 11
149.4974923772999
 21
133.521667016
 31
0.0
  0
LINE
  5
FD
330
2
100
AcDbEntity
  8
0
 62
     3
100
AcDbLine
 10
147.9978213665999
 20
124.022033303
 30
0.0
 11
149.4978179856
 21
122.5220481899999
 31
0.0
  0
LINE
  5
FE
330
2
100
AcDbEntity
  8
0
 62
     3
100
AcDbLine
 10
147.9984054824998
 20
132.0226613900999
 30
0.0
 11
149.4984178644999
 21
133.5226737721
 31
0.0
  0
LINE
  5
FF
330
2
100
AcDbEntity
  8
0
  6
PHANTOM
 62
     3
100
AcDbLine
 10
147.8406691657999
 20
158.9080522081999
 30
0.0
 11
148.9543155888
 21
154.1352818237999
 31
0.0
  0
LINE
  5
100
330
2
100
AcDbEntity
  8
0
  6
PHANTOM
 62
     3
100
AcDbLine
 10
146.8668279561
 20
158.6808225926
 30
0.0
 11
147.9804743790999
 21
153.9080522081999
 31
0.0
  0
ARC
  5
101
330
2
100
AcDbEntity
  8
0
  6
PHANTOM
 62
     3
100
AcDbCircle
 10
148.4673949839999
 20
154.021667016
 30
0.0
 40
0.5
100
AcDbArc
 50
193.1340223063999
 51
13.13402230639995
  0
ARC
  5
102
330
2
100
AcDbEntity
  8
0
  6
PHANTOM
 62
     3
100
AcDbCircle
 10
148.3275897706997
 20
159.021667016
 30
0.0
 40
0.5
100
AcDbArc
 50
90.0
 51
193.1340223063999
  0
ARC
  5
103
330
2
100
AcDbEntity
  8
0
  6
PHANTOM
 62
     3
100
AcDbCircle
 10
148.3275897706997
 20
159.021667016
 30
0.0
 40
1.5
100
AcDbArc
 50
90.0
 51
193.1340223063999
  0
LINE
  5
104
330
2
100
AcDbEntity
  8
0
 62
     3
100
AcDbLine
 10
126.6167489573999
 20
207.7130878682999
 30
0.0
 11
127.3667551483999
 21
206.9630816772998
 31
0.0
  0
LINE
  5
105
330
2
100
AcDbEntity
  8
0
 62
     3
100
AcDbLine
 10
126.6167452804999
 20
206.213103737
 30
0.0
 11
128.1167260944999
 21
207.7131046549
 31
0.0
  0
LINE
  5
106
330
2
100
AcDbEntity
  8
0
  6
CENTER
 62
     3
100
AcDbLine
 10
171.9974923772999
 20
121.021667016
 30
0.0
 11
171.9974923772999
 21
164.9087851206999
 31
0.0
  0
LINE
  5
108
330
2
100
AcDbEntity
  8
0
 62
     3
100
AcDbLine
 10
161.9974923772999
 20
136.521667016
 30
0.0
 11
181.9975076360998
 21
136.521667016
 31
0.0
  0
LINE
  5
109
330
2
100
AcDbEntity
  8
0
 62
     3
100
AcDbLine
 10
149.9974923772998
 20
157.521667016
 30
0.0
 11
193.9974771184999
 21
157.521667016
 31
0.0
  0
LINE
  5
10A
330
2
100
AcDbEntity
  8
0
 62
     3
100
AcDbLine
 10
162.6188150091999
 20
135.021667016
 30
0.0
 11
181.3762002630998
 21
135.021667016
 31
0.0
  0
LINE
  5
10B
330
2
100
AcDbEntity
  8
0
 62
     3
100
AcDbLine
 10
155.6478152713999
 20
131.5726239713999
 30
0.0
 11
157.6977878055997
 21
128.0219674518
 31
0.0
  0
LINE
  5
10C
330
2
100
AcDbEntity
  8
0
 62
     3
100
AcDbLine
 10
155.6483546574999
 20
124.47238348
 30
0.0
 11
157.698159345
 21
128.0227492806
 31
0.0
  0
LINE
  5
10D
330
2
100
AcDbEntity
  8
0
 62
     3
100
AcDbLine
 10
152.8974862737999
 20
130.4216609124999
 30
0.0
 11
154.2974801703
 21
130.4216609124999
 31
0.0
  0
LINE
  5
10E
330
2
100
AcDbEntity
  8
0
 62
     3
100
AcDbLine
 10
152.8974862737999
 20
125.6216578607999
 30
0.0
 11
154.2974801703
 21
125.6216578607999
 31
0.0
  0
CIRCLE
  5
10F
330
2
100
AcDbEntity
  8
0
 62
     3
100
AcDbCircle
 10
153.5974832219999
 20
128.021667016
 30
0.0
 40
2.149999618499998
  0
LINE
  5
110
330
2
100
AcDbEntity
  8
0
 62
     3
100
AcDbLine
 10
149.9974923772998
 20
131.572448266
 30
0.0
 11
155.6475167913999
 21
131.572448266
 31
0.0
  0
LINE
  5
111
330
2
100
AcDbEntity
  8
0
 62
     3
100
AcDbLine
 10
149.9974923772998
 20
124.4711299066999
 30
0.0
 11
155.6475015325998
 21
124.4711299066999
 31
0.0
  0
LINE
  5
112
330
2
100
AcDbEntity
  8
0
  6
CENTER
 62
     3
100
AcDbLine
 10
151.0174836797999
 20
128.021667016
 30
0.0
 11
156.1774827642999
 21
128.021667016
 31
0.0
  0
LINE
  5
113
330
2
100
AcDbEntity
  8
0
 62
     3
100
AcDbLine
 10
151.1974893255997
 20
128.521667016
 30
0.0
 11
151.1974893255997
 21
127.521667016
 31
0.0
  0
LINE
  5
114
330
2
100
AcDbEntity
  8
0
  6
CENTER
 62
     3
100
AcDbLine
 10
153.5974832219999
 20
125.4416674738
 30
0.0
 11
153.5974832219999
 21
130.6016665582999
 31
0.0
  0
LINE
  5
115
330
2
100
AcDbEntity
  8
0
 62
     3
100
AcDbLine
 10
149.9975068288998
 20
127.1216604627
 30
0.0
 11
151.1975028167999
 21
127.5216621913999
 31
0.0
  0
LINE
  5
116
330
2
100
AcDbEntity
  8
0
 62
     3
100
AcDbLine
 10
149.9974923772998
 20
124.4711299066999
 30
0.0
 11
149.9974923772998
 21
127.1557002191999
 31
0.0
  0
LINE
  5
117
330
2
100
AcDbEntity
  8
0
 62
     3
100
AcDbLine
 10
152.8974862737999
 20
125.6216578607999
 30
0.0
 11
152.8974862737999
 21
124.4711299066999
 31
0.0
  0
LINE
  5
118
330
2
100
AcDbEntity
  8
0
 62
     3
100
AcDbLine
 10
151.1974884920999
 20
128.5216627812
 30
0.0
 11
149.9974925041998
 21
128.9216645098
 31
0.0
  0
LINE
  5
119
330
2
100
AcDbEntity
  8
0
 62
     3
100
AcDbLine
 10
149.9974923772998
 20
128.8878779535
 30
0.0
 11
149.9974923772998
 21
131.572448266
 31
0.0
  0
LINE
  5
11A
330
2
100
AcDbEntity
  8
0
 62
     3
100
AcDbLine
 10
152.8974862737999
 20
131.572448266
 30
0.0
 11
152.8974862737999
 21
130.4216609124999
 31
0.0
  0
LINE
  5
11B
330
2
100
AcDbEntity
  8
0
 62
     3
100
AcDbLine
 10
155.9974771185
 20
128.521667016
 30
0.0
 11
155.9974771185
 21
127.521667016
 31
0.0
  0
LINE
  5
11C
330
2
100
AcDbEntity
  8
0
 62
     3
100
AcDbLine
 10
154.2974801703
 20
125.6216578607999
 30
0.0
 11
154.2974801703
 21
124.4711299066999
 31
0.0
  0
LINE
  5
11D
330
2
100
AcDbEntity
  8
0
 62
     3
100
AcDbLine
 10
157.1778948915999
 20
127.1216683931
 30
0.0
 11
155.9974735468999
 21
127.5216704691
 31
0.0
  0
LINE
  5
11E
330
2
100
AcDbEntity
  8
0
 62
     3
100
AcDbLine
 10
154.2974801703
 20
131.572448266
 30
0.0
 11
154.2974801703
 21
130.4216609124999
 31
0.0
  0
LINE
  5
11F
330
2
100
AcDbEntity
  8
0
 62
     3
100
AcDbLine
 10
155.9974869733999
 20
128.5216678225
 30
0.0
 11
157.1783446596998
 21
128.9216658308999
 31
0.0
  0
LINE
  5
120
330
2
100
AcDbEntity
  8
0
 62
     3
100
AcDbLine
 10
158.9984031024999
 20
133.5226758894999
 30
0.0
 11
161.9984283721999
 21
136.5227001477
 31
0.0
  0
LINE
  5
121
330
2
100
AcDbEntity
  8
0
 62
     3
100
AcDbLine
 10
159.6197107748999
 20
132.0226634028
 30
0.0
 11
162.6197360445999
 21
135.0226876608999
 31
0.0
  0
LINE
  5
122
330
2
100
AcDbEntity
  8
0
 62
     3
100
AcDbLine
 10
158.9987027939999
 20
133.5222486649
 30
0.0
 11
159.6200080970999
 21
132.0222834219999
 31
0.0
  0
LINE
  5
123
330
2
100
AcDbEntity
  8
0
 62
     3
100
AcDbLine
 10
161.9988849992999
 20
136.5222675335999
 30
0.0
 11
162.6202027551
 21
135.0222744833
 31
0.0
  0
LINE
  5
124
330
2
100
AcDbEntity
  8
0
 62
     3
100
AcDbLine
 10
169.8180490178999
 20
136.521667016
 30
0.0
 11
169.8180490178999
 21
157.521667016
 31
0.0
  0
LINE
  5
125
330
2
100
AcDbEntity
  8
0
 62
     3
100
AcDbLine
 10
174.1769509954997
 20
157.521667016
 30
0.0
 11
174.1769509954997
 21
136.521667016
 31
0.0
  0
ARC
  5
126
330
2
100
AcDbEntity
  8
0
  6
PHANTOM
 62
     3
100
AcDbCircle
 10
195.667394984
 20
159.021667016
 30
0.0
 40
0.5
100
AcDbArc
 50
346.8659776936
 51
90.0
  0
ARC
  5
127
330
2
100
AcDbEntity
  8
0
  6
PHANTOM
 62
     3
100
AcDbCircle
 10
195.5275897706999
 20
154.021667016
 30
0.0
 40
0.5
100
AcDbArc
 50
166.8659776936
 51
346.8659776936
  0
LINE
  5
128
330
2
100
AcDbEntity
  8
0
 62
     3
100
AcDbLine
 10
193.9964282206999
 20
157.5227145920999
 30
0.0
 11
195.9963956146999
 21
155.5227640564999
 31
0.0
  0
LINE
  5
129
330
2
100
AcDbEntity
  8
0
  6
PHANTOM
 62
     3
100
AcDbLine
 10
196.1543155887999
 20
158.9080522081999
 30
0.0
 11
195.0406691657999
 21
154.1352818237999
 31
0.0
  0
ARC
  5
12A
330
2
100
AcDbEntity
  8
0
  6
PHANTOM
 62
     3
100
AcDbCircle
 10
195.667394984
 20
159.021667016
 30
0.0
 40
1.5
100
AcDbArc
 50
346.8659776936
 51
90.0
  0
LINE
  5
12B
330
2
100
AcDbEntity
  8
0
 62
     3
100
AcDbLine
 10
194.4982417519998
 20
133.5225146256
 30
0.0
 11
195.9982433443
 21
132.0225130332
 31
0.0
  0
LINE
  5
12C
330
2
100
AcDbEntity
  8
0
 62
     3
100
AcDbLine
 10
194.4985537220999
 20
122.5227967145
 30
0.0
 11
195.9983992862999
 21
124.0226307738
 31
0.0
  0
LINE
  5
12D
330
2
100
AcDbEntity
  8
0
 62
     3
100
AcDbLine
 10
184.3762002630998
 20
132.021667016
 30
0.0
 11
195.9975076360999
 21
132.021667016
 31
0.0
  0
LINE
  5
12E
330
2
100
AcDbEntity
  8
0
 62
     3
100
AcDbLine
 10
186.2981563018999
 20
128.0228069748
 30
0.0
 11
188.3482051300999
 21
131.5735956394
 31
0.0
  0
LINE
  5
12F
330
2
100
AcDbEntity
  8
0
  6
CENTER
 62
     3
100
AcDbLine
 10
187.8175019903999
 20
128.021667016
 30
0.0
 11
192.9775010747999
 21
128.021667016
 31
0.0
  0
LINE
  5
130
330
2
100
AcDbEntity
  8
0
 62
     3
100
AcDbLine
 10
186.2978091472999
 20
128.0219590748
 30
0.0
 11
188.3478045696998
 21
124.4712629116999
 31
0.0
  0
LINE
  5
131
330
2
100
AcDbEntity
  8
0
 62
     3
100
AcDbLine
 10
184.9975228948999
 20
133.521667016
 30
0.0
 11
194.4975076360998
 21
133.521667016
 31
0.0
  0
LINE
  5
132
330
2
100
AcDbEntity
  8
0
 62
     3
100
AcDbLine
 10
181.9982878895999
 20
136.5225546365999
 30
0.0
 11
184.9982915801998
 21
133.5225519576
 31
0.0
  0
LINE
  5
133
330
2
100
AcDbEntity
  8
0
 62
     3
100
AcDbLine
 10
181.3771096923
 20
135.0226716249999
 30
0.0
 11
184.3771133828998
 21
132.022668946
 31
0.0
  0
LINE
  5
134
330
2
100
AcDbEntity
  8
0
 62
     3
100
AcDbLine
 10
184.3767028112999
 20
132.0228797625
 30
0.0
 11
184.9980957035997
 21
133.5230564646
 31
0.0
  0
LINE
  5
135
330
2
100
AcDbEntity
  8
0
 62
     3
100
AcDbLine
 10
181.3767290468997
 20
135.0228479143
 30
0.0
 11
181.9980292848999
 21
136.5227986727999
 31
0.0
  0
CIRCLE
  5
136
330
2
100
AcDbEntity
  8
0
 62
     3
100
AcDbCircle
 10
190.3975015325999
 20
128.021667016
 30
0.0
 40
2.149999618499998
  0
LINE
  5
137
330
2
100
AcDbEntity
  8
0
 62
     3
100
AcDbLine
 10
188.3474832219998
 20
131.572448266
 30
0.0
 11
193.9975076360999
 21
131.572448266
 31
0.0
  0
LINE
  5
138
330
2
100
AcDbEntity
  8
0
 62
     3
100
AcDbLine
 10
188.3474984807999
 20
124.4711299066999
 30
0.0
 11
193.9975076360999
 21
124.4711299066999
 31
0.0
  0
LINE
  5
139
330
2
100
AcDbEntity
  8
0
  6
CENTER
 62
     3
100
AcDbLine
 10
190.3975015325999
 20
125.4416674738
 30
0.0
 11
190.3975015325999
 21
130.6016665582999
 31
0.0
  0
LINE
  5
13A
330
2
100
AcDbEntity
  8
0
 62
     3
100
AcDbLine
 10
193.9982064062999
 20
127.1568652950999
 30
0.0
 11
194.4982064062998
 21
128.0228906834
 31
0.0
  0
LINE
  5
13B
330
2
100
AcDbEntity
  8
0
 62
     3
100
AcDbLine
 10
194.4975076360998
 20
133.521667016
 30
0.0
 11
194.4975076360998
 21
122.521667016
 31
0.0
  0
LINE
  5
13C
330
2
100
AcDbEntity
  8
0
 62
     3
100
AcDbLine
 10
193.9975076360999
 20
127.1557002191999
 30
0.0
 11
193.9975076360999
 21
124.4711299066999
 31
0.0
  0
LINE
  5
13D
330
2
100
AcDbEntity
  8
0
 62
     3
100
AcDbLine
 10
193.9975076360999
 20
131.572448266
 30
0.0
 11
193.9975076360999
 21
128.8878779535
 31
0.0
  0
LINE
  5
13E
330
2
100
AcDbEntity
  8
0
 62
     3
100
AcDbLine
 10
193.9978837182
 20
128.8880910735999
 30
0.0
 11
194.4978989769998
 21
128.0220392564
 31
0.0
  0
LINE
  5
13F
330
2
100
AcDbEntity
  8
0
 62
     3
100
AcDbLine
 10
195.9975076360999
 20
155.521667016
 30
0.0
 11
195.9975076360999
 21
124.021667016
 31
0.0
  0
LINE
  5
140
330
2
100
AcDbEntity
  8
0
  6
PHANTOM
 62
     3
100
AcDbLine
 10
197.1281567985998
 20
158.6808225926
 30
0.0
 11
196.0145103754999
 21
153.9080522081999
 31
0.0
  0
LINE
  5
148
330
2
100
AcDbEntity
  8
0
100
AcDbLine
 10
210.0
 20
297.0
 30
0.0
 11
0.0
 21
297.0
 31
0.0
  0
LINE
  5
149
330
2
100
AcDbEntity
  8
0
 62
     3
100
AcDbLine
 10
88.27829303149997
 20
240.5746168949
 30
0.0
 11
91.95524607279995
 21
244.2515699362998
 31
0.0
  0
LINE
  5
14A
330
2
100
AcDbEntity
  8
0
 62
     3
100
AcDbLine
 10
88.27828790689995
 20
216.1746319926
 30
0.0
 11
91.95524094829995
 21
219.8515850338999
 31
0.0
  0
LINE
  5
14B
330
2
100
AcDbEntity
  8
0
 62
     3
100
AcDbLine
 10
83.61677033140001
 20
251.2131800775998
 30
0.0
 11
95.6167703314
 21
251.2131800775998
 31
0.0
  0
LINE
  5
14C
330
2
100
AcDbEntity
  8
0
 62
     3
100
AcDbLine
 10
83.61677033140001
 20
234.9631800776
 30
0.0
 11
96.61677033140001
 21
234.9631800776
 31
0.0
  0
CIRCLE
  5
14D
330
2
100
AcDbEntity
  8
0
 62
     3
100
AcDbCircle
 10
90.11677033140001
 20
242.4131770258
 30
0.0
 40
4.5
  0
CIRCLE
  5
14E
330
2
100
AcDbEntity
  8
0
 62
     3
100
AcDbCircle
 10
90.11677033140001
 20
242.4131770258
 30
0.0
 40
5.0
  0
LINE
  5
14F
330
2
100
AcDbEntity
  8
0
 62
     3
100
AcDbLine
 10
83.61677033140001
 20
225.4631800776
 30
0.0
 11
96.61677033140001
 21
225.4631800776
 31
0.0
  0
LINE
  5
150
330
2
100
AcDbEntity
  8
0
  6
PHANTOM
 62
     3
100
AcDbLine
 10
51.11677033139994
 20
255.5131800775999
 30
0.0
 11
116.1167703313998
 21
255.5131800775999
 31
0.0
  0
LINE
  5
151
330
2
100
AcDbEntity
  8
0
  6
CENTER
 62
     3
100
AcDbLine
 10
36.8817849799
 20
230.2131800776
 30
0.0
 11
129.6241388499999
 21
230.2131800776
 31
0.0
  0
LINE
  5
152
330
2
100
AcDbEntity
  8
0
 62
     3
100
AcDbLine
 10
40.61678559019997
 20
254.2131800776
 30
0.0
 11
126.6166472879999
 21
254.2131800776
 31
0.0
  0
LINE
  5
153
330
2
100
AcDbEntity
  8
0
 62
     3
100
AcDbLine
 10
58.1975175346
 20
243.3323289784999
 30
0.0
 11
60.03599944999999
 21
241.4938470630999
 31
0.0
  0
LINE
  5
154
330
2
100
AcDbEntity
  8
0
 62
     3
100
AcDbLine
 10
57.27827657679998
 20
240.5746276844999
 30
0.0
 11
60.95522961819998
 21
244.2515807258
 31
0.0
  0
LINE
  5
155
330
2
100
AcDbEntity
  8
0
 62
     3
100
AcDbLine
 10
58.1975343933
 20
218.9323501452999
 30
0.0
 11
60.03599472959999
 21
217.0938898091
 31
0.0
  0
LINE
  5
156
330
2
100
AcDbEntity
  8
0
 62
     3
100
AcDbLine
 10
57.27828129729999
 20
216.1746367129999
 30
0.0
 11
60.95523568729999
 21
219.8515911030999
 31
0.0
  0
CIRCLE
  5
157
330
2
100
AcDbEntity
  8
0
 62
     3
100
AcDbCircle
 10
59.11677033139998
 20
242.4131770258
 30
0.0
 40
4.5
  0
CIRCLE
  5
158
330
2
100
AcDbEntity
  8
0
 62
     3
100
AcDbCircle
 10
59.11677033139998
 20
242.4131770258
 30
0.0
 40
5.0
  0
LINE
  5
159
330
2
100
AcDbEntity
  8
0
 62
     3
100
AcDbLine
 10
52.61677033139998
 20
225.4631800776
 30
0.0
 11
65.61677033139995
 21
225.4631800776
 31
0.0
  0
LINE
  5
15A
330
2
100
AcDbEntity
  8
0
 62
     3
100
AcDbLine
 10
52.61677033139998
 20
234.9631800776
 30
0.0
 11
65.61677033139995
 21
234.9631800776
 31
0.0
  0
LINE
  5
15B
330
2
100
AcDbEntity
  8
0
 62
     3
100
AcDbLine
 10
52.61677033139998
 20
251.2131800775998
 30
0.0
 11
64.61677033139998
 21
251.2131800775998
 31
0.0
  0
LINE
  5
15C
330
2
100
AcDbEntity
  8
0
 62
     3
100
AcDbLine
 10
40.61678559019997
 20
252.7131800775999
 30
0.0
 11
49.61677033139998
 21
252.7131800775999
 31
0.0
  0
LINE
  5
15D
330
2
100
AcDbEntity
  8
0
 62
     3
100
AcDbLine
 10
40.61677033139995
 20
243.2131800775998
 30
0.0
 11
49.61677033139998
 21
243.2131800775998
 31
0.0
  0
LINE
  5
15E
330
2
100
AcDbEntity
  8
0
 62
     3
100
AcDbLine
 10
40.61677033139995
 20
240.2131800775999
 30
0.0
 11
49.61677033139998
 21
240.2131800775999
 31
0.0
  0
LINE
  5
15F
330
2
100
AcDbEntity
  8
0
 62
     3
100
AcDbLine
 10
40.61677033139995
 20
217.2131800775999
 30
0.0
 11
49.61677033139998
 21
217.2131800775999
 31
0.0
  0
LINE
  5
160
330
2
100
AcDbEntity
  8
0
 62
     3
100
AcDbLine
 10
40.61677033139995
 20
220.2131800776
 30
0.0
 11
49.61677033139998
 21
220.2131800776
 31
0.0
  0
ARC
  5
161
330
2
100
AcDbEntity
  8
0
 62
     3
100
AcDbCircle
 10
44.11677033139994
 20
230.2131800776
 30
0.0
 40
2.75
100
AcDbArc
 50
89.99998201389999
 51
269.9999460416999
  0
LINE
  5
162
330
2
100
AcDbEntity
  8
0
 62
     3
100
AcDbLine
 10
39.11677569839998
 20
218.7131164045
 30
0.0
 11
40.61676650119998
 21
217.2131256016999
 31
0.0
  0
LINE
  5
163
330
2
100
AcDbEntity
  8
0
 62
     3
100
AcDbLine
 10
39.11676486669995
 20
221.7131303366999
 30
0.0
 11
40.61677724869997
 21
220.2131179546998
 31
0.0
  0
LINE
  5
164
330
2
100
AcDbEntity
  8
0
 62
     3
100
AcDbLine
 10
40.61696543439999
 20
243.2129205524
 30
0.0
 11
39.11696991109997
 21
241.7129250291999
 31
0.0
  0
LINE
  5
165
330
2
100
AcDbEntity
  8
0
 62
     3
100
AcDbLine
 10
40.61680965959999
 20
240.2130852807
 30
0.0
 11
39.11680806719999
 21
238.7130836883
 31
0.0
  0
LINE
  5
166
330
2
100
AcDbEntity
  8
0
 62
     3
100
AcDbLine
 10
39.86702398089994
 20
253.4628397222
 30
0.0
 11
40.61694385519999
 21
252.7129198478998
 31
0.0
  0
LINE
  5
167
330
2
100
AcDbEntity
  8
0
 62
     3
100
AcDbLine
 10
39.11706337479995
 20
252.7127900702
 30
0.0
 11
40.6170698983
 21
254.2127868579
 31
0.0
  0
LINE
  5
168
330
2
100
AcDbEntity
  8
0
 62
     3
100
AcDbLine
 10
49.61677033139998
 20
254.2131800776
 30
0.0
 11
49.61677033139998
 21
232.3926234369
 31
0.0
  0
LINE
  5
169
330
2
100
AcDbEntity
  8
0
 62
     3
100
AcDbLine
 10
52.61677033139998
 20
254.2131800776
 30
0.0
 11
52.61677033139998
 21
234.4131770258
 31
0.0
  0
LINE
  5
16A
330
2
100
AcDbEntity
  8
0
  6
CENTER
 62
     3
100
AcDbLine
 10
44.61677033139998
 20
235.2131800776
 30
0.0
 11
44.61677033139998
 21
225.2131800776
 31
0.0
  0
ARC
  5
16B
330
2
100
AcDbEntity
  8
0
 62
     3
100
AcDbCircle
 10
45.11677033139998
 20
230.2131800776
 30
0.0
 40
2.75
100
AcDbArc
 50
270.0000179861
 51
89.99998201389994
  0
LINE
  5
16C
330
2
100
AcDbEntity
  8
0
 62
     3
100
AcDbLine
 10
44.11677033139994
 20
227.4631800776
 30
0.0
 11
45.11677033139998
 21
227.4631800776
 31
0.0
  0
LINE
  5
16D
330
2
100
AcDbEntity
  8
0
 62
     3
100
AcDbLine
 10
44.11677033139994
 20
232.9631800776
 30
0.0
 11
45.11677033139998
 21
232.9631800776
 31
0.0
  0
ARC
  5
16E
330
2
100
AcDbEntity
  8
0
 62
     3
100
AcDbCircle
 10
45.11677033139998
 20
230.2131800776
 30
0.0
 40
5.0
100
AcDbArc
 50
334.1580680677
 51
25.84193193230003
  0
LINE
  5
16F
330
2
100
AcDbEntity
  8
0
 62
     3
100
AcDbLine
 10
51.11677033139994
 20
214.7131800776
 30
0.0
 11
52.61677033139998
 21
214.7131800776
 31
0.0
  0
LINE
  5
170
330
2
100
AcDbEntity
  8
0
 62
     3
100
AcDbLine
 10
51.11677033139994
 20
226.0131678704999
 30
0.0
 11
52.61677033139998
 21
226.0131678704999
 31
0.0
  0
LINE
  5
171
330
2
100
AcDbEntity
  8
0
 62
     3
100
AcDbLine
 10
51.11677033139994
 20
234.4131770258
 30
0.0
 11
52.61677033139998
 21
234.4131770258
 31
0.0
  0
LINE
  5
172
330
2
100
AcDbEntity
  8
0
 62
     3
100
AcDbLine
 10
49.61677033139998
 20
252.2131800775999
 30
0.0
 11
52.61677033139998
 21
252.2131800775999
 31
0.0
  0
LINE
  5
173
330
2
100
AcDbEntity
  8
0
 62
     3
100
AcDbLine
 10
52.61677033139998
 20
247.1131739741
 30
0.0
 11
57.41089874939999
 21
247.1131739741
 31
0.0
  0
LINE
  5
174
330
2
100
AcDbEntity
  8
0
 62
     3
100
AcDbLine
 10
51.11677033139994
 20
245.7131800775999
 30
0.0
 11
52.61677033139998
 21
245.7131800775999
 31
0.0
  0
LINE
  5
175
330
2
100
AcDbEntity
  8
0
 62
     3
100
AcDbLine
 10
51.11677033139994
 20
247.7131800775999
 30
0.0
 11
52.61677033139998
 21
247.7131800775999
 31
0.0
  0
LINE
  5
176
330
2
100
AcDbEntity
  8
0
 62
     3
100
AcDbLine
 10
72.77829303149997
 20
240.5746168949
 30
0.0
 11
76.45524607279998
 21
244.2515699362998
 31
0.0
  0
LINE
  5
177
330
2
100
AcDbEntity
  8
0
 62
     3
100
AcDbLine
 10
72.7782812973
 20
216.1746367129999
 30
0.0
 11
76.45523568729998
 21
219.8515911030999
 31
0.0
  0
LINE
  5
178
330
2
100
AcDbEntity
  8
0
 62
     3
100
AcDbLine
 10
68.11677033139995
 20
225.4631800776
 30
0.0
 11
81.11677033139995
 21
225.4631800776
 31
0.0
  0
CIRCLE
  5
179
330
2
100
AcDbEntity
  8
0
 62
     3
100
AcDbCircle
 10
74.6167703314
 20
242.4131770258
 30
0.0
 40
5.0
  0
CIRCLE
  5
17A
330
2
100
AcDbEntity
  8
0
 62
     3
100
AcDbCircle
 10
74.6167703314
 20
242.4131770258
 30
0.0
 40
4.5
  0
LINE
  5
17B
330
2
100
AcDbEntity
  8
0
 62
     3
100
AcDbLine
 10
68.11677033139995
 20
234.9631800776
 30
0.0
 11
81.11677033139995
 21
234.9631800776
 31
0.0
  0
LINE
  5
17C
330
2
100
AcDbEntity
  8
0
 62
     3
100
AcDbLine
 10
68.11677033139995
 20
251.2131800775998
 30
0.0
 11
80.11677033140001
 21
251.2131800775998
 31
0.0
  0
LINE
  5
17D
330
2
100
AcDbEntity
  8
0
 62
     3
100
AcDbLine
 10
68.11677033139995
 20
254.2131800776
 30
0.0
 11
68.11677033139995
 21
234.4131770258
 31
0.0
  0
LINE
  5
17E
330
2
100
AcDbEntity
  8
0
 62
     3
100
AcDbLine
 10
65.61677033139995
 20
254.2131800776
 30
0.0
 11
65.61677033139995
 21
234.4131770258
 31
0.0
  0
LINE
  5
17F
330
2
100
AcDbEntity
  8
0
 62
     3
100
AcDbLine
 10
65.61677033139995
 20
234.4131770258
 30
0.0
 11
68.11677033139995
 21
234.4131770258
 31
0.0
  0
LINE
  5
180
330
2
100
AcDbEntity
  8
0
 62
     3
100
AcDbLine
 10
65.61677033139995
 20
226.0131678704999
 30
0.0
 11
68.11677033139995
 21
226.0131678704999
 31
0.0
  0
LINE
  5
181
330
2
100
AcDbEntity
  8
0
 62
     3
100
AcDbLine
 10
65.61677033139995
 20
214.7131800776
 30
0.0
 11
68.11677033139995
 21
214.7131800776
 31
0.0
  0
LINE
  5
182
330
2
100
AcDbEntity
  8
0
 62
     3
100
AcDbLine
 10
65.61677033139995
 20
245.7131800775999
 30
0.0
 11
68.11677033139995
 21
245.7131800775999
 31
0.0
  0
LINE
  5
183
330
2
100
AcDbEntity
  8
0
 62
     3
100
AcDbLine
 10
65.61677033139995
 20
247.7131800775999
 30
0.0
 11
68.11677033139995
 21
247.7131800775999
 31
0.0
  0
LINE
  5
184
330
2
100
AcDbEntity
  8
0
 62
     3
100
AcDbLine
 10
64.61677033139998
 20
254.2131800776
 30
0.0
 11
64.61677033139998
 21
247.1131739741
 31
0.0
  0
LINE
  5
185
330
2
100
AcDbEntity
  8
0
 62
     3
100
AcDbLine
 10
60.8226571722
 20
247.1131739741
 30
0.0
 11
65.61677033139995
 21
247.1131739741
 31
0.0
  0
LINE
  5
186
330
2
100
AcDbEntity
  8
0
 62
     3
100
AcDbLine
 10
68.11677033139995
 20
247.1131739741
 30
0.0
 11
72.91089874939999
 21
247.1131739741
 31
0.0
  0
LINE
  5
187
330
2
100
AcDbEntity
  8
0
 62
     3
100
AcDbLine
 10
83.61677033140001
 20
254.2131800776
 30
0.0
 11
83.61677033140001
 21
234.4131770258
 31
0.0
  0
LINE
  5
188
330
2
100
AcDbEntity
  8
0
 62
     3
100
AcDbLine
 10
81.11677033139995
 20
254.2131800776
 30
0.0
 11
81.11677033139995
 21
234.4131770258
 31
0.0
  0
LINE
  5
189
330
2
100
AcDbEntity
  8
0
 62
     3
100
AcDbLine
 10
81.11677033139995
 20
234.4131770258
 30
0.0
 11
83.61677033140001
 21
234.4131770258
 31
0.0
  0
LINE
  5
18A
330
2
100
AcDbEntity
  8
0
 62
     3
100
AcDbLine
 10
81.11677033139995
 20
226.0131678704999
 30
0.0
 11
83.61677033140001
 21
226.0131678704999
 31
0.0
  0
LINE
  5
18B
330
2
100
AcDbEntity
  8
0
 62
     3
100
AcDbLine
 10
81.11677033139995
 20
214.7131800776
 30
0.0
 11
83.61677033140001
 21
214.7131800776
 31
0.0
  0
LINE
  5
18C
330
2
100
AcDbEntity
  8
0
 62
     3
100
AcDbLine
 10
73.69753439330003
 20
218.9323501452999
 30
0.0
 11
75.53599472959996
 21
217.0938898091
 31
0.0
  0
LINE
  5
18D
330
2
100
AcDbEntity
  8
0
 62
     3
100
AcDbLine
 10
81.11677033139995
 20
247.7131800775999
 30
0.0
 11
83.61677033140001
 21
247.7131800775999
 31
0.0
  0
LINE
  5
18E
330
2
100
AcDbEntity
  8
0
 62
     3
100
AcDbLine
 10
81.11677033139995
 20
245.7131800775999
 30
0.0
 11
83.61677033140001
 21
245.7131800775999
 31
0.0
  0
LINE
  5
18F
330
2
100
AcDbEntity
  8
0
 62
     3
100
AcDbLine
 10
80.11677033140001
 20
254.2131800776
 30
0.0
 11
80.11677033140001
 21
247.1131739741
 31
0.0
  0
LINE
  5
190
330
2
100
AcDbEntity
  8
0
 62
     3
100
AcDbLine
 10
76.3226571722
 20
247.1131739741
 30
0.0
 11
81.11677033139995
 21
247.1131739741
 31
0.0
  0
LINE
  5
191
330
2
100
AcDbEntity
  8
0
 62
     3
100
AcDbLine
 10
73.69751241
 20
243.3323397681
 30
0.0
 11
75.53598353589999
 21
241.4938686422998
 31
0.0
  0
LINE
  5
192
330
2
100
AcDbEntity
  8
0
 62
     3
100
AcDbLine
 10
83.61677033140001
 20
247.1131739741
 30
0.0
 11
88.41089874939996
 21
247.1131739741
 31
0.0
  0
LINE
  5
193
330
2
100
AcDbEntity
  8
0
 62
     3
100
AcDbLine
 10
117.6167703313999
 20
252.7131800775999
 30
0.0
 11
126.6167550725999
 21
252.7131800775999
 31
0.0
  0
LINE
  5
194
330
2
100
AcDbEntity
  8
0
 62
     3
100
AcDbLine
 10
117.6167703313999
 20
243.2131800775998
 30
0.0
 11
126.6167703313999
 21
243.2131800775998
 31
0.0
  0
LINE
  5
195
330
2
100
AcDbEntity
  8
0
 62
     3
100
AcDbLine
 10
117.6167703313999
 20
240.2131800775999
 30
0.0
 11
126.6167703313999
 21
240.2131800775999
 31
0.0
  0
ARC
  5
196
330
2
100
AcDbEntity
  8
0
 62
     3
100
AcDbCircle
 10
122.1167703314
 20
230.2131800776
 30
0.0
 40
2.75
100
AcDbArc
 50
180.0000359722
 51
270.0000179861
  0
LINE
  5
197
330
2
100
AcDbEntity
  8
0
 62
     3
100
AcDbLine
 10
117.6167703313999
 20
217.2131800775999
 30
0.0
 11
126.6167703313999
 21
217.2131800775999
 31
0.0
  0
LINE
  5
198
330
2
100
AcDbEntity
  8
0
 62
     3
100
AcDbLine
 10
117.6167703313999
 20
220.2131800776
 30
0.0
 11
126.6167703313999
 21
220.2131800776
 31
0.0
  0
ARC
  5
199
330
2
100
AcDbEntity
  8
0
 62
     3
100
AcDbCircle
 10
122.1167703314
 20
230.2131800776
 30
0.0
 40
2.75
100
AcDbArc
 50
89.99998201389999
 51
179.9999640277999
  0
LINE
  5
19A
330
2
100
AcDbEntity
  8
0
 62
     3
100
AcDbLine
 10
103.7782771172998
 20
240.5746384740999
 30
0.0
 11
107.4552301586999
 21
244.2515915154
 31
0.0
  0
LINE
  5
19B
330
2
100
AcDbEntity
  8
0
 62
     3
100
AcDbLine
 10
103.7782879068998
 20
216.1746319926
 30
0.0
 11
107.4552409482999
 21
219.8515850338999
 31
0.0
  0
CIRCLE
  5
19C
330
2
100
AcDbEntity
  8
0
 62
     3
100
AcDbCircle
 10
105.6167703314
 20
242.4131770258
 30
0.0
 40
4.5
  0
CIRCLE
  5
19D
330
2
100
AcDbEntity
  8
0
 62
     3
100
AcDbCircle
 10
105.6167703314
 20
242.4131770258
 30
0.0
 40
5.0
  0
LINE
  5
19E
330
2
100
AcDbEntity
  8
0
 62
     3
100
AcDbLine
 10
99.11677033140001
 20
225.4631800776
 30
0.0
 11
112.1167703313998
 21
225.4631800776
 31
0.0
  0
LINE
  5
19F
330
2
100
AcDbEntity
  8
0
 62
     3
100
AcDbLine
 10
99.11677033140001
 20
234.9631800776
 30
0.0
 11
112.1167703313998
 21
234.9631800776
 31
0.0
  0
LINE
  5
1A0
330
2
100
AcDbEntity
  8
0
 62
     3
100
AcDbLine
 10
99.11677033140001
 20
251.2131800775998
 30
0.0
 11
111.1167703313998
 21
251.2131800775998
 31
0.0
  0
LINE
  5
1A1
330
2
100
AcDbEntity
  8
0
 62
     3
100
AcDbLine
 10
96.61677033140001
 20
254.2131800776
 30
0.0
 11
96.61677033140001
 21
234.4131770258
 31
0.0
  0
LINE
  5
1A2
330
2
100
AcDbEntity
  8
0
 62
     3
100
AcDbLine
 10
99.11677033140001
 20
254.2131800776
 30
0.0
 11
99.11677033140001
 21
234.4131770258
 31
0.0
  0
LINE
  5
1A3
330
2
100
AcDbEntity
  8
0
 62
     3
100
AcDbLine
 10
89.19752886469998
 20
218.9323548657998
 30
0.0
 11
91.03599999049999
 21
217.0938837398999
 31
0.0
  0
LINE
  5
1A4
330
2
100
AcDbEntity
  8
0
 62
     3
100
AcDbLine
 10
96.61677033140001
 20
214.7131800776
 30
0.0
 11
99.11677033140001
 21
214.7131800776
 31
0.0
  0
LINE
  5
1A5
330
2
100
AcDbEntity
  8
0
 62
     3
100
AcDbLine
 10
96.61677033140001
 20
226.0131678704999
 30
0.0
 11
99.11677033140001
 21
226.0131678704999
 31
0.0
  0
LINE
  5
1A6
330
2
100
AcDbEntity
  8
0
 62
     3
100
AcDbLine
 10
96.61677033140001
 20
234.4131770258
 30
0.0
 11
99.11677033140001
 21
234.4131770258
 31
0.0
  0
LINE
  5
1A7
330
2
100
AcDbEntity
  8
0
 62
     3
100
AcDbLine
 10
91.82265717219999
 20
247.1131739741
 30
0.0
 11
96.61677033140001
 21
247.1131739741
 31
0.0
  0
LINE
  5
1A8
330
2
100
AcDbEntity
  8
0
 62
     3
100
AcDbLine
 10
95.6167703314
 20
254.2131800776
 30
0.0
 11
95.6167703314
 21
247.1131739741
 31
0.0
  0
LINE
  5
1A9
330
2
100
AcDbEntity
  8
0
 62
     3
100
AcDbLine
 10
89.19751241
 20
243.3323397681
 30
0.0
 11
91.03598353590001
 21
241.4938686422998
 31
0.0
  0
LINE
  5
1AA
330
2
100
AcDbEntity
  8
0
 62
     3
100
AcDbLine
 10
99.11677033140001
 20
247.1131739741
 30
0.0
 11
103.9108987493999
 21
247.1131739741
 31
0.0
  0
LINE
  5
1AB
330
2
100
AcDbEntity
  8
0
 62
     3
100
AcDbLine
 10
96.61677033140001
 20
245.7131800775999
 30
0.0
 11
99.11677033140001
 21
245.7131800775999
 31
0.0
  0
LINE
  5
1AC
330
2
100
AcDbEntity
  8
0
 62
     3
100
AcDbLine
 10
96.61677033140001
 20
247.7131800775999
 30
0.0
 11
99.11677033140001
 21
247.7131800775999
 31
0.0
  0
LINE
  5
1AD
330
2
100
AcDbEntity
  8
0
 62
     3
100
AcDbLine
 10
117.6167703313999
 20
232.3926234369
 30
0.0
 11
117.6167703313999
 21
254.2131800776
 31
0.0
  0
LINE
  5
1AE
330
2
100
AcDbEntity
  8
0
 62
     3
100
AcDbLine
 10
112.1167703313998
 20
254.2131800776
 30
0.0
 11
112.1167703313998
 21
234.4131770258
 31
0.0
  0
LINE
  5
1AF
330
2
100
AcDbEntity
  8
0
 62
     3
100
AcDbLine
 10
114.6167703313998
 20
254.2131800776
 30
0.0
 11
114.6167703313998
 21
234.4131770258
 31
0.0
  0
LINE
  5
1B0
330
2
100
AcDbEntity
  8
0
 62
     3
100
AcDbLine
 10
104.6975288646997
 20
218.9323548657998
 30
0.0
 11
106.5359999904998
 21
217.0938837398999
 31
0.0
  0
LINE
  5
1B1
330
2
100
AcDbEntity
  8
0
 62
     3
100
AcDbLine
 10
112.1167703313998
 20
214.7131800776
 30
0.0
 11
116.1167703313998
 21
214.7131800776
 31
0.0
  0
LINE
  5
1B2
330
2
100
AcDbEntity
  8
0
 62
     3
100
AcDbLine
 10
112.1167703313998
 20
234.4131770258
 30
0.0
 11
116.1167703313998
 21
234.4131770258
 31
0.0
  0
LINE
  5
1B3
330
2
100
AcDbEntity
  8
0
 62
     3
100
AcDbLine
 10
112.1167703313998
 20
226.0131678704999
 30
0.0
 11
116.1167703313998
 21
226.0131678704999
 31
0.0
  0
ARC
  5
1B4
330
2
100
AcDbEntity
  8
0
 62
     3
100
AcDbCircle
 10
122.1167703314
 20
230.2131800776
 30
0.0
 40
5.0
100
AcDbArc
 50
154.1580252653
 51
205.8419027903
  0
LINE
  5
1B5
330
2
100
AcDbEntity
  8
0
 62
     3
100
AcDbLine
 10
107.3226571721999
 20
247.1131739741
 30
0.0
 11
112.1167703313998
 21
247.1131739741
 31
0.0
  0
LINE
  5
1B6
330
2
100
AcDbEntity
  8
0
 62
     3
100
AcDbLine
 10
111.1167703313998
 20
254.2131800776
 30
0.0
 11
111.1167703313998
 21
247.1131739741
 31
0.0
  0
LINE
  5
1B7
330
2
100
AcDbEntity
  8
0
 62
     3
100
AcDbLine
 10
104.6975180750999
 20
243.3323397681
 30
0.0
 11
106.5359999904998
 21
241.4938578527
 31
0.0
  0
LINE
  5
1B8
330
2
100
AcDbEntity
  8
0
 62
     3
100
AcDbLine
 10
112.1167703313998
 20
245.7131800775999
 30
0.0
 11
116.1167703313998
 21
245.7131800775999
 31
0.0
  0
LINE
  5
1B9
330
2
100
AcDbEntity
  8
0
 62
     3
100
AcDbLine
 10
112.1167703313998
 20
247.7131800775999
 30
0.0
 11
116.1167703313998
 21
247.7131800775999
 31
0.0
  0
LINE
  5
1BA
330
2
100
AcDbEntity
  8
0
 62
     3
100
AcDbLine
 10
114.6167703313998
 20
252.2131800775999
 30
0.0
 11
117.6167703313999
 21
252.2131800775999
 31
0.0
  0
LINE
  5
1BB
330
2
100
AcDbEntity
  8
0
 62
     3
100
AcDbLine
 10
126.6167489573999
 20
220.2130903485
 30
0.0
 11
128.1167505497998
 21
221.7130919409
 31
0.0
  0
LINE
  5
1BC
330
2
100
AcDbEntity
  8
0
 62
     3
100
AcDbLine
 10
126.6167489573999
 20
217.2130871637999
 30
0.0
 11
128.1167505497998
 21
218.7130887562
 31
0.0
  0
LINE
  5
1BD
330
2
100
AcDbEntity
  8
0
  6
CENTER
 62
     3
100
AcDbLine
 10
122.6167703313999
 20
235.2131800776
 30
0.0
 11
122.6167703313999
 21
225.2131800776
 31
0.0
  0
ARC
  5
1BE
330
2
100
AcDbEntity
  8
0
 62
     3
100
AcDbCircle
 10
123.1167703313999
 20
230.2131800776
 30
0.0
 40
2.75
100
AcDbArc
 50
270.0000726275999
 51
89.99998201389994
  0
LINE
  5
1BF
330
2
100
AcDbEntity
  8
0
 62
     3
100
AcDbLine
 10
122.1167703314
 20
227.4631800776
 30
0.0
 11
123.1167703313999
 21
227.4631800776
 31
0.0
  0
LINE
  5
1C0
330
2
100
AcDbEntity
  8
0
 62
     3
100
AcDbLine
 10
122.1167703314
 20
232.9631800776
 30
0.0
 11
123.1167703313999
 21
232.9631800776
 31
0.0
  0
LINE
  5
1C1
330
2
100
AcDbEntity
  8
0
 62
     3
100
AcDbLine
 10
126.6167489573999
 20
252.7130924813999
 30
0.0
 11
127.3667443587999
 21
253.4630878827999
 31
0.0
  0
LINE
  5
1C2
330
2
100
AcDbEntity
  8
0
 62
     3
100
AcDbLine
 10
128.1167505497998
 20
238.7130884087999
 30
0.0
 11
126.6167489573999
 21
240.2130900011
 31
0.0
  0
LINE
  5
1C3
330
2
100
AcDbEntity
  8
0
 62
     3
100
AcDbLine
 10
128.1167505497998
 20
241.7130915934999
 30
0.0
 11
126.6167489573999
 21
243.2130931858999
 31
0.0
  0
LINE
  5
1C4
330
2
100
AcDbEntity
  8
0
 62
     3
100
AcDbLine
 10
126.6167408632999
 20
254.2130865029
 30
0.0
 11
128.1167473868999
 21
252.7130897152999
 31
0.0
  0
TEXT
  5
1DB
330
2
100
AcDbEntity
  8
0
 62
     7
100
AcDbText
 10
146.0
 20
85.00000295524989
 30
0.0
 40
2.999994089499998
  1
BTB50C4
 11
146.0
 21
86.49999999999989
 31
0.0
100
AcDbText
 73
     2
  0
ENDSEC
  0
SECTION
  2
OBJECTS
  0
DICTIONARY
  5
7
330
0
100
AcDbDictionary
281
     1
  3
ACAD_GROUP
350
1F
  3
ACAD_LAYOUT
350
B
  3
ACAD_MLINESTYLE
350
20
  3
ACAD_PLOTSETTINGS
350
21
  3
ACAD_PLOTSTYLENAME
350
6
  3
AcDbVariableDictionary
350
1DC
  0
DICTIONARY
  5
1F
102
{ACAD_REACTORS
330
7
102
}
330
7
100
AcDbDictionary
281
     1
  0
DICTIONARY
  5
B
102
{ACAD_REACTORS
330
7
102
}
330
7
100
AcDbDictionary
281
     1
  3
Model
350
A
  3
ﾚｲｱｳﾄ1
350
F
  0
DICTIONARY
  5
20
102
{ACAD_REACTORS
330
7
102
}
330
7
100
AcDbDictionary
281
     1
  3
Standard
350
22
  0
DICTIONARY
  5
21
102
{ACAD_REACTORS
330
7
102
}
330
7
100
AcDbDictionary
281
     1
  0
ACDBDICTIONARYWDFLT
  5
6
102
{ACAD_REACTORS
330
7
102
}
330
7
100
AcDbDictionary
281
     1
  3
Normal
350
5
100
AcDbDictionaryWithDefault
340
5
  0
DICTIONARY
  5
1DC
102
{ACAD_REACTORS
330
7
102
}
330
7
100
AcDbDictionary
281
     1
  3
DIMASSOC
350
1DD
  0
LAYOUT
  5
A
102
{ACAD_REACTORS
330
B
102
}
330
B
100
AcDbPlotSettings
  1

  2
C:\Program Files\AutoCAD 2000i\plotters\DWF Classic.pc3
  4

  6

 40
0.0
 41
0.0
 42
0.0
 43
0.0
 44
0.0
 45
0.0
 46
0.0
 47
0.0
 48
0.0
 49
0.0
140
0.0
141
0.0
142
1.0
143
1.0
 70
  1712
 72
     0
 73
     0
 74
     0
  7

 75
     0
147
1.0
148
0.0
149
0.0
100
AcDbLayout
  1
Model
 70
     1
 71
     0
 10
0.0
 20
0.0
 11
12.0
 21
9.0
 12
0.0
 22
0.0
 32
0.0
 14
0.0
 24
0.0
 34
0.0
 15
0.0
 25
0.0
 35
0.0
146
0.0
 13
0.0
 23
0.0
 33
0.0
 16
1.0
 26
0.0
 36
0.0
 17
0.0
 27
1.0
 37
0.0
 76
     0
330
2
  0
LAYOUT
  5
F
102
{ACAD_REACTORS
330
B
102
}
330
B
100
AcDbPlotSettings
  1

  2
C:\Program Files\AutoCAD 2000i\plotters\DWF Classic.pc3
  4

  6

 40
0.0
 41
0.0
 42
0.0
 43
0.0
 44
0.0
 45
0.0
 46
0.0
 47
0.0
 48
0.0
 49
0.0
140
0.0
141
0.0
142
1.0
143
1.0
 70
   688
 72
     0
 73
     0
 74
     5
  7

 75
    16
147
1.0
148
0.0
149
0.0
100
AcDbLayout
  1
ﾚｲｱｳﾄ1
 70
     1
 71
     1
 10
0.0
 20
0.0
 11
12.0
 21
9.0
 12
0.0
 22
0.0
 32
0.0
 14
1.000000000000000E+20
 24
1.000000000000000E+20
 34
1.000000000000000E+20
 15
-1.000000000000000E+20
 25
-1.000000000000000E+20
 35
-1.000000000000000E+20
146
0.0
 13
0.0
 23
0.0
 33
0.0
 16
1.0
 26
0.0
 36
0.0
 17
0.0
 27
1.0
 37
0.0
 76
     0
330
C
  0
MLINESTYLE
  5
22
102
{ACAD_REACTORS
330
20
102
}
330
20
100
AcDbMlineStyle
  2
STANDARD
 70
     0
  3

 62
   256
 51
90.0
 52
90.0
 71
     2
 49
0.5
 62
   256
  6
BYLAYER
 49
-0.5
 62
   256
  6
BYLAYER
  0
ACDBPLACEHOLDER
  5
5
102
{ACAD_REACTORS
330
6
102
}
330
6
  0
DICTIONARYVAR
  5
1DD
102
{ACAD_REACTORS
330
1DC
102
}
330
1DC
100
DictionaryVariables
280
     0
  1
1
  0
ENDSEC
  0
EOF
