  0
SECTION
  2
HEADER
  9
$ACADVER
  1
AC1015
  9
$ACADMAINTVER
 70
    13
  9
$DWGCODEPAGE
  3
ANSI_932
  9
$INSBASE
 10
0.0
 20
0.0
 30
0.0
  9
$EXTMIN
 10
-0.0159322580700518
 20
-0.0006542520408175
 30
-0.0000000349181948
  9
$EXTMAX
 10
210.0187352299457
 20
297.0044434912594
 30
0.0000000814935747
  9
$LIMMIN
 10
-191.6518829345999
 20
-3.174999999999998
  9
$LIMMAX
 10
3.174999999999998
 20
291.2585876465
  9
$ORTHOMODE
 70
     0
  9
$REGENMODE
 70
     1
  9
$FILLMODE
 70
     1
  9
$QTEXTMODE
 70
     0
  9
$MIRRTEXT
 70
     0
  9
$LTSCALE
 40
1.0
  9
$ATTMODE
 70
     1
  9
$TEXTSIZE
 40
2.999994039499997
  9
$TRACEWID
 40
0.05
  9
$TEXTSTYLE
  7
STANDARD
  9
$CLAYER
  8
0
  9
$CELTYPE
  6
ByLayer
  9
$CECOLOR
 62
   256
  9
$CELTSCALE
 40
1.0
  9
$DISPSILH
 70
     0
  9
$DIMSCALE
 40
1.0
  9
$DIMASZ
 40
1.9727878465
  9
$DIMEXO
 40
2.539999961899999
  9
$DIMDLI
 40
0.38
  9
$DIMRND
 40
0.0
  9
$DIMDLE
 40
0.0
  9
$DIMEXE
 40
3.809999942799997
  9
$DIMTP
 40
0.0
  9
$DIMTM
 40
0.0
  9
$DIMTXT
 40
2.999994039499997
  9
$DIMCEN
 40
0.09
  9
$DIMTSZ
 40
0.0
  9
$DIMTOL
 70
     0
  9
$DIMLIM
 70
     0
  9
$DIMTIH
 70
     0
  9
$DIMTOH
 70
     1
  9
$DIMSE1
 70
     0
  9
$DIMSE2
 70
     0
  9
$DIMTAD
 70
     0
  9
$DIMZIN
 70
     0
  9
$DIMBLK
  1

  9
$DIMASO
 70
     1
  9
$DIMSHO
 70
     0
  9
$DIMPOST
  1

  9
$DIMAPOST
  1

  9
$DIMALT
 70
     0
  9
$DIMALTD
 70
     2
  9
$DIMALTF
 40
25.4
  9
$DIMLFAC
 40
1.0
  9
$DIMTOFL
 70
     0
  9
$DIMTVP
 40
0.0
  9
$DIMTIX
 70
     0
  9
$DIMSOXD
 70
     0
  9
$DIMSAH
 70
     0
  9
$DIMBLK1
  1

  9
$DIMBLK2
  1

  9
$DIMSTYLE
  2
Standard
  9
$DIMCLRD
 70
     0
  9
$DIMCLRE
 70
     0
  9
$DIMCLRT
 70
     0
  9
$DIMTFAC
 40
1.0
  9
$DIMGAP
 40
0.09
  9
$DIMJUST
 70
     0
  9
$DIMSD1
 70
     0
  9
$DIMSD2
 70
     0
  9
$DIMTOLJ
 70
     1
  9
$DIMTZIN
 70
     0
  9
$DIMALTZ
 70
     0
  9
$DIMALTTZ
 70
     0
  9
$DIMUPT
 70
     0
  9
$DIMDEC
 70
     4
  9
$DIMTDEC
 70
     4
  9
$DIMALTU
 70
     2
  9
$DIMALTTD
 70
     2
  9
$DIMTXSTY
  7
STANDARD
  9
$DIMAUNIT
 70
     0
  9
$DIMADEC
 70
     0
  9
$DIMALTRND
 40
0.0
  9
$DIMAZIN
 70
     0
  9
$DIMDSEP
 70
    46
  9
$DIMATFIT
 70
     3
  9
$DIMFRAC
 70
     0
  9
$DIMLDRBLK
  1

  9
$DIMLUNIT
 70
     2
  9
$DIMLWD
 70
    -2
  9
$DIMLWE
 70
    -2
  9
$DIMTMOVE
 70
     0
  9
$LUNITS
 70
     2
  9
$LUPREC
 70
     3
  9
$SKETCHINC
 40
0.1
  9
$FILLETRAD
 40
0.0625
  9
$AUNITS
 70
     0
  9
$AUPREC
 70
     0
  9
$MENU
  1
ACAD
  9
$ELEVATION
 40
0.0
  9
$PELEVATION
 40
0.0
  9
$THICKNESS
 40
0.0
  9
$LIMCHECK
 70
     0
  9
$CHAMFERA
 40
0.0
  9
$CHAMFERB
 40
0.0
  9
$CHAMFERC
 40
0.0
  9
$CHAMFERD
 40
0.0
  9
$SKPOLY
 70
     0
  9
$TDCREATE
 40
2453377.955613425
  9
$TDUCREATE
 40
2453377.580613426
  9
$TDUPDATE
 40
2453390.676872639
  9
$TDUUPDATE
 40
2453390.301872639
  9
$TDINDWG
 40
0.0025171759
  9
$TDUSRTIMER
 40
0.0025169907
  9
$USRTIMER
 70
     1
  9
$ANGBASE
 50
0.0
  9
$ANGDIR
 70
     0
  9
$PDMODE
 70
     0
  9
$PDSIZE
 40
0.0
  9
$PLINEWID
 40
0.0
  9
$SPLFRAME
 70
     0
  9
$SPLINETYPE
 70
     6
  9
$SPLINESEGS
 70
     8
  9
$HANDSEED
  5
417
  9
$SURFTAB1
 70
     6
  9
$SURFTAB2
 70
     6
  9
$SURFTYPE
 70
     6
  9
$SURFU
 70
     6
  9
$SURFV
 70
     6
  9
$UCSBASE
  2

  9
$UCSNAME
  2

  9
$UCSORG
 10
0.0
 20
0.0
 30
0.0
  9
$UCSXDIR
 10
1.0
 20
0.0
 30
0.0
  9
$UCSYDIR
 10
0.0
 20
1.0
 30
0.0
  9
$UCSORTHOREF
  2

  9
$UCSORTHOVIEW
 70
     0
  9
$UCSORGTOP
 10
0.0
 20
0.0
 30
0.0
  9
$UCSORGBOTTOM
 10
0.0
 20
0.0
 30
0.0
  9
$UCSORGLEFT
 10
0.0
 20
0.0
 30
0.0
  9
$UCSORGRIGHT
 10
0.0
 20
0.0
 30
0.0
  9
$UCSORGFRONT
 10
0.0
 20
0.0
 30
0.0
  9
$UCSORGBACK
 10
0.0
 20
0.0
 30
0.0
  9
$PUCSBASE
  2

  9
$PUCSNAME
  2

  9
$PUCSORG
 10
0.0
 20
0.0
 30
0.0
  9
$PUCSXDIR
 10
1.0
 20
0.0
 30
0.0
  9
$PUCSYDIR
 10
0.0
 20
1.0
 30
0.0
  9
$PUCSORTHOREF
  2

  9
$PUCSORTHOVIEW
 70
     0
  9
$PUCSORGTOP
 10
0.0
 20
0.0
 30
0.0
  9
$PUCSORGBOTTOM
 10
0.0
 20
0.0
 30
0.0
  9
$PUCSORGLEFT
 10
0.0
 20
0.0
 30
0.0
  9
$PUCSORGRIGHT
 10
0.0
 20
0.0
 30
0.0
  9
$PUCSORGFRONT
 10
0.0
 20
0.0
 30
0.0
  9
$PUCSORGBACK
 10
0.0
 20
0.0
 30
0.0
  9
$USERI1
 70
    24
  9
$USERI2
 70
     0
  9
$USERI3
 70
     0
  9
$USERI4
 70
     0
  9
$USERI5
 70
     0
  9
$USERR1
 40
0.0
  9
$USERR2
 40
0.0
  9
$USERR3
 40
0.0
  9
$USERR4
 40
0.0
  9
$USERR5
 40
0.0
  9
$WORLDVIEW
 70
     1
  9
$SHADEDGE
 70
     3
  9
$SHADEDIF
 70
    70
  9
$TILEMODE
 70
     1
  9
$MAXACTVP
 70
    64
  9
$PINSBASE
 10
0.0
 20
0.0
 30
0.0
  9
$PLIMCHECK
 70
     0
  9
$PEXTMIN
 10
1.000000000000000E+20
 20
1.000000000000000E+20
 30
1.000000000000000E+20
  9
$PEXTMAX
 10
-1.000000000000000E+20
 20
-1.000000000000000E+20
 30
-1.000000000000000E+20
  9
$PLIMMIN
 10
0.0
 20
0.0
  9
$PLIMMAX
 10
12.0
 20
9.0
  9
$UNITMODE
 70
     0
  9
$VISRETAIN
 70
     1
  9
$PLINEGEN
 70
     0
  9
$PSLTSCALE
 70
     1
  9
$TREEDEPTH
 70
  3020
  9
$CMLSTYLE
  2
Standard
  9
$CMLJUST
 70
     0
  9
$CMLSCALE
 40
1.0
  9
$PROXYGRAPHICS
 70
     1
  9
$MEASUREMENT
 70
     0
  9
$CELWEIGHT
370
    -1
  9
$ENDCAPS
280
     0
  9
$JOINSTYLE
280
     0
  9
$LWDISPLAY
290
     0
  9
$INSUNITS
 70
     0
  9
$HYPERLINKBASE
  1

  9
$STYLESHEET
  1

  9
$XEDIT
290
     1
  9
$CEPSNTYPE
380
     0
  9
$PSTYLEMODE
290
     1
  9
$FINGERPRINTGUID
  2
{BC621D99-9D15-4BA2-80D7-3472A4159C86}
  9
$VERSIONGUID
  2
{B1E3D0CB-8CA0-4139-B004-C35E7194F177}
  9
$EXTNAMES
290
     1
  9
$PSVPSCALE
 40
0.0
  9
$OLESTARTUP
290
     0
  0
ENDSEC
  0
SECTION
  2
CLASSES
  0
CLASS
  1
ACDBDICTIONARYWDFLT
  2
AcDbDictionaryWithDefault
  3
AutoCAD 2000
 90
        0
280
     0
281
     0
  0
CLASS
  1
ACDBPLACEHOLDER
  2
AcDbPlaceHolder
  3
AutoCAD 2000
 90
        0
280
     0
281
     0
  0
CLASS
  1
LAYOUT
  2
AcDbLayout
  3
AutoCAD 2000
 90
        0
280
     0
281
     0
  0
CLASS
  1
DICTIONARYVAR
  2
AcDbDictionaryVar
  3
AutoCAD 2000
 90
        0
280
     0
281
     0
  0
ENDSEC
  0
SECTION
  2
TABLES
  0
TABLE
  2
VPORT
  5
19
330
0
100
AcDbSymbolTable
 70
     2
  0
VPORT
  5
416
330
19
100
AcDbSymbolTableRecord
100
AcDbViewportTableRecord
  2
*Active
 70
     0
 10
0.0
 20
0.0
 11
1.0
 21
1.0
 12
105.0014014859378
 22
148.5018946196093
 13
0.0
 23
0.0
 14
1.0
 24
1.0
 15
0.0
 25
0.0
 16
0.0
 26
0.0
 36
1.0
 17
0.0
 27
0.0
 37
0.0
 40
301.3409385862682
 41
2.407317073170731
 42
50.0
 43
0.0
 44
0.0
 50
0.0
 51
0.0
 71
     0
 72
   100
 73
     1
 74
     1
 75
     0
 76
     0
 77
     0
 78
     0
281
     0
 65
     1
110
0.0
120
0.0
130
0.0
111
1.0
121
0.0
131
0.0
112
0.0
122
1.0
132
0.0
 79
     0
146
0.0
  0
ENDTAB
  0
TABLE
  2
LTYPE
  5
14
330
0
100
AcDbSymbolTable
 70
     3
  0
LTYPE
  5
15
330
14
100
AcDbSymbolTableRecord
100
AcDbLinetypeTableRecord
  2
ByBlock
 70
     0
  3

 72
    65
 73
     0
 40
0.0
  0
LTYPE
  5
16
330
14
100
AcDbSymbolTableRecord
100
AcDbLinetypeTableRecord
  2
ByLayer
 70
     0
  3

 72
    65
 73
     0
 40
0.0
  0
LTYPE
  5
8
330
14
100
AcDbSymbolTableRecord
100
AcDbLinetypeTableRecord
  2
Continuous
 70
     0
  3
Solid line
 72
    65
 73
     0
 40
0.0
  0
LTYPE
  5
28
330
14
100
AcDbSymbolTableRecord
100
AcDbLinetypeTableRecord
  2
CENTER
 70
     0
  3
Center
 72
    65
 73
     4
 40
9.100006759199999
 49
6.5000119209
 74
     0
 49
-0.7999984026000001
 74
     0
 49
0.9999980329999999
 74
     0
 49
-0.7999984026000001
 74
     0
  0
LTYPE
  5
2D
330
14
100
AcDbSymbolTableRecord
100
AcDbLinetypeTableRecord
  2
PHANTOM
 70
     0
  3
Phantom
 72
    65
 73
     6
 40
9.499981462999999
 49
4.799990654
 74
     0
 49
-0.8999982475999999
 74
     0
 49
0.9999980329999999
 74
     0
 49
-0.8999982475999999
 74
     0
 49
0.9999980329999999
 74
     0
 49
-0.8999982475999999
 74
     0
  0
ENDTAB
  0
TABLE
  2
LAYER
  5
10
330
0
100
AcDbSymbolTable
 70
     1
  0
LAYER
  5
4
330
10
100
AcDbSymbolTableRecord
100
AcDbLayerTableRecord
  2
0
 70
     0
 62
     7
  6
Continuous
370
    -3
390
5
  0
ENDTAB
  0
TABLE
  2
STYLE
  5
11
330
0
100
AcDbSymbolTable
 70
     1
  0
STYLE
  5
12
330
11
100
AcDbSymbolTableRecord
100
AcDbTextStyleTableRecord
  2
STANDARD
 70
     0
 40
0.0
 41
1.0
 50
0.0
 71
     0
 42
2.999994039499997
  3
romans.shx
  4
bigfont.shx
  0
ENDTAB
  0
TABLE
  2
VIEW
  5
17
330
0
100
AcDbSymbolTable
 70
     0
  0
ENDTAB
  0
TABLE
  2
UCS
  5
18
330
0
100
AcDbSymbolTable
 70
     0
  0
ENDTAB
  0
TABLE
  2
APPID
  5
1B
330
0
100
AcDbSymbolTable
 70
     1
  0
APPID
  5
1C
330
1B
100
AcDbSymbolTableRecord
100
AcDbRegAppTableRecord
  2
ACAD
 70
     0
  0
ENDTAB
  0
TABLE
  2
DIMSTYLE
  5
1D
330
0
100
AcDbSymbolTable
 70
     1
100
AcDbDimStyleTable
 71
     0
  0
DIMSTYLE
105
23
330
1D
100
AcDbSymbolTableRecord
100
AcDbDimStyleTableRecord
  2
Standard
 70
     0
340
12
  0
ENDTAB
  0
TABLE
  2
BLOCK_RECORD
  5
1
330
0
100
AcDbSymbolTable
 70
     1
  0
BLOCK_RECORD
  5
2
330
1
100
AcDbSymbolTableRecord
100
AcDbBlockTableRecord
  2
*Model_Space
340
A
  0
BLOCK_RECORD
  5
C
330
1
100
AcDbSymbolTableRecord
100
AcDbBlockTableRecord
  2
*Paper_Space
340
F
  0
ENDTAB
  0
ENDSEC
  0
SECTION
  2
BLOCKS
  0
BLOCK
  5
3
330
2
100
AcDbEntity
  8
0
100
AcDbBlockBegin
  2
*Model_Space
 70
     0
 10
0.0
 20
0.0
 30
0.0
  3
*Model_Space
  1

  0
ENDBLK
  5
9
330
2
100
AcDbEntity
  8
0
100
AcDbBlockEnd
  0
BLOCK
  5
D
330
C
100
AcDbEntity
 67
     1
  8
0
100
AcDbBlockBegin
  2
*Paper_Space
 70
     0
 10
0.0
 20
0.0
 30
0.0
  3
*Paper_Space
  1

  0
ENDBLK
  5
E
330
C
100
AcDbEntity
 67
     1
  8
0
100
AcDbBlockEnd
  0
ENDSEC
  0
SECTION
  2
ENTITIES
  0
LINE
  5
24
330
2
100
AcDbEntity
  8
0
 62
     3
100
AcDbLine
 10
127.5348485589999
 20
213.0409421239999
 30
0.0
 11
127.5348485589999
 21
229.8614987645998
 31
0.0
  0
LINE
  5
27
330
2
100
AcDbEntity
  8
0
  6
CENTER
 62
     3
100
AcDbLine
 10
132.5348485589999
 20
214.3614987645998
 30
0.0
 11
132.5348485589999
 21
207.3614987645998
 31
0.0
  0
LINE
  5
29
330
2
100
AcDbEntity
  8
0
 62
     3
100
AcDbLine
 10
126.0348485589998
 20
214.7614926610998
 30
0.0
 11
126.0348485589998
 21
206.9614743504998
 31
0.0
  0
LINE
  5
2A
330
2
100
AcDbEntity
  8
0
 62
     3
100
AcDbLine
 10
136.0348485589998
 20
193.3614987645999
 30
0.0
 11
136.0348485589998
 21
228.3614987645999
 31
0.0
  0
LINE
  5
2B
330
2
100
AcDbEntity
  8
0
 62
     3
100
AcDbLine
 10
137.0348485589998
 20
193.3614987645999
 30
0.0
 11
137.0348485589998
 21
228.3614987645999
 31
0.0
  0
LINE
  5
2C
330
2
100
AcDbEntity
  8
0
  6
PHANTOM
 62
     3
100
AcDbLine
 10
126.0348485589998
 20
190.7614987645999
 30
0.0
 11
126.0348485589998
 21
230.9614987645999
 31
0.0
  0
LINE
  5
2E
330
2
100
AcDbEntity
  8
0
 62
     3
100
AcDbLine
 10
49.53486381779999
 20
229.8614987645998
 30
0.0
 11
49.53486381779999
 21
213.0409421239999
 31
0.0
  0
LINE
  5
2F
330
2
100
AcDbEntity
  8
0
  6
CENTER
 62
     3
100
AcDbLine
 10
44.53486381779998
 20
214.3614987645998
 30
0.0
 11
44.53486381779998
 21
207.3614987645998
 31
0.0
  0
LINE
  5
30
330
2
100
AcDbEntity
  8
0
 62
     3
100
AcDbLine
 10
51.03486381779998
 20
214.7614926610998
 30
0.0
 11
51.03486381779998
 21
206.9614743504998
 31
0.0
  0
LINE
  5
31
330
2
100
AcDbEntity
  8
0
 62
     3
100
AcDbLine
 10
41.03486381779998
 20
228.3614987645999
 30
0.0
 11
41.03486381779998
 21
193.3614987645999
 31
0.0
  0
LINE
  5
32
330
2
100
AcDbEntity
  8
0
 62
     3
100
AcDbLine
 10
40.03486381779999
 20
228.3614987645999
 30
0.0
 11
40.03486381779999
 21
193.3614987645999
 31
0.0
  0
LINE
  5
33
330
2
100
AcDbEntity
  8
0
  6
PHANTOM
 62
     3
100
AcDbLine
 10
51.03486381779998
 20
190.7614987645999
 30
0.0
 11
51.03486381779998
 21
230.9614987645999
 31
0.0
  0
LINE
  5
3E
330
2
100
AcDbEntity
  8
0
 62
     3
100
AcDbLine
 10
86.13486992129997
 20
138.6699857031
 30
0.0
 11
88.53486381779999
 21
138.6699857031
 31
0.0
  0
LINE
  5
3F
330
2
100
AcDbEntity
  8
0
 62
     3
100
AcDbLine
 10
86.13486992129997
 20
144.1699857030999
 30
0.0
 11
88.53486381779999
 21
144.1699857030999
 31
0.0
  0
LINE
  5
40
330
2
100
AcDbEntity
  8
0
 62
     3
100
AcDbLine
 10
86.13486992129997
 20
139.6699857031
 30
0.0
 11
88.53486381779999
 21
139.6699857031
 31
0.0
  0
LINE
  5
41
330
2
100
AcDbEntity
  8
0
 62
     3
100
AcDbLine
 10
86.13486992129997
 20
137.6699551854999
 30
0.0
 11
88.53486381779999
 21
137.6699551854999
 31
0.0
  0
LINE
  5
42
330
2
100
AcDbEntity
  8
0
 62
     3
100
AcDbLine
 10
86.13486992129997
 20
204.8614987645998
 30
0.0
 11
88.53486381779999
 21
204.8614987645998
 31
0.0
  0
LINE
  5
43
330
2
100
AcDbEntity
  8
0
 62
     3
100
AcDbLine
 10
86.13486992129997
 20
203.3614987645999
 30
0.0
 11
88.53486381779999
 21
203.3614987645999
 31
0.0
  0
LINE
  5
44
330
2
100
AcDbEntity
  8
0
 62
     3
100
AcDbLine
 10
86.13486992129997
 20
194.5614957127999
 30
0.0
 11
88.53486381779999
 21
194.5614957127999
 31
0.0
  0
LINE
  5
45
330
2
100
AcDbEntity
  8
0
 62
     3
100
AcDbLine
 10
86.13486992129997
 20
193.3614835057999
 30
0.0
 11
88.53486381779999
 21
193.3614835057999
 31
0.0
  0
LINE
  5
46
330
2
100
AcDbEntity
  8
0
 62
     3
100
AcDbLine
 10
86.13486992129997
 20
206.9614743504998
 30
0.0
 11
88.53486381779999
 21
206.9614743504998
 31
0.0
  0
LINE
  5
47
330
2
100
AcDbEntity
  8
0
 62
     3
100
AcDbLine
 10
52.53486381779999
 20
195.5614957127998
 30
0.0
 11
110.1348546624999
 21
195.5614957127998
 31
0.0
  0
LINE
  5
48
330
2
100
AcDbEntity
  8
0
  6
CENTER
 62
     3
100
AcDbLine
 10
37.53486381779998
 20
210.8614987645998
 30
0.0
 11
140.2802102166999
 21
210.8614987645998
 31
0.0
  0
LINE
  5
49
330
2
100
AcDbEntity
  8
0
  6
PHANTOM
 62
     3
100
AcDbLine
 10
51.03486381779998
 20
147.1699857031
 30
0.0
 11
126.0348485589998
 21
147.1699857031
 31
0.0
  0
LINE
  5
4A
330
2
100
AcDbEntity
  8
0
  6
PHANTOM
 62
     3
100
AcDbLine
 10
51.03486381779998
 20
141.3511590819999
 30
0.0
 11
126.0348485589998
 21
141.3511590819999
 31
0.0
  0
LINE
  5
4B
330
2
100
AcDbEntity
  8
0
 62
     3
100
AcDbLine
 10
41.03478752389998
 20
116.1699857030999
 30
0.0
 11
136.0350865050999
 21
116.1699857030999
 31
0.0
  0
LINE
  5
4C
330
2
100
AcDbEntity
  8
0
 62
     3
100
AcDbLine
 10
41.03486381779998
 20
117.6699857030999
 30
0.0
 11
136.0348485589998
 21
117.6699857030999
 31
0.0
  0
LINE
  5
4D
330
2
100
AcDbEntity
  8
0
 62
     3
100
AcDbLine
 10
41.53472648869999
 20
191.8614987645998
 30
0.0
 11
135.5350821223999
 21
191.8614987645998
 31
0.0
  0
LINE
  5
4E
330
2
100
AcDbEntity
  8
0
  6
PHANTOM
 62
     3
100
AcDbLine
 10
51.03486381779998
 20
190.7614987645999
 30
0.0
 11
126.0348485589998
 21
190.7614987645999
 31
0.0
  0
LINE
  5
4F
330
2
100
AcDbEntity
  8
0
 62
     3
100
AcDbLine
 10
76.53486381779998
 20
144.1699857030999
 30
0.0
 11
76.53486381779998
 21
116.1699857030999
 31
0.0
  0
LINE
  5
50
330
2
100
AcDbEntity
  8
0
 62
     3
100
AcDbLine
 10
64.53486381779999
 20
144.1699857030999
 30
0.0
 11
64.53486381779999
 21
116.1699857030999
 31
0.0
  0
LINE
  5
51
330
2
100
AcDbEntity
  8
0
 62
     3
100
AcDbLine
 10
52.53486381779999
 20
144.1699857030999
 30
0.0
 11
52.53486381779999
 21
116.1699857030999
 31
0.0
  0
LINE
  5
52
330
2
100
AcDbEntity
  8
0
 62
     3
100
AcDbLine
 10
41.03486381779998
 20
124.1699857031
 30
0.0
 11
41.03486381779998
 21
117.6699857030999
 31
0.0
  0
LINE
  5
53
330
2
100
AcDbEntity
  8
0
 62
     3
100
AcDbLine
 10
40.03486381779999
 20
124.6699704443
 30
0.0
 11
40.03486381779999
 21
117.1699857030999
 31
0.0
  0
LINE
  5
54
330
2
100
AcDbEntity
  8
0
 62
     3
100
AcDbLine
 10
40.03492538319997
 20
117.1698397561
 30
0.0
 11
41.03492223009996
 21
116.1698344797999
 31
0.0
  0
LINE
  5
55
330
2
100
AcDbEntity
  8
0
 62
     3
100
AcDbLine
 10
40.28486877589998
 20
116.919825996
 30
0.0
 11
41.03486417729999
 21
117.6698213974
 31
0.0
  0
LINE
  5
56
330
2
100
AcDbEntity
  8
0
 62
     3
100
AcDbLine
 10
58.2998984198
 20
202.3115005343
 30
0.0
 11
56.43164009729995
 21
200.0849968640999
 31
0.0
  0
LINE
  5
57
330
2
100
AcDbEntity
  8
0
 62
     3
100
AcDbLine
 10
57.33487033959997
 20
138.0698646074
 30
0.0
 11
58.20089572779997
 21
137.5698646074
 31
0.0
  0
LINE
  5
58
330
2
100
AcDbEntity
  8
0
 62
     3
100
AcDbLine
 10
57.3348750074
 20
134.2698692307
 30
0.0
 11
58.53486657069999
 21
135.469860794
 31
0.0
  0
ARC
  5
59
330
2
100
AcDbEntity
  8
0
 62
     3
100
AcDbCircle
 10
57.33486686959998
 20
129.0699795996
 30
0.0
 40
9.0
100
AcDbArc
 50
69.92676638290001
 51
110.0731976449
  0
LINE
  5
5A
330
2
100
AcDbEntity
  8
0
 62
     3
100
AcDbLine
 10
52.53486381779999
 20
142.1699857031
 30
0.0
 11
62.13486992129998
 21
142.1699857031
 31
0.0
  0
LINE
  5
5B
330
2
100
AcDbEntity
  8
0
 62
     3
100
AcDbLine
 10
53.83488212839998
 20
135.469973496
 30
0.0
 11
60.83486686959997
 21
135.469973496
 31
0.0
  0
LINE
  5
5C
330
2
100
AcDbEntity
  8
0
 62
     3
100
AcDbLine
 10
52.53487907659999
 20
134.2699765478
 30
0.0
 11
62.13486992129998
 21
134.2699765478
 31
0.0
  0
LINE
  5
5D
330
2
100
AcDbEntity
  8
0
 62
     3
100
AcDbLine
 10
52.53486381779999
 20
122.7699765477999
 30
0.0
 11
61.13486992129998
 21
122.7699765477999
 31
0.0
  0
LINE
  5
5E
330
2
100
AcDbEntity
  8
0
 62
     3
100
AcDbLine
 10
52.53486381779999
 20
132.5699795995999
 30
0.0
 11
62.13486992129998
 21
132.5699795995999
 31
0.0
  0
LINE
  5
5F
330
2
100
AcDbEntity
  8
0
 62
     3
100
AcDbLine
 10
52.76487480410001
 20
130.0699795996
 30
0.0
 11
61.13486992129998
 21
130.0699795996
 31
0.0
  0
LINE
  5
60
330
2
100
AcDbEntity
  8
0
 62
     3
100
AcDbLine
 10
52.76487480410001
 20
126.8699826513
 30
0.0
 11
61.13486992129998
 21
126.8699826513
 31
0.0
  0
LINE
  5
61
330
2
100
AcDbEntity
  8
0
 62
     3
100
AcDbLine
 10
52.53486381779999
 20
125.6699857030999
 30
0.0
 11
61.13486992129998
 21
125.6699857030999
 31
0.0
  0
LINE
  5
62
330
2
100
AcDbEntity
  8
0
 62
     3
100
AcDbLine
 10
52.53486381779999
 20
206.6615018163997
 30
0.0
 11
62.13486992129998
 21
206.6615018163997
 31
0.0
  0
LINE
  5
63
330
2
100
AcDbEntity
  8
0
 62
     3
100
AcDbLine
 10
56.28793059649999
 20
205.9116242019999
 30
0.0
 11
58.38190303139999
 21
205.9116305418999
 31
0.0
  0
LINE
  5
64
330
2
100
AcDbEntity
  8
0
 62
     3
100
AcDbLine
 10
56.28793059649999
 20
196.4113733271997
 30
0.0
 11
58.38190303139999
 21
196.4113669872999
 31
0.0
  0
LINE
  5
65
330
2
100
AcDbEntity
  8
0
 62
     3
100
AcDbLine
 10
55.41980961979999
 20
202.7684775120999
 30
0.0
 11
59.25003180929997
 21
199.5545396335
 31
0.0
  0
CIRCLE
  5
66
330
2
100
AcDbEntity
  8
0
 62
     3
100
AcDbCircle
 10
57.33486686959998
 20
201.1612499357998
 30
0.0
 40
3.5
  0
LINE
  5
67
330
2
100
AcDbEntity
  8
0
 62
     3
100
AcDbLine
 10
41.03486381779998
 20
124.1699857031
 30
0.0
 11
49.53486381779999
 21
124.1699857031
 31
0.0
  0
LINE
  5
68
330
2
100
AcDbEntity
  8
0
 62
     3
100
AcDbLine
 10
41.03486381779998
 20
125.6699857030999
 30
0.0
 11
49.53486381779999
 21
125.6699857030999
 31
0.0
  0
LINE
  5
69
330
2
100
AcDbEntity
  8
0
 62
     3
100
AcDbLine
 10
40.28487956549997
 20
124.9198236992
 30
0.0
 11
41.03487496689999
 21
124.1698282977999
 31
0.0
  0
LINE
  5
6A
330
2
100
AcDbEntity
  8
0
 62
     3
100
AcDbLine
 10
41.03481970019998
 20
125.6697976774999
 30
0.0
 11
40.03482057739995
 21
124.6697946772
 31
0.0
  0
LINE
  5
6B
330
2
100
AcDbEntity
  8
0
  6
PHANTOM
 62
     3
100
AcDbLine
 10
51.03486381779998
 20
147.1699857031
 30
0.0
 11
51.03486381779998
 21
141.3511590819999
 31
0.0
  0
LINE
  5
6C
330
2
100
AcDbEntity
  8
0
 62
     3
100
AcDbLine
 10
49.53486381779999
 20
144.1699857030999
 30
0.0
 11
52.53486381779999
 21
144.1699857030999
 31
0.0
  0
LINE
  5
6D
330
2
100
AcDbEntity
  8
0
 62
     3
100
AcDbLine
 10
49.53486381779999
 20
142.6699551854999
 30
0.0
 11
52.53486381779999
 21
142.6699551854999
 31
0.0
  0
LINE
  5
6E
330
2
100
AcDbEntity
  8
0
 62
     3
100
AcDbLine
 10
49.53486381779999
 20
144.1699857030999
 30
0.0
 11
49.53486381779999
 21
124.1699857031
 31
0.0
  0
LINE
  5
6F
330
2
100
AcDbEntity
  8
0
 62
     3
100
AcDbLine
 10
55.18487040189999
 20
133.0698736967
 30
0.0
 11
53.06218092659998
 21
132.6366717946
 31
0.0
  0
ARC
  5
70
330
2
100
AcDbEntity
  8
0
 62
     3
100
AcDbCircle
 10
52.76487480410001
 20
127.0999783789
 30
0.0
 40
0.2299999595
100
AcDbArc
 50
179.9999640277999
 51
270.0000006831999
  0
LINE
  5
71
330
2
100
AcDbEntity
  8
0
 62
     3
100
AcDbLine
 10
52.73489128359997
 20
133.4698819432999
 30
0.0
 11
52.73489128359997
 21
132.8698758397999
 31
0.0
  0
ARC
  5
72
330
2
100
AcDbEntity
  8
0
 62
     3
100
AcDbCircle
 10
52.98222099560002
 20
133.0285977636
 30
0.0
 40
0.3999999762
100
AcDbArc
 50
201.8015080292
 51
281.5346775319
  0
ARC
  5
73
330
2
100
AcDbEntity
  8
0
 62
     3
100
AcDbCircle
 10
52.76487480410001
 20
129.8399686131999
 30
0.0
 40
0.2299999595
100
AcDbArc
 50
89.99998201389999
 51
179.9999640277999
  0
LINE
  5
74
330
2
100
AcDbEntity
  8
0
 62
     3
100
AcDbLine
 10
52.61073571649999
 20
132.8799254588
 30
0.0
 11
52.53480371009996
 21
133.0697547556
 31
0.0
  0
LINE
  5
75
330
2
100
AcDbEntity
  8
0
 62
     3
100
AcDbLine
 10
56.53487907659999
 20
133.0699643408
 30
0.0
 11
55.83486686959997
 21
133.0699643408
 31
0.0
  0
LINE
  5
76
330
2
100
AcDbEntity
  8
0
 62
     3
100
AcDbLine
 10
55.53487907659999
 20
132.5699643407999
 30
0.0
 11
55.53487907659999
 21
133.0699643408
 31
0.0
  0
LINE
  5
77
330
2
100
AcDbEntity
  8
0
 62
     3
100
AcDbLine
 10
55.1848729731
 20
133.0699795996
 30
0.0
 11
55.83486686959997
 21
133.0699795996
 31
0.0
  0
LINE
  5
78
330
2
100
AcDbEntity
  8
0
 62
     3
100
AcDbLine
 10
56.53487907659999
 20
133.0699643408
 30
0.0
 11
56.53487907659999
 21
132.5699795995999
 31
0.0
  0
ARC
  5
79
330
2
100
AcDbEntity
  8
0
 62
     3
100
AcDbCircle
 10
54.3831761957
 20
137.1475552832
 30
0.0
 40
0.3999999762
100
AcDbArc
 50
110.0731976449
 51
175.0001016308
  0
LINE
  5
7A
330
2
100
AcDbEntity
  8
0
 62
     3
100
AcDbLine
 10
53.06218826649999
 20
133.8366744051
 30
0.0
 11
55.18487774179996
 21
134.2698763072
 31
0.0
  0
LINE
  5
7B
330
2
100
AcDbEntity
  8
0
 62
     3
100
AcDbLine
 10
51.03486381779998
 20
142.6699551854999
 30
0.0
 11
51.03486381779998
 21
137.6699551854999
 31
0.0
  0
LINE
  5
7C
330
2
100
AcDbEntity
  8
0
 62
     3
100
AcDbLine
 10
51.03486381779998
 20
138.6699857031
 30
0.0
 11
52.53486381779999
 21
138.6699857031
 31
0.0
  0
LINE
  5
7D
330
2
100
AcDbEntity
  8
0
 62
     3
100
AcDbLine
 10
51.03486381779998
 20
137.6699551854999
 30
0.0
 11
52.53486381779999
 21
137.6699551854999
 31
0.0
  0
LINE
  5
7E
330
2
100
AcDbEntity
  8
0
 62
     3
100
AcDbLine
 10
53.8349547437
 20
135.4698795272
 30
0.0
 11
53.98477488079999
 21
137.1823324143
 31
0.0
  0
LINE
  5
7F
330
2
100
AcDbEntity
  8
0
 62
     3
100
AcDbLine
 10
53.9348729731
 20
135.469973496
 30
0.0
 11
53.9348729731
 21
134.2699765478
 31
0.0
  0
ARC
  5
80
330
2
100
AcDbEntity
  8
0
 62
     3
100
AcDbCircle
 10
52.98222099560002
 20
134.2285947119
 30
0.0
 40
0.3999999762
100
AcDbArc
 50
201.8016173122999
 51
281.5346228904
  0
LINE
  5
81
330
2
100
AcDbEntity
  8
0
 62
     3
100
AcDbLine
 10
52.53480780979998
 20
134.2697672539999
 30
0.0
 11
52.61074548309998
 21
134.0799237896999
 31
0.0
  0
LINE
  5
82
330
2
100
AcDbEntity
  8
0
 62
     3
100
AcDbLine
 10
51.03486381779998
 20
139.6699857031
 30
0.0
 11
52.53486381779999
 21
139.6699857031
 31
0.0
  0
LINE
  5
83
330
2
100
AcDbEntity
  8
0
 62
     3
100
AcDbLine
 10
57.3348670021
 20
138.0698794525999
 30
0.0
 11
55.60281622559998
 21
137.0698794525999
 31
0.0
  0
LINE
  5
84
330
2
100
AcDbEntity
  8
0
 62
     3
100
AcDbLine
 10
57.83486686959998
 20
133.7699765478
 30
0.0
 11
57.83486686959998
 21
134.2699765478
 31
0.0
  0
LINE
  5
85
330
2
100
AcDbEntity
  8
0
 62
     3
100
AcDbLine
 10
56.83486686959998
 20
133.7699765478
 30
0.0
 11
56.83486686959998
 21
134.2699765478
 31
0.0
  0
LINE
  5
86
330
2
100
AcDbEntity
  8
0
 62
     3
100
AcDbLine
 10
56.83486686959998
 20
133.7699765478
 30
0.0
 11
57.83486686959998
 21
133.7699765478
 31
0.0
  0
LINE
  5
87
330
2
100
AcDbEntity
  8
0
 62
     3
100
AcDbLine
 10
57.33486421779997
 20
135.4698769782999
 30
0.0
 11
56.13486725979999
 21
134.2698800202999
 31
0.0
  0
ARC
  5
88
330
2
100
AcDbEntity
  8
0
 62
     3
100
AcDbCircle
 10
44.03486381779996
 20
210.8614987645998
 30
0.0
 40
2.25
100
AcDbArc
 50
89.99998201389999
 51
269.9999460416999
  0
LINE
  5
89
330
2
100
AcDbEntity
  8
0
 62
     3
100
AcDbLine
 10
41.03486381779998
 20
193.3614987645999
 30
0.0
 11
52.53486381779999
 21
193.3614987645999
 31
0.0
  0
LINE
  5
8A
330
2
100
AcDbEntity
  8
0
 62
     3
100
AcDbLine
 10
40.53490613049999
 20
192.8612753538999
 30
0.0
 11
41.03490666129997
 21
193.3612758846999
 31
0.0
  0
LINE
  5
8B
330
2
100
AcDbEntity
  8
0
 62
     3
100
AcDbLine
 10
40.03495758219997
 20
193.3612345911999
 30
0.0
 11
41.5348620682
 21
191.8613299787999
 31
0.0
  0
LINE
  5
8C
330
2
100
AcDbEntity
  8
0
 62
     3
100
AcDbLine
 10
49.53486381779999
 20
208.6820401463997
 30
0.0
 11
49.53486381779999
 21
191.8614987645998
 31
0.0
  0
ARC
  5
8D
330
2
100
AcDbEntity
  8
0
 62
     3
100
AcDbCircle
 10
45.03486381779999
 20
210.8614987645998
 30
0.0
 40
2.25
100
AcDbArc
 50
270.0000179861
 51
89.99998201389994
  0
LINE
  5
8E
330
2
100
AcDbEntity
  8
0
 62
     3
100
AcDbLine
 10
44.03486381779996
 20
208.6114987645999
 30
0.0
 11
45.03486381779999
 21
208.6114987645999
 31
0.0
  0
LINE
  5
8F
330
2
100
AcDbEntity
  8
0
 62
     3
100
AcDbLine
 10
44.03486381779996
 20
213.1114987645998
 30
0.0
 11
45.03486381779999
 21
213.1114987645998
 31
0.0
  0
ARC
  5
90
330
2
100
AcDbEntity
  8
0
 62
     3
100
AcDbCircle
 10
45.03486381779999
 20
210.8614987645998
 30
0.0
 40
5.0
100
AcDbArc
 50
334.1580680677
 51
25.84193193230003
  0
LINE
  5
91
330
2
100
AcDbEntity
  8
0
 62
     3
100
AcDbLine
 10
56.08493858550002
 20
205.7114580483999
 30
0.0
 11
52.7349483564
 21
202.4114706812999
 31
0.0
  0
LINE
  5
92
330
2
100
AcDbEntity
  8
0
 62
     3
100
AcDbLine
 10
52.70951588829999
 20
205.2660343204999
 30
0.0
 11
52.53498886849996
 21
202.2145942385
 31
0.0
  0
LINE
  5
93
330
2
100
AcDbEntity
  8
0
 62
     3
100
AcDbLine
 10
52.53486381779999
 20
206.9614743504998
 30
0.0
 11
52.53486381779999
 21
191.7716550145998
 31
0.0
  0
LINE
  5
94
330
2
100
AcDbEntity
  8
0
 62
     3
100
AcDbLine
 10
56.08493858550002
 20
196.6115394807999
 30
0.0
 11
52.7349483564
 21
199.9115268479
 31
0.0
  0
LINE
  5
95
330
2
100
AcDbEntity
  8
0
 62
     3
100
AcDbLine
 10
53.18051510689997
 20
196.5862998919
 30
0.0
 11
56.28793059649999
 21
196.4113733271997
 31
0.0
  0
ARC
  5
96
330
2
100
AcDbEntity
  8
0
 62
     3
100
AcDbCircle
 10
53.2085851313
 20
197.0853984953999
 30
0.0
 40
0.5
100
AcDbArc
 50
183.2732265469998
 51
266.7784089999
  0
LINE
  5
97
330
2
100
AcDbEntity
  8
0
 62
     3
100
AcDbLine
 10
52.53486381779999
 20
196.6614987646
 30
0.0
 11
52.94342665369999
 21
196.6614987646
 31
0.0
  0
LINE
  5
98
330
2
100
AcDbEntity
  8
0
 62
     3
100
AcDbLine
 10
52.70951588829999
 20
197.0569632087
 30
0.0
 11
52.53498886849996
 21
200.1084032907
 31
0.0
  0
LINE
  5
99
330
2
100
AcDbEntity
  8
0
 62
     3
100
AcDbLine
 10
52.53486381779999
 20
200.6612499357999
 30
0.0
 11
53.87077080019998
 21
200.6612499357999
 31
0.0
  0
LINE
  5
9A
330
2
100
AcDbEntity
  8
0
 62
     3
100
AcDbLine
 10
52.53486381779999
 20
201.6612499357999
 30
0.0
 11
53.87077080019998
 21
201.6612499357999
 31
0.0
  0
LINE
  5
9B
330
2
100
AcDbEntity
  8
0
 62
     3
100
AcDbLine
 10
56.83486686959998
 20
196.4112499357998
 30
0.0
 11
56.83486686959998
 21
197.6971538664999
 31
0.0
  0
LINE
  5
9C
330
2
100
AcDbEntity
  8
0
 62
     3
100
AcDbLine
 10
57.83486686959998
 20
196.4112499357998
 30
0.0
 11
57.83486686959998
 21
197.6971538664999
 31
0.0
  0
LINE
  5
9D
330
2
100
AcDbEntity
  8
0
 62
     3
100
AcDbLine
 10
53.18051510689997
 20
205.7366976372998
 30
0.0
 11
56.28793059649999
 21
205.9116242019999
 31
0.0
  0
LINE
  5
9E
330
2
100
AcDbEntity
  8
0
 62
     3
100
AcDbLine
 10
51.03486381779998
 20
206.9614743504998
 30
0.0
 11
52.53486381779999
 21
206.9614743504998
 31
0.0
  0
ARC
  5
9F
330
2
100
AcDbEntity
  8
0
 62
     3
100
AcDbCircle
 10
53.2085851313
 20
205.2375990337999
 30
0.0
 40
0.5
100
AcDbArc
 50
93.22159100009999
 51
176.7267734529999
  0
LINE
  5
A0
330
2
100
AcDbEntity
  8
0
 62
     3
100
AcDbLine
 10
57.83486686959998
 20
205.9117475934
 30
0.0
 11
57.83486686959998
 21
204.6258436626998
 31
0.0
  0
LINE
  5
A1
330
2
100
AcDbEntity
  8
0
 62
     3
100
AcDbLine
 10
56.83486686959998
 20
205.9117475934
 30
0.0
 11
56.83486686959998
 21
204.6258436626998
 31
0.0
  0
LINE
  5
A2
330
2
100
AcDbEntity
  8
0
 62
     3
100
AcDbLine
 10
64.53487907659999
 20
134.2699765478
 30
0.0
 11
74.13486992129998
 21
134.2699765478
 31
0.0
  0
LINE
  5
A3
330
2
100
AcDbEntity
  8
0
 62
     3
100
AcDbLine
 10
71.48493374869997
 20
134.2698639079
 30
0.0
 11
73.60762322399998
 21
133.8366620056999
 31
0.0
  0
LINE
  5
A4
330
2
100
AcDbEntity
  8
0
 62
     3
100
AcDbLine
 10
73.60763056389998
 20
132.6366593953
 30
0.0
 11
71.48494108859998
 21
133.0698612973999
 31
0.0
  0
LINE
  5
A5
330
2
100
AcDbEntity
  8
0
 62
     3
100
AcDbLine
 10
64.53486381779999
 20
132.5699795995999
 30
0.0
 11
74.13486992129998
 21
132.5699795995999
 31
0.0
  0
LINE
  5
A6
330
2
100
AcDbEntity
  8
0
 62
     3
100
AcDbLine
 10
64.53486381779999
 20
142.1699857031
 30
0.0
 11
74.13486992129998
 21
142.1699857031
 31
0.0
  0
LINE
  5
A7
330
2
100
AcDbEntity
  8
0
 62
     3
100
AcDbLine
 10
65.06218826649996
 20
133.8366744051
 30
0.0
 11
67.18487774179997
 21
134.2698763072
 31
0.0
  0
LINE
  5
A8
330
2
100
AcDbEntity
  8
0
 62
     3
100
AcDbLine
 10
67.18487040189995
 20
133.0698736967
 30
0.0
 11
65.06218092659998
 21
132.6366717946
 31
0.0
  0
LINE
  5
A9
330
2
100
AcDbEntity
  8
0
 62
     3
100
AcDbLine
 10
64.53486381779999
 20
125.6699857030999
 30
0.0
 11
73.13486992129998
 21
125.6699857030999
 31
0.0
  0
LINE
  5
AA
330
2
100
AcDbEntity
  8
0
 62
     3
100
AcDbLine
 10
64.7648748041
 20
126.8699826513
 30
0.0
 11
73.13486992129998
 21
126.8699826513
 31
0.0
  0
LINE
  5
AB
330
2
100
AcDbEntity
  8
0
 62
     3
100
AcDbLine
 10
64.7648748041
 20
130.0699795996
 30
0.0
 11
73.13486992129998
 21
130.0699795996
 31
0.0
  0
LINE
  5
AC
330
2
100
AcDbEntity
  8
0
 62
     3
100
AcDbLine
 10
64.53486381779999
 20
122.7699765477999
 30
0.0
 11
73.13486992129998
 21
122.7699765477999
 31
0.0
  0
LINE
  5
AD
330
2
100
AcDbEntity
  8
0
 62
     3
100
AcDbLine
 10
62.13486992129998
 20
144.1699857030999
 30
0.0
 11
62.13486992129998
 21
132.5699795995999
 31
0.0
  0
ARC
  5
AE
330
2
100
AcDbEntity
  8
0
 62
     3
100
AcDbCircle
 10
61.68754326119998
 20
133.0286893164
 30
0.0
 40
0.3999999762
100
AcDbArc
 50
258.4653584403
 51
338.198493792
  0
LINE
  5
AF
330
2
100
AcDbEntity
  8
0
 62
     3
100
AcDbLine
 10
61.13486992129998
 20
132.5699795995999
 30
0.0
 11
61.13486992129998
 21
122.7699765477999
 31
0.0
  0
LINE
  5
B0
330
2
100
AcDbEntity
  8
0
 62
     3
100
AcDbLine
 10
61.60763056389999
 20
132.6366593953
 30
0.0
 11
59.48494108859995
 21
133.0698612973999
 31
0.0
  0
LINE
  5
B1
330
2
100
AcDbEntity
  8
0
 62
     3
100
AcDbLine
 10
59.13505302679997
 20
132.5698880468
 30
0.0
 11
59.13505302679997
 21
133.0698880468
 31
0.0
  0
LINE
  5
B2
330
2
100
AcDbEntity
  8
0
 62
     3
100
AcDbLine
 10
58.83486686959997
 20
133.0699795996
 30
0.0
 11
59.4848760248
 21
133.0699795996
 31
0.0
  0
LINE
  5
B3
330
2
100
AcDbEntity
  8
0
 62
     3
100
AcDbLine
 10
58.13486992129998
 20
133.0699643408
 30
0.0
 11
58.13486992129998
 21
132.5699795995999
 31
0.0
  0
LINE
  5
B4
330
2
100
AcDbEntity
  8
0
 62
     3
100
AcDbLine
 10
58.13486992129998
 20
133.0699643408
 30
0.0
 11
58.83486686959997
 21
133.0699643408
 31
0.0
  0
ARC
  5
B5
330
2
100
AcDbEntity
  8
0
 62
     3
100
AcDbCircle
 10
64.7648748041
 20
127.0999783789
 30
0.0
 40
0.2299999595
100
AcDbArc
 50
179.9999640277999
 51
270.0000006831999
  0
LINE
  5
B6
330
2
100
AcDbEntity
  8
0
 62
     3
100
AcDbLine
 10
62.13488193079999
 20
133.0698509321999
 30
0.0
 11
62.05894992449998
 21
132.8800216354
 31
0.0
  0
LINE
  5
B7
330
2
100
AcDbEntity
  8
0
 62
     3
100
AcDbLine
 10
61.93487297309999
 20
132.8699673925
 30
0.0
 11
61.93487297309999
 21
133.469973496
 31
0.0
  0
LINE
  5
B8
330
2
100
AcDbEntity
  8
0
 62
     3
100
AcDbLine
 10
64.61073571650001
 20
132.8799254588
 30
0.0
 11
64.53480371009996
 21
133.0697547556
 31
0.0
  0
ARC
  5
B9
330
2
100
AcDbEntity
  8
0
 62
     3
100
AcDbCircle
 10
64.7648748041
 20
129.8399686131999
 30
0.0
 40
0.2299999595
100
AcDbArc
 50
89.99998201389999
 51
179.9999640277999
  0
ARC
  5
BA
330
2
100
AcDbEntity
  8
0
 62
     3
100
AcDbCircle
 10
64.98222099559999
 20
133.0285977636
 30
0.0
 40
0.3999999762
100
AcDbArc
 50
201.8015080292
 51
281.5346775319
  0
LINE
  5
BB
330
2
100
AcDbEntity
  8
0
 62
     3
100
AcDbLine
 10
64.73489128359998
 20
133.4698819432999
 30
0.0
 11
64.73489128359998
 21
132.8698758397999
 31
0.0
  0
ARC
  5
BC
330
2
100
AcDbEntity
  8
0
 62
     3
100
AcDbCircle
 10
61.68754326119998
 20
134.2286862646
 30
0.0
 40
0.3999999762
100
AcDbArc
 50
258.4654130818
 51
338.198384509
  0
LINE
  5
BD
330
2
100
AcDbEntity
  8
0
 62
     3
100
AcDbLine
 10
59.48493374869997
 20
134.2698639079
 30
0.0
 11
61.60762322399998
 21
133.8366620056999
 31
0.0
  0
ARC
  5
BE
330
2
100
AcDbEntity
  8
0
 62
     3
100
AcDbCircle
 10
60.2865728022
 20
137.1475552832
 30
0.0
 40
0.3999999762
100
AcDbArc
 50
4.9998965479
 51
69.92676638290001
  0
LINE
  5
BF
330
2
100
AcDbEntity
  8
0
 62
     3
100
AcDbLine
 10
60.68503923679998
 20
137.1823407256
 30
0.0
 11
60.83485937389998
 21
135.4698878385
 31
0.0
  0
LINE
  5
C0
330
2
100
AcDbEntity
  8
0
 62
     3
100
AcDbLine
 10
60.7348760248
 20
134.2699765478
 30
0.0
 11
60.7348760248
 21
135.469973496
 31
0.0
  0
LINE
  5
C1
330
2
100
AcDbEntity
  8
0
 62
     3
100
AcDbLine
 10
62.13486992129998
 20
137.6699551854999
 30
0.0
 11
64.53486381779999
 21
137.6699551854999
 31
0.0
  0
LINE
  5
C2
330
2
100
AcDbEntity
  8
0
 62
     3
100
AcDbLine
 10
62.13486992129998
 20
138.6699857031
 30
0.0
 11
64.53486381779999
 21
138.6699857031
 31
0.0
  0
LINE
  5
C3
330
2
100
AcDbEntity
  8
0
 62
     3
100
AcDbLine
 10
62.05895432519998
 20
134.0800142992999
 30
0.0
 11
62.13488633149998
 21
134.2698435962
 31
0.0
  0
LINE
  5
C4
330
2
100
AcDbEntity
  8
0
 62
     3
100
AcDbLine
 10
64.53480780979998
 20
134.2697672539999
 30
0.0
 11
64.61074548309998
 21
134.0799237896999
 31
0.0
  0
ARC
  5
C5
330
2
100
AcDbEntity
  8
0
 62
     3
100
AcDbCircle
 10
64.98222099559999
 20
134.2285947119
 30
0.0
 40
0.3999999762
100
AcDbArc
 50
201.8016173122999
 51
281.5346228904
  0
LINE
  5
C6
330
2
100
AcDbEntity
  8
0
 62
     3
100
AcDbLine
 10
62.13486992129998
 20
139.6699857031
 30
0.0
 11
64.53486381779999
 21
139.6699857031
 31
0.0
  0
LINE
  5
C7
330
2
100
AcDbEntity
  8
0
 62
     3
100
AcDbLine
 10
62.13486992129998
 20
144.1699857030999
 30
0.0
 11
64.53486381779999
 21
144.1699857030999
 31
0.0
  0
LINE
  5
C8
330
2
100
AcDbEntity
  8
0
 62
     3
100
AcDbLine
 10
67.1848729731
 20
133.0699795996
 30
0.0
 11
67.83486686959998
 21
133.0699795996
 31
0.0
  0
LINE
  5
C9
330
2
100
AcDbEntity
  8
0
 62
     3
100
AcDbLine
 10
68.53487907659999
 20
133.0699643408
 30
0.0
 11
68.53487907659999
 21
132.5699795995999
 31
0.0
  0
LINE
  5
CA
330
2
100
AcDbEntity
  8
0
 62
     3
100
AcDbLine
 10
68.53487907659999
 20
133.0699643408
 30
0.0
 11
67.83486686959998
 21
133.0699643408
 31
0.0
  0
LINE
  5
CB
330
2
100
AcDbEntity
  8
0
 62
     3
100
AcDbLine
 10
67.53487907659999
 20
132.5699643407999
 30
0.0
 11
67.53487907659999
 21
133.0699643408
 31
0.0
  0
LINE
  5
CC
330
2
100
AcDbEntity
  8
0
 62
     3
100
AcDbLine
 10
73.13486992129998
 20
132.5699795995999
 30
0.0
 11
73.13486992129998
 21
122.7699765477999
 31
0.0
  0
LINE
  5
CD
330
2
100
AcDbEntity
  8
0
 62
     3
100
AcDbLine
 10
70.83486686959997
 20
133.0699795996
 30
0.0
 11
71.4848760248
 21
133.0699795996
 31
0.0
  0
LINE
  5
CE
330
2
100
AcDbEntity
  8
0
 62
     3
100
AcDbLine
 10
70.13486992129998
 20
133.0699643408
 30
0.0
 11
70.13486992129998
 21
132.5699795995999
 31
0.0
  0
LINE
  5
CF
330
2
100
AcDbEntity
  8
0
 62
     3
100
AcDbLine
 10
70.13486992129998
 20
133.0699643408
 30
0.0
 11
70.83486686959997
 21
133.0699643408
 31
0.0
  0
LINE
  5
D0
330
2
100
AcDbEntity
  8
0
 62
     3
100
AcDbLine
 10
71.13505302679993
 20
132.5698880468
 30
0.0
 11
71.13505302679993
 21
133.0698880468
 31
0.0
  0
LINE
  5
D1
330
2
100
AcDbEntity
  8
0
 62
     3
100
AcDbLine
 10
69.33487033959997
 20
138.0698646074
 30
0.0
 11
70.20089572779998
 21
137.5698646074
 31
0.0
  0
LINE
  5
D2
330
2
100
AcDbEntity
  8
0
 62
     3
100
AcDbLine
 10
69.3348750074
 20
134.2698692307
 30
0.0
 11
70.53486657069999
 21
135.469860794
 31
0.0
  0
LINE
  5
D3
330
2
100
AcDbEntity
  8
0
 62
     3
100
AcDbLine
 10
68.83486686959997
 20
133.7699765478
 30
0.0
 11
69.83486686959998
 21
133.7699765478
 31
0.0
  0
LINE
  5
D4
330
2
100
AcDbEntity
  8
0
 62
     3
100
AcDbLine
 10
65.83488212839995
 20
135.469973496
 30
0.0
 11
72.83486686959998
 21
135.469973496
 31
0.0
  0
ARC
  5
D5
330
2
100
AcDbEntity
  8
0
 62
     3
100
AcDbCircle
 10
69.33486686959998
 20
129.0699795996
 30
0.0
 40
9.0
100
AcDbArc
 50
69.92676638290001
 51
110.0731976449
  0
LINE
  5
D6
330
2
100
AcDbEntity
  8
0
 62
     3
100
AcDbLine
 10
65.9348729731
 20
135.469973496
 30
0.0
 11
65.9348729731
 21
134.2699765478
 31
0.0
  0
ARC
  5
D7
330
2
100
AcDbEntity
  8
0
 62
     3
100
AcDbCircle
 10
66.3831761957
 20
137.1475552832
 30
0.0
 40
0.3999999762
100
AcDbArc
 50
110.0731976449
 51
175.0001016308
  0
LINE
  5
D8
330
2
100
AcDbEntity
  8
0
 62
     3
100
AcDbLine
 10
65.8349547437
 20
135.4698795272
 30
0.0
 11
65.98477488079999
 21
137.1823324143
 31
0.0
  0
LINE
  5
D9
330
2
100
AcDbEntity
  8
0
 62
     3
100
AcDbLine
 10
69.33486421779997
 20
135.4698769782999
 30
0.0
 11
68.13486725979998
 21
134.2698800202999
 31
0.0
  0
LINE
  5
DA
330
2
100
AcDbEntity
  8
0
 62
     3
100
AcDbLine
 10
68.83486686959997
 20
133.7699765478
 30
0.0
 11
68.83486686959997
 21
134.2699765478
 31
0.0
  0
LINE
  5
DB
330
2
100
AcDbEntity
  8
0
 62
     3
100
AcDbLine
 10
69.3348670021
 20
138.0698794525999
 30
0.0
 11
67.60281622559998
 21
137.0698794525999
 31
0.0
  0
LINE
  5
DC
330
2
100
AcDbEntity
  8
0
 62
     3
100
AcDbLine
 10
69.83486686959998
 20
133.7699765478
 30
0.0
 11
69.83486686959998
 21
134.2699765478
 31
0.0
  0
LINE
  5
DD
330
2
100
AcDbEntity
  8
0
 62
     3
100
AcDbLine
 10
72.7348760248
 20
134.2699765478
 30
0.0
 11
72.7348760248
 21
135.469973496
 31
0.0
  0
LINE
  5
DE
330
2
100
AcDbEntity
  8
0
 62
     3
100
AcDbLine
 10
72.68503923679998
 20
137.1823407256
 30
0.0
 11
72.83485937389997
 21
135.4698878385
 31
0.0
  0
ARC
  5
DF
330
2
100
AcDbEntity
  8
0
 62
     3
100
AcDbCircle
 10
72.2865728022
 20
137.1475552832
 30
0.0
 40
0.3999999762
100
AcDbArc
 50
4.9998965479
 51
69.92676638290001
  0
LINE
  5
E0
330
2
100
AcDbEntity
  8
0
 62
     3
100
AcDbLine
 10
76.53486381779998
 20
142.1699857031
 30
0.0
 11
86.13486992129997
 21
142.1699857031
 31
0.0
  0
LINE
  5
E1
330
2
100
AcDbEntity
  8
0
 62
     3
100
AcDbLine
 10
81.33486700209997
 20
138.0698794525999
 30
0.0
 11
79.60281622559998
 21
137.0698794525999
 31
0.0
  0
LINE
  5
E2
330
2
100
AcDbEntity
  8
0
 62
     3
100
AcDbLine
 10
81.33486421779997
 20
135.4698769782999
 30
0.0
 11
80.1348672598
 21
134.2698800202999
 31
0.0
  0
ARC
  5
E3
330
2
100
AcDbEntity
  8
0
 62
     3
100
AcDbCircle
 10
81.33486686959997
 20
129.0699795996
 30
0.0
 40
9.0
100
AcDbArc
 50
69.92676638290001
 51
110.0731976449
  0
LINE
  5
E4
330
2
100
AcDbEntity
  8
0
 62
     3
100
AcDbLine
 10
77.83488212839998
 20
135.469973496
 30
0.0
 11
84.83486686959997
 21
135.469973496
 31
0.0
  0
LINE
  5
E5
330
2
100
AcDbEntity
  8
0
 62
     3
100
AcDbLine
 10
76.53487907659999
 20
134.2699765478
 30
0.0
 11
86.13486992129997
 21
134.2699765478
 31
0.0
  0
LINE
  5
E6
330
2
100
AcDbEntity
  8
0
 62
     3
100
AcDbLine
 10
76.53486381779998
 20
122.7699765477999
 30
0.0
 11
85.13486992129998
 21
122.7699765477999
 31
0.0
  0
LINE
  5
E7
330
2
100
AcDbEntity
  8
0
 62
     3
100
AcDbLine
 10
76.53486381779998
 20
132.5699795995999
 30
0.0
 11
86.13486992129997
 21
132.5699795995999
 31
0.0
  0
LINE
  5
E8
330
2
100
AcDbEntity
  8
0
 62
     3
100
AcDbLine
 10
76.7648748041
 20
130.0699795996
 30
0.0
 11
85.13486992129998
 21
130.0699795996
 31
0.0
  0
LINE
  5
E9
330
2
100
AcDbEntity
  8
0
 62
     3
100
AcDbLine
 10
76.7648748041
 20
126.8699826513
 30
0.0
 11
85.13486992129998
 21
126.8699826513
 31
0.0
  0
LINE
  5
EA
330
2
100
AcDbEntity
  8
0
 62
     3
100
AcDbLine
 10
76.53486381779998
 20
125.6699857030999
 30
0.0
 11
85.13486992129998
 21
125.6699857030999
 31
0.0
  0
LINE
  5
EB
330
2
100
AcDbEntity
  8
0
 62
     3
100
AcDbLine
 10
74.13486992129998
 20
132.5699795995999
 30
0.0
 11
74.13486992129998
 21
144.1699857030999
 31
0.0
  0
ARC
  5
EC
330
2
100
AcDbEntity
  8
0
 62
     3
100
AcDbCircle
 10
76.98222099559998
 20
133.0285977636
 30
0.0
 40
0.3999999762
100
AcDbArc
 50
201.8015080292
 51
281.5346775319
  0
ARC
  5
ED
330
2
100
AcDbEntity
  8
0
 62
     3
100
AcDbCircle
 10
76.7648748041
 20
127.0999783789
 30
0.0
 40
0.2299999595
100
AcDbArc
 50
179.9999640277999
 51
270.0000006831999
  0
LINE
  5
EE
330
2
100
AcDbEntity
  8
0
 62
     3
100
AcDbLine
 10
74.13488193079996
 20
133.0698509321999
 30
0.0
 11
74.05894992449998
 21
132.8800216354
 31
0.0
  0
ARC
  5
EF
330
2
100
AcDbEntity
  8
0
 62
     3
100
AcDbCircle
 10
73.68754326119997
 20
133.0286893164
 30
0.0
 40
0.3999999762
100
AcDbArc
 50
258.4653584403
 51
338.198493792
  0
LINE
  5
F0
330
2
100
AcDbEntity
  8
0
 62
     3
100
AcDbLine
 10
73.9348729731
 20
132.8699673925
 30
0.0
 11
73.9348729731
 21
133.469973496
 31
0.0
  0
ARC
  5
F1
330
2
100
AcDbEntity
  8
0
 62
     3
100
AcDbCircle
 10
76.7648748041
 20
129.8399686131999
 30
0.0
 40
0.2299999595
100
AcDbArc
 50
89.99998201389999
 51
179.9999640277999
  0
LINE
  5
F2
330
2
100
AcDbEntity
  8
0
 62
     3
100
AcDbLine
 10
76.61073571649999
 20
132.8799254588
 30
0.0
 11
76.53480371009997
 21
133.0697547556
 31
0.0
  0
LINE
  5
F3
330
2
100
AcDbEntity
  8
0
 62
     3
100
AcDbLine
 10
76.7348912836
 20
133.4698819432999
 30
0.0
 11
76.7348912836
 21
132.8698758397999
 31
0.0
  0
LINE
  5
F4
330
2
100
AcDbEntity
  8
0
 62
     3
100
AcDbLine
 10
79.18487040189998
 20
133.0698736967
 30
0.0
 11
77.06218092659998
 21
132.6366717946
 31
0.0
  0
LINE
  5
F5
330
2
100
AcDbEntity
  8
0
 62
     3
100
AcDbLine
 10
79.53487907659999
 20
132.5699643407999
 30
0.0
 11
79.53487907659999
 21
133.0699643408
 31
0.0
  0
LINE
  5
F6
330
2
100
AcDbEntity
  8
0
 62
     3
100
AcDbLine
 10
80.53487907659999
 20
133.0699643408
 30
0.0
 11
79.83486686959998
 21
133.0699643408
 31
0.0
  0
LINE
  5
F7
330
2
100
AcDbEntity
  8
0
 62
     3
100
AcDbLine
 10
80.53487907659999
 20
133.0699643408
 30
0.0
 11
80.53487907659999
 21
132.5699795995999
 31
0.0
  0
LINE
  5
F8
330
2
100
AcDbEntity
  8
0
 62
     3
100
AcDbLine
 10
79.1848729731
 20
133.0699795996
 30
0.0
 11
79.83486686959998
 21
133.0699795996
 31
0.0
  0
ARC
  5
F9
330
2
100
AcDbEntity
  8
0
 62
     3
100
AcDbCircle
 10
76.98222099559998
 20
134.2285947119
 30
0.0
 40
0.3999999762
100
AcDbArc
 50
201.8016173122999
 51
281.5346228904
  0
LINE
  5
FA
330
2
100
AcDbEntity
  8
0
 62
     3
100
AcDbLine
 10
74.13486992129998
 20
138.6699857031
 30
0.0
 11
76.53486381779998
 21
138.6699857031
 31
0.0
  0
LINE
  5
FB
330
2
100
AcDbEntity
  8
0
 62
     3
100
AcDbLine
 10
74.13486992129998
 20
137.6699551854999
 30
0.0
 11
76.53486381779998
 21
137.6699551854999
 31
0.0
  0
LINE
  5
FC
330
2
100
AcDbEntity
  8
0
 62
     3
100
AcDbLine
 10
74.05895432519997
 20
134.0800142992999
 30
0.0
 11
74.13488633149999
 21
134.2698435962
 31
0.0
  0
ARC
  5
FD
330
2
100
AcDbEntity
  8
0
 62
     3
100
AcDbCircle
 10
73.68754326119997
 20
134.2286862646
 30
0.0
 40
0.3999999762
100
AcDbArc
 50
258.4654130818
 51
338.198384509
  0
LINE
  5
FE
330
2
100
AcDbEntity
  8
0
 62
     3
100
AcDbLine
 10
76.53480780979998
 20
134.2697672539999
 30
0.0
 11
76.61074548309994
 21
134.0799237896999
 31
0.0
  0
LINE
  5
FF
330
2
100
AcDbEntity
  8
0
 62
     3
100
AcDbLine
 10
74.13486992129998
 20
144.1699857030999
 30
0.0
 11
76.53486381779998
 21
144.1699857030999
 31
0.0
  0
LINE
  5
100
330
2
100
AcDbEntity
  8
0
 62
     3
100
AcDbLine
 10
74.13486992129998
 20
139.6699857031
 30
0.0
 11
76.53486381779998
 21
139.6699857031
 31
0.0
  0
LINE
  5
101
330
2
100
AcDbEntity
  8
0
 62
     3
100
AcDbLine
 10
77.06218826649998
 20
133.8366744051
 30
0.0
 11
79.18487774179997
 21
134.2698763072
 31
0.0
  0
ARC
  5
102
330
2
100
AcDbEntity
  8
0
 62
     3
100
AcDbCircle
 10
78.3831761957
 20
137.1475552832
 30
0.0
 40
0.3999999762
100
AcDbArc
 50
110.0731976449
 51
175.0001016308
  0
LINE
  5
103
330
2
100
AcDbEntity
  8
0
 62
     3
100
AcDbLine
 10
77.83495474369999
 20
135.4698795272
 30
0.0
 11
77.98477488079999
 21
137.1823324143
 31
0.0
  0
LINE
  5
104
330
2
100
AcDbEntity
  8
0
 62
     3
100
AcDbLine
 10
77.9348729731
 20
135.469973496
 30
0.0
 11
77.9348729731
 21
134.2699765478
 31
0.0
  0
LINE
  5
105
330
2
100
AcDbEntity
  8
0
 62
     3
100
AcDbLine
 10
86.13486992129997
 20
144.1699857030999
 30
0.0
 11
86.13486992129997
 21
132.5699795995999
 31
0.0
  0
LINE
  5
106
330
2
100
AcDbEntity
  8
0
 62
     3
100
AcDbLine
 10
85.60763056389999
 20
132.6366593953
 30
0.0
 11
83.48494108859998
 21
133.0698612973999
 31
0.0
  0
LINE
  5
107
330
2
100
AcDbEntity
  8
0
 62
     3
100
AcDbLine
 10
82.13486992129999
 20
133.0699643408
 30
0.0
 11
82.83486686959998
 21
133.0699643408
 31
0.0
  0
LINE
  5
108
330
2
100
AcDbEntity
  8
0
 62
     3
100
AcDbLine
 10
82.13486992129999
 20
133.0699643408
 30
0.0
 11
82.13486992129999
 21
132.5699795995999
 31
0.0
  0
LINE
  5
109
330
2
100
AcDbEntity
  8
0
 62
     3
100
AcDbLine
 10
83.13505302679997
 20
132.5698880468
 30
0.0
 11
83.13505302679997
 21
133.0698880468
 31
0.0
  0
LINE
  5
10A
330
2
100
AcDbEntity
  8
0
 62
     3
100
AcDbLine
 10
82.83486686959998
 20
133.0699795996
 30
0.0
 11
83.4848760248
 21
133.0699795996
 31
0.0
  0
LINE
  5
10B
330
2
100
AcDbEntity
  8
0
 62
     3
100
AcDbLine
 10
85.13486992129998
 20
132.5699795995999
 30
0.0
 11
85.13486992129998
 21
122.7699765477999
 31
0.0
  0
ARC
  5
10C
330
2
100
AcDbEntity
  8
0
 62
     3
100
AcDbCircle
 10
85.68754326119998
 20
133.0286893164
 30
0.0
 40
0.3999999762
100
AcDbArc
 50
258.4653584403
 51
338.198493792
  0
LINE
  5
10D
330
2
100
AcDbEntity
  8
0
 62
     3
100
AcDbLine
 10
86.13488193080002
 20
133.0698509321999
 30
0.0
 11
86.05894992449998
 21
132.8800216354
 31
0.0
  0
LINE
  5
10E
330
2
100
AcDbEntity
  8
0
 62
     3
100
AcDbLine
 10
85.93487297309996
 20
132.8699673925
 30
0.0
 11
85.93487297309996
 21
133.469973496
 31
0.0
  0
ARC
  5
10F
330
2
100
AcDbEntity
  8
0
 62
     3
100
AcDbCircle
 10
84.28657280219999
 20
137.1475552832
 30
0.0
 40
0.3999999762
100
AcDbArc
 50
4.9998965479
 51
69.92676638290001
  0
LINE
  5
110
330
2
100
AcDbEntity
  8
0
 62
     3
100
AcDbLine
 10
83.48493374869997
 20
134.2698639079
 30
0.0
 11
85.607623224
 21
133.8366620056999
 31
0.0
  0
LINE
  5
111
330
2
100
AcDbEntity
  8
0
 62
     3
100
AcDbLine
 10
81.83486686959998
 20
133.7699765478
 30
0.0
 11
81.83486686959998
 21
134.2699765478
 31
0.0
  0
LINE
  5
112
330
2
100
AcDbEntity
  8
0
 62
     3
100
AcDbLine
 10
81.33487500740001
 20
134.2698692307
 30
0.0
 11
82.53486657069998
 21
135.469860794
 31
0.0
  0
LINE
  5
113
330
2
100
AcDbEntity
  8
0
 62
     3
100
AcDbLine
 10
81.33487033959999
 20
138.0698646074
 30
0.0
 11
82.20089572779997
 21
137.5698646074
 31
0.0
  0
LINE
  5
114
330
2
100
AcDbEntity
  8
0
 62
     3
100
AcDbLine
 10
80.83486686959998
 20
133.7699765478
 30
0.0
 11
80.83486686959998
 21
134.2699765478
 31
0.0
  0
LINE
  5
115
330
2
100
AcDbEntity
  8
0
 62
     3
100
AcDbLine
 10
80.83486686959998
 20
133.7699765478
 30
0.0
 11
81.83486686959998
 21
133.7699765478
 31
0.0
  0
ARC
  5
116
330
2
100
AcDbEntity
  8
0
 62
     3
100
AcDbCircle
 10
85.68754326119998
 20
134.2286862646
 30
0.0
 40
0.3999999762
100
AcDbArc
 50
258.4654130818
 51
338.198384509
  0
LINE
  5
117
330
2
100
AcDbEntity
  8
0
 62
     3
100
AcDbLine
 10
86.05895432519998
 20
134.0800142992999
 30
0.0
 11
86.13488633149996
 21
134.2698435962
 31
0.0
  0
LINE
  5
118
330
2
100
AcDbEntity
  8
0
 62
     3
100
AcDbLine
 10
84.68503923679998
 20
137.1823407256
 30
0.0
 11
84.83485937389998
 21
135.4698878385
 31
0.0
  0
LINE
  5
119
330
2
100
AcDbEntity
  8
0
 62
     3
100
AcDbLine
 10
84.73487602479996
 20
134.2699765478
 30
0.0
 11
84.73487602479996
 21
135.469973496
 31
0.0
  0
LINE
  5
11A
330
2
100
AcDbEntity
  8
0
 62
     3
100
AcDbLine
 10
72.79897819769996
 20
201.6612499357999
 30
0.0
 11
74.13486992129998
 21
201.6612499357999
 31
0.0
  0
LINE
  5
11B
330
2
100
AcDbEntity
  8
0
 62
     3
100
AcDbLine
 10
72.79897819769996
 20
200.6612499357999
 30
0.0
 11
74.13486992129998
 21
200.6612499357999
 31
0.0
  0
LINE
  5
11C
330
2
100
AcDbEntity
  8
0
 62
     3
100
AcDbLine
 10
64.53486381779999
 20
206.6615018163997
 30
0.0
 11
74.13486992129998
 21
206.6615018163997
 31
0.0
  0
LINE
  5
11D
330
2
100
AcDbEntity
  8
0
 62
     3
100
AcDbLine
 10
70.38190303139998
 20
196.4113669872999
 30
0.0
 11
73.48937945959997
 21
196.5862962404997
 31
0.0
  0
LINE
  5
11E
330
2
100
AcDbEntity
  8
0
 62
     3
100
AcDbLine
 10
70.58497017189998
 20
196.6115595515999
 30
0.0
 11
73.93497911939997
 21
199.9115500592999
 31
0.0
  0
LINE
  5
11F
330
2
100
AcDbEntity
  8
0
 62
     3
100
AcDbLine
 10
70.58497017189998
 20
205.7114379776
 30
0.0
 11
73.93497911939997
 21
202.4114474698999
 31
0.0
  0
LINE
  5
120
330
2
100
AcDbEntity
  8
0
 62
     3
100
AcDbLine
 10
70.38190303139998
 20
205.9116305418999
 30
0.0
 11
73.48937945959997
 21
205.7367012887
 31
0.0
  0
LINE
  5
121
330
2
100
AcDbEntity
  8
0
 62
     3
100
AcDbLine
 10
64.53486381779999
 20
201.6612499357999
 30
0.0
 11
65.87077080019998
 21
201.6612499357999
 31
0.0
  0
LINE
  5
122
330
2
100
AcDbEntity
  8
0
 62
     3
100
AcDbLine
 10
68.0849385855
 20
196.6115394807999
 30
0.0
 11
64.7349483564
 21
199.9115268479
 31
0.0
  0
LINE
  5
123
330
2
100
AcDbEntity
  8
0
 62
     3
100
AcDbLine
 10
68.0849385855
 20
205.7114580483999
 30
0.0
 11
64.7349483564
 21
202.4114706812999
 31
0.0
  0
LINE
  5
124
330
2
100
AcDbEntity
  8
0
 62
     3
100
AcDbLine
 10
65.18051510689997
 20
205.7366976372998
 30
0.0
 11
68.28793059649999
 21
205.9116242019999
 31
0.0
  0
LINE
  5
125
330
2
100
AcDbEntity
  8
0
 62
     3
100
AcDbLine
 10
65.18051510689997
 20
196.5862998919
 30
0.0
 11
68.28793059649999
 21
196.4113733271997
 31
0.0
  0
LINE
  5
126
330
2
100
AcDbEntity
  8
0
 62
     3
100
AcDbLine
 10
64.70951588829999
 20
205.2660343204999
 30
0.0
 11
64.53498886849996
 21
202.2145942385
 31
0.0
  0
LINE
  5
127
330
2
100
AcDbEntity
  8
0
 62
     3
100
AcDbLine
 10
64.53486381779999
 20
191.8614987645998
 30
0.0
 11
64.53486381779999
 21
206.9615048681
 31
0.0
  0
LINE
  5
128
330
2
100
AcDbEntity
  8
0
 62
     3
100
AcDbLine
 10
61.96037762689996
 20
205.2660057589
 30
0.0
 11
62.13488963939997
 21
202.2145954158999
 31
0.0
  0
LINE
  5
129
330
2
100
AcDbEntity
  8
0
 62
     3
100
AcDbLine
 10
58.58497017189995
 20
205.7114379776
 30
0.0
 11
61.93497911939997
 21
202.4114474698999
 31
0.0
  0
LINE
  5
12A
330
2
100
AcDbEntity
  8
0
 62
     3
100
AcDbLine
 10
62.13486992129998
 20
191.8614987645998
 30
0.0
 11
62.13486992129998
 21
206.9615048681
 31
0.0
  0
LINE
  5
12B
330
2
100
AcDbEntity
  8
0
 62
     3
100
AcDbLine
 10
60.79897819769996
 20
200.6612499357999
 30
0.0
 11
62.13486992129998
 21
200.6612499357999
 31
0.0
  0
LINE
  5
12C
330
2
100
AcDbEntity
  8
0
 62
     3
100
AcDbLine
 10
60.79897819769996
 20
201.6612499357999
 30
0.0
 11
62.13486992129998
 21
201.6612499357999
 31
0.0
  0
LINE
  5
12D
330
2
100
AcDbEntity
  8
0
 62
     3
100
AcDbLine
 10
61.72633760299999
 20
196.6614987646
 30
0.0
 11
62.13486992129998
 21
196.6614987646
 31
0.0
  0
LINE
  5
12E
330
2
100
AcDbEntity
  8
0
 62
     3
100
AcDbLine
 10
58.58497017189995
 20
196.6115595515999
 30
0.0
 11
61.93497911939997
 21
199.9115500592999
 31
0.0
  0
ARC
  5
12F
330
2
100
AcDbEntity
  8
0
 62
     3
100
AcDbCircle
 10
61.46117912539998
 20
197.0853984953999
 30
0.0
 40
0.5
100
AcDbArc
 50
273.2229930100999
 51
356.7279319241
  0
LINE
  5
130
330
2
100
AcDbEntity
  8
0
 62
     3
100
AcDbLine
 10
58.38190303139999
 20
196.4113669872999
 30
0.0
 11
61.48937945959997
 21
196.5862962404997
 31
0.0
  0
LINE
  5
131
330
2
100
AcDbEntity
  8
0
 62
     3
100
AcDbLine
 10
61.13486992129998
 20
191.8614987645998
 30
0.0
 11
61.13486992129998
 21
195.5615109715998
 31
0.0
  0
ARC
  5
132
330
2
100
AcDbEntity
  8
0
 62
     3
100
AcDbCircle
 10
65.2085851313
 20
197.0853984953999
 30
0.0
 40
0.5
100
AcDbArc
 50
183.2732265469998
 51
266.7784089999
  0
LINE
  5
133
330
2
100
AcDbEntity
  8
0
 62
     3
100
AcDbLine
 10
62.13486992129998
 20
193.3614987645999
 30
0.0
 11
64.53486381779999
 21
193.3614987645999
 31
0.0
  0
LINE
  5
134
330
2
100
AcDbEntity
  8
0
 62
     3
100
AcDbLine
 10
62.13486992129998
 20
194.5615262303999
 30
0.0
 11
64.53486381779999
 21
194.5615262303999
 31
0.0
  0
LINE
  5
135
330
2
100
AcDbEntity
  8
0
 62
     3
100
AcDbLine
 10
64.53486381779999
 20
196.6614987646
 30
0.0
 11
64.94342665369998
 21
196.6614987646
 31
0.0
  0
LINE
  5
136
330
2
100
AcDbEntity
  8
0
 62
     3
100
AcDbLine
 10
61.96037762689996
 20
197.0569917702999
 30
0.0
 11
62.13488963939997
 21
200.1084021132999
 31
0.0
  0
LINE
  5
137
330
2
100
AcDbEntity
  8
0
 62
     3
100
AcDbLine
 10
64.70951588829999
 20
197.0569632087
 30
0.0
 11
64.53498886849996
 21
200.1084032907
 31
0.0
  0
ARC
  5
138
330
2
100
AcDbEntity
  8
0
 62
     3
100
AcDbCircle
 10
61.46117912539998
 20
205.2375990337999
 30
0.0
 40
0.5
100
AcDbArc
 50
3.272068075899997
 51
86.77700698989998
  0
LINE
  5
139
330
2
100
AcDbEntity
  8
0
 62
     3
100
AcDbLine
 10
58.38190303139999
 20
205.9116305418999
 30
0.0
 11
61.48937945959997
 21
205.7367012887
 31
0.0
  0
LINE
  5
13A
330
2
100
AcDbEntity
  8
0
 62
     3
100
AcDbLine
 10
62.13486992129998
 20
204.8614987645998
 30
0.0
 11
64.53486381779999
 21
204.8614987645998
 31
0.0
  0
LINE
  5
13B
330
2
100
AcDbEntity
  8
0
 62
     3
100
AcDbLine
 10
62.13486992129998
 20
203.3614987645999
 30
0.0
 11
64.53486381779999
 21
203.3614987645999
 31
0.0
  0
LINE
  5
13C
330
2
100
AcDbEntity
  8
0
 62
     3
100
AcDbLine
 10
62.13486992129998
 20
206.9615048681
 30
0.0
 11
64.53486381779999
 21
206.9615048681
 31
0.0
  0
ARC
  5
13D
330
2
100
AcDbEntity
  8
0
 62
     3
100
AcDbCircle
 10
65.2085851313
 20
205.2375990337999
 30
0.0
 40
0.5
100
AcDbArc
 50
93.22159100009999
 51
176.7267734529999
  0
LINE
  5
13E
330
2
100
AcDbEntity
  8
0
 62
     3
100
AcDbLine
 10
67.41980961979999
 20
202.7684775120999
 30
0.0
 11
71.25003180929997
 21
199.5545396335
 31
0.0
  0
CIRCLE
  5
13F
330
2
100
AcDbEntity
  8
0
 62
     3
100
AcDbCircle
 10
69.33486686959998
 20
201.1612499357998
 30
0.0
 40
3.5
  0
LINE
  5
140
330
2
100
AcDbEntity
  8
0
 62
     3
100
AcDbLine
 10
70.2998984198
 20
202.3115005343
 30
0.0
 11
68.43164009729997
 21
200.0849968640999
 31
0.0
  0
LINE
  5
141
330
2
100
AcDbEntity
  8
0
 62
     3
100
AcDbLine
 10
68.28793059649999
 20
196.4113733271997
 30
0.0
 11
70.38190303139998
 21
196.4113669872999
 31
0.0
  0
LINE
  5
142
330
2
100
AcDbEntity
  8
0
 62
     3
100
AcDbLine
 10
68.83486686959997
 20
196.4112499357998
 30
0.0
 11
68.83486686959997
 21
197.6971538664999
 31
0.0
  0
LINE
  5
143
330
2
100
AcDbEntity
  8
0
 62
     3
100
AcDbLine
 10
69.83486686959998
 20
196.4112499357998
 30
0.0
 11
69.83486686959998
 21
197.6971538664999
 31
0.0
  0
LINE
  5
144
330
2
100
AcDbEntity
  8
0
 62
     3
100
AcDbLine
 10
73.13486992129998
 20
191.8614987645998
 30
0.0
 11
73.13486992129998
 21
195.5615109715998
 31
0.0
  0
LINE
  5
145
330
2
100
AcDbEntity
  8
0
 62
     3
100
AcDbLine
 10
68.28793059649999
 20
205.9116242019999
 30
0.0
 11
70.38190303139998
 21
205.9116305418999
 31
0.0
  0
LINE
  5
146
330
2
100
AcDbEntity
  8
0
 62
     3
100
AcDbLine
 10
68.83486686959997
 20
205.9117475934
 30
0.0
 11
68.83486686959997
 21
204.6258436626998
 31
0.0
  0
LINE
  5
147
330
2
100
AcDbEntity
  8
0
 62
     3
100
AcDbLine
 10
69.83486686959998
 20
205.9117475934
 30
0.0
 11
69.83486686959998
 21
204.6258436626998
 31
0.0
  0
LINE
  5
148
330
2
100
AcDbEntity
  8
0
 62
     3
100
AcDbLine
 10
80.28793059649999
 20
205.9116242019999
 30
0.0
 11
82.38190303139999
 21
205.9116305418999
 31
0.0
  0
LINE
  5
149
330
2
100
AcDbEntity
  8
0
 62
     3
100
AcDbLine
 10
82.2998984198
 20
202.3115005343
 30
0.0
 11
80.43164009729997
 21
200.0849968640999
 31
0.0
  0
LINE
  5
14A
330
2
100
AcDbEntity
  8
0
 62
     3
100
AcDbLine
 10
79.41980961979999
 20
202.7684775120999
 30
0.0
 11
83.25003180929996
 21
199.5545396335
 31
0.0
  0
LINE
  5
14B
330
2
100
AcDbEntity
  8
0
 62
     3
100
AcDbLine
 10
80.28793059649999
 20
196.4113733271997
 30
0.0
 11
82.38190303139999
 21
196.4113669872999
 31
0.0
  0
CIRCLE
  5
14C
330
2
100
AcDbEntity
  8
0
 62
     3
100
AcDbCircle
 10
81.33486686959997
 20
201.1612499357998
 30
0.0
 40
3.5
  0
LINE
  5
14D
330
2
100
AcDbEntity
  8
0
 62
     3
100
AcDbLine
 10
76.53486381779998
 20
206.6614865575999
 30
0.0
 11
86.13485466249995
 21
206.6614865575999
 31
0.0
  0
LINE
  5
14E
330
2
100
AcDbEntity
  8
0
 62
     3
100
AcDbLine
 10
76.70951588829996
 20
205.2660343204999
 30
0.0
 11
76.53498886849996
 21
202.2145942385
 31
0.0
  0
LINE
  5
14F
330
2
100
AcDbEntity
  8
0
 62
     3
100
AcDbLine
 10
73.96037762689997
 20
205.2660057589
 30
0.0
 11
74.13488963939997
 21
202.2145954158999
 31
0.0
  0
LINE
  5
150
330
2
100
AcDbEntity
  8
0
 62
     3
100
AcDbLine
 10
76.53486381779998
 20
206.9614743504998
 30
0.0
 11
76.53486381779998
 21
191.8614987645998
 31
0.0
  0
LINE
  5
151
330
2
100
AcDbEntity
  8
0
 62
     3
100
AcDbLine
 10
74.13486992129998
 20
191.8614987645998
 30
0.0
 11
74.13486992129998
 21
206.9615048681
 31
0.0
  0
LINE
  5
152
330
2
100
AcDbEntity
  8
0
 62
     3
100
AcDbLine
 10
80.0849385855
 20
205.7114580483999
 30
0.0
 11
76.73494835639997
 21
202.4114706812999
 31
0.0
  0
LINE
  5
153
330
2
100
AcDbEntity
  8
0
 62
     3
100
AcDbLine
 10
76.53486381779998
 20
201.6612499357999
 30
0.0
 11
77.87077080019997
 21
201.6612499357999
 31
0.0
  0
LINE
  5
154
330
2
100
AcDbEntity
  8
0
 62
     3
100
AcDbLine
 10
76.53486381779998
 20
200.6612499357999
 30
0.0
 11
77.87077080019997
 21
200.6612499357999
 31
0.0
  0
ARC
  5
155
330
2
100
AcDbEntity
  8
0
 62
     3
100
AcDbCircle
 10
77.2085851313
 20
197.0853984953999
 30
0.0
 40
0.5
100
AcDbArc
 50
183.2732265469998
 51
266.7784089999
  0
LINE
  5
156
330
2
100
AcDbEntity
  8
0
 62
     3
100
AcDbLine
 10
80.0849385855
 20
196.6115394807999
 30
0.0
 11
76.73494835639997
 21
199.9115268479
 31
0.0
  0
ARC
  5
157
330
2
100
AcDbEntity
  8
0
 62
     3
100
AcDbCircle
 10
73.46117912539998
 20
197.0853984953999
 30
0.0
 40
0.5
100
AcDbArc
 50
273.2229930100999
 51
356.7279319241
  0
LINE
  5
158
330
2
100
AcDbEntity
  8
0
 62
     3
100
AcDbLine
 10
74.13486992129998
 20
194.5614957127999
 30
0.0
 11
76.53486381779998
 21
194.5614957127999
 31
0.0
  0
LINE
  5
159
330
2
100
AcDbEntity
  8
0
 62
     3
100
AcDbLine
 10
74.13486992129998
 20
193.3614835057999
 30
0.0
 11
76.53486381779998
 21
193.3614835057999
 31
0.0
  0
LINE
  5
15A
330
2
100
AcDbEntity
  8
0
 62
     3
100
AcDbLine
 10
73.72633760299999
 20
196.6614987646
 30
0.0
 11
74.13486992129998
 21
196.6614987646
 31
0.0
  0
LINE
  5
15B
330
2
100
AcDbEntity
  8
0
 62
     3
100
AcDbLine
 10
76.53486381779998
 20
196.6614987646
 30
0.0
 11
76.94342665369998
 21
196.6614987646
 31
0.0
  0
LINE
  5
15C
330
2
100
AcDbEntity
  8
0
 62
     3
100
AcDbLine
 10
73.96037762689997
 20
197.0569917702999
 30
0.0
 11
74.13488963939997
 21
200.1084021132999
 31
0.0
  0
LINE
  5
15D
330
2
100
AcDbEntity
  8
0
 62
     3
100
AcDbLine
 10
76.70951588829996
 20
197.0569632087
 30
0.0
 11
76.53498886849996
 21
200.1084032907
 31
0.0
  0
LINE
  5
15E
330
2
100
AcDbEntity
  8
0
 62
     3
100
AcDbLine
 10
77.18051510689997
 20
196.5862998919
 30
0.0
 11
80.28793059649999
 21
196.4113733271997
 31
0.0
  0
ARC
  5
15F
330
2
100
AcDbEntity
  8
0
 62
     3
100
AcDbCircle
 10
77.2085851313
 20
205.2375990337999
 30
0.0
 40
0.5
100
AcDbArc
 50
93.22159100009999
 51
176.7267734529999
  0
LINE
  5
160
330
2
100
AcDbEntity
  8
0
 62
     3
100
AcDbLine
 10
74.13486992129998
 20
203.3614987645999
 30
0.0
 11
76.53486381779998
 21
203.3614987645999
 31
0.0
  0
LINE
  5
161
330
2
100
AcDbEntity
  8
0
 62
     3
100
AcDbLine
 10
74.13486992129998
 20
204.8614987645998
 30
0.0
 11
76.53486381779998
 21
204.8614987645998
 31
0.0
  0
LINE
  5
162
330
2
100
AcDbEntity
  8
0
 62
     3
100
AcDbLine
 10
74.13486992129998
 20
206.9614743504998
 30
0.0
 11
76.53486381779998
 21
206.9614743504998
 31
0.0
  0
ARC
  5
163
330
2
100
AcDbEntity
  8
0
 62
     3
100
AcDbCircle
 10
73.46117912539998
 20
205.2375990337999
 30
0.0
 40
0.5
100
AcDbArc
 50
3.272068075899997
 51
86.77700698989998
  0
LINE
  5
164
330
2
100
AcDbEntity
  8
0
 62
     3
100
AcDbLine
 10
77.18051510689997
 20
205.7366976372998
 30
0.0
 11
80.28793059649999
 21
205.9116242019999
 31
0.0
  0
LINE
  5
165
330
2
100
AcDbEntity
  8
0
 62
     3
100
AcDbLine
 10
85.96037762689997
 20
205.2660057589
 30
0.0
 11
86.1348896394
 21
202.2145954158999
 31
0.0
  0
LINE
  5
166
330
2
100
AcDbEntity
  8
0
 62
     3
100
AcDbLine
 10
82.58497017189998
 20
205.7114379776
 30
0.0
 11
85.9349791194
 21
202.4114474698999
 31
0.0
  0
LINE
  5
167
330
2
100
AcDbEntity
  8
0
 62
     3
100
AcDbLine
 10
86.13486992129997
 20
206.9614743504998
 30
0.0
 11
86.13486992129997
 21
191.8614987645998
 31
0.0
  0
LINE
  5
168
330
2
100
AcDbEntity
  8
0
 62
     3
100
AcDbLine
 10
82.58497017189998
 20
196.6115595515999
 30
0.0
 11
85.9349791194
 21
199.9115500592999
 31
0.0
  0
LINE
  5
169
330
2
100
AcDbEntity
  8
0
 62
     3
100
AcDbLine
 10
82.38190303139999
 20
196.4113669872999
 30
0.0
 11
85.4893794596
 21
196.5862962404997
 31
0.0
  0
LINE
  5
16A
330
2
100
AcDbEntity
  8
0
 62
     3
100
AcDbLine
 10
81.83486686959998
 20
196.4112499357998
 30
0.0
 11
81.83486686959998
 21
197.6971538664999
 31
0.0
  0
LINE
  5
16B
330
2
100
AcDbEntity
  8
0
 62
     3
100
AcDbLine
 10
80.83486686959998
 20
196.4112499357998
 30
0.0
 11
80.83486686959998
 21
197.6971538664999
 31
0.0
  0
ARC
  5
16C
330
2
100
AcDbEntity
  8
0
 62
     3
100
AcDbCircle
 10
85.46117912539996
 20
197.0853984953999
 30
0.0
 40
0.5
100
AcDbArc
 50
273.2229930100999
 51
356.7279319241
  0
LINE
  5
16D
330
2
100
AcDbEntity
  8
0
 62
     3
100
AcDbLine
 10
85.72633760299998
 20
196.6614987646
 30
0.0
 11
86.13486992129997
 21
196.6614987646
 31
0.0
  0
LINE
  5
16E
330
2
100
AcDbEntity
  8
0
 62
     3
100
AcDbLine
 10
85.13485466249997
 20
195.5614957127998
 30
0.0
 11
85.13485466249997
 21
191.8614987645998
 31
0.0
  0
LINE
  5
16F
330
2
100
AcDbEntity
  8
0
 62
     3
100
AcDbLine
 10
85.96037762689997
 20
197.0569917702999
 30
0.0
 11
86.1348896394
 21
200.1084021132999
 31
0.0
  0
LINE
  5
170
330
2
100
AcDbEntity
  8
0
 62
     3
100
AcDbLine
 10
84.79897819769997
 20
201.6612499357999
 30
0.0
 11
86.13486992129997
 21
201.6612499357999
 31
0.0
  0
LINE
  5
171
330
2
100
AcDbEntity
  8
0
 62
     3
100
AcDbLine
 10
84.79897819769997
 20
200.6612499357999
 30
0.0
 11
86.13486992129997
 21
200.6612499357999
 31
0.0
  0
LINE
  5
172
330
2
100
AcDbEntity
  8
0
 62
     3
100
AcDbLine
 10
82.38190303139999
 20
205.9116305418999
 30
0.0
 11
85.4893794596
 21
205.7367012887
 31
0.0
  0
LINE
  5
173
330
2
100
AcDbEntity
  8
0
 62
     3
100
AcDbLine
 10
81.83486686959998
 20
205.9117475934
 30
0.0
 11
81.83486686959998
 21
204.6258436626998
 31
0.0
  0
LINE
  5
174
330
2
100
AcDbEntity
  8
0
 62
     3
100
AcDbLine
 10
80.83486686959998
 20
205.9117475934
 30
0.0
 11
80.83486686959998
 21
204.6258436626998
 31
0.0
  0
ARC
  5
175
330
2
100
AcDbEntity
  8
0
 62
     3
100
AcDbCircle
 10
85.46117912539996
 20
205.2375990337999
 30
0.0
 40
0.5
100
AcDbArc
 50
3.272068075899997
 51
86.77700698989998
  0
LINE
  5
176
330
2
100
AcDbEntity
  8
0
 62
     3
100
AcDbLine
 10
137.0348485589998
 20
117.1699857030999
 30
0.0
 11
137.0348485589998
 21
124.6699704443
 31
0.0
  0
LINE
  5
177
330
2
100
AcDbEntity
  8
0
 62
     3
100
AcDbLine
 10
136.0348485589998
 20
117.6699857030999
 30
0.0
 11
136.0348485589998
 21
124.1699857031
 31
0.0
  0
LINE
  5
178
330
2
100
AcDbEntity
  8
0
 62
     3
100
AcDbLine
 10
124.5348485589998
 20
144.1699857030999
 30
0.0
 11
124.5348485589998
 21
116.1699857030999
 31
0.0
  0
LINE
  5
179
330
2
100
AcDbEntity
  8
0
 62
     3
100
AcDbLine
 10
112.5348638177999
 20
144.1699857030999
 30
0.0
 11
112.5348638177999
 21
116.1699857030999
 31
0.0
  0
LINE
  5
17A
330
2
100
AcDbEntity
  8
0
 62
     3
100
AcDbLine
 10
88.53486381779999
 20
144.1699857030999
 30
0.0
 11
88.53486381779999
 21
116.1699857030999
 31
0.0
  0
LINE
  5
17B
330
2
100
AcDbEntity
  8
0
 62
     3
100
AcDbLine
 10
100.5348638177999
 20
144.1699857030999
 30
0.0
 11
100.5348638177999
 21
116.1699857030999
 31
0.0
  0
LINE
  5
17C
330
2
100
AcDbEntity
  8
0
 62
     3
100
AcDbLine
 10
136.0348774465997
 20
116.1697766429
 30
0.0
 11
137.0348742934999
 21
117.1697819192
 31
0.0
  0
LINE
  5
17D
330
2
100
AcDbEntity
  8
0
 62
     3
100
AcDbLine
 10
136.0348566050999
 20
117.6697816107999
 30
0.0
 11
136.7848520064999
 21
116.9197862094
 31
0.0
  0
LINE
  5
17E
330
2
100
AcDbEntity
  8
0
 62
     3
100
AcDbLine
 10
118.5849701718999
 20
196.6115595515999
 30
0.0
 11
121.9349791193999
 21
199.9115500592999
 31
0.0
  0
LINE
  5
17F
330
2
100
AcDbEntity
  8
0
 62
     3
100
AcDbLine
 10
118.5849701718999
 20
205.7114379776
 30
0.0
 11
121.9349791193999
 21
202.4114474698999
 31
0.0
  0
LINE
  5
180
330
2
100
AcDbEntity
  8
0
 62
     3
100
AcDbLine
 10
118.3819030313999
 20
205.9116305418999
 30
0.0
 11
121.4893794595999
 21
205.7367012887
 31
0.0
  0
LINE
  5
181
330
2
100
AcDbEntity
  8
0
 62
     3
100
AcDbLine
 10
118.3819030313999
 20
196.4113669872999
 30
0.0
 11
121.4893794595999
 21
196.5862962404997
 31
0.0
  0
LINE
  5
182
330
2
100
AcDbEntity
  8
0
 62
     3
100
AcDbLine
 10
118.8348668695999
 20
133.0699795996
 30
0.0
 11
119.4848760247999
 21
133.0699795996
 31
0.0
  0
ARC
  5
183
330
2
100
AcDbEntity
  8
0
 62
     3
100
AcDbCircle
 10
117.3348668695999
 20
129.0699795996
 30
0.0
 40
9.0
100
AcDbArc
 50
69.92676638290001
 51
110.0731976449
  0
LINE
  5
184
330
2
100
AcDbEntity
  8
0
 62
     3
100
AcDbLine
 10
112.5348638177999
 20
142.1699857031
 30
0.0
 11
122.1348699212999
 21
142.1699857031
 31
0.0
  0
LINE
  5
185
330
2
100
AcDbEntity
  8
0
 62
     3
100
AcDbLine
 10
113.8348821283998
 20
135.469973496
 30
0.0
 11
120.8348668695999
 21
135.469973496
 31
0.0
  0
LINE
  5
186
330
2
100
AcDbEntity
  8
0
 62
     3
100
AcDbLine
 10
112.5348790766
 20
134.2699765478
 30
0.0
 11
122.1348699212999
 21
134.2699765478
 31
0.0
  0
LINE
  5
187
330
2
100
AcDbEntity
  8
0
 62
     3
100
AcDbLine
 10
112.5348638177999
 20
122.7699765477999
 30
0.0
 11
121.1348546625
 21
122.7699765477999
 31
0.0
  0
LINE
  5
188
330
2
100
AcDbEntity
  8
0
 62
     3
100
AcDbLine
 10
112.5348638177999
 20
206.6614865575999
 30
0.0
 11
122.1348546625
 21
206.6614865575999
 31
0.0
  0
LINE
  5
189
330
2
100
AcDbEntity
  8
0
 62
     3
100
AcDbLine
 10
112.5348638177999
 20
132.5699795995999
 30
0.0
 11
122.1348546625
 21
132.5699795995999
 31
0.0
  0
LINE
  5
18A
330
2
100
AcDbEntity
  8
0
 62
     3
100
AcDbLine
 10
112.7648748041
 20
130.0699795996
 30
0.0
 11
121.1348546625
 21
130.0699795996
 31
0.0
  0
LINE
  5
18B
330
2
100
AcDbEntity
  8
0
 62
     3
100
AcDbLine
 10
112.7648748041
 20
126.8699826513
 30
0.0
 11
121.1348546625
 21
126.8699826513
 31
0.0
  0
LINE
  5
18C
330
2
100
AcDbEntity
  8
0
 62
     3
100
AcDbLine
 10
112.5348638177999
 20
125.6699857030999
 30
0.0
 11
121.1348546625
 21
125.6699857030999
 31
0.0
  0
LINE
  5
18D
330
2
100
AcDbEntity
  8
0
 62
     3
100
AcDbLine
 10
110.1348699212999
 20
195.5614957127998
 30
0.0
 11
124.5348485589998
 21
195.5614957127998
 31
0.0
  0
CIRCLE
  5
18E
330
2
100
AcDbEntity
  8
0
 62
     3
100
AcDbCircle
 10
117.3348668695999
 20
201.1612499357998
 30
0.0
 40
3.5
  0
LINE
  5
18F
330
2
100
AcDbEntity
  8
0
 62
     3
100
AcDbLine
 10
115.4198096197999
 20
202.7684775120999
 30
0.0
 11
119.2500318092999
 21
199.5545396335
 31
0.0
  0
LINE
  5
190
330
2
100
AcDbEntity
  8
0
 62
     3
100
AcDbLine
 10
105.3348656467
 20
138.0698788565999
 30
0.0
 11
103.6028148701998
 21
137.0698788565999
 31
0.0
  0
LINE
  5
191
330
2
100
AcDbEntity
  8
0
 62
     3
100
AcDbLine
 10
103.1848729730999
 20
133.0699795996
 30
0.0
 11
103.8348668695999
 21
133.0699795996
 31
0.0
  0
ARC
  5
192
330
2
100
AcDbEntity
  8
0
 62
     3
100
AcDbCircle
 10
105.3348668695999
 20
129.0699795996
 30
0.0
 40
9.0
100
AcDbArc
 50
69.92676638290001
 51
110.0731976449
  0
LINE
  5
193
330
2
100
AcDbEntity
  8
0
 62
     3
100
AcDbLine
 10
100.5348638177999
 20
142.1699857031
 30
0.0
 11
110.1348699212999
 21
142.1699857031
 31
0.0
  0
LINE
  5
194
330
2
100
AcDbEntity
  8
0
 62
     3
100
AcDbLine
 10
100.5348638177999
 20
122.7699765477999
 30
0.0
 11
109.1348699212999
 21
122.7699765477999
 31
0.0
  0
LINE
  5
195
330
2
100
AcDbEntity
  8
0
 62
     3
100
AcDbLine
 10
100.7648748040999
 20
130.0699795996
 30
0.0
 11
109.1348699212999
 21
130.0699795996
 31
0.0
  0
LINE
  5
196
330
2
100
AcDbEntity
  8
0
 62
     3
100
AcDbLine
 10
100.7648748040999
 20
126.8699826513
 30
0.0
 11
109.1348699212999
 21
126.8699826513
 31
0.0
  0
LINE
  5
197
330
2
100
AcDbEntity
  8
0
 62
     3
100
AcDbLine
 10
100.5348638177999
 20
125.6699857030999
 30
0.0
 11
109.1348699212999
 21
125.6699857030999
 31
0.0
  0
LINE
  5
198
330
2
100
AcDbEntity
  8
0
 62
     3
100
AcDbLine
 10
100.5348790765999
 20
134.2699765478
 30
0.0
 11
110.1348699212999
 21
134.2699765478
 31
0.0
  0
LINE
  5
199
330
2
100
AcDbEntity
  8
0
 62
     3
100
AcDbLine
 10
101.8348821283999
 20
135.469973496
 30
0.0
 11
108.8348668695999
 21
135.469973496
 31
0.0
  0
LINE
  5
19A
330
2
100
AcDbEntity
  8
0
 62
     3
100
AcDbLine
 10
100.5348638177999
 20
132.5699795995999
 30
0.0
 11
110.1348699212999
 21
132.5699795995999
 31
0.0
  0
LINE
  5
19B
330
2
100
AcDbEntity
  8
0
 62
     3
100
AcDbLine
 10
88.53486381779999
 20
142.1699857031
 30
0.0
 11
98.13486992129998
 21
142.1699857031
 31
0.0
  0
LINE
  5
19C
330
2
100
AcDbEntity
  8
0
 62
     3
100
AcDbLine
 10
95.48493374869996
 20
134.2698639079
 30
0.0
 11
97.60762322400001
 21
133.8366620056999
 31
0.0
  0
LINE
  5
19D
330
2
100
AcDbEntity
  8
0
 62
     3
100
AcDbLine
 10
97.60763056389999
 20
132.6366593953
 30
0.0
 11
95.48494108859998
 21
133.0698612973999
 31
0.0
  0
ARC
  5
19E
330
2
100
AcDbEntity
  8
0
 62
     3
100
AcDbCircle
 10
93.33486686959998
 20
129.0699795996
 30
0.0
 40
9.0
100
AcDbArc
 50
69.92676638290001
 51
110.0731976449
  0
LINE
  5
19F
330
2
100
AcDbEntity
  8
0
 62
     3
100
AcDbLine
 10
88.53486381779999
 20
132.5699795995999
 30
0.0
 11
98.13486992129998
 21
132.5699795995999
 31
0.0
  0
LINE
  5
1A0
330
2
100
AcDbEntity
  8
0
 62
     3
100
AcDbLine
 10
89.83488212839995
 20
135.469973496
 30
0.0
 11
96.83486686959998
 21
135.469973496
 31
0.0
  0
LINE
  5
1A1
330
2
100
AcDbEntity
  8
0
 62
     3
100
AcDbLine
 10
88.53487907659996
 20
134.2699765478
 30
0.0
 11
98.13486992129998
 21
134.2699765478
 31
0.0
  0
LINE
  5
1A2
330
2
100
AcDbEntity
  8
0
 62
     3
100
AcDbLine
 10
88.53486381779999
 20
122.7699765477999
 30
0.0
 11
97.13486992129999
 21
122.7699765477999
 31
0.0
  0
LINE
  5
1A3
330
2
100
AcDbEntity
  8
0
 62
     3
100
AcDbLine
 10
88.76487480409997
 20
130.0699795996
 30
0.0
 11
97.13486992129999
 21
130.0699795996
 31
0.0
  0
LINE
  5
1A4
330
2
100
AcDbEntity
  8
0
 62
     3
100
AcDbLine
 10
88.76487480409997
 20
126.8699826513
 30
0.0
 11
97.13486992129999
 21
126.8699826513
 31
0.0
  0
LINE
  5
1A5
330
2
100
AcDbEntity
  8
0
 62
     3
100
AcDbLine
 10
88.53486381779999
 20
125.6699857030999
 30
0.0
 11
97.13486992129999
 21
125.6699857030999
 31
0.0
  0
LINE
  5
1A6
330
2
100
AcDbEntity
  8
0
 62
     3
100
AcDbLine
 10
92.5348790766
 20
133.0699643408
 30
0.0
 11
91.83486686959998
 21
133.0699643408
 31
0.0
  0
ARC
  5
1A7
330
2
100
AcDbEntity
  8
0
 62
     3
100
AcDbCircle
 10
88.76487480409997
 20
127.0999783789
 30
0.0
 40
0.2299999595
100
AcDbArc
 50
179.9999640277999
 51
270.0000006831999
  0
LINE
  5
1A8
330
2
100
AcDbEntity
  8
0
 62
     3
100
AcDbLine
 10
91.18487040189998
 20
133.0698736967
 30
0.0
 11
89.06218092659997
 21
132.6366717946
 31
0.0
  0
LINE
  5
1A9
330
2
100
AcDbEntity
  8
0
 62
     3
100
AcDbLine
 10
88.61073571649995
 20
132.8799254588
 30
0.0
 11
88.53480371009998
 21
133.0697547556
 31
0.0
  0
ARC
  5
1AA
330
2
100
AcDbEntity
  8
0
 62
     3
100
AcDbCircle
 10
88.98222099559996
 20
133.0285977636
 30
0.0
 40
0.3999999762
100
AcDbArc
 50
201.8015080292
 51
281.5346775319
  0
ARC
  5
1AB
330
2
100
AcDbEntity
  8
0
 62
     3
100
AcDbCircle
 10
88.76487480409997
 20
129.8399686131999
 30
0.0
 40
0.2299999595
100
AcDbArc
 50
89.99998201389999
 51
179.9999640277999
  0
LINE
  5
1AC
330
2
100
AcDbEntity
  8
0
 62
     3
100
AcDbLine
 10
88.73489128359995
 20
133.4698819432999
 30
0.0
 11
88.73489128359995
 21
132.8698758397999
 31
0.0
  0
LINE
  5
1AD
330
2
100
AcDbEntity
  8
0
 62
     3
100
AcDbLine
 10
91.53487907659997
 20
132.5699643407999
 30
0.0
 11
91.53487907659997
 21
133.0699643408
 31
0.0
  0
LINE
  5
1AE
330
2
100
AcDbEntity
  8
0
 62
     3
100
AcDbLine
 10
91.18487297309997
 20
133.0699795996
 30
0.0
 11
91.83486686959998
 21
133.0699795996
 31
0.0
  0
LINE
  5
1AF
330
2
100
AcDbEntity
  8
0
 62
     3
100
AcDbLine
 10
92.5348790766
 20
133.0699643408
 30
0.0
 11
92.5348790766
 21
132.5699795995999
 31
0.0
  0
LINE
  5
1B0
330
2
100
AcDbEntity
  8
0
 62
     3
100
AcDbLine
 10
95.1350530268
 20
132.5698880468
 30
0.0
 11
95.1350530268
 21
133.0698880468
 31
0.0
  0
LINE
  5
1B1
330
2
100
AcDbEntity
  8
0
 62
     3
100
AcDbLine
 10
94.83486686959995
 20
133.0699795996
 30
0.0
 11
95.48487602479999
 21
133.0699795996
 31
0.0
  0
LINE
  5
1B2
330
2
100
AcDbEntity
  8
0
 62
     3
100
AcDbLine
 10
94.13486992129998
 20
133.0699643408
 30
0.0
 11
94.13486992129998
 21
132.5699795995999
 31
0.0
  0
LINE
  5
1B3
330
2
100
AcDbEntity
  8
0
 62
     3
100
AcDbLine
 10
94.13486992129998
 20
133.0699643408
 30
0.0
 11
94.83486686959995
 21
133.0699643408
 31
0.0
  0
LINE
  5
1B4
330
2
100
AcDbEntity
  8
0
 62
     3
100
AcDbLine
 10
93.3348670021
 20
138.0698794525999
 30
0.0
 11
91.60281622559995
 21
137.0698794525999
 31
0.0
  0
LINE
  5
1B5
330
2
100
AcDbEntity
  8
0
 62
     3
100
AcDbLine
 10
93.33486421779999
 20
135.4698769782999
 30
0.0
 11
92.13486725979999
 21
134.2698800202999
 31
0.0
  0
LINE
  5
1B6
330
2
100
AcDbEntity
  8
0
 62
     3
100
AcDbLine
 10
89.06218826649995
 20
133.8366744051
 30
0.0
 11
91.1848777418
 21
134.2698763072
 31
0.0
  0
ARC
  5
1B7
330
2
100
AcDbEntity
  8
0
 62
     3
100
AcDbCircle
 10
90.38317619569999
 20
137.1475552832
 30
0.0
 40
0.3999999762
100
AcDbArc
 50
110.0731976449
 51
175.0001016308
  0
LINE
  5
1B8
330
2
100
AcDbEntity
  8
0
 62
     3
100
AcDbLine
 10
89.8349547437
 20
135.4698795272
 30
0.0
 11
89.98477488079997
 21
137.1823324143
 31
0.0
  0
LINE
  5
1B9
330
2
100
AcDbEntity
  8
0
 62
     3
100
AcDbLine
 10
89.93487297309997
 20
135.469973496
 30
0.0
 11
89.93487297309997
 21
134.2699765478
 31
0.0
  0
LINE
  5
1BA
330
2
100
AcDbEntity
  8
0
 62
     3
100
AcDbLine
 10
88.53480780979998
 20
134.2697672539999
 30
0.0
 11
88.61074548309998
 21
134.0799237896999
 31
0.0
  0
ARC
  5
1BB
330
2
100
AcDbEntity
  8
0
 62
     3
100
AcDbCircle
 10
88.98222099559996
 20
134.2285947119
 30
0.0
 40
0.3999999762
100
AcDbArc
 50
201.8016173122999
 51
281.5346228904
  0
LINE
  5
1BC
330
2
100
AcDbEntity
  8
0
 62
     3
100
AcDbLine
 10
93.3348703396
 20
138.0698646074
 30
0.0
 11
94.2008957278
 21
137.5698646074
 31
0.0
  0
LINE
  5
1BD
330
2
100
AcDbEntity
  8
0
 62
     3
100
AcDbLine
 10
93.33487500739995
 20
134.2698692307
 30
0.0
 11
94.5348665707
 21
135.469860794
 31
0.0
  0
LINE
  5
1BE
330
2
100
AcDbEntity
  8
0
 62
     3
100
AcDbLine
 10
93.83486686959995
 20
133.7699765478
 30
0.0
 11
93.83486686959995
 21
134.2699765478
 31
0.0
  0
LINE
  5
1BF
330
2
100
AcDbEntity
  8
0
 62
     3
100
AcDbLine
 10
92.83486686959998
 20
133.7699765478
 30
0.0
 11
92.83486686959998
 21
134.2699765478
 31
0.0
  0
LINE
  5
1C0
330
2
100
AcDbEntity
  8
0
 62
     3
100
AcDbLine
 10
92.83486686959998
 20
133.7699765478
 30
0.0
 11
93.83486686959995
 21
133.7699765478
 31
0.0
  0
LINE
  5
1C1
330
2
100
AcDbEntity
  8
0
 62
     3
100
AcDbLine
 10
98.13486992129998
 20
132.5699795995999
 30
0.0
 11
98.13486992129998
 21
144.1699857030999
 31
0.0
  0
LINE
  5
1C2
330
2
100
AcDbEntity
  8
0
 62
     3
100
AcDbLine
 10
97.13486992129999
 20
132.5699795995999
 30
0.0
 11
97.13486992129999
 21
122.7699765477999
 31
0.0
  0
ARC
  5
1C3
330
2
100
AcDbEntity
  8
0
 62
     3
100
AcDbCircle
 10
97.68754326120001
 20
133.0286893164
 30
0.0
 40
0.3999999762
100
AcDbArc
 50
258.4653584403
 51
338.198493792
  0
LINE
  5
1C4
330
2
100
AcDbEntity
  8
0
 62
     3
100
AcDbLine
 10
98.13488193080003
 20
133.0698509321999
 30
0.0
 11
98.05894992450001
 21
132.8800216354
 31
0.0
  0
LINE
  5
1C5
330
2
100
AcDbEntity
  8
0
 62
     3
100
AcDbLine
 10
97.93487297310001
 20
132.8699673925
 30
0.0
 11
97.93487297310001
 21
133.469973496
 31
0.0
  0
ARC
  5
1C6
330
2
100
AcDbEntity
  8
0
 62
     3
100
AcDbCircle
 10
100.7648748040999
 20
127.0999783789
 30
0.0
 40
0.2299999595
100
AcDbArc
 50
179.9999640277999
 51
270.0000006831999
  0
LINE
  5
1C7
330
2
100
AcDbEntity
  8
0
 62
     3
100
AcDbLine
 10
103.1848812510999
 20
133.0698750507
 30
0.0
 11
101.0621917756998
 21
132.6366731485
 31
0.0
  0
ARC
  5
1C8
330
2
100
AcDbEntity
  8
0
 62
     3
100
AcDbCircle
 10
100.7648748040999
 20
129.8399686131999
 30
0.0
 40
0.2299999595
100
AcDbArc
 50
89.99998201389999
 51
179.9999640277999
  0
LINE
  5
1C9
330
2
100
AcDbEntity
  8
0
 62
     3
100
AcDbLine
 10
100.6107275263999
 20
132.8799297974999
 30
0.0
 11
100.5347955200999
 21
133.0697590942999
 31
0.0
  0
ARC
  5
1CA
330
2
100
AcDbEntity
  8
0
 62
     3
100
AcDbCircle
 10
100.9822209955999
 20
133.0285977636
 30
0.0
 40
0.3999999762
100
AcDbArc
 50
201.8015080292
 51
281.5346775319
  0
LINE
  5
1CB
330
2
100
AcDbEntity
  8
0
 62
     3
100
AcDbLine
 10
100.7348912835998
 20
133.4698819432999
 30
0.0
 11
100.7348912835998
 21
132.8698758397999
 31
0.0
  0
LINE
  5
1CC
330
2
100
AcDbEntity
  8
0
 62
     3
100
AcDbLine
 10
103.5348790765999
 20
132.5699643407999
 30
0.0
 11
103.5348790765999
 21
133.0699643408
 31
0.0
  0
LINE
  5
1CD
330
2
100
AcDbEntity
  8
0
 62
     3
100
AcDbLine
 10
98.13486992129998
 20
139.6699857031
 30
0.0
 11
100.5348638177999
 21
139.6699857031
 31
0.0
  0
LINE
  5
1CE
330
2
100
AcDbEntity
  8
0
 62
     3
100
AcDbLine
 10
98.13486992129998
 20
144.1699857030999
 30
0.0
 11
100.5348638177999
 21
144.1699857030999
 31
0.0
  0
LINE
  5
1CF
330
2
100
AcDbEntity
  8
0
 62
     3
100
AcDbLine
 10
98.13486992129998
 20
137.6699551854999
 30
0.0
 11
100.5348638177999
 21
137.6699551854999
 31
0.0
  0
LINE
  5
1D0
330
2
100
AcDbEntity
  8
0
 62
     3
100
AcDbLine
 10
98.13486992129998
 20
138.6699857031
 30
0.0
 11
100.5348638177999
 21
138.6699857031
 31
0.0
  0
ARC
  5
1D1
330
2
100
AcDbEntity
  8
0
 62
     3
100
AcDbCircle
 10
97.68754326120001
 20
134.2286862646
 30
0.0
 40
0.3999999762
100
AcDbArc
 50
258.4654130818
 51
338.198384509
  0
ARC
  5
1D2
330
2
100
AcDbEntity
  8
0
 62
     3
100
AcDbCircle
 10
96.2865728022
 20
137.1475552832
 30
0.0
 40
0.3999999762
100
AcDbArc
 50
4.9998965479
 51
69.92676638290001
  0
LINE
  5
1D3
330
2
100
AcDbEntity
  8
0
 62
     3
100
AcDbLine
 10
96.68503923680001
 20
137.1823407256
 30
0.0
 11
96.83485937389997
 21
135.4698878385
 31
0.0
  0
LINE
  5
1D4
330
2
100
AcDbEntity
  8
0
 62
     3
100
AcDbLine
 10
96.73487602480001
 20
134.2699765478
 30
0.0
 11
96.73487602480001
 21
135.469973496
 31
0.0
  0
LINE
  5
1D5
330
2
100
AcDbEntity
  8
0
 62
     3
100
AcDbLine
 10
98.05895432520001
 20
134.0800142992999
 30
0.0
 11
98.13488633150001
 21
134.2698435962
 31
0.0
  0
LINE
  5
1D6
330
2
100
AcDbEntity
  8
0
 62
     3
100
AcDbLine
 10
101.0621991155999
 20
133.836675759
 30
0.0
 11
103.1848885909999
 21
134.2698776610999
 31
0.0
  0
LINE
  5
1D7
330
2
100
AcDbEntity
  8
0
 62
     3
100
AcDbLine
 10
100.5347996197998
 20
134.2697715927
 30
0.0
 11
100.6107372930999
 21
134.0799281285
 31
0.0
  0
ARC
  5
1D8
330
2
100
AcDbEntity
  8
0
 62
     3
100
AcDbCircle
 10
100.9822209955999
 20
134.2285947119
 30
0.0
 40
0.3999999762
100
AcDbArc
 50
201.8016173122999
 51
281.5346228904
  0
LINE
  5
1D9
330
2
100
AcDbEntity
  8
0
 62
     3
100
AcDbLine
 10
101.9348729730999
 20
135.469973496
 30
0.0
 11
101.9348729730999
 21
134.2699765478
 31
0.0
  0
LINE
  5
1DA
330
2
100
AcDbEntity
  8
0
 62
     3
100
AcDbLine
 10
101.8349489670999
 20
135.4698795925
 30
0.0
 11
101.9847691041999
 21
137.1823324795
 31
0.0
  0
ARC
  5
1DB
330
2
100
AcDbEntity
  8
0
 62
     3
100
AcDbCircle
 10
102.3831761956998
 20
137.1475552832
 30
0.0
 40
0.3999999762
100
AcDbArc
 50
110.0731976449
 51
175.0001016308
  0
LINE
  5
1DC
330
2
100
AcDbEntity
  8
0
 62
     3
100
AcDbLine
 10
110.1348699212999
 20
139.6699857031
 30
0.0
 11
112.5348638177999
 21
139.6699857031
 31
0.0
  0
LINE
  5
1DD
330
2
100
AcDbEntity
  8
0
 62
     3
100
AcDbLine
 10
110.1348699212999
 20
144.1699857030999
 30
0.0
 11
112.5348638177999
 21
144.1699857030999
 31
0.0
  0
LINE
  5
1DE
330
2
100
AcDbEntity
  8
0
 62
     3
100
AcDbLine
 10
110.1348699212999
 20
137.6699551854999
 30
0.0
 11
112.5348638177999
 21
137.6699551854999
 31
0.0
  0
LINE
  5
1DF
330
2
100
AcDbEntity
  8
0
 62
     3
100
AcDbLine
 10
110.1348699212999
 20
138.6699857031
 30
0.0
 11
112.5348638177999
 21
138.6699857031
 31
0.0
  0
LINE
  5
1E0
330
2
100
AcDbEntity
  8
0
 62
     3
100
AcDbLine
 10
110.1348699212999
 20
144.1699857030999
 30
0.0
 11
110.1348699212999
 21
132.5699795995999
 31
0.0
  0
LINE
  5
1E1
330
2
100
AcDbEntity
  8
0
 62
     3
100
AcDbLine
 10
106.8348668695999
 20
133.0699795996
 30
0.0
 11
107.4848760247999
 21
133.0699795996
 31
0.0
  0
LINE
  5
1E2
330
2
100
AcDbEntity
  8
0
 62
     3
100
AcDbLine
 10
104.5348790765999
 20
133.0699643408
 30
0.0
 11
104.5348790765999
 21
132.5699795995999
 31
0.0
  0
LINE
  5
1E3
330
2
100
AcDbEntity
  8
0
 62
     3
100
AcDbLine
 10
104.5348790765999
 20
133.0699643408
 30
0.0
 11
103.8348668695999
 21
133.0699643408
 31
0.0
  0
LINE
  5
1E4
330
2
100
AcDbEntity
  8
0
 62
     3
100
AcDbLine
 10
106.1348699212999
 20
133.0699643408
 30
0.0
 11
106.1348699212999
 21
132.5699795995999
 31
0.0
  0
LINE
  5
1E5
330
2
100
AcDbEntity
  8
0
 62
     3
100
AcDbLine
 10
106.1348699212999
 20
133.0699643408
 30
0.0
 11
106.8348668695999
 21
133.0699643408
 31
0.0
  0
LINE
  5
1E6
330
2
100
AcDbEntity
  8
0
 62
     3
100
AcDbLine
 10
107.1350530267999
 20
132.5698880468
 30
0.0
 11
107.1350530267999
 21
133.0698880468
 31
0.0
  0
LINE
  5
1E7
330
2
100
AcDbEntity
  8
0
 62
     3
100
AcDbLine
 10
109.1348699212999
 20
132.5699795995999
 30
0.0
 11
109.1348699212999
 21
122.7699765477999
 31
0.0
  0
LINE
  5
1E8
330
2
100
AcDbEntity
  8
0
 62
     3
100
AcDbLine
 10
109.6076264624999
 20
132.6366610924999
 30
0.0
 11
107.4849369870999
 21
133.0698629945999
 31
0.0
  0
LINE
  5
1E9
330
2
100
AcDbEntity
  8
0
 62
     3
100
AcDbLine
 10
110.1348737406999
 20
133.0698465933999
 30
0.0
 11
110.0589417343999
 21
132.8800172965999
 31
0.0
  0
LINE
  5
1EA
330
2
100
AcDbEntity
  8
0
 62
     3
100
AcDbLine
 10
109.9348729730998
 20
132.8699673925
 30
0.0
 11
109.9348729730998
 21
133.469973496
 31
0.0
  0
ARC
  5
1EB
330
2
100
AcDbEntity
  8
0
 62
     3
100
AcDbCircle
 10
109.6875432611998
 20
133.0286893164
 30
0.0
 40
0.3999999762
100
AcDbArc
 50
258.4653584403
 51
338.198493792
  0
LINE
  5
1EC
330
2
100
AcDbEntity
  8
0
 62
     3
100
AcDbLine
 10
104.8348668695999
 20
133.7699765478
 30
0.0
 11
105.8348668695999
 21
133.7699765478
 31
0.0
  0
LINE
  5
1ED
330
2
100
AcDbEntity
  8
0
 62
     3
100
AcDbLine
 10
105.3348689841
 20
138.0698652034
 30
0.0
 11
106.2008943722997
 21
137.5698652033999
 31
0.0
  0
LINE
  5
1EE
330
2
100
AcDbEntity
  8
0
 62
     3
100
AcDbLine
 10
105.3348742594999
 20
134.2698557436999
 30
0.0
 11
106.5348712175999
 21
135.4698527017999
 31
0.0
  0
LINE
  5
1EF
330
2
100
AcDbEntity
  8
0
 62
     3
100
AcDbLine
 10
105.3348634698999
 20
135.4698634913
 30
0.0
 11
104.1348665118999
 21
134.2698665332999
 31
0.0
  0
LINE
  5
1F0
330
2
100
AcDbEntity
  8
0
 62
     3
100
AcDbLine
 10
104.8348668695999
 20
133.7699765478
 30
0.0
 11
104.8348668695999
 21
134.2699765478
 31
0.0
  0
LINE
  5
1F1
330
2
100
AcDbEntity
  8
0
 62
     3
100
AcDbLine
 10
105.8348668695999
 20
133.7699765478
 30
0.0
 11
105.8348668695999
 21
134.2699765478
 31
0.0
  0
LINE
  5
1F2
330
2
100
AcDbEntity
  8
0
 62
     3
100
AcDbLine
 10
107.4849296471999
 20
134.2698656050999
 30
0.0
 11
109.6076191225
 21
133.8366637029
 31
0.0
  0
LINE
  5
1F3
330
2
100
AcDbEntity
  8
0
 62
     3
100
AcDbLine
 10
108.7348760247998
 20
134.2699765478
 30
0.0
 11
108.7348760247998
 21
135.469973496
 31
0.0
  0
LINE
  5
1F4
330
2
100
AcDbEntity
  8
0
 62
     3
100
AcDbLine
 10
108.6850486608998
 20
137.1823419903
 30
0.0
 11
108.8348687979998
 21
135.4698891031999
 31
0.0
  0
ARC
  5
1F5
330
2
100
AcDbEntity
  8
0
 62
     3
100
AcDbCircle
 10
108.2865728021998
 20
137.1475552832
 30
0.0
 40
0.3999999762
100
AcDbArc
 50
4.9998965479
 51
69.92676638290001
  0
LINE
  5
1F6
330
2
100
AcDbEntity
  8
0
 62
     3
100
AcDbLine
 10
110.0589461351999
 20
134.0800099606
 30
0.0
 11
110.1348781414998
 21
134.2698392574
 31
0.0
  0
ARC
  5
1F7
330
2
100
AcDbEntity
  8
0
 62
     3
100
AcDbCircle
 10
109.6875432611998
 20
134.2286862646
 30
0.0
 40
0.3999999762
100
AcDbArc
 50
258.4654130818
 51
338.198384509
  0
LINE
  5
1F8
330
2
100
AcDbEntity
  8
0
 62
     3
100
AcDbLine
 10
115.1848730480999
 20
133.0698716562999
 30
0.0
 11
113.0621835726999
 21
132.6366697541
 31
0.0
  0
ARC
  5
1F9
330
2
100
AcDbEntity
  8
0
 62
     3
100
AcDbCircle
 10
112.7648748041
 20
127.0999783789
 30
0.0
 40
0.2299999595
100
AcDbArc
 50
179.9999640277999
 51
270.0000006831999
  0
ARC
  5
1FA
330
2
100
AcDbEntity
  8
0
 62
     3
100
AcDbCircle
 10
112.9822209955999
 20
133.0285977636
 30
0.0
 40
0.3999999762
100
AcDbArc
 50
201.8015080292
 51
281.5346775319
  0
ARC
  5
1FB
330
2
100
AcDbEntity
  8
0
 62
     3
100
AcDbCircle
 10
112.7648748041
 20
129.8399686131999
 30
0.0
 40
0.2299999595
100
AcDbArc
 50
89.99998201389999
 51
179.9999640277999
  0
LINE
  5
1FC
330
2
100
AcDbEntity
  8
0
 62
     3
100
AcDbLine
 10
112.6107309806998
 20
132.8799299746
 30
0.0
 11
112.5347989743999
 21
133.0697592714
 31
0.0
  0
LINE
  5
1FD
330
2
100
AcDbEntity
  8
0
 62
     3
100
AcDbLine
 10
112.7348912835999
 20
133.4698819432999
 30
0.0
 11
112.7348912835999
 21
132.8698758397999
 31
0.0
  0
LINE
  5
1FE
330
2
100
AcDbEntity
  8
0
 62
     3
100
AcDbLine
 10
115.5348790766
 20
132.5699643407999
 30
0.0
 11
115.5348790766
 21
133.0699643408
 31
0.0
  0
LINE
  5
1FF
330
2
100
AcDbEntity
  8
0
 62
     3
100
AcDbLine
 10
116.5348790765999
 20
133.0699643408
 30
0.0
 11
115.8348668695999
 21
133.0699643408
 31
0.0
  0
LINE
  5
200
330
2
100
AcDbEntity
  8
0
 62
     3
100
AcDbLine
 10
116.5348790765999
 20
133.0699643408
 30
0.0
 11
116.5348790765999
 21
132.5699795995999
 31
0.0
  0
LINE
  5
201
330
2
100
AcDbEntity
  8
0
 62
     3
100
AcDbLine
 10
115.1848729730998
 20
133.0699795996
 30
0.0
 11
115.8348668695999
 21
133.0699795996
 31
0.0
  0
LINE
  5
202
330
2
100
AcDbEntity
  8
0
 62
     3
100
AcDbLine
 10
118.1348699212999
 20
133.0699643408
 30
0.0
 11
118.8348668695999
 21
133.0699643408
 31
0.0
  0
LINE
  5
203
330
2
100
AcDbEntity
  8
0
 62
     3
100
AcDbLine
 10
118.1348699212999
 20
133.0699643408
 30
0.0
 11
118.1348699212999
 21
132.5699795995999
 31
0.0
  0
LINE
  5
204
330
2
100
AcDbEntity
  8
0
 62
     3
100
AcDbLine
 10
113.0621909125999
 20
133.8366723645999
 30
0.0
 11
115.1848803879997
 21
134.2698742667
 31
0.0
  0
ARC
  5
205
330
2
100
AcDbEntity
  8
0
 62
     3
100
AcDbCircle
 10
112.9822209955999
 20
134.2285947119
 30
0.0
 40
0.3999999762
100
AcDbArc
 50
201.8016173122999
 51
281.5346228904
  0
LINE
  5
206
330
2
100
AcDbEntity
  8
0
 62
     3
100
AcDbLine
 10
112.5348030739999
 20
134.2697717697999
 30
0.0
 11
112.6107407473998
 21
134.0799283056
 31
0.0
  0
ARC
  5
207
330
2
100
AcDbEntity
  8
0
 62
     3
100
AcDbCircle
 10
114.3831761956998
 20
137.1475552832
 30
0.0
 40
0.3999999762
100
AcDbArc
 50
110.0731976449
 51
175.0001016308
  0
LINE
  5
208
330
2
100
AcDbEntity
  8
0
 62
     3
100
AcDbLine
 10
113.8349526144999
 20
135.4698783931
 30
0.0
 11
113.9847727517
 21
137.1823312801
 31
0.0
  0
LINE
  5
209
330
2
100
AcDbEntity
  8
0
 62
     3
100
AcDbLine
 10
113.9348729730998
 20
135.469973496
 30
0.0
 11
113.9348729730998
 21
134.2699765478
 31
0.0
  0
LINE
  5
20A
330
2
100
AcDbEntity
  8
0
 62
     3
100
AcDbLine
 10
117.3348629357998
 20
138.0698776644999
 30
0.0
 11
115.6028121592999
 21
137.0698776644999
 31
0.0
  0
LINE
  5
20B
330
2
100
AcDbEntity
  8
0
 62
     3
100
AcDbLine
 10
116.8348668695999
 20
133.7699765478
 30
0.0
 11
117.8348668695999
 21
133.7699765478
 31
0.0
  0
LINE
  5
20C
330
2
100
AcDbEntity
  8
0
 62
     3
100
AcDbLine
 10
117.3348660201999
 20
135.4698621427
 30
0.0
 11
116.1348690620999
 21
134.2698651846
 31
0.0
  0
LINE
  5
20D
330
2
100
AcDbEntity
  8
0
 62
     3
100
AcDbLine
 10
116.8348668695999
 20
133.7699765478
 30
0.0
 11
116.8348668695999
 21
134.2699765478
 31
0.0
  0
LINE
  5
20E
330
2
100
AcDbEntity
  8
0
 62
     3
100
AcDbLine
 10
117.8348668695999
 20
133.7699765478
 30
0.0
 11
117.8348668695999
 21
134.2699765478
 31
0.0
  0
LINE
  5
20F
330
2
100
AcDbEntity
  8
0
 62
     3
100
AcDbLine
 10
117.3348794876999
 20
138.0698587661
 30
0.0
 11
118.2009048758999
 21
137.5698587660999
 31
0.0
  0
LINE
  5
210
330
2
100
AcDbEntity
  8
0
 62
     3
100
AcDbLine
 10
117.3348768097998
 20
134.2698543949999
 30
0.0
 11
118.5348737678999
 21
135.4698513531
 31
0.0
  0
LINE
  5
211
330
2
100
AcDbEntity
  8
0
 62
     3
100
AcDbLine
 10
103.4198096197999
 20
202.7684775120999
 30
0.0
 11
107.2500318092999
 21
199.5545396335
 31
0.0
  0
LINE
  5
212
330
2
100
AcDbEntity
  8
0
 62
     3
100
AcDbLine
 10
100.5348638177999
 20
206.6614865575999
 30
0.0
 11
110.1348546624999
 21
206.6614865575999
 31
0.0
  0
LINE
  5
213
330
2
100
AcDbEntity
  8
0
 62
     3
100
AcDbLine
 10
101.1805151068999
 20
205.7366976372998
 30
0.0
 11
104.2879305964999
 21
205.9116242019999
 31
0.0
  0
LINE
  5
214
330
2
100
AcDbEntity
  8
0
 62
     3
100
AcDbLine
 10
104.0849385854998
 20
205.7114580483999
 30
0.0
 11
100.7349483563998
 21
202.4114706812999
 31
0.0
  0
LINE
  5
215
330
2
100
AcDbEntity
  8
0
 62
     3
100
AcDbLine
 10
104.0849385854998
 20
196.6115394807999
 30
0.0
 11
100.7349483563998
 21
199.9115268479
 31
0.0
  0
LINE
  5
216
330
2
100
AcDbEntity
  8
0
 62
     3
100
AcDbLine
 10
101.1805151068999
 20
196.5862998919
 30
0.0
 11
104.2879305964999
 21
196.4113733271997
 31
0.0
  0
CIRCLE
  5
217
330
2
100
AcDbEntity
  8
0
 62
     3
100
AcDbCircle
 10
105.3348668695999
 20
201.1612499357998
 30
0.0
 40
3.5
  0
LINE
  5
218
330
2
100
AcDbEntity
  8
0
 62
     3
100
AcDbLine
 10
94.58497017189998
 20
205.7114379776
 30
0.0
 11
97.93497911940001
 21
202.4114474698999
 31
0.0
  0
LINE
  5
219
330
2
100
AcDbEntity
  8
0
 62
     3
100
AcDbLine
 10
94.58497017189998
 20
196.6115595515999
 30
0.0
 11
97.93497911940001
 21
199.9115500592999
 31
0.0
  0
LINE
  5
21A
330
2
100
AcDbEntity
  8
0
 62
     3
100
AcDbLine
 10
88.53486381779999
 20
206.6614865575999
 30
0.0
 11
98.13486992129998
 21
206.6614865575999
 31
0.0
  0
CIRCLE
  5
21B
330
2
100
AcDbEntity
  8
0
 62
     3
100
AcDbCircle
 10
93.33486686959998
 20
201.1612499357998
 30
0.0
 40
3.5
  0
LINE
  5
21C
330
2
100
AcDbEntity
  8
0
 62
     3
100
AcDbLine
 10
94.38190303139998
 20
196.4113669872999
 30
0.0
 11
97.48937945960001
 21
196.5862962404997
 31
0.0
  0
LINE
  5
21D
330
2
100
AcDbEntity
  8
0
 62
     3
100
AcDbLine
 10
94.38190303139998
 20
205.9116305418999
 30
0.0
 11
97.48937945960001
 21
205.7367012887
 31
0.0
  0
LINE
  5
21E
330
2
100
AcDbEntity
  8
0
 62
     3
100
AcDbLine
 10
88.70951588829996
 20
205.2660343204999
 30
0.0
 11
88.53498886849996
 21
202.2145942385
 31
0.0
  0
LINE
  5
21F
330
2
100
AcDbEntity
  8
0
 62
     3
100
AcDbLine
 10
92.08493858549999
 20
205.7114580483999
 30
0.0
 11
88.7349483564
 21
202.4114706812999
 31
0.0
  0
LINE
  5
220
330
2
100
AcDbEntity
  8
0
 62
     3
100
AcDbLine
 10
88.53486381779999
 20
206.9614743504998
 30
0.0
 11
88.53486381779999
 21
191.8614987645998
 31
0.0
  0
LINE
  5
221
330
2
100
AcDbEntity
  8
0
 62
     3
100
AcDbLine
 10
91.41980961979999
 20
202.7684775120999
 30
0.0
 11
95.25003180929994
 21
199.5545396335
 31
0.0
  0
LINE
  5
222
330
2
100
AcDbEntity
  8
0
 62
     3
100
AcDbLine
 10
89.18051510689997
 20
196.5862998919
 30
0.0
 11
92.2879305965
 21
196.4113733271997
 31
0.0
  0
LINE
  5
223
330
2
100
AcDbEntity
  8
0
 62
     3
100
AcDbLine
 10
92.08493858549999
 20
196.6115394807999
 30
0.0
 11
88.7349483564
 21
199.9115268479
 31
0.0
  0
ARC
  5
224
330
2
100
AcDbEntity
  8
0
 62
     3
100
AcDbCircle
 10
89.20858513129999
 20
197.0853984953999
 30
0.0
 40
0.5
100
AcDbArc
 50
183.2732265469998
 51
266.7784089999
  0
LINE
  5
225
330
2
100
AcDbEntity
  8
0
 62
     3
100
AcDbLine
 10
88.53486381779999
 20
196.6614987646
 30
0.0
 11
88.94342665369999
 21
196.6614987646
 31
0.0
  0
LINE
  5
226
330
2
100
AcDbEntity
  8
0
 62
     3
100
AcDbLine
 10
88.70951588829996
 20
197.0569632087
 30
0.0
 11
88.53498886849996
 21
200.1084032907
 31
0.0
  0
LINE
  5
227
330
2
100
AcDbEntity
  8
0
 62
     3
100
AcDbLine
 10
88.53486381779999
 20
201.6612499357999
 30
0.0
 11
89.87077080019998
 21
201.6612499357999
 31
0.0
  0
LINE
  5
228
330
2
100
AcDbEntity
  8
0
 62
     3
100
AcDbLine
 10
88.53486381779999
 20
200.6612499357999
 30
0.0
 11
89.87077080019998
 21
200.6612499357999
 31
0.0
  0
LINE
  5
229
330
2
100
AcDbEntity
  8
0
 62
     3
100
AcDbLine
 10
93.83486686959995
 20
196.4112499357998
 30
0.0
 11
93.83486686959995
 21
197.6971538664999
 31
0.0
  0
LINE
  5
22A
330
2
100
AcDbEntity
  8
0
 62
     3
100
AcDbLine
 10
92.83486686959998
 20
196.4112499357998
 30
0.0
 11
92.83486686959998
 21
197.6971538664999
 31
0.0
  0
LINE
  5
22B
330
2
100
AcDbEntity
  8
0
 62
     3
100
AcDbLine
 10
92.2879305965
 20
196.4113733271997
 30
0.0
 11
94.38190303139998
 21
196.4113669872999
 31
0.0
  0
LINE
  5
22C
330
2
100
AcDbEntity
  8
0
 62
     3
100
AcDbLine
 10
94.29989841980001
 20
202.3115005343
 30
0.0
 11
92.43164009729998
 21
200.0849968640999
 31
0.0
  0
LINE
  5
22D
330
2
100
AcDbEntity
  8
0
 62
     3
100
AcDbLine
 10
89.18051510689997
 20
205.7366976372998
 30
0.0
 11
92.2879305965
 21
205.9116242019999
 31
0.0
  0
ARC
  5
22E
330
2
100
AcDbEntity
  8
0
 62
     3
100
AcDbCircle
 10
89.20858513129999
 20
205.2375990337999
 30
0.0
 40
0.5
100
AcDbArc
 50
93.22159100009999
 51
176.7267734529999
  0
LINE
  5
22F
330
2
100
AcDbEntity
  8
0
 62
     3
100
AcDbLine
 10
92.2879305965
 20
205.9116242019999
 30
0.0
 11
94.38190303139998
 21
205.9116305418999
 31
0.0
  0
LINE
  5
230
330
2
100
AcDbEntity
  8
0
 62
     3
100
AcDbLine
 10
92.83486686959998
 20
205.9117475934
 30
0.0
 11
92.83486686959998
 21
204.6258436626998
 31
0.0
  0
LINE
  5
231
330
2
100
AcDbEntity
  8
0
 62
     3
100
AcDbLine
 10
93.83486686959995
 20
205.9117475934
 30
0.0
 11
93.83486686959995
 21
204.6258436626998
 31
0.0
  0
LINE
  5
232
330
2
100
AcDbEntity
  8
0
 62
     3
100
AcDbLine
 10
100.7095158882999
 20
205.2660343204999
 30
0.0
 11
100.5349888684999
 21
202.2145942385
 31
0.0
  0
LINE
  5
233
330
2
100
AcDbEntity
  8
0
 62
     3
100
AcDbLine
 10
97.96037762689998
 20
205.2660057589
 30
0.0
 11
98.13488963939995
 21
202.2145954158999
 31
0.0
  0
LINE
  5
234
330
2
100
AcDbEntity
  8
0
 62
     3
100
AcDbLine
 10
98.13486992129998
 20
206.9614743504998
 30
0.0
 11
98.13486992129998
 21
191.8614987645998
 31
0.0
  0
LINE
  5
235
330
2
100
AcDbEntity
  8
0
 62
     3
100
AcDbLine
 10
100.5348638177999
 20
206.9614743504998
 30
0.0
 11
100.5348638177999
 21
191.8614987645998
 31
0.0
  0
LINE
  5
236
330
2
100
AcDbEntity
  8
0
 62
     3
100
AcDbLine
 10
98.13486992129998
 20
193.3614835057999
 30
0.0
 11
100.5348638177999
 21
193.3614835057999
 31
0.0
  0
LINE
  5
237
330
2
100
AcDbEntity
  8
0
 62
     3
100
AcDbLine
 10
98.13486992129998
 20
194.5614957127999
 30
0.0
 11
100.5348638177999
 21
194.5614957127999
 31
0.0
  0
ARC
  5
238
330
2
100
AcDbEntity
  8
0
 62
     3
100
AcDbCircle
 10
97.4611791254
 20
197.0853984953999
 30
0.0
 40
0.5
100
AcDbArc
 50
273.2229930100999
 51
356.7279319241
  0
LINE
  5
239
330
2
100
AcDbEntity
  8
0
 62
     3
100
AcDbLine
 10
97.72633760299999
 20
196.6614987646
 30
0.0
 11
98.13486992129998
 21
196.6614987646
 31
0.0
  0
LINE
  5
23A
330
2
100
AcDbEntity
  8
0
 62
     3
100
AcDbLine
 10
97.13486992129999
 20
195.5614957127998
 30
0.0
 11
97.13486992129999
 21
191.8614987645998
 31
0.0
  0
LINE
  5
23B
330
2
100
AcDbEntity
  8
0
 62
     3
100
AcDbLine
 10
96.79897819769998
 20
201.6612499357999
 30
0.0
 11
98.13486992129998
 21
201.6612499357999
 31
0.0
  0
LINE
  5
23C
330
2
100
AcDbEntity
  8
0
 62
     3
100
AcDbLine
 10
96.79897819769998
 20
200.6612499357999
 30
0.0
 11
98.13486992129998
 21
200.6612499357999
 31
0.0
  0
LINE
  5
23D
330
2
100
AcDbEntity
  8
0
 62
     3
100
AcDbLine
 10
97.96037762689998
 20
197.0569917702999
 30
0.0
 11
98.13488963939995
 21
200.1084021132999
 31
0.0
  0
ARC
  5
23E
330
2
100
AcDbEntity
  8
0
 62
     3
100
AcDbCircle
 10
101.2085851312999
 20
197.0853984953999
 30
0.0
 40
0.5
100
AcDbArc
 50
183.2732265469998
 51
266.7784089999
  0
LINE
  5
23F
330
2
100
AcDbEntity
  8
0
 62
     3
100
AcDbLine
 10
100.5348638177999
 20
196.6614987646
 30
0.0
 11
100.9434266536999
 21
196.6614987646
 31
0.0
  0
LINE
  5
240
330
2
100
AcDbEntity
  8
0
 62
     3
100
AcDbLine
 10
100.5348638177999
 20
200.6612499357999
 30
0.0
 11
101.8707708001999
 21
200.6612499357999
 31
0.0
  0
LINE
  5
241
330
2
100
AcDbEntity
  8
0
 62
     3
100
AcDbLine
 10
100.5348638177999
 20
201.6612499357999
 30
0.0
 11
101.8707708001999
 21
201.6612499357999
 31
0.0
  0
LINE
  5
242
330
2
100
AcDbEntity
  8
0
 62
     3
100
AcDbLine
 10
100.7095158882999
 20
197.0569632087
 30
0.0
 11
100.5349888684999
 21
200.1084032907
 31
0.0
  0
LINE
  5
243
330
2
100
AcDbEntity
  8
0
 62
     3
100
AcDbLine
 10
98.13486992129998
 20
206.9614743504998
 30
0.0
 11
100.5348638177999
 21
206.9614743504998
 31
0.0
  0
LINE
  5
244
330
2
100
AcDbEntity
  8
0
 62
     3
100
AcDbLine
 10
98.13486992129998
 20
204.8614987645998
 30
0.0
 11
100.5348638177999
 21
204.8614987645998
 31
0.0
  0
LINE
  5
245
330
2
100
AcDbEntity
  8
0
 62
     3
100
AcDbLine
 10
98.13486992129998
 20
203.3614987645999
 30
0.0
 11
100.5348638177999
 21
203.3614987645999
 31
0.0
  0
ARC
  5
246
330
2
100
AcDbEntity
  8
0
 62
     3
100
AcDbCircle
 10
97.4611791254
 20
205.2375990337999
 30
0.0
 40
0.5
100
AcDbArc
 50
3.272068075899997
 51
86.77700698989998
  0
ARC
  5
247
330
2
100
AcDbEntity
  8
0
 62
     3
100
AcDbCircle
 10
101.2085851312999
 20
205.2375990337999
 30
0.0
 40
0.5
100
AcDbArc
 50
93.22159100009999
 51
176.7267734529999
  0
LINE
  5
248
330
2
100
AcDbEntity
  8
0
 62
     3
100
AcDbLine
 10
110.1348699212999
 20
206.9614743504998
 30
0.0
 11
112.5348638177999
 21
206.9614743504998
 31
0.0
  0
LINE
  5
249
330
2
100
AcDbEntity
  8
0
 62
     3
100
AcDbLine
 10
110.1348699212999
 20
203.3614987645999
 30
0.0
 11
112.5348638177999
 21
203.3614987645999
 31
0.0
  0
LINE
  5
24A
330
2
100
AcDbEntity
  8
0
 62
     3
100
AcDbLine
 10
110.1348699212999
 20
204.8614987645998
 30
0.0
 11
112.5348638177999
 21
204.8614987645998
 31
0.0
  0
LINE
  5
24B
330
2
100
AcDbEntity
  8
0
 62
     3
100
AcDbLine
 10
110.1348699212999
 20
193.3614835057999
 30
0.0
 11
112.5348638177999
 21
193.3614835057999
 31
0.0
  0
LINE
  5
24C
330
2
100
AcDbEntity
  8
0
 62
     3
100
AcDbLine
 10
110.1348699212999
 20
194.5614957127999
 30
0.0
 11
112.5348638177999
 21
194.5614957127999
 31
0.0
  0
LINE
  5
24D
330
2
100
AcDbEntity
  8
0
 62
     3
100
AcDbLine
 10
109.9603776268999
 20
205.2660057589
 30
0.0
 11
110.1348896393999
 21
202.2145954158999
 31
0.0
  0
LINE
  5
24E
330
2
100
AcDbEntity
  8
0
 62
     3
100
AcDbLine
 10
110.1348699212999
 20
206.9614743504998
 30
0.0
 11
110.1348699212999
 21
191.8614987645998
 31
0.0
  0
LINE
  5
24F
330
2
100
AcDbEntity
  8
0
 62
     3
100
AcDbLine
 10
106.5849701718998
 20
205.7114379776
 30
0.0
 11
109.9349791193999
 21
202.4114474698999
 31
0.0
  0
LINE
  5
250
330
2
100
AcDbEntity
  8
0
 62
     3
100
AcDbLine
 10
106.3819030313998
 20
196.4113669872999
 30
0.0
 11
109.4893794596
 21
196.5862962404997
 31
0.0
  0
LINE
  5
251
330
2
100
AcDbEntity
  8
0
 62
     3
100
AcDbLine
 10
106.5849701718998
 20
196.6115595515999
 30
0.0
 11
109.9349791193999
 21
199.9115500592999
 31
0.0
  0
LINE
  5
252
330
2
100
AcDbEntity
  8
0
 62
     3
100
AcDbLine
 10
104.8348668695999
 20
196.4112499357998
 30
0.0
 11
104.8348668695999
 21
197.6971538664999
 31
0.0
  0
LINE
  5
253
330
2
100
AcDbEntity
  8
0
 62
     3
100
AcDbLine
 10
105.8348668695999
 20
196.4112499357998
 30
0.0
 11
105.8348668695999
 21
197.6971538664999
 31
0.0
  0
LINE
  5
254
330
2
100
AcDbEntity
  8
0
 62
     3
100
AcDbLine
 10
104.2879305964999
 20
196.4113733271997
 30
0.0
 11
106.3819030313998
 21
196.4113669872999
 31
0.0
  0
LINE
  5
255
330
2
100
AcDbEntity
  8
0
 62
     3
100
AcDbLine
 10
106.2998984197998
 20
202.3115005343
 30
0.0
 11
104.4316400972999
 21
200.0849968640999
 31
0.0
  0
ARC
  5
256
330
2
100
AcDbEntity
  8
0
 62
     3
100
AcDbCircle
 10
109.4611791253998
 20
197.0853984953999
 30
0.0
 40
0.5
100
AcDbArc
 50
273.2229930100999
 51
356.7279319241
  0
LINE
  5
257
330
2
100
AcDbEntity
  8
0
 62
     3
100
AcDbLine
 10
109.1348546624999
 20
195.5614957127998
 30
0.0
 11
109.1348546624999
 21
191.8614987645998
 31
0.0
  0
LINE
  5
258
330
2
100
AcDbEntity
  8
0
 62
     3
100
AcDbLine
 10
109.7263376029998
 20
196.6614987646
 30
0.0
 11
110.1348699212999
 21
196.6614987646
 31
0.0
  0
LINE
  5
259
330
2
100
AcDbEntity
  8
0
 62
     3
100
AcDbLine
 10
108.7989781976999
 20
200.6612499357999
 30
0.0
 11
110.1348699212999
 21
200.6612499357999
 31
0.0
  0
LINE
  5
25A
330
2
100
AcDbEntity
  8
0
 62
     3
100
AcDbLine
 10
108.7989781976999
 20
201.6612499357999
 30
0.0
 11
110.1348699212999
 21
201.6612499357999
 31
0.0
  0
LINE
  5
25B
330
2
100
AcDbEntity
  8
0
 62
     3
100
AcDbLine
 10
109.9603776268999
 20
197.0569917702999
 30
0.0
 11
110.1348896393999
 21
200.1084021132999
 31
0.0
  0
LINE
  5
25C
330
2
100
AcDbEntity
  8
0
 62
     3
100
AcDbLine
 10
106.3819030313998
 20
205.9116305418999
 30
0.0
 11
109.4893794596
 21
205.7367012887
 31
0.0
  0
LINE
  5
25D
330
2
100
AcDbEntity
  8
0
 62
     3
100
AcDbLine
 10
104.2879305964999
 20
205.9116242019999
 30
0.0
 11
106.3819030313998
 21
205.9116305418999
 31
0.0
  0
LINE
  5
25E
330
2
100
AcDbEntity
  8
0
 62
     3
100
AcDbLine
 10
104.8348668695999
 20
205.9117475934
 30
0.0
 11
104.8348668695999
 21
204.6258436626998
 31
0.0
  0
LINE
  5
25F
330
2
100
AcDbEntity
  8
0
 62
     3
100
AcDbLine
 10
105.8348668695999
 20
205.9117475934
 30
0.0
 11
105.8348668695999
 21
204.6258436626998
 31
0.0
  0
ARC
  5
260
330
2
100
AcDbEntity
  8
0
 62
     3
100
AcDbCircle
 10
109.4611791253998
 20
205.2375990337999
 30
0.0
 40
0.5
100
AcDbArc
 50
3.272068075899997
 51
86.77700698989998
  0
LINE
  5
261
330
2
100
AcDbEntity
  8
0
 62
     3
100
AcDbLine
 10
112.7095158882999
 20
205.2660343204999
 30
0.0
 11
112.5349888684999
 21
202.2145942385
 31
0.0
  0
LINE
  5
262
330
2
100
AcDbEntity
  8
0
 62
     3
100
AcDbLine
 10
116.0849385854999
 20
205.7114580483999
 30
0.0
 11
112.7349483563998
 21
202.4114706812999
 31
0.0
  0
LINE
  5
263
330
2
100
AcDbEntity
  8
0
 62
     3
100
AcDbLine
 10
112.5348638177999
 20
206.9614743504998
 30
0.0
 11
112.5348638177999
 21
191.8614987645998
 31
0.0
  0
LINE
  5
264
330
2
100
AcDbEntity
  8
0
 62
     3
100
AcDbLine
 10
116.0849385854999
 20
196.6115394807999
 30
0.0
 11
112.7349483563998
 21
199.9115268479
 31
0.0
  0
LINE
  5
265
330
2
100
AcDbEntity
  8
0
 62
     3
100
AcDbLine
 10
113.1805151068999
 20
196.5862998919
 30
0.0
 11
116.2879305964999
 21
196.4113733271997
 31
0.0
  0
ARC
  5
266
330
2
100
AcDbEntity
  8
0
 62
     3
100
AcDbCircle
 10
113.2085851312999
 20
197.0853984953999
 30
0.0
 40
0.5
100
AcDbArc
 50
183.2732265469998
 51
266.7784089999
  0
LINE
  5
267
330
2
100
AcDbEntity
  8
0
 62
     3
100
AcDbLine
 10
112.5348638177999
 20
196.6614987646
 30
0.0
 11
112.9434266536999
 21
196.6614987646
 31
0.0
  0
LINE
  5
268
330
2
100
AcDbEntity
  8
0
 62
     3
100
AcDbLine
 10
112.5348638177999
 20
201.6612499357999
 30
0.0
 11
113.8707708001999
 21
201.6612499357999
 31
0.0
  0
LINE
  5
269
330
2
100
AcDbEntity
  8
0
 62
     3
100
AcDbLine
 10
112.5348638177999
 20
200.6612499357999
 30
0.0
 11
113.8707708001999
 21
200.6612499357999
 31
0.0
  0
LINE
  5
26A
330
2
100
AcDbEntity
  8
0
 62
     3
100
AcDbLine
 10
112.7095158882999
 20
197.0569632087
 30
0.0
 11
112.5349888684999
 21
200.1084032907
 31
0.0
  0
LINE
  5
26B
330
2
100
AcDbEntity
  8
0
 62
     3
100
AcDbLine
 10
117.8348668695999
 20
196.4112499357998
 30
0.0
 11
117.8348668695999
 21
197.6971538664999
 31
0.0
  0
LINE
  5
26C
330
2
100
AcDbEntity
  8
0
 62
     3
100
AcDbLine
 10
116.8348668695999
 20
196.4112499357998
 30
0.0
 11
116.8348668695999
 21
197.6971538664999
 31
0.0
  0
LINE
  5
26D
330
2
100
AcDbEntity
  8
0
 62
     3
100
AcDbLine
 10
116.2879305964999
 20
196.4113733271997
 30
0.0
 11
118.3819030313999
 21
196.4113669872999
 31
0.0
  0
LINE
  5
26E
330
2
100
AcDbEntity
  8
0
 62
     3
100
AcDbLine
 10
118.2998984197998
 20
202.3115005343
 30
0.0
 11
116.4316400972999
 21
200.0849968640999
 31
0.0
  0
LINE
  5
26F
330
2
100
AcDbEntity
  8
0
 62
     3
100
AcDbLine
 10
113.1805151068999
 20
205.7366976372998
 30
0.0
 11
116.2879305964999
 21
205.9116242019999
 31
0.0
  0
ARC
  5
270
330
2
100
AcDbEntity
  8
0
 62
     3
100
AcDbCircle
 10
113.2085851312999
 20
205.2375990337999
 30
0.0
 40
0.5
100
AcDbArc
 50
93.22159100009999
 51
176.7267734529999
  0
LINE
  5
271
330
2
100
AcDbEntity
  8
0
 62
     3
100
AcDbLine
 10
116.2879305964999
 20
205.9116242019999
 30
0.0
 11
118.3819030313999
 21
205.9116305418999
 31
0.0
  0
LINE
  5
272
330
2
100
AcDbEntity
  8
0
 62
     3
100
AcDbLine
 10
116.8348668695999
 20
205.9117475934
 30
0.0
 11
116.8348668695999
 21
204.6258436626998
 31
0.0
  0
LINE
  5
273
330
2
100
AcDbEntity
  8
0
 62
     3
100
AcDbLine
 10
117.8348668695999
 20
205.9117475934
 30
0.0
 11
117.8348668695999
 21
204.6258436626998
 31
0.0
  0
LINE
  5
274
330
2
100
AcDbEntity
  8
0
 62
     3
100
AcDbLine
 10
127.5348485589999
 20
124.1699857031
 30
0.0
 11
136.0348485589998
 21
124.1699857031
 31
0.0
  0
LINE
  5
275
330
2
100
AcDbEntity
  8
0
 62
     3
100
AcDbLine
 10
127.5348485589999
 20
125.6699857030999
 30
0.0
 11
136.0348485589998
 21
125.6699857030999
 31
0.0
  0
LINE
  5
276
330
2
100
AcDbEntity
  8
0
  6
PHANTOM
 62
     3
100
AcDbLine
 10
126.0348485589998
 20
147.1699857031
 30
0.0
 11
126.0348485589998
 21
141.3511590819999
 31
0.0
  0
LINE
  5
277
330
2
100
AcDbEntity
  8
0
 62
     3
100
AcDbLine
 10
124.5348485589998
 20
142.6699551854999
 30
0.0
 11
127.5348485589999
 21
142.6699551854999
 31
0.0
  0
LINE
  5
278
330
2
100
AcDbEntity
  8
0
 62
     3
100
AcDbLine
 10
122.1348546625
 20
144.1699857030999
 30
0.0
 11
127.5348485589999
 21
144.1699857030999
 31
0.0
  0
LINE
  5
279
330
2
100
AcDbEntity
  8
0
 62
     3
100
AcDbLine
 10
122.1348699212999
 20
133.0699795996
 30
0.0
 11
122.1348699212999
 21
134.2699765478
 31
0.0
  0
LINE
  5
27A
330
2
100
AcDbEntity
  8
0
 62
     3
100
AcDbLine
 10
122.1348546625
 20
144.1699857030999
 30
0.0
 11
122.1348546625
 21
132.5699795995999
 31
0.0
  0
LINE
  5
27B
330
2
100
AcDbEntity
  8
0
 62
     3
100
AcDbLine
 10
121.1348546625
 20
132.5699795995999
 30
0.0
 11
121.1348546625
 21
122.7699765477999
 31
0.0
  0
LINE
  5
27C
330
2
100
AcDbEntity
  8
0
 62
     3
100
AcDbLine
 10
121.6076332100998
 20
132.6366614357
 30
0.0
 11
119.4849437346998
 21
133.0698633377999
 31
0.0
  0
LINE
  5
27D
330
2
100
AcDbEntity
  8
0
 62
     3
100
AcDbLine
 10
119.1350530267999
 20
132.5698880468
 30
0.0
 11
119.1350530267999
 21
133.0698880468
 31
0.0
  0
ARC
  5
27E
330
2
100
AcDbEntity
  8
0
 62
     3
100
AcDbCircle
 10
121.6875432611999
 20
133.0286893164
 30
0.0
 40
0.3999999762
100
AcDbArc
 50
258.4653584403
 51
338.198493792
  0
LINE
  5
27F
330
2
100
AcDbEntity
  8
0
 62
     3
100
AcDbLine
 10
122.1348771949999
 20
133.0698464162999
 30
0.0
 11
122.0589451886999
 21
132.8800171194999
 31
0.0
  0
LINE
  5
280
330
2
100
AcDbEntity
  8
0
 62
     3
100
AcDbLine
 10
121.9348729730999
 20
132.8699673925
 30
0.0
 11
121.9348729730999
 21
133.469973496
 31
0.0
  0
LINE
  5
281
330
2
100
AcDbEntity
  8
0
 62
     3
100
AcDbLine
 10
122.1348546625
 20
139.6699857031
 30
0.0
 11
126.0348485589998
 21
139.6699857031
 31
0.0
  0
LINE
  5
282
330
2
100
AcDbEntity
  8
0
 62
     3
100
AcDbLine
 10
122.1348546625
 20
137.6699551854999
 30
0.0
 11
126.0348485589998
 21
137.6699551854999
 31
0.0
  0
LINE
  5
283
330
2
100
AcDbEntity
  8
0
 62
     3
100
AcDbLine
 10
122.1348546625
 20
138.6699857031
 30
0.0
 11
126.0348485589998
 21
138.6699857031
 31
0.0
  0
LINE
  5
284
330
2
100
AcDbEntity
  8
0
 62
     3
100
AcDbLine
 10
120.6850523083998
 20
137.1823431897
 30
0.0
 11
120.8348724454999
 21
135.4698903025999
 31
0.0
  0
LINE
  5
285
330
2
100
AcDbEntity
  8
0
 62
     3
100
AcDbLine
 10
119.4849363948
 20
134.2698659482999
 30
0.0
 11
121.6076258701999
 21
133.8366640461999
 31
0.0
  0
ARC
  5
286
330
2
100
AcDbEntity
  8
0
 62
     3
100
AcDbCircle
 10
120.2865728021998
 20
137.1475552832
 30
0.0
 40
0.3999999762
100
AcDbArc
 50
4.9998965479
 51
69.92676638290001
  0
LINE
  5
287
330
2
100
AcDbEntity
  8
0
 62
     3
100
AcDbLine
 10
120.7348760247999
 20
134.2699765478
 30
0.0
 11
120.7348760247999
 21
135.469973496
 31
0.0
  0
ARC
  5
288
330
2
100
AcDbEntity
  8
0
 62
     3
100
AcDbCircle
 10
121.6875432611999
 20
134.2286862646
 30
0.0
 40
0.3999999762
100
AcDbArc
 50
258.4654130818
 51
338.198384509
  0
LINE
  5
289
330
2
100
AcDbEntity
  8
0
 62
     3
100
AcDbLine
 10
122.0589495893999
 20
134.0800097835
 30
0.0
 11
122.1348815957999
 21
134.2698390803
 31
0.0
  0
LINE
  5
28A
330
2
100
AcDbEntity
  8
0
 62
     3
100
AcDbLine
 10
126.0348485589998
 20
137.6699551854999
 30
0.0
 11
126.0348485589998
 21
142.6699551854999
 31
0.0
  0
LINE
  5
28B
330
2
100
AcDbEntity
  8
0
 62
     3
100
AcDbLine
 10
127.5348485589999
 20
124.1699857031
 30
0.0
 11
127.5348485589999
 21
144.1699857030999
 31
0.0
  0
LINE
  5
28C
330
2
100
AcDbEntity
  8
0
 62
     3
100
AcDbLine
 10
136.0348458154998
 20
124.1697885110999
 30
0.0
 11
136.7848412168999
 21
124.9197839125
 31
0.0
  0
LINE
  5
28D
330
2
100
AcDbEntity
  8
0
 62
     3
100
AcDbLine
 10
137.0348381637999
 20
124.6697706791999
 30
0.0
 11
136.0348390409999
 21
125.6697736795999
 31
0.0
  0
ARC
  5
28E
330
2
100
AcDbEntity
  8
0
 62
     3
100
AcDbCircle
 10
133.0348485589998
 20
210.8614987645998
 30
0.0
 40
2.25
100
AcDbArc
 50
270.0000726275999
 51
89.99998201389994
  0
LINE
  5
28F
330
2
100
AcDbEntity
  8
0
 62
     3
100
AcDbLine
 10
124.5348485589998
 20
193.3614987645999
 30
0.0
 11
136.0348485589998
 21
193.3614987645999
 31
0.0
  0
LINE
  5
290
330
2
100
AcDbEntity
  8
0
 62
     3
100
AcDbLine
 10
121.9603776268999
 20
205.2660057589
 30
0.0
 11
122.1348896393999
 21
202.2145954158999
 31
0.0
  0
LINE
  5
291
330
2
100
AcDbEntity
  8
0
 62
     3
100
AcDbLine
 10
124.5348485589998
 20
206.9614743504998
 30
0.0
 11
124.5348485589998
 21
191.8614987645998
 31
0.0
  0
LINE
  5
292
330
2
100
AcDbEntity
  8
0
 62
     3
100
AcDbLine
 10
122.1348546625
 20
206.9614743504998
 30
0.0
 11
122.1348546625
 21
191.8638181004998
 31
0.0
  0
LINE
  5
293
330
2
100
AcDbEntity
  8
0
 62
     3
100
AcDbLine
 10
122.1348546625
 20
193.3614835057999
 30
0.0
 11
124.5348485589998
 21
193.3614835057999
 31
0.0
  0
LINE
  5
294
330
2
100
AcDbEntity
  8
0
 62
     3
100
AcDbLine
 10
122.1348546625
 20
194.5614957127999
 30
0.0
 11
124.5348485589998
 21
194.5614957127999
 31
0.0
  0
ARC
  5
295
330
2
100
AcDbEntity
  8
0
 62
     3
100
AcDbCircle
 10
121.4611791253998
 20
197.0853984953999
 30
0.0
 40
0.5
100
AcDbArc
 50
273.2229930100999
 51
356.7279319241
  0
LINE
  5
296
330
2
100
AcDbEntity
  8
0
 62
     3
100
AcDbLine
 10
121.726337603
 20
196.6614987646
 30
0.0
 11
122.1348699212999
 21
196.6614987646
 31
0.0
  0
LINE
  5
297
330
2
100
AcDbEntity
  8
0
 62
     3
100
AcDbLine
 10
121.1348546625
 20
195.5614957127998
 30
0.0
 11
121.1348546625
 21
191.8614987645998
 31
0.0
  0
LINE
  5
298
330
2
100
AcDbEntity
  8
0
 62
     3
100
AcDbLine
 10
121.9603776268999
 20
197.0569917702999
 30
0.0
 11
122.1348896393999
 21
200.1084021132999
 31
0.0
  0
LINE
  5
299
330
2
100
AcDbEntity
  8
0
 62
     3
100
AcDbLine
 10
120.7989781976999
 20
201.6612499357999
 30
0.0
 11
122.1348699212999
 21
201.6612499357999
 31
0.0
  0
LINE
  5
29A
330
2
100
AcDbEntity
  8
0
 62
     3
100
AcDbLine
 10
120.7989781976999
 20
200.6612499357999
 30
0.0
 11
122.1348699212999
 21
200.6612499357999
 31
0.0
  0
LINE
  5
29B
330
2
100
AcDbEntity
  8
0
 62
     3
100
AcDbLine
 10
122.1348546625
 20
203.3614987645999
 30
0.0
 11
124.5348485589998
 21
203.3614987645999
 31
0.0
  0
LINE
  5
29C
330
2
100
AcDbEntity
  8
0
 62
     3
100
AcDbLine
 10
122.1348546625
 20
204.8614987645998
 30
0.0
 11
124.5348485589998
 21
204.8614987645998
 31
0.0
  0
LINE
  5
29D
330
2
100
AcDbEntity
  8
0
 62
     3
100
AcDbLine
 10
122.1348546625
 20
206.9614743504998
 30
0.0
 11
126.0348485589998
 21
206.9614743504998
 31
0.0
  0
ARC
  5
29E
330
2
100
AcDbEntity
  8
0
 62
     3
100
AcDbCircle
 10
121.4611791253998
 20
205.2375990337999
 30
0.0
 40
0.5
100
AcDbArc
 50
3.272068075899997
 51
86.77700698989998
  0
LINE
  5
29F
330
2
100
AcDbEntity
  8
0
 62
     3
100
AcDbLine
 10
127.5348485589999
 20
191.8614987645998
 30
0.0
 11
127.5348485589999
 21
208.6820401463997
 31
0.0
  0
ARC
  5
2A0
330
2
100
AcDbEntity
  8
0
 62
     3
100
AcDbCircle
 10
132.0348485589998
 20
210.8614987645998
 30
0.0
 40
2.25
100
AcDbArc
 50
180.0000359722
 51
270.0000179861
  0
ARC
  5
2A1
330
2
100
AcDbEntity
  8
0
 62
     3
100
AcDbCircle
 10
132.0348485589998
 20
210.8614987645998
 30
0.0
 40
2.25
100
AcDbArc
 50
89.99998201389999
 51
179.9999640277999
  0
ARC
  5
2A2
330
2
100
AcDbEntity
  8
0
 62
     3
100
AcDbCircle
 10
132.0348485589998
 20
210.8614987645998
 30
0.0
 40
5.0
100
AcDbArc
 50
180.0000359722
 51
205.8419747347
  0
ARC
  5
2A3
330
2
100
AcDbEntity
  8
0
 62
     3
100
AcDbCircle
 10
132.0348485589998
 20
210.8614987645998
 30
0.0
 40
5.0
100
AcDbArc
 50
154.1580252653
 51
179.9999640277999
  0
LINE
  5
2A4
330
2
100
AcDbEntity
  8
0
 62
     3
100
AcDbLine
 10
132.0348485589998
 20
208.6114987645999
 30
0.0
 11
133.0348485589998
 21
208.6114987645999
 31
0.0
  0
LINE
  5
2A5
330
2
100
AcDbEntity
  8
0
 62
     3
100
AcDbLine
 10
132.0348485589998
 20
213.1114987645998
 30
0.0
 11
133.0348485589998
 21
213.1114987645998
 31
0.0
  0
LINE
  5
2A6
330
2
100
AcDbEntity
  8
0
 62
     3
100
AcDbLine
 10
135.5348727961999
 20
191.8612894384
 30
0.0
 11
137.0348743885999
 21
193.3612911573
 31
0.0
  0
LINE
  5
2A7
330
2
100
AcDbEntity
  8
0
 62
     3
100
AcDbLine
 10
136.0348532333997
 20
193.3612765590999
 30
0.0
 11
136.5348537641999
 21
192.8612760282998
 31
0.0
  0
LINE
  5
2A8
330
2
100
AcDbEntity
  8
0
 62
     3
100
AcDbLine
 10
195.8741907592998
 20
121.8703183446999
 30
0.0
 11
195.8741907592998
 21
123.5700711522999
 31
0.0
  0
LINE
  5
2A9
330
2
100
AcDbEntity
  8
0
 62
     3
100
AcDbLine
 10
196.9241632934
 20
116.9200009619
 30
0.0
 11
196.9241632934
 21
124.9199857030999
 31
0.0
  0
LINE
  5
2AA
330
2
100
AcDbEntity
  8
0
 62
     3
100
AcDbLine
 10
197.6742701049999
 20
117.6699857030999
 30
0.0
 11
197.6742701049999
 21
142.1699704443
 31
0.0
  0
LINE
  5
2AB
330
2
100
AcDbEntity
  8
0
 62
     3
100
AcDbLine
 10
189.6739891374999
 20
120.870091714
 30
0.0
 11
191.2328344715999
 21
123.5700914931999
 31
0.0
  0
CIRCLE
  5
2AC
330
2
100
AcDbEntity
  8
0
 62
     3
100
AcDbCircle
 10
193.1741327758999
 20
120.8699979101
 30
0.0
 40
1.75
  0
LINE
  5
2AD
330
2
100
AcDbEntity
  8
0
  6
CENTER
 62
     3
100
AcDbLine
 10
178.6741327758999
 20
149.4187545553999
 30
0.0
 11
178.6741327758999
 21
113.6699857031
 31
0.0
  0
LINE
  5
2AE
330
2
100
AcDbEntity
  8
0
 62
     3
100
AcDbLine
 10
165.7041113469999
 20
123.5699901775
 30
0.0
 11
167.6740442310999
 21
120.8700789227999
 31
0.0
  0
LINE
  5
2AF
330
2
100
AcDbEntity
  8
0
 62
     3
100
AcDbLine
 10
161.4741205687999
 20
123.5699948584
 30
0.0
 11
161.4741205687999
 21
121.8699979101
 31
0.0
  0
LINE
  5
2B0
330
2
100
AcDbEntity
  8
0
 62
     3
100
AcDbLine
 10
160.4241327758998
 20
116.9200009619
 30
0.0
 11
160.4241327758998
 21
124.9199857030999
 31
0.0
  0
LINE
  5
2B1
330
2
100
AcDbEntity
  8
0
 62
     3
100
AcDbLine
 10
159.6741175171
 20
117.6699857030999
 30
0.0
 11
159.6741175171
 21
142.1699704443
 31
0.0
  0
CIRCLE
  5
2B2
330
2
100
AcDbEntity
  8
0
 62
     3
100
AcDbCircle
 10
164.1741175171
 20
120.8699979101
 30
0.0
 40
1.75
  0
LINE
  5
2B3
330
2
100
AcDbEntity
  8
0
 62
     3
100
AcDbLine
 10
160.4241327758998
 20
116.9200009619
 30
0.0
 11
196.9241632934
 21
116.9200009619
 31
0.0
  0
LINE
  5
2B4
330
2
100
AcDbEntity
  8
0
 62
     3
100
AcDbLine
 10
161.1741327758998
 20
116.1699857030999
 30
0.0
 11
196.1741327758999
 21
116.1699857030999
 31
0.0
  0
LINE
  5
2B5
330
2
100
AcDbEntity
  8
0
 62
     3
100
AcDbLine
 10
164.7741236205999
 20
118.6699857030999
 30
0.0
 11
163.5741266723998
 21
118.6699857030999
 31
0.0
  0
LINE
  5
2B6
330
2
100
AcDbEntity
  8
0
 62
     3
100
AcDbLine
 10
165.7618402954
 20
118.1700009619
 30
0.0
 11
161.4741205687999
 21
118.1700009619
 31
0.0
  0
LINE
  5
2B7
330
2
100
AcDbEntity
  8
0
 62
     3
100
AcDbLine
 10
161.4740105599999
 20
119.8701850956
 30
0.0
 11
160.6740757194999
 21
120.8700998299
 31
0.0
  0
LINE
  5
2B8
330
2
100
AcDbEntity
  8
0
 62
     3
100
AcDbLine
 10
159.6741938386999
 20
117.670059788
 30
0.0
 11
161.1741964425999
 21
116.1700590806999
 31
0.0
  0
LINE
  5
2B9
330
2
100
AcDbEntity
  8
0
 62
     3
100
AcDbLine
 10
161.4739375160999
 20
121.8701733844
 30
0.0
 11
160.6739264186999
 21
120.8701633293
 31
0.0
  0
LINE
  5
2BA
330
2
100
AcDbEntity
  8
0
 62
     3
100
AcDbLine
 10
161.9741205687999
 20
121.4700192723999
 30
0.0
 11
161.9741205687999
 21
120.2702969823999
 31
0.0
  0
LINE
  5
2BB
330
2
100
AcDbEntity
  8
0
 62
     3
100
AcDbLine
 10
161.9741231894999
 20
120.2702922308999
 30
0.0
 11
161.4739908370999
 21
119.8701771714999
 31
0.0
  0
LINE
  5
2BC
330
2
100
AcDbEntity
  8
0
 62
     3
100
AcDbLine
 10
161.4741205687999
 20
119.8699979101
 30
0.0
 11
161.4741205687999
 21
118.1700009619
 31
0.0
  0
LINE
  5
2BD
330
2
100
AcDbEntity
  8
0
 62
     3
100
AcDbLine
 10
161.4740516060999
 20
121.8700931889999
 30
0.0
 11
161.9741318650999
 21
121.4700351045999
 31
0.0
  0
LINE
  5
2BE
330
2
100
AcDbEntity
  8
0
 62
     3
100
AcDbLine
 10
163.5741266723998
 20
118.6699857030999
 30
0.0
 11
163.5741266723998
 21
118.1700009619
 31
0.0
  0
LINE
  5
2BF
330
2
100
AcDbEntity
  8
0
 62
     3
100
AcDbLine
 10
167.6740651503999
 20
120.8700778552
 30
0.0
 11
165.7618489077998
 21
118.1699993162999
 31
0.0
  0
LINE
  5
2C0
330
2
100
AcDbEntity
  8
0
 62
     3
100
AcDbLine
 10
166.9185179601999
 20
121.9055943704
 30
0.0
 11
166.3741251331998
 21
121.4700867739999
 31
0.0
  0
LINE
  5
2C1
330
2
100
AcDbEntity
  8
0
 62
     3
100
AcDbLine
 10
166.3741193998999
 20
120.270044486
 30
0.0
 11
166.9326352787999
 21
119.823221534
 31
0.0
  0
LINE
  5
2C2
330
2
100
AcDbEntity
  8
0
 62
     3
100
AcDbLine
 10
166.3741297240999
 20
121.4700803076
 30
0.0
 11
166.3741297240999
 21
120.270037583
 31
0.0
  0
LINE
  5
2C3
330
2
100
AcDbEntity
  8
0
 62
     3
100
AcDbLine
 10
164.7741236205999
 20
118.6699857030999
 30
0.0
 11
164.7741236205999
 21
118.1700009619
 31
0.0
  0
LINE
  5
2C4
330
2
100
AcDbEntity
  8
0
 62
     3
100
AcDbLine
 10
195.8741297240999
 20
118.1700009619
 30
0.0
 11
191.2329554077
 21
118.1700009619
 31
0.0
  0
LINE
  5
2C5
330
2
100
AcDbEntity
  8
0
 62
     3
100
AcDbLine
 10
191.2329029273998
 20
118.1700721335
 30
0.0
 11
189.674072852
 21
120.8700454836999
 31
0.0
  0
LINE
  5
2C6
330
2
100
AcDbEntity
  8
0
 62
     3
100
AcDbLine
 10
196.1742544959999
 20
116.1700964785999
 30
0.0
 11
197.6742775411
 21
117.670119903
 31
0.0
  0
LINE
  5
2C7
330
2
100
AcDbEntity
  8
0
 62
     3
100
AcDbLine
 10
195.8742499010998
 20
119.870179189
 30
0.0
 11
196.6741847415999
 21
120.8700939232999
 31
0.0
  0
LINE
  5
2C8
330
2
100
AcDbEntity
  8
0
 62
     3
100
AcDbLine
 10
195.8741907592998
 20
118.1700772558
 30
0.0
 11
195.8741907592998
 21
119.8701047216
 31
0.0
  0
LINE
  5
2C9
330
2
100
AcDbEntity
  8
0
 62
     3
100
AcDbLine
 10
195.8743110299999
 20
121.870169759
 30
0.0
 11
196.6743221272999
 21
120.8701597037999
 31
0.0
  0
LINE
  5
2CA
330
2
100
AcDbEntity
  8
0
 62
     3
100
AcDbLine
 10
161.6741327758998
 20
144.1699704443
 30
0.0
 11
195.6741480346998
 21
144.1699704443
 31
0.0
  0
LINE
  5
2CB
330
2
100
AcDbEntity
  8
0
 62
     3
100
AcDbLine
 10
160.4241327758998
 20
124.9199857030999
 30
0.0
 11
196.9241632934
 21
124.9199857030999
 31
0.0
  0
LINE
  5
2CC
330
2
100
AcDbEntity
  8
0
 62
     3
100
AcDbLine
 10
161.1741327758998
 20
125.6699857030999
 30
0.0
 11
196.1741327758999
 21
125.6699857030999
 31
0.0
  0
LINE
  5
2CD
330
2
100
AcDbEntity
  8
0
  6
PHANTOM
 62
     3
100
AcDbLine
 10
196.6741327758999
 20
147.1699857031
 30
0.0
 11
160.6741327758999
 21
147.1699857031
 31
0.0
  0
LINE
  5
2CE
330
2
100
AcDbEntity
  8
0
  6
PHANTOM
 62
     3
100
AcDbLine
 10
196.6741327758999
 20
146.3699857030999
 30
0.0
 11
160.6741327758999
 21
146.3699857030999
 31
0.0
  0
LINE
  5
2CF
330
2
100
AcDbEntity
  8
0
 62
     3
100
AcDbLine
 10
164.7741236205999
 20
123.0699948584
 30
0.0
 11
163.5741266723998
 21
123.0699948584
 31
0.0
  0
LINE
  5
2D0
330
2
100
AcDbEntity
  8
0
 62
     3
100
AcDbLine
 10
161.4741205687999
 20
123.5699948584
 30
0.0
 11
165.7041162964
 21
123.5699948584
 31
0.0
  0
ARC
  5
2D1
330
2
100
AcDbEntity
  8
0
  6
PHANTOM
 62
     3
100
AcDbCircle
 10
160.6741327758999
 20
145.0699857031
 30
0.0
 40
1.3
100
AcDbArc
 50
90.0
 51
205.8341025612
  0
ARC
  5
2D2
330
2
100
AcDbEntity
  8
0
  6
PHANTOM
 62
     3
100
AcDbCircle
 10
160.6741327758999
 20
145.0699857031
 30
0.0
 40
2.1
100
AcDbArc
 50
90.0
 51
205.8341025612
  0
LINE
  5
2D3
330
2
100
AcDbEntity
  8
0
 62
     3
100
AcDbLine
 10
159.6742435448998
 20
124.1700640651
 30
0.0
 11
161.1742564326999
 21
125.6700760676999
 31
0.0
  0
LINE
  5
2D4
330
2
100
AcDbEntity
  8
0
 62
     3
100
AcDbLine
 10
163.5741266723998
 20
123.5699948584
 30
0.0
 11
163.5741266723998
 21
123.0699948584
 31
0.0
  0
LINE
  5
2D5
330
2
100
AcDbEntity
  8
0
  6
PHANTOM
 62
     3
100
AcDbLine
 10
159.5040553458999
 20
144.5034887411999
 30
0.0
 11
160.7522138899
 21
141.9254658394999
 31
0.0
  0
ARC
  5
2D6
330
2
100
AcDbEntity
  8
0
  6
PHANTOM
 62
     3
100
AcDbCircle
 10
160.3921900652998
 20
141.751159082
 30
0.0
 40
0.4
100
AcDbArc
 50
205.8341025612
 51
25.83410256120003
  0
LINE
  5
2D7
330
2
100
AcDbEntity
  8
0
 62
     3
100
AcDbLine
 10
159.6742713183999
 20
142.1700682567999
 30
0.0
 11
161.6742353407999
 21
144.1700223326999
 31
0.0
  0
LINE
  5
2D8
330
2
100
AcDbEntity
  8
0
  6
PHANTOM
 62
     3
100
AcDbLine
 10
158.7840076966999
 20
144.1548752262
 30
0.0
 11
160.0321662406997
 21
141.5768523245
 31
0.0
  0
LINE
  5
2D9
330
2
100
AcDbEntity
  8
0
 62
     3
100
AcDbLine
 10
164.7741236205999
 20
123.5699948584
 30
0.0
 11
164.7741236205999
 21
123.0699948584
 31
0.0
  0
LINE
  5
2DA
330
2
100
AcDbEntity
  8
0
 62
     3
100
AcDbLine
 10
176.4946894164999
 20
125.6699857030999
 30
0.0
 11
176.4946894164999
 21
144.1699704443
 31
0.0
  0
LINE
  5
2DB
330
2
100
AcDbEntity
  8
0
 62
     3
100
AcDbLine
 10
191.2329554077
 20
123.5699948584
 30
0.0
 11
195.8741297240999
 21
123.5699948584
 31
0.0
  0
LINE
  5
2DC
330
2
100
AcDbEntity
  8
0
 62
     3
100
AcDbLine
 10
180.8535761351999
 20
144.1699704443
 30
0.0
 11
180.8535761351999
 21
125.6699857030999
 31
0.0
  0
ARC
  5
2DD
330
2
100
AcDbEntity
  8
0
  6
PHANTOM
 62
     3
100
AcDbCircle
 10
196.6741327758999
 20
145.0699857031
 30
0.0
 40
2.1
100
AcDbArc
 50
334.1658974388
 51
90.0
  0
ARC
  5
2DE
330
2
100
AcDbEntity
  8
0
  6
PHANTOM
 62
     3
100
AcDbCircle
 10
196.6741327758999
 20
145.0699857031
 30
0.0
 40
1.3
100
AcDbArc
 50
334.1658974388
 51
90.0
  0
LINE
  5
2DF
330
2
100
AcDbEntity
  8
0
 62
     3
100
AcDbLine
 10
196.1741716149999
 20
125.670012578
 30
0.0
 11
197.6741716478999
 21
124.1700308789
 31
0.0
  0
LINE
  5
2E0
330
2
100
AcDbEntity
  8
0
 62
     3
100
AcDbLine
 10
197.6742253707999
 20
142.170083688
 30
0.0
 11
195.6742385889999
 21
144.1700795734
 31
0.0
  0
ARC
  5
2E1
330
2
100
AcDbEntity
  8
0
  6
PHANTOM
 62
     3
100
AcDbCircle
 10
196.9560754863999
 20
141.751159082
 30
0.0
 40
0.4
100
AcDbArc
 50
154.1658974387999
 51
334.1658974388
  0
LINE
  5
2E2
330
2
100
AcDbEntity
  8
0
  6
PHANTOM
 62
     3
100
AcDbLine
 10
197.8442102058999
 20
144.5034887411999
 30
0.0
 11
196.5960516617998
 21
141.9254658394999
 31
0.0
  0
LINE
  5
2E3
330
2
100
AcDbEntity
  8
0
  6
PHANTOM
 62
     3
100
AcDbLine
 10
198.5642578550999
 20
144.1548752262
 30
0.0
 11
197.3160993109999
 21
141.5768523245
 31
0.0
  0
LINE
  5
2EB
330
2
100
AcDbEntity
  8
0
 62
     3
100
AcDbLine
 10
86.13486992129997
 20
216.8614987645999
 30
0.0
 11
88.53486381779999
 21
216.8614987645999
 31
0.0
  0
LINE
  5
2EC
330
2
100
AcDbEntity
  8
0
 62
     3
100
AcDbLine
 10
86.13486992129997
 20
218.3614987645998
 30
0.0
 11
88.53486381779999
 21
218.3614987645998
 31
0.0
  0
LINE
  5
2ED
330
2
100
AcDbEntity
  8
0
 62
     3
100
AcDbLine
 10
86.13486992129997
 20
228.3614987645999
 30
0.0
 11
88.53486381779999
 21
228.3614987645999
 31
0.0
  0
LINE
  5
2EE
330
2
100
AcDbEntity
  8
0
 62
     3
100
AcDbLine
 10
86.13486992129997
 20
227.1614712988
 30
0.0
 11
88.53486381779999
 21
227.1614712988
 31
0.0
  0
LINE
  5
2EF
330
2
100
AcDbEntity
  8
0
 62
     3
100
AcDbLine
 10
86.13486992129997
 20
214.7614926610998
 30
0.0
 11
88.53486381779999
 21
214.7614926610998
 31
0.0
  0
LINE
  5
2F0
330
2
100
AcDbEntity
  8
0
 62
     3
100
AcDbLine
 10
52.53486381779999
 20
226.1614865575999
 30
0.0
 11
124.5348485589998
 21
226.1614865575999
 31
0.0
  0
LINE
  5
2F1
330
2
100
AcDbEntity
  8
0
 62
     3
100
AcDbLine
 10
41.53500114689999
 20
229.8614987645998
 30
0.0
 11
135.5345867460999
 21
229.8614987645998
 31
0.0
  0
LINE
  5
2F2
330
2
100
AcDbEntity
  8
0
  6
PHANTOM
 62
     3
100
AcDbLine
 10
51.03486381779998
 20
230.9614987645999
 30
0.0
 11
126.0348485589998
 21
230.9614987645999
 31
0.0
  0
LINE
  5
2F3
330
2
100
AcDbEntity
  8
0
 62
     3
100
AcDbLine
 10
58.2998984198
 20
219.4114969949
 30
0.0
 11
56.43164009729995
 21
221.6380006651
 31
0.0
  0
CIRCLE
  5
2F4
330
2
100
AcDbEntity
  8
0
 62
     3
100
AcDbCircle
 10
57.33486686959998
 20
220.5617475934
 30
0.0
 40
3.5
  0
LINE
  5
2F5
330
2
100
AcDbEntity
  8
0
 62
     3
100
AcDbLine
 10
52.53486381779999
 20
215.0614957127999
 30
0.0
 11
62.13486992129998
 21
215.0614957127999
 31
0.0
  0
LINE
  5
2F6
330
2
100
AcDbEntity
  8
0
 62
     3
100
AcDbLine
 10
55.41980961979999
 20
218.9545200170999
 30
0.0
 11
59.25003180929997
 21
222.1684578956999
 31
0.0
  0
LINE
  5
2F7
330
2
100
AcDbEntity
  8
0
 62
     3
100
AcDbLine
 10
56.28793059649999
 20
225.311624202
 30
0.0
 11
58.38190303139999
 21
225.3116305419
 31
0.0
  0
LINE
  5
2F8
330
2
100
AcDbEntity
  8
0
 62
     3
100
AcDbLine
 10
56.28793059649999
 20
215.8113733271999
 30
0.0
 11
58.38190303139999
 21
215.8113669872999
 31
0.0
  0
LINE
  5
2F9
330
2
100
AcDbEntity
  8
0
 62
     3
100
AcDbLine
 10
41.03486381779998
 20
228.3614987645999
 30
0.0
 11
52.53486381779999
 21
228.3614987645999
 31
0.0
  0
LINE
  5
2FA
330
2
100
AcDbEntity
  8
0
 62
     3
100
AcDbLine
 10
40.53493917359998
 20
228.8612602974999
 30
0.0
 11
41.03488575649999
 21
228.3613137146999
 31
0.0
  0
LINE
  5
2FB
330
2
100
AcDbEntity
  8
0
 62
     3
100
AcDbLine
 10
40.03488822899996
 20
228.3612636992998
 30
0.0
 11
41.53487802029997
 21
229.8612556399999
 31
0.0
  0
LINE
  5
2FC
330
2
100
AcDbEntity
  8
0
 62
     3
100
AcDbLine
 10
52.53486381779999
 20
229.8614987645998
 30
0.0
 11
52.53486381779999
 21
214.7614926610998
 31
0.0
  0
LINE
  5
2FD
330
2
100
AcDbEntity
  8
0
 62
     3
100
AcDbLine
 10
56.08493858550002
 20
225.1114580484
 30
0.0
 11
52.7349483564
 21
221.8114706812999
 31
0.0
  0
LINE
  5
2FE
330
2
100
AcDbEntity
  8
0
 62
     3
100
AcDbLine
 10
53.18051510689997
 20
225.1366976372999
 30
0.0
 11
56.28793059649999
 21
225.311624202
 31
0.0
  0
LINE
  5
2FF
330
2
100
AcDbEntity
  8
0
 62
     3
100
AcDbLine
 10
56.08493858550002
 20
216.0115394807998
 30
0.0
 11
52.7349483564
 21
219.3115268479
 31
0.0
  0
LINE
  5
300
330
2
100
AcDbEntity
  8
0
 62
     3
100
AcDbLine
 10
53.18051510689997
 20
215.9862998919
 30
0.0
 11
56.28793059649999
 21
215.8113733271999
 31
0.0
  0
LINE
  5
301
330
2
100
AcDbEntity
  8
0
 62
     3
100
AcDbLine
 10
51.03486381779998
 20
214.7614926610998
 30
0.0
 11
52.53486381779999
 21
214.7614926610998
 31
0.0
  0
ARC
  5
302
330
2
100
AcDbEntity
  8
0
 62
     3
100
AcDbCircle
 10
53.2085851313
 20
216.4853984954
 30
0.0
 40
0.5
100
AcDbArc
 50
183.2732265469998
 51
266.7784089999
  0
LINE
  5
303
330
2
100
AcDbEntity
  8
0
 62
     3
100
AcDbLine
 10
52.70951588829999
 20
216.4569632087
 30
0.0
 11
52.53498886849996
 21
219.5084032906998
 31
0.0
  0
ARC
  5
304
330
2
100
AcDbEntity
  8
0
 62
     3
100
AcDbCircle
 10
53.2085851313
 20
224.6375990338
 30
0.0
 40
0.5
100
AcDbArc
 50
93.22159100009999
 51
176.7267734529999
  0
LINE
  5
305
330
2
100
AcDbEntity
  8
0
 62
     3
100
AcDbLine
 10
52.53486381779999
 20
220.0617475934
 30
0.0
 11
53.87077080019998
 21
220.0617475934
 31
0.0
  0
LINE
  5
306
330
2
100
AcDbEntity
  8
0
 62
     3
100
AcDbLine
 10
52.53486381779999
 20
221.0617475934
 30
0.0
 11
53.87077080019998
 21
221.0617475934
 31
0.0
  0
LINE
  5
307
330
2
100
AcDbEntity
  8
0
 62
     3
100
AcDbLine
 10
52.53486381779999
 20
225.0614987646
 30
0.0
 11
52.94342665369999
 21
225.0614987646
 31
0.0
  0
LINE
  5
308
330
2
100
AcDbEntity
  8
0
 62
     3
100
AcDbLine
 10
52.70951588829999
 20
224.6660343204998
 30
0.0
 11
52.53498886849996
 21
221.6145942384998
 31
0.0
  0
LINE
  5
309
330
2
100
AcDbEntity
  8
0
 62
     3
100
AcDbLine
 10
56.83486686959998
 20
215.8112499357998
 30
0.0
 11
56.83486686959998
 21
217.0971538664999
 31
0.0
  0
LINE
  5
30A
330
2
100
AcDbEntity
  8
0
 62
     3
100
AcDbLine
 10
57.83486686959998
 20
215.8112499357998
 30
0.0
 11
57.83486686959998
 21
217.0971538664999
 31
0.0
  0
LINE
  5
30B
330
2
100
AcDbEntity
  8
0
 62
     3
100
AcDbLine
 10
57.83486686959998
 20
225.3117475934
 30
0.0
 11
57.83486686959998
 21
224.0258436627
 31
0.0
  0
LINE
  5
30C
330
2
100
AcDbEntity
  8
0
 62
     3
100
AcDbLine
 10
56.83486686959998
 20
225.3117475934
 30
0.0
 11
56.83486686959998
 21
224.0258436627
 31
0.0
  0
LINE
  5
30D
330
2
100
AcDbEntity
  8
0
 62
     3
100
AcDbLine
 10
72.79897819769996
 20
221.0617475934
 30
0.0
 11
74.13486992129998
 21
221.0617475934
 31
0.0
  0
LINE
  5
30E
330
2
100
AcDbEntity
  8
0
 62
     3
100
AcDbLine
 10
72.79897819769996
 20
220.0617475934
 30
0.0
 11
74.13486992129998
 21
220.0617475934
 31
0.0
  0
LINE
  5
30F
330
2
100
AcDbEntity
  8
0
 62
     3
100
AcDbLine
 10
64.53486381779999
 20
215.0614957127999
 30
0.0
 11
74.13486992129998
 21
215.0614957127999
 31
0.0
  0
LINE
  5
310
330
2
100
AcDbEntity
  8
0
 62
     3
100
AcDbLine
 10
70.38190303139998
 20
215.8113669872999
 30
0.0
 11
73.48937945959997
 21
215.9862962404999
 31
0.0
  0
LINE
  5
311
330
2
100
AcDbEntity
  8
0
 62
     3
100
AcDbLine
 10
70.58497017189998
 20
216.0115595515998
 30
0.0
 11
73.93497911939997
 21
219.3115500593
 31
0.0
  0
LINE
  5
312
330
2
100
AcDbEntity
  8
0
 62
     3
100
AcDbLine
 10
70.58497017189998
 20
225.1114379775998
 30
0.0
 11
73.93497911939997
 21
221.8114474699
 31
0.0
  0
LINE
  5
313
330
2
100
AcDbEntity
  8
0
 62
     3
100
AcDbLine
 10
70.38190303139998
 20
225.3116305419
 30
0.0
 11
73.48937945959997
 21
225.1367012887
 31
0.0
  0
LINE
  5
314
330
2
100
AcDbEntity
  8
0
 62
     3
100
AcDbLine
 10
64.53486381779999
 20
221.0617475934
 30
0.0
 11
65.87077080019998
 21
221.0617475934
 31
0.0
  0
LINE
  5
315
330
2
100
AcDbEntity
  8
0
 62
     3
100
AcDbLine
 10
64.53486381779999
 20
220.0617475934
 30
0.0
 11
65.87077080019998
 21
220.0617475934
 31
0.0
  0
LINE
  5
316
330
2
100
AcDbEntity
  8
0
 62
     3
100
AcDbLine
 10
68.0849385855
 20
225.1114580484
 30
0.0
 11
64.7349483564
 21
221.8114706812999
 31
0.0
  0
LINE
  5
317
330
2
100
AcDbEntity
  8
0
 62
     3
100
AcDbLine
 10
65.18051510689997
 20
225.1366976372999
 30
0.0
 11
68.28793059649999
 21
225.311624202
 31
0.0
  0
LINE
  5
318
330
2
100
AcDbEntity
  8
0
 62
     3
100
AcDbLine
 10
65.18051510689997
 20
215.9862998919
 30
0.0
 11
68.28793059649999
 21
215.8113733271999
 31
0.0
  0
LINE
  5
319
330
2
100
AcDbEntity
  8
0
 62
     3
100
AcDbLine
 10
68.0849385855
 20
216.0115394807998
 30
0.0
 11
64.7349483564
 21
219.3115268479
 31
0.0
  0
LINE
  5
31A
330
2
100
AcDbEntity
  8
0
 62
     3
100
AcDbLine
 10
64.53486381779999
 20
229.8614987645998
 30
0.0
 11
64.53486381779999
 21
214.7614926610998
 31
0.0
  0
LINE
  5
31B
330
2
100
AcDbEntity
  8
0
 62
     3
100
AcDbLine
 10
62.13486992129998
 20
229.8614987645998
 30
0.0
 11
62.13486992129998
 21
214.7614926610998
 31
0.0
  0
ARC
  5
31C
330
2
100
AcDbEntity
  8
0
 62
     3
100
AcDbCircle
 10
61.46117912539998
 20
224.6375990338
 30
0.0
 40
0.5
100
AcDbArc
 50
3.272068075899997
 51
86.77700698989998
  0
LINE
  5
31D
330
2
100
AcDbEntity
  8
0
 62
     3
100
AcDbLine
 10
60.79897819769996
 20
220.0617475934
 30
0.0
 11
62.13486992129998
 21
220.0617475934
 31
0.0
  0
LINE
  5
31E
330
2
100
AcDbEntity
  8
0
 62
     3
100
AcDbLine
 10
60.79897819769996
 20
221.0617475934
 30
0.0
 11
62.13486992129998
 21
221.0617475934
 31
0.0
  0
LINE
  5
31F
330
2
100
AcDbEntity
  8
0
 62
     3
100
AcDbLine
 10
61.72633760299999
 20
225.0614987646
 30
0.0
 11
62.13486992129998
 21
225.0614987646
 31
0.0
  0
LINE
  5
320
330
2
100
AcDbEntity
  8
0
 62
     3
100
AcDbLine
 10
58.58497017189995
 20
225.1114379775998
 30
0.0
 11
61.93497911939997
 21
221.8114474699
 31
0.0
  0
ARC
  5
321
330
2
100
AcDbEntity
  8
0
 62
     3
100
AcDbCircle
 10
61.46117912539998
 20
216.4853984954
 30
0.0
 40
0.5
100
AcDbArc
 50
273.2229930100999
 51
356.7279319241
  0
LINE
  5
322
330
2
100
AcDbEntity
  8
0
 62
     3
100
AcDbLine
 10
58.58497017189995
 20
216.0115595515998
 30
0.0
 11
61.93497911939997
 21
219.3115500593
 31
0.0
  0
LINE
  5
323
330
2
100
AcDbEntity
  8
0
 62
     3
100
AcDbLine
 10
58.38190303139999
 20
215.8113669872999
 30
0.0
 11
61.48937945959997
 21
215.9862962404999
 31
0.0
  0
LINE
  5
324
330
2
100
AcDbEntity
  8
0
 62
     3
100
AcDbLine
 10
58.38190303139999
 20
225.3116305419
 30
0.0
 11
61.48937945959997
 21
225.1367012887
 31
0.0
  0
LINE
  5
325
330
2
100
AcDbEntity
  8
0
 62
     3
100
AcDbLine
 10
62.13486992129998
 20
214.7614926610998
 30
0.0
 11
64.53486381779999
 21
214.7614926610998
 31
0.0
  0
LINE
  5
326
330
2
100
AcDbEntity
  8
0
 62
     3
100
AcDbLine
 10
62.13486992129998
 20
218.3614987645998
 30
0.0
 11
64.53486381779999
 21
218.3614987645998
 31
0.0
  0
LINE
  5
327
330
2
100
AcDbEntity
  8
0
 62
     3
100
AcDbLine
 10
62.13486992129998
 20
216.8614987645999
 30
0.0
 11
64.53486381779999
 21
216.8614987645999
 31
0.0
  0
LINE
  5
328
330
2
100
AcDbEntity
  8
0
 62
     3
100
AcDbLine
 10
61.96037762689996
 20
216.4569917703
 30
0.0
 11
62.13488963939997
 21
219.5084021133
 31
0.0
  0
ARC
  5
329
330
2
100
AcDbEntity
  8
0
 62
     3
100
AcDbCircle
 10
65.2085851313
 20
216.4853984954
 30
0.0
 40
0.5
100
AcDbArc
 50
183.2732265469998
 51
266.7784089999
  0
LINE
  5
32A
330
2
100
AcDbEntity
  8
0
 62
     3
100
AcDbLine
 10
64.70951588829999
 20
216.4569632087
 30
0.0
 11
64.53498886849996
 21
219.5084032906998
 31
0.0
  0
LINE
  5
32B
330
2
100
AcDbEntity
  8
0
 62
     3
100
AcDbLine
 10
61.96037762689996
 20
224.6660057588999
 30
0.0
 11
62.13488963939997
 21
221.6145954158999
 31
0.0
  0
LINE
  5
32C
330
2
100
AcDbEntity
  8
0
 62
     3
100
AcDbLine
 10
64.70951588829999
 20
224.6660343204998
 30
0.0
 11
64.53498886849996
 21
221.6145942384998
 31
0.0
  0
ARC
  5
32D
330
2
100
AcDbEntity
  8
0
 62
     3
100
AcDbCircle
 10
65.2085851313
 20
224.6375990338
 30
0.0
 40
0.5
100
AcDbArc
 50
93.22159100009999
 51
176.7267734529999
  0
LINE
  5
32E
330
2
100
AcDbEntity
  8
0
 62
     3
100
AcDbLine
 10
64.53486381779999
 20
225.0614987646
 30
0.0
 11
64.94342665369998
 21
225.0614987646
 31
0.0
  0
LINE
  5
32F
330
2
100
AcDbEntity
  8
0
 62
     3
100
AcDbLine
 10
61.13486992129998
 20
229.8614987645998
 30
0.0
 11
61.13486992129998
 21
226.1614865575999
 31
0.0
  0
LINE
  5
330
330
2
100
AcDbEntity
  8
0
 62
     3
100
AcDbLine
 10
62.13486992129998
 20
227.1614712988
 30
0.0
 11
64.53486381779999
 21
227.1614712988
 31
0.0
  0
LINE
  5
331
330
2
100
AcDbEntity
  8
0
 62
     3
100
AcDbLine
 10
62.13486992129998
 20
228.3614987645999
 30
0.0
 11
64.53486381779999
 21
228.3614987645999
 31
0.0
  0
LINE
  5
332
330
2
100
AcDbEntity
  8
0
 62
     3
100
AcDbLine
 10
68.28793059649999
 20
225.311624202
 30
0.0
 11
70.38190303139998
 21
225.3116305419
 31
0.0
  0
LINE
  5
333
330
2
100
AcDbEntity
  8
0
 62
     3
100
AcDbLine
 10
68.28793059649999
 20
215.8113733271999
 30
0.0
 11
70.38190303139998
 21
215.8113669872999
 31
0.0
  0
LINE
  5
334
330
2
100
AcDbEntity
  8
0
 62
     3
100
AcDbLine
 10
67.41980961979999
 20
218.9545200170999
 30
0.0
 11
71.25003180929997
 21
222.1684578956999
 31
0.0
  0
LINE
  5
335
330
2
100
AcDbEntity
  8
0
 62
     3
100
AcDbLine
 10
70.2998984198
 20
219.4114969949
 30
0.0
 11
68.43164009729997
 21
221.6380006651
 31
0.0
  0
CIRCLE
  5
336
330
2
100
AcDbEntity
  8
0
 62
     3
100
AcDbCircle
 10
69.33486686959998
 20
220.5617475934
 30
0.0
 40
3.5
  0
LINE
  5
337
330
2
100
AcDbEntity
  8
0
 62
     3
100
AcDbLine
 10
68.83486686959997
 20
215.8112499357998
 30
0.0
 11
68.83486686959997
 21
217.0971538664999
 31
0.0
  0
LINE
  5
338
330
2
100
AcDbEntity
  8
0
 62
     3
100
AcDbLine
 10
68.83486686959997
 20
225.3117475934
 30
0.0
 11
68.83486686959997
 21
224.0258436627
 31
0.0
  0
LINE
  5
339
330
2
100
AcDbEntity
  8
0
 62
     3
100
AcDbLine
 10
69.83486686959998
 20
215.8112499357998
 30
0.0
 11
69.83486686959998
 21
217.0971538664999
 31
0.0
  0
LINE
  5
33A
330
2
100
AcDbEntity
  8
0
 62
     3
100
AcDbLine
 10
69.83486686959998
 20
225.3117475934
 30
0.0
 11
69.83486686959998
 21
224.0258436627
 31
0.0
  0
LINE
  5
33B
330
2
100
AcDbEntity
  8
0
 62
     3
100
AcDbLine
 10
73.13486992129998
 20
229.8614987645998
 30
0.0
 11
73.13486992129998
 21
226.1614865575999
 31
0.0
  0
LINE
  5
33C
330
2
100
AcDbEntity
  8
0
 62
     3
100
AcDbLine
 10
80.28793059649999
 20
225.311624202
 30
0.0
 11
82.38190303139999
 21
225.3116305419
 31
0.0
  0
LINE
  5
33D
330
2
100
AcDbEntity
  8
0
 62
     3
100
AcDbLine
 10
80.28793059649999
 20
215.8113733271999
 30
0.0
 11
82.38190303139999
 21
215.8113669872999
 31
0.0
  0
LINE
  5
33E
330
2
100
AcDbEntity
  8
0
 62
     3
100
AcDbLine
 10
82.2998984198
 20
219.4114969949
 30
0.0
 11
80.43164009729997
 21
221.6380006651
 31
0.0
  0
LINE
  5
33F
330
2
100
AcDbEntity
  8
0
 62
     3
100
AcDbLine
 10
79.41980961979999
 20
218.9545200170999
 30
0.0
 11
83.25003180929996
 21
222.1684578956999
 31
0.0
  0
LINE
  5
340
330
2
100
AcDbEntity
  8
0
 62
     3
100
AcDbLine
 10
76.53486381779998
 20
215.0614957127999
 30
0.0
 11
86.13486992129997
 21
215.0614957127999
 31
0.0
  0
CIRCLE
  5
341
330
2
100
AcDbEntity
  8
0
 62
     3
100
AcDbCircle
 10
81.33486686959997
 20
220.5617475934
 30
0.0
 40
3.5
  0
LINE
  5
342
330
2
100
AcDbEntity
  8
0
 62
     3
100
AcDbLine
 10
74.13486992129998
 20
229.8614987645998
 30
0.0
 11
74.13486992129998
 21
214.7614926610998
 31
0.0
  0
LINE
  5
343
330
2
100
AcDbEntity
  8
0
 62
     3
100
AcDbLine
 10
76.53486381779998
 20
229.8614987645998
 30
0.0
 11
76.53486381779998
 21
214.7614926610998
 31
0.0
  0
ARC
  5
344
330
2
100
AcDbEntity
  8
0
 62
     3
100
AcDbCircle
 10
77.2085851313
 20
224.6375990338
 30
0.0
 40
0.5
100
AcDbArc
 50
93.22159100009999
 51
176.7267734529999
  0
LINE
  5
345
330
2
100
AcDbEntity
  8
0
 62
     3
100
AcDbLine
 10
76.53486381779998
 20
220.0617475934
 30
0.0
 11
77.87077080019997
 21
220.0617475934
 31
0.0
  0
LINE
  5
346
330
2
100
AcDbEntity
  8
0
 62
     3
100
AcDbLine
 10
76.53486381779998
 20
221.0617475934
 30
0.0
 11
77.87077080019997
 21
221.0617475934
 31
0.0
  0
ARC
  5
347
330
2
100
AcDbEntity
  8
0
 62
     3
100
AcDbCircle
 10
77.2085851313
 20
216.4853984954
 30
0.0
 40
0.5
100
AcDbArc
 50
183.2732265469998
 51
266.7784089999
  0
LINE
  5
348
330
2
100
AcDbEntity
  8
0
 62
     3
100
AcDbLine
 10
80.0849385855
 20
225.1114580484
 30
0.0
 11
76.73494835639997
 21
221.8114706812999
 31
0.0
  0
LINE
  5
349
330
2
100
AcDbEntity
  8
0
 62
     3
100
AcDbLine
 10
80.0849385855
 20
216.0115394807998
 30
0.0
 11
76.73494835639997
 21
219.3115268479
 31
0.0
  0
LINE
  5
34A
330
2
100
AcDbEntity
  8
0
 62
     3
100
AcDbLine
 10
74.13486992129998
 20
216.8614987645999
 30
0.0
 11
76.53486381779998
 21
216.8614987645999
 31
0.0
  0
LINE
  5
34B
330
2
100
AcDbEntity
  8
0
 62
     3
100
AcDbLine
 10
74.13486992129998
 20
218.3614987645998
 30
0.0
 11
76.53486381779998
 21
218.3614987645998
 31
0.0
  0
LINE
  5
34C
330
2
100
AcDbEntity
  8
0
 62
     3
100
AcDbLine
 10
74.13486992129998
 20
214.7614926610998
 30
0.0
 11
76.53486381779998
 21
214.7614926610998
 31
0.0
  0
LINE
  5
34D
330
2
100
AcDbEntity
  8
0
 62
     3
100
AcDbLine
 10
73.96037762689997
 20
216.4569917703
 30
0.0
 11
74.13488963939997
 21
219.5084021133
 31
0.0
  0
ARC
  5
34E
330
2
100
AcDbEntity
  8
0
 62
     3
100
AcDbCircle
 10
73.46117912539998
 20
216.4853984954
 30
0.0
 40
0.5
100
AcDbArc
 50
273.2229930100999
 51
356.7279319241
  0
LINE
  5
34F
330
2
100
AcDbEntity
  8
0
 62
     3
100
AcDbLine
 10
76.70951588829996
 20
216.4569632087
 30
0.0
 11
76.53498886849996
 21
219.5084032906998
 31
0.0
  0
LINE
  5
350
330
2
100
AcDbEntity
  8
0
 62
     3
100
AcDbLine
 10
73.96037762689997
 20
224.6660057588999
 30
0.0
 11
74.13488963939997
 21
221.6145954158999
 31
0.0
  0
LINE
  5
351
330
2
100
AcDbEntity
  8
0
 62
     3
100
AcDbLine
 10
73.72633760299999
 20
225.0614987646
 30
0.0
 11
74.13486992129998
 21
225.0614987646
 31
0.0
  0
ARC
  5
352
330
2
100
AcDbEntity
  8
0
 62
     3
100
AcDbCircle
 10
73.46117912539998
 20
224.6375990338
 30
0.0
 40
0.5
100
AcDbArc
 50
3.272068075899997
 51
86.77700698989998
  0
LINE
  5
353
330
2
100
AcDbEntity
  8
0
 62
     3
100
AcDbLine
 10
76.70951588829996
 20
224.6660343204998
 30
0.0
 11
76.53498886849996
 21
221.6145942384998
 31
0.0
  0
LINE
  5
354
330
2
100
AcDbEntity
  8
0
 62
     3
100
AcDbLine
 10
76.53486381779998
 20
225.0614987646
 30
0.0
 11
76.94342665369998
 21
225.0614987646
 31
0.0
  0
LINE
  5
355
330
2
100
AcDbEntity
  8
0
 62
     3
100
AcDbLine
 10
77.18051510689997
 20
215.9862998919
 30
0.0
 11
80.28793059649999
 21
215.8113733271999
 31
0.0
  0
LINE
  5
356
330
2
100
AcDbEntity
  8
0
 62
     3
100
AcDbLine
 10
77.18051510689997
 20
225.1366976372999
 30
0.0
 11
80.28793059649999
 21
225.311624202
 31
0.0
  0
LINE
  5
357
330
2
100
AcDbEntity
  8
0
 62
     3
100
AcDbLine
 10
74.13486992129998
 20
228.3614987645999
 30
0.0
 11
76.53486381779998
 21
228.3614987645999
 31
0.0
  0
LINE
  5
358
330
2
100
AcDbEntity
  8
0
 62
     3
100
AcDbLine
 10
74.13486992129998
 20
227.1614712988
 30
0.0
 11
76.53486381779998
 21
227.1614712988
 31
0.0
  0
LINE
  5
359
330
2
100
AcDbEntity
  8
0
 62
     3
100
AcDbLine
 10
86.13486992129997
 20
229.8614987645998
 30
0.0
 11
86.13486992129997
 21
214.7614926610998
 31
0.0
  0
LINE
  5
35A
330
2
100
AcDbEntity
  8
0
 62
     3
100
AcDbLine
 10
82.38190303139999
 20
225.3116305419
 30
0.0
 11
85.4893794596
 21
225.1367012887
 31
0.0
  0
LINE
  5
35B
330
2
100
AcDbEntity
  8
0
 62
     3
100
AcDbLine
 10
82.58497017189998
 20
225.1114379775998
 30
0.0
 11
85.9349791194
 21
221.8114474699
 31
0.0
  0
LINE
  5
35C
330
2
100
AcDbEntity
  8
0
 62
     3
100
AcDbLine
 10
82.58497017189998
 20
216.0115595515998
 30
0.0
 11
85.9349791194
 21
219.3115500593
 31
0.0
  0
LINE
  5
35D
330
2
100
AcDbEntity
  8
0
 62
     3
100
AcDbLine
 10
82.38190303139999
 20
215.8113669872999
 30
0.0
 11
85.4893794596
 21
215.9862962404999
 31
0.0
  0
LINE
  5
35E
330
2
100
AcDbEntity
  8
0
 62
     3
100
AcDbLine
 10
81.83486686959998
 20
215.8112499357998
 30
0.0
 11
81.83486686959998
 21
217.0971538664999
 31
0.0
  0
LINE
  5
35F
330
2
100
AcDbEntity
  8
0
 62
     3
100
AcDbLine
 10
80.83486686959998
 20
215.8112499357998
 30
0.0
 11
80.83486686959998
 21
217.0971538664999
 31
0.0
  0
LINE
  5
360
330
2
100
AcDbEntity
  8
0
 62
     3
100
AcDbLine
 10
81.83486686959998
 20
225.3117475934
 30
0.0
 11
81.83486686959998
 21
224.0258436627
 31
0.0
  0
LINE
  5
361
330
2
100
AcDbEntity
  8
0
 62
     3
100
AcDbLine
 10
80.83486686959998
 20
225.3117475934
 30
0.0
 11
80.83486686959998
 21
224.0258436627
 31
0.0
  0
LINE
  5
362
330
2
100
AcDbEntity
  8
0
 62
     3
100
AcDbLine
 10
85.96037762689997
 20
216.4569917703
 30
0.0
 11
86.1348896394
 21
219.5084021133
 31
0.0
  0
ARC
  5
363
330
2
100
AcDbEntity
  8
0
 62
     3
100
AcDbCircle
 10
85.46117912539996
 20
216.4853984954
 30
0.0
 40
0.5
100
AcDbArc
 50
273.2229930100999
 51
356.7279319241
  0
ARC
  5
364
330
2
100
AcDbEntity
  8
0
 62
     3
100
AcDbCircle
 10
85.46117912539996
 20
224.6375990338
 30
0.0
 40
0.5
100
AcDbArc
 50
3.272068075899997
 51
86.77700698989998
  0
LINE
  5
365
330
2
100
AcDbEntity
  8
0
 62
     3
100
AcDbLine
 10
85.96037762689997
 20
224.6660057588999
 30
0.0
 11
86.1348896394
 21
221.6145954158999
 31
0.0
  0
LINE
  5
366
330
2
100
AcDbEntity
  8
0
 62
     3
100
AcDbLine
 10
85.72633760299998
 20
225.0614987646
 30
0.0
 11
86.13486992129997
 21
225.0614987646
 31
0.0
  0
LINE
  5
367
330
2
100
AcDbEntity
  8
0
 62
     3
100
AcDbLine
 10
84.79897819769997
 20
220.0617475934
 30
0.0
 11
86.13486992129997
 21
220.0617475934
 31
0.0
  0
LINE
  5
368
330
2
100
AcDbEntity
  8
0
 62
     3
100
AcDbLine
 10
84.79897819769997
 20
221.0617475934
 30
0.0
 11
86.13486992129997
 21
221.0617475934
 31
0.0
  0
LINE
  5
369
330
2
100
AcDbEntity
  8
0
 62
     3
100
AcDbLine
 10
85.13486992129998
 20
229.8614987645998
 30
0.0
 11
85.13486992129998
 21
226.1614865575999
 31
0.0
  0
LINE
  5
36A
330
2
100
AcDbEntity
  8
0
 62
     3
100
AcDbLine
 10
118.5849701718999
 20
225.1114379775998
 30
0.0
 11
121.9349791193999
 21
221.8114474699
 31
0.0
  0
LINE
  5
36B
330
2
100
AcDbEntity
  8
0
 62
     3
100
AcDbLine
 10
118.3819030313999
 20
225.3116305419
 30
0.0
 11
121.4893794595999
 21
225.1367012887
 31
0.0
  0
LINE
  5
36C
330
2
100
AcDbEntity
  8
0
 62
     3
100
AcDbLine
 10
118.3819030313999
 20
215.8113669872999
 30
0.0
 11
121.4893794595999
 21
215.9862962404999
 31
0.0
  0
LINE
  5
36D
330
2
100
AcDbEntity
  8
0
 62
     3
100
AcDbLine
 10
118.5849701718999
 20
216.0115595515998
 30
0.0
 11
121.9349791193999
 21
219.3115500593
 31
0.0
  0
LINE
  5
36E
330
2
100
AcDbEntity
  8
0
 62
     3
100
AcDbLine
 10
112.5348638177999
 20
215.0614957127999
 30
0.0
 11
122.1348546625
 21
215.0614957127999
 31
0.0
  0
LINE
  5
36F
330
2
100
AcDbEntity
  8
0
 62
     3
100
AcDbLine
 10
115.4198096197999
 20
218.9545200170999
 30
0.0
 11
119.2500318092999
 21
222.1684578956999
 31
0.0
  0
CIRCLE
  5
370
330
2
100
AcDbEntity
  8
0
 62
     3
100
AcDbCircle
 10
117.3348668695999
 20
220.5617475934
 30
0.0
 40
3.5
  0
LINE
  5
371
330
2
100
AcDbEntity
  8
0
 62
     3
100
AcDbLine
 10
103.4198096197999
 20
218.9545200170999
 30
0.0
 11
107.2500318092999
 21
222.1684578956999
 31
0.0
  0
LINE
  5
372
330
2
100
AcDbEntity
  8
0
 62
     3
100
AcDbLine
 10
100.5348790765999
 20
215.0614957127999
 30
0.0
 11
110.1348699212999
 21
215.0614957127999
 31
0.0
  0
CIRCLE
  5
373
330
2
100
AcDbEntity
  8
0
 62
     3
100
AcDbCircle
 10
105.3348668695999
 20
220.5617475934
 30
0.0
 40
3.5
  0
LINE
  5
374
330
2
100
AcDbEntity
  8
0
 62
     3
100
AcDbLine
 10
101.1805151068999
 20
225.1366976372999
 30
0.0
 11
104.2879305964999
 21
225.311624202
 31
0.0
  0
LINE
  5
375
330
2
100
AcDbEntity
  8
0
 62
     3
100
AcDbLine
 10
104.0849385854998
 20
225.1114580484
 30
0.0
 11
100.7349483563998
 21
221.8114706812999
 31
0.0
  0
LINE
  5
376
330
2
100
AcDbEntity
  8
0
 62
     3
100
AcDbLine
 10
104.0849385854998
 20
216.0115394807998
 30
0.0
 11
100.7349483563998
 21
219.3115268479
 31
0.0
  0
LINE
  5
377
330
2
100
AcDbEntity
  8
0
 62
     3
100
AcDbLine
 10
101.1805151068999
 20
215.9862998919
 30
0.0
 11
104.2879305964999
 21
215.8113733271999
 31
0.0
  0
LINE
  5
378
330
2
100
AcDbEntity
  8
0
 62
     3
100
AcDbLine
 10
94.58497017189998
 20
225.1114379775998
 30
0.0
 11
97.93497911940001
 21
221.8114474699
 31
0.0
  0
LINE
  5
379
330
2
100
AcDbEntity
  8
0
 62
     3
100
AcDbLine
 10
94.58497017189998
 20
216.0115595515998
 30
0.0
 11
97.93497911940001
 21
219.3115500593
 31
0.0
  0
CIRCLE
  5
37A
330
2
100
AcDbEntity
  8
0
 62
     3
100
AcDbCircle
 10
93.33486686959998
 20
220.5617475934
 30
0.0
 40
3.5
  0
LINE
  5
37B
330
2
100
AcDbEntity
  8
0
 62
     3
100
AcDbLine
 10
94.38190303139998
 20
225.3116305419
 30
0.0
 11
97.48937945960001
 21
225.1367012887
 31
0.0
  0
LINE
  5
37C
330
2
100
AcDbEntity
  8
0
 62
     3
100
AcDbLine
 10
94.38190303139998
 20
215.8113669872999
 30
0.0
 11
97.48937945960001
 21
215.9862962404999
 31
0.0
  0
LINE
  5
37D
330
2
100
AcDbEntity
  8
0
 62
     3
100
AcDbLine
 10
88.53486381779999
 20
215.0614957127999
 30
0.0
 11
98.13486992129998
 21
215.0614957127999
 31
0.0
  0
LINE
  5
37E
330
2
100
AcDbEntity
  8
0
 62
     3
100
AcDbLine
 10
88.53486381779999
 20
229.8614987645998
 30
0.0
 11
88.53486381779999
 21
214.7614926610998
 31
0.0
  0
LINE
  5
37F
330
2
100
AcDbEntity
  8
0
 62
     3
100
AcDbLine
 10
89.18051510689997
 20
225.1366976372999
 30
0.0
 11
92.2879305965
 21
225.311624202
 31
0.0
  0
LINE
  5
380
330
2
100
AcDbEntity
  8
0
 62
     3
100
AcDbLine
 10
89.18051510689997
 20
215.9862998919
 30
0.0
 11
92.2879305965
 21
215.8113733271999
 31
0.0
  0
LINE
  5
381
330
2
100
AcDbEntity
  8
0
 62
     3
100
AcDbLine
 10
91.41980961979999
 20
218.9545200170999
 30
0.0
 11
95.25003180929994
 21
222.1684578956999
 31
0.0
  0
LINE
  5
382
330
2
100
AcDbEntity
  8
0
 62
     3
100
AcDbLine
 10
92.08493858549999
 20
216.0115394807998
 30
0.0
 11
88.7349483564
 21
219.3115268479
 31
0.0
  0
LINE
  5
383
330
2
100
AcDbEntity
  8
0
 62
     3
100
AcDbLine
 10
88.70951588829996
 20
216.4569632087
 30
0.0
 11
88.53498886849996
 21
219.5084032906998
 31
0.0
  0
ARC
  5
384
330
2
100
AcDbEntity
  8
0
 62
     3
100
AcDbCircle
 10
89.20858513129999
 20
216.4853984954
 30
0.0
 40
0.5
100
AcDbArc
 50
183.2732265469998
 51
266.7784089999
  0
LINE
  5
385
330
2
100
AcDbEntity
  8
0
 62
     3
100
AcDbLine
 10
92.08493858549999
 20
225.1114580484
 30
0.0
 11
88.7349483564
 21
221.8114706812999
 31
0.0
  0
LINE
  5
386
330
2
100
AcDbEntity
  8
0
 62
     3
100
AcDbLine
 10
88.70951588829996
 20
224.6660343204998
 30
0.0
 11
88.53498886849996
 21
221.6145942384998
 31
0.0
  0
LINE
  5
387
330
2
100
AcDbEntity
  8
0
 62
     3
100
AcDbLine
 10
88.53486381779999
 20
225.0614987646
 30
0.0
 11
88.94342665369999
 21
225.0614987646
 31
0.0
  0
ARC
  5
388
330
2
100
AcDbEntity
  8
0
 62
     3
100
AcDbCircle
 10
89.20858513129999
 20
224.6375990338
 30
0.0
 40
0.5
100
AcDbArc
 50
93.22159100009999
 51
176.7267734529999
  0
LINE
  5
389
330
2
100
AcDbEntity
  8
0
 62
     3
100
AcDbLine
 10
88.53486381779999
 20
220.0617475934
 30
0.0
 11
89.87077080019998
 21
220.0617475934
 31
0.0
  0
LINE
  5
38A
330
2
100
AcDbEntity
  8
0
 62
     3
100
AcDbLine
 10
88.53486381779999
 20
221.0617475934
 30
0.0
 11
89.87077080019998
 21
221.0617475934
 31
0.0
  0
LINE
  5
38B
330
2
100
AcDbEntity
  8
0
 62
     3
100
AcDbLine
 10
94.29989841980001
 20
219.4114969949
 30
0.0
 11
92.43164009729998
 21
221.6380006651
 31
0.0
  0
LINE
  5
38C
330
2
100
AcDbEntity
  8
0
 62
     3
100
AcDbLine
 10
92.2879305965
 20
215.8113733271999
 30
0.0
 11
94.38190303139998
 21
215.8113669872999
 31
0.0
  0
LINE
  5
38D
330
2
100
AcDbEntity
  8
0
 62
     3
100
AcDbLine
 10
92.83486686959998
 20
215.8112499357998
 30
0.0
 11
92.83486686959998
 21
217.0971538664999
 31
0.0
  0
LINE
  5
38E
330
2
100
AcDbEntity
  8
0
 62
     3
100
AcDbLine
 10
93.83486686959995
 20
215.8112499357998
 30
0.0
 11
93.83486686959995
 21
217.0971538664999
 31
0.0
  0
LINE
  5
38F
330
2
100
AcDbEntity
  8
0
 62
     3
100
AcDbLine
 10
92.2879305965
 20
225.311624202
 30
0.0
 11
94.38190303139998
 21
225.3116305419
 31
0.0
  0
LINE
  5
390
330
2
100
AcDbEntity
  8
0
 62
     3
100
AcDbLine
 10
93.83486686959995
 20
225.3117475934
 30
0.0
 11
93.83486686959995
 21
224.0258436627
 31
0.0
  0
LINE
  5
391
330
2
100
AcDbEntity
  8
0
 62
     3
100
AcDbLine
 10
92.83486686959998
 20
225.3117475934
 30
0.0
 11
92.83486686959998
 21
224.0258436627
 31
0.0
  0
LINE
  5
392
330
2
100
AcDbEntity
  8
0
 62
     3
100
AcDbLine
 10
98.13486992129998
 20
229.8614987645998
 30
0.0
 11
98.13486992129998
 21
214.7614926610998
 31
0.0
  0
LINE
  5
393
330
2
100
AcDbEntity
  8
0
 62
     3
100
AcDbLine
 10
100.5348638177999
 20
229.8614987645998
 30
0.0
 11
100.5348638177999
 21
214.7614926610998
 31
0.0
  0
LINE
  5
394
330
2
100
AcDbEntity
  8
0
 62
     3
100
AcDbLine
 10
98.13486992129998
 20
214.7614926610998
 30
0.0
 11
100.5348638177999
 21
214.7614926610998
 31
0.0
  0
LINE
  5
395
330
2
100
AcDbEntity
  8
0
 62
     3
100
AcDbLine
 10
98.13486992129998
 20
218.3614987645998
 30
0.0
 11
100.5348638177999
 21
218.3614987645998
 31
0.0
  0
LINE
  5
396
330
2
100
AcDbEntity
  8
0
 62
     3
100
AcDbLine
 10
98.13486992129998
 20
216.8614987645999
 30
0.0
 11
100.5348638177999
 21
216.8614987645999
 31
0.0
  0
ARC
  5
397
330
2
100
AcDbEntity
  8
0
 62
     3
100
AcDbCircle
 10
97.4611791254
 20
216.4853984954
 30
0.0
 40
0.5
100
AcDbArc
 50
273.2229930100999
 51
356.7279319241
  0
LINE
  5
398
330
2
100
AcDbEntity
  8
0
 62
     3
100
AcDbLine
 10
97.96037762689998
 20
216.4569917703
 30
0.0
 11
98.13488963939995
 21
219.5084021133
 31
0.0
  0
LINE
  5
399
330
2
100
AcDbEntity
  8
0
 62
     3
100
AcDbLine
 10
97.72633760299999
 20
225.0614987646
 30
0.0
 11
98.13486992129998
 21
225.0614987646
 31
0.0
  0
ARC
  5
39A
330
2
100
AcDbEntity
  8
0
 62
     3
100
AcDbCircle
 10
97.4611791254
 20
224.6375990338
 30
0.0
 40
0.5
100
AcDbArc
 50
3.272068075899997
 51
86.77700698989998
  0
LINE
  5
39B
330
2
100
AcDbEntity
  8
0
 62
     3
100
AcDbLine
 10
96.79897819769998
 20
220.0617475934
 30
0.0
 11
98.13486992129998
 21
220.0617475934
 31
0.0
  0
LINE
  5
39C
330
2
100
AcDbEntity
  8
0
 62
     3
100
AcDbLine
 10
96.79897819769998
 20
221.0617475934
 30
0.0
 11
98.13486992129998
 21
221.0617475934
 31
0.0
  0
LINE
  5
39D
330
2
100
AcDbEntity
  8
0
 62
     3
100
AcDbLine
 10
97.96037762689998
 20
224.6660057588999
 30
0.0
 11
98.13488963939995
 21
221.6145954158999
 31
0.0
  0
LINE
  5
39E
330
2
100
AcDbEntity
  8
0
 62
     3
100
AcDbLine
 10
100.7095158882999
 20
216.4569632087
 30
0.0
 11
100.5349888684999
 21
219.5084032906998
 31
0.0
  0
ARC
  5
39F
330
2
100
AcDbEntity
  8
0
 62
     3
100
AcDbCircle
 10
101.2085851312999
 20
216.4853984954
 30
0.0
 40
0.5
100
AcDbArc
 50
183.2732265469998
 51
266.7784089999
  0
LINE
  5
3A0
330
2
100
AcDbEntity
  8
0
 62
     3
100
AcDbLine
 10
100.5348638177999
 20
220.0617475934
 30
0.0
 11
101.8707708001999
 21
220.0617475934
 31
0.0
  0
LINE
  5
3A1
330
2
100
AcDbEntity
  8
0
 62
     3
100
AcDbLine
 10
100.5348638177999
 20
221.0617475934
 30
0.0
 11
101.8707708001999
 21
221.0617475934
 31
0.0
  0
ARC
  5
3A2
330
2
100
AcDbEntity
  8
0
 62
     3
100
AcDbCircle
 10
101.2085851312999
 20
224.6375990338
 30
0.0
 40
0.5
100
AcDbArc
 50
93.22159100009999
 51
176.7267734529999
  0
LINE
  5
3A3
330
2
100
AcDbEntity
  8
0
 62
     3
100
AcDbLine
 10
100.7095158882999
 20
224.6660343204998
 30
0.0
 11
100.5349888684999
 21
221.6145942384998
 31
0.0
  0
LINE
  5
3A4
330
2
100
AcDbEntity
  8
0
 62
     3
100
AcDbLine
 10
100.5348638177999
 20
225.0614987646
 30
0.0
 11
100.9434266536999
 21
225.0614987646
 31
0.0
  0
LINE
  5
3A5
330
2
100
AcDbEntity
  8
0
 62
     3
100
AcDbLine
 10
98.13486992129998
 20
227.1614712988
 30
0.0
 11
100.5348638177999
 21
227.1614712988
 31
0.0
  0
LINE
  5
3A6
330
2
100
AcDbEntity
  8
0
 62
     3
100
AcDbLine
 10
98.13486992129998
 20
228.3614987645999
 30
0.0
 11
100.5348638177999
 21
228.3614987645999
 31
0.0
  0
LINE
  5
3A7
330
2
100
AcDbEntity
  8
0
 62
     3
100
AcDbLine
 10
97.13486992129999
 20
229.8614987645998
 30
0.0
 11
97.13486992129999
 21
226.1614865575999
 31
0.0
  0
LINE
  5
3A8
330
2
100
AcDbEntity
  8
0
 62
     3
100
AcDbLine
 10
110.1348699212999
 20
227.1614712988
 30
0.0
 11
112.5348638177999
 21
227.1614712988
 31
0.0
  0
LINE
  5
3A9
330
2
100
AcDbEntity
  8
0
 62
     3
100
AcDbLine
 10
110.1348699212999
 20
228.3614987645999
 30
0.0
 11
112.5348638177999
 21
228.3614987645999
 31
0.0
  0
LINE
  5
3AA
330
2
100
AcDbEntity
  8
0
 62
     3
100
AcDbLine
 10
110.1348699212999
 20
214.7614926610998
 30
0.0
 11
112.5348638177999
 21
214.7614926610998
 31
0.0
  0
LINE
  5
3AB
330
2
100
AcDbEntity
  8
0
 62
     3
100
AcDbLine
 10
110.1348699212999
 20
218.3614987645998
 30
0.0
 11
112.5348638177999
 21
218.3614987645998
 31
0.0
  0
LINE
  5
3AC
330
2
100
AcDbEntity
  8
0
 62
     3
100
AcDbLine
 10
110.1348699212999
 20
216.8614987645999
 30
0.0
 11
112.5348638177999
 21
216.8614987645999
 31
0.0
  0
LINE
  5
3AD
330
2
100
AcDbEntity
  8
0
 62
     3
100
AcDbLine
 10
110.1348699212999
 20
229.8614987645998
 30
0.0
 11
110.1348699212999
 21
214.7614926610998
 31
0.0
  0
LINE
  5
3AE
330
2
100
AcDbEntity
  8
0
 62
     3
100
AcDbLine
 10
106.3819030313998
 20
225.3116305419
 30
0.0
 11
109.4893794596
 21
225.1367012887
 31
0.0
  0
LINE
  5
3AF
330
2
100
AcDbEntity
  8
0
 62
     3
100
AcDbLine
 10
106.3819030313998
 20
215.8113669872999
 30
0.0
 11
109.4893794596
 21
215.9862962404999
 31
0.0
  0
LINE
  5
3B0
330
2
100
AcDbEntity
  8
0
 62
     3
100
AcDbLine
 10
106.5849701718998
 20
225.1114379775998
 30
0.0
 11
109.9349791193999
 21
221.8114474699
 31
0.0
  0
LINE
  5
3B1
330
2
100
AcDbEntity
  8
0
 62
     3
100
AcDbLine
 10
106.5849701718998
 20
216.0115595515998
 30
0.0
 11
109.9349791193999
 21
219.3115500593
 31
0.0
  0
LINE
  5
3B2
330
2
100
AcDbEntity
  8
0
 62
     3
100
AcDbLine
 10
106.2998984197998
 20
219.4114969949
 30
0.0
 11
104.4316400972999
 21
221.6380006651
 31
0.0
  0
LINE
  5
3B3
330
2
100
AcDbEntity
  8
0
 62
     3
100
AcDbLine
 10
104.2879305964999
 20
215.8113733271999
 30
0.0
 11
106.3819030313998
 21
215.8113669872999
 31
0.0
  0
LINE
  5
3B4
330
2
100
AcDbEntity
  8
0
 62
     3
100
AcDbLine
 10
104.8348668695999
 20
215.8112499357998
 30
0.0
 11
104.8348668695999
 21
217.0971538664999
 31
0.0
  0
LINE
  5
3B5
330
2
100
AcDbEntity
  8
0
 62
     3
100
AcDbLine
 10
105.8348668695999
 20
215.8112499357998
 30
0.0
 11
105.8348668695999
 21
217.0971538664999
 31
0.0
  0
LINE
  5
3B6
330
2
100
AcDbEntity
  8
0
 62
     3
100
AcDbLine
 10
104.2879305964999
 20
225.311624202
 30
0.0
 11
106.3819030313998
 21
225.3116305419
 31
0.0
  0
LINE
  5
3B7
330
2
100
AcDbEntity
  8
0
 62
     3
100
AcDbLine
 10
104.8348668695999
 20
225.3117475934
 30
0.0
 11
104.8348668695999
 21
224.0258436627
 31
0.0
  0
LINE
  5
3B8
330
2
100
AcDbEntity
  8
0
 62
     3
100
AcDbLine
 10
105.8348668695999
 20
225.3117475934
 30
0.0
 11
105.8348668695999
 21
224.0258436627
 31
0.0
  0
LINE
  5
3B9
330
2
100
AcDbEntity
  8
0
 62
     3
100
AcDbLine
 10
109.9603776268999
 20
216.4569917703
 30
0.0
 11
110.1348896393999
 21
219.5084021133
 31
0.0
  0
ARC
  5
3BA
330
2
100
AcDbEntity
  8
0
 62
     3
100
AcDbCircle
 10
109.4611791253998
 20
216.4853984954
 30
0.0
 40
0.5
100
AcDbArc
 50
273.2229930100999
 51
356.7279319241
  0
LINE
  5
3BB
330
2
100
AcDbEntity
  8
0
 62
     3
100
AcDbLine
 10
108.7989781976999
 20
220.0617475934
 30
0.0
 11
110.1348699212999
 21
220.0617475934
 31
0.0
  0
LINE
  5
3BC
330
2
100
AcDbEntity
  8
0
 62
     3
100
AcDbLine
 10
108.7989781976999
 20
221.0617475934
 30
0.0
 11
110.1348699212999
 21
221.0617475934
 31
0.0
  0
LINE
  5
3BD
330
2
100
AcDbEntity
  8
0
 62
     3
100
AcDbLine
 10
109.9603776268999
 20
224.6660057588999
 30
0.0
 11
110.1348896393999
 21
221.6145954158999
 31
0.0
  0
LINE
  5
3BE
330
2
100
AcDbEntity
  8
0
 62
     3
100
AcDbLine
 10
109.7263376029998
 20
225.0614987646
 30
0.0
 11
110.1348699212999
 21
225.0614987646
 31
0.0
  0
ARC
  5
3BF
330
2
100
AcDbEntity
  8
0
 62
     3
100
AcDbCircle
 10
109.4611791253998
 20
224.6375990338
 30
0.0
 40
0.5
100
AcDbArc
 50
3.272068075899997
 51
86.77700698989998
  0
LINE
  5
3C0
330
2
100
AcDbEntity
  8
0
 62
     3
100
AcDbLine
 10
109.1348699212999
 20
229.8614987645998
 30
0.0
 11
109.1348699212999
 21
226.1614865575999
 31
0.0
  0
LINE
  5
3C1
330
2
100
AcDbEntity
  8
0
 62
     3
100
AcDbLine
 10
112.5348638177999
 20
229.8614987645998
 30
0.0
 11
112.5348638177999
 21
214.7614926610998
 31
0.0
  0
LINE
  5
3C2
330
2
100
AcDbEntity
  8
0
 62
     3
100
AcDbLine
 10
116.0849385854999
 20
225.1114580484
 30
0.0
 11
112.7349483563998
 21
221.8114706812999
 31
0.0
  0
LINE
  5
3C3
330
2
100
AcDbEntity
  8
0
 62
     3
100
AcDbLine
 10
113.1805151068999
 20
225.1366976372999
 30
0.0
 11
116.2879305964999
 21
225.311624202
 31
0.0
  0
LINE
  5
3C4
330
2
100
AcDbEntity
  8
0
 62
     3
100
AcDbLine
 10
113.1805151068999
 20
215.9862998919
 30
0.0
 11
116.2879305964999
 21
215.8113733271999
 31
0.0
  0
LINE
  5
3C5
330
2
100
AcDbEntity
  8
0
 62
     3
100
AcDbLine
 10
116.0849385854999
 20
216.0115394807998
 30
0.0
 11
112.7349483563998
 21
219.3115268479
 31
0.0
  0
ARC
  5
3C6
330
2
100
AcDbEntity
  8
0
 62
     3
100
AcDbCircle
 10
113.2085851312999
 20
216.4853984954
 30
0.0
 40
0.5
100
AcDbArc
 50
183.2732265469998
 51
266.7784089999
  0
LINE
  5
3C7
330
2
100
AcDbEntity
  8
0
 62
     3
100
AcDbLine
 10
112.7095158882999
 20
216.4569632087
 30
0.0
 11
112.5349888684999
 21
219.5084032906998
 31
0.0
  0
ARC
  5
3C8
330
2
100
AcDbEntity
  8
0
 62
     3
100
AcDbCircle
 10
113.2085851312999
 20
224.6375990338
 30
0.0
 40
0.5
100
AcDbArc
 50
93.22159100009999
 51
176.7267734529999
  0
LINE
  5
3C9
330
2
100
AcDbEntity
  8
0
 62
     3
100
AcDbLine
 10
112.5348638177999
 20
221.0617475934
 30
0.0
 11
113.8707708001999
 21
221.0617475934
 31
0.0
  0
LINE
  5
3CA
330
2
100
AcDbEntity
  8
0
 62
     3
100
AcDbLine
 10
112.5348638177999
 20
220.0617475934
 30
0.0
 11
113.8707708001999
 21
220.0617475934
 31
0.0
  0
LINE
  5
3CB
330
2
100
AcDbEntity
  8
0
 62
     3
100
AcDbLine
 10
112.7095158882999
 20
224.6660343204998
 30
0.0
 11
112.5349888684999
 21
221.6145942384998
 31
0.0
  0
LINE
  5
3CC
330
2
100
AcDbEntity
  8
0
 62
     3
100
AcDbLine
 10
112.5348638177999
 20
225.0614987646
 30
0.0
 11
112.9434266536999
 21
225.0614987646
 31
0.0
  0
LINE
  5
3CD
330
2
100
AcDbEntity
  8
0
 62
     3
100
AcDbLine
 10
118.2998984197998
 20
219.4114969949
 30
0.0
 11
116.4316400972999
 21
221.6380006651
 31
0.0
  0
LINE
  5
3CE
330
2
100
AcDbEntity
  8
0
 62
     3
100
AcDbLine
 10
116.2879305964999
 20
215.8113733271999
 30
0.0
 11
118.3819030313999
 21
215.8113669872999
 31
0.0
  0
LINE
  5
3CF
330
2
100
AcDbEntity
  8
0
 62
     3
100
AcDbLine
 10
116.8348668695999
 20
215.8112499357998
 30
0.0
 11
116.8348668695999
 21
217.0971538664999
 31
0.0
  0
LINE
  5
3D0
330
2
100
AcDbEntity
  8
0
 62
     3
100
AcDbLine
 10
117.8348668695999
 20
215.8112499357998
 30
0.0
 11
117.8348668695999
 21
217.0971538664999
 31
0.0
  0
LINE
  5
3D1
330
2
100
AcDbEntity
  8
0
 62
     3
100
AcDbLine
 10
116.2879305964999
 20
225.311624202
 30
0.0
 11
118.3819030313999
 21
225.3116305419
 31
0.0
  0
LINE
  5
3D2
330
2
100
AcDbEntity
  8
0
 62
     3
100
AcDbLine
 10
116.8348668695999
 20
225.3117475934
 30
0.0
 11
116.8348668695999
 21
224.0258436627
 31
0.0
  0
LINE
  5
3D3
330
2
100
AcDbEntity
  8
0
 62
     3
100
AcDbLine
 10
117.8348668695999
 20
225.3117475934
 30
0.0
 11
117.8348668695999
 21
224.0258436627
 31
0.0
  0
LINE
  5
3D4
330
2
100
AcDbEntity
  8
0
 62
     3
100
AcDbLine
 10
122.1348546625
 20
228.3614987645999
 30
0.0
 11
136.0348485589998
 21
228.3614987645999
 31
0.0
  0
LINE
  5
3D5
330
2
100
AcDbEntity
  8
0
 62
     3
100
AcDbLine
 10
124.5348485589998
 20
229.8614987645998
 30
0.0
 11
124.5348485589998
 21
214.7614926610998
 31
0.0
  0
LINE
  5
3D6
330
2
100
AcDbEntity
  8
0
 62
     3
100
AcDbLine
 10
122.1348546625
 20
229.8614987645998
 30
0.0
 11
122.1348546625
 21
214.7614926610998
 31
0.0
  0
LINE
  5
3D7
330
2
100
AcDbEntity
  8
0
 62
     3
100
AcDbLine
 10
122.1348546625
 20
218.3614987645998
 30
0.0
 11
124.5348485589998
 21
218.3614987645998
 31
0.0
  0
LINE
  5
3D8
330
2
100
AcDbEntity
  8
0
 62
     3
100
AcDbLine
 10
122.1348546625
 20
216.8614987645999
 30
0.0
 11
124.5348485589998
 21
216.8614987645999
 31
0.0
  0
LINE
  5
3D9
330
2
100
AcDbEntity
  8
0
 62
     3
100
AcDbLine
 10
122.1348546625
 20
214.7614926610998
 30
0.0
 11
126.0348485589998
 21
214.7614926610998
 31
0.0
  0
ARC
  5
3DA
330
2
100
AcDbEntity
  8
0
 62
     3
100
AcDbCircle
 10
121.4611791253998
 20
216.4853984954
 30
0.0
 40
0.5
100
AcDbArc
 50
273.2229930100999
 51
356.7279319241
  0
LINE
  5
3DB
330
2
100
AcDbEntity
  8
0
 62
     3
100
AcDbLine
 10
121.9603776268999
 20
216.4569917703
 30
0.0
 11
122.1348896393999
 21
219.5084021133
 31
0.0
  0
LINE
  5
3DC
330
2
100
AcDbEntity
  8
0
 62
     3
100
AcDbLine
 10
121.9603776268999
 20
224.6660057588999
 30
0.0
 11
122.1348896393999
 21
221.6145954158999
 31
0.0
  0
ARC
  5
3DD
330
2
100
AcDbEntity
  8
0
 62
     3
100
AcDbCircle
 10
121.4611791253998
 20
224.6375990338
 30
0.0
 40
0.5
100
AcDbArc
 50
3.272068075899997
 51
86.77700698989998
  0
LINE
  5
3DE
330
2
100
AcDbEntity
  8
0
 62
     3
100
AcDbLine
 10
121.726337603
 20
225.0614987646
 30
0.0
 11
122.1348699212999
 21
225.0614987646
 31
0.0
  0
LINE
  5
3DF
330
2
100
AcDbEntity
  8
0
 62
     3
100
AcDbLine
 10
120.7989781976999
 20
221.0617475934
 30
0.0
 11
122.1348699212999
 21
221.0617475934
 31
0.0
  0
LINE
  5
3E0
330
2
100
AcDbEntity
  8
0
 62
     3
100
AcDbLine
 10
120.7989781976999
 20
220.0617475934
 30
0.0
 11
122.1348699212999
 21
220.0617475934
 31
0.0
  0
LINE
  5
3E1
330
2
100
AcDbEntity
  8
0
 62
     3
100
AcDbLine
 10
122.1348546625
 20
227.1614712988
 30
0.0
 11
124.5348485589998
 21
227.1614712988
 31
0.0
  0
LINE
  5
3E2
330
2
100
AcDbEntity
  8
0
 62
     3
100
AcDbLine
 10
121.1348546625
 20
229.8614987645998
 30
0.0
 11
121.1348546625
 21
226.1614865575999
 31
0.0
  0
LINE
  5
3E3
330
2
100
AcDbEntity
  8
0
 62
     3
100
AcDbLine
 10
135.5348278468997
 20
229.8612576633999
 30
0.0
 11
137.0348176381999
 21
228.3612657227
 31
0.0
  0
LINE
  5
3E4
330
2
100
AcDbEntity
  8
0
 62
     3
100
AcDbLine
 10
136.0348532333997
 20
228.3612705562999
 30
0.0
 11
136.5348645537999
 21
228.8612818766999
 31
0.0
  0
LINE
  5
3FE
330
2
100
AcDbEntity
  8
0
100
AcDbLine
 10
0.0
 20
0.0
 30
0.0
 11
210.0
 21
0.0
 31
0.0
  0
LINE
  5
3FF
330
2
100
AcDbEntity
  8
0
100
AcDbLine
 10
210.0
 20
0.0
 30
0.0
 11
210.0
 21
297.0
 31
0.0
  0
LINE
  5
400
330
2
100
AcDbEntity
  8
0
100
AcDbLine
 10
210.0
 20
297.0
 30
0.0
 11
0.0
 21
297.0
 31
0.0
  0
LINE
  5
401
330
2
100
AcDbEntity
  8
0
100
AcDbLine
 10
0.0
 20
297.0
 30
0.0
 11
0.0
 21
0.0
 31
0.0
  0
TEXT
  5
402
330
2
100
AcDbEntity
  8
0
 62
     5
100
AcDbText
 10
145.0
 20
10.0
 30
0.0
 40
5.0
  1
ＭＡ４-Ｂ００３３４Ｅ
 41
0.8462858052105145
 72
     5
 11
199.0413935612999
 21
10.0
 31
0.0
100
AcDbText
  0
TEXT
  5
413
330
2
100
AcDbEntity
  8
0
 62
     7
100
AcDbText
 10
146.0
 20
85.00000295524989
 30
0.0
 40
2.999994089499998
  1
BTB30C6
 11
146.0
 21
86.49999999999989
 31
0.0
100
AcDbText
 73
     2
  0
ENDSEC
  0
SECTION
  2
OBJECTS
  0
DICTIONARY
  5
7
330
0
100
AcDbDictionary
281
     1
  3
ACAD_GROUP
350
1F
  3
ACAD_LAYOUT
350
B
  3
ACAD_MLINESTYLE
350
20
  3
ACAD_PLOTSETTINGS
350
21
  3
ACAD_PLOTSTYLENAME
350
6
  3
AcDbVariableDictionary
350
414
  0
DICTIONARY
  5
1F
102
{ACAD_REACTORS
330
7
102
}
330
7
100
AcDbDictionary
281
     1
  0
DICTIONARY
  5
B
102
{ACAD_REACTORS
330
7
102
}
330
7
100
AcDbDictionary
281
     1
  3
Model
350
A
  3
ﾚｲｱｳﾄ1
350
F
  0
DICTIONARY
  5
20
102
{ACAD_REACTORS
330
7
102
}
330
7
100
AcDbDictionary
281
     1
  3
Standard
350
22
  0
DICTIONARY
  5
21
102
{ACAD_REACTORS
330
7
102
}
330
7
100
AcDbDictionary
281
     1
  0
ACDBDICTIONARYWDFLT
  5
6
102
{ACAD_REACTORS
330
7
102
}
330
7
100
AcDbDictionary
281
     1
  3
Normal
350
5
100
AcDbDictionaryWithDefault
340
5
  0
DICTIONARY
  5
414
102
{ACAD_REACTORS
330
7
102
}
330
7
100
AcDbDictionary
281
     1
  3
DIMASSOC
350
415
  0
LAYOUT
  5
A
102
{ACAD_REACTORS
330
B
102
}
330
B
100
AcDbPlotSettings
  1

  2
C:\Program Files\AutoCAD 2000i\plotters\DWF Classic.pc3
  4

  6

 40
0.0
 41
0.0
 42
0.0
 43
0.0
 44
0.0
 45
0.0
 46
0.0
 47
0.0
 48
0.0
 49
0.0
140
0.0
141
0.0
142
1.0
143
1.0
 70
  1712
 72
     0
 73
     0
 74
     0
  7

 75
     0
147
1.0
148
0.0
149
0.0
100
AcDbLayout
  1
Model
 70
     1
 71
     0
 10
0.0
 20
0.0
 11
12.0
 21
9.0
 12
0.0
 22
0.0
 32
0.0
 14
0.0
 24
0.0
 34
0.0
 15
0.0
 25
0.0
 35
0.0
146
0.0
 13
0.0
 23
0.0
 33
0.0
 16
1.0
 26
0.0
 36
0.0
 17
0.0
 27
1.0
 37
0.0
 76
     0
330
2
  0
LAYOUT
  5
F
102
{ACAD_REACTORS
330
B
102
}
330
B
100
AcDbPlotSettings
  1

  2
C:\Program Files\AutoCAD 2000i\plotters\DWF Classic.pc3
  4

  6

 40
0.0
 41
0.0
 42
0.0
 43
0.0
 44
0.0
 45
0.0
 46
0.0
 47
0.0
 48
0.0
 49
0.0
140
0.0
141
0.0
142
1.0
143
1.0
 70
   688
 72
     0
 73
     0
 74
     5
  7

 75
    16
147
1.0
148
0.0
149
0.0
100
AcDbLayout
  1
ﾚｲｱｳﾄ1
 70
     1
 71
     1
 10
0.0
 20
0.0
 11
12.0
 21
9.0
 12
0.0
 22
0.0
 32
0.0
 14
1.000000000000000E+20
 24
1.000000000000000E+20
 34
1.000000000000000E+20
 15
-1.000000000000000E+20
 25
-1.000000000000000E+20
 35
-1.000000000000000E+20
146
0.0
 13
0.0
 23
0.0
 33
0.0
 16
1.0
 26
0.0
 36
0.0
 17
0.0
 27
1.0
 37
0.0
 76
     0
330
C
  0
MLINESTYLE
  5
22
102
{ACAD_REACTORS
330
20
102
}
330
20
100
AcDbMlineStyle
  2
STANDARD
 70
     0
  3

 62
   256
 51
90.0
 52
90.0
 71
     2
 49
0.5
 62
   256
  6
BYLAYER
 49
-0.5
 62
   256
  6
BYLAYER
  0
ACDBPLACEHOLDER
  5
5
102
{ACAD_REACTORS
330
6
102
}
330
6
  0
DICTIONARYVAR
  5
415
102
{ACAD_REACTORS
330
414
102
}
330
414
100
DictionaryVariables
280
     0
  1
1
  0
ENDSEC
  0
EOF
