  0
SECTION
  2
HEADER
  9
$ACADVER
  1
AC1015
  9
$ACADMAINTVER
 70
    13
  9
$DWGCODEPAGE
  3
ANSI_932
  9
$INSBASE
 10
0.0
 20
0.0
 30
0.0
  9
$EXTMIN
 10
-0.0224445307914039
 20
-0.0007663530996069
 30
-0.0000000349181948
  9
$EXTMAX
 10
210.0096005205891
 20
297.0167448587337
 30
0.0000000814935747
  9
$LIMMIN
 10
-182.0721557616999
 20
-3.174999999999998
  9
$LIMMAX
 10
3.174999999999998
 20
291.2585876465
  9
$ORTHOMODE
 70
     0
  9
$REGENMODE
 70
     1
  9
$FILLMODE
 70
     1
  9
$QTEXTMODE
 70
     0
  9
$MIRRTEXT
 70
     0
  9
$LTSCALE
 40
1.0
  9
$ATTMODE
 70
     1
  9
$TEXTSIZE
 40
2.999994039499997
  9
$TRACEWID
 40
0.05
  9
$TEXTSTYLE
  7
STANDARD
  9
$CLAYER
  8
0
  9
$CELTYPE
  6
ByLayer
  9
$CECOLOR
 62
   256
  9
$CELTSCALE
 40
1.0
  9
$DISPSILH
 70
     0
  9
$DIMSCALE
 40
1.0
  9
$DIMASZ
 40
1.9727878465
  9
$DIMEXO
 40
2.539999961899999
  9
$DIMDLI
 40
0.38
  9
$DIMRND
 40
0.0
  9
$DIMDLE
 40
0.0
  9
$DIMEXE
 40
3.809999942799997
  9
$DIMTP
 40
0.0
  9
$DIMTM
 40
0.0
  9
$DIMTXT
 40
2.999994039499997
  9
$DIMCEN
 40
0.09
  9
$DIMTSZ
 40
0.0
  9
$DIMTOL
 70
     0
  9
$DIMLIM
 70
     0
  9
$DIMTIH
 70
     0
  9
$DIMTOH
 70
     1
  9
$DIMSE1
 70
     0
  9
$DIMSE2
 70
     0
  9
$DIMTAD
 70
     0
  9
$DIMZIN
 70
     0
  9
$DIMBLK
  1

  9
$DIMASO
 70
     1
  9
$DIMSHO
 70
     0
  9
$DIMPOST
  1

  9
$DIMAPOST
  1

  9
$DIMALT
 70
     0
  9
$DIMALTD
 70
     2
  9
$DIMALTF
 40
25.4
  9
$DIMLFAC
 40
1.0
  9
$DIMTOFL
 70
     0
  9
$DIMTVP
 40
0.0
  9
$DIMTIX
 70
     0
  9
$DIMSOXD
 70
     0
  9
$DIMSAH
 70
     0
  9
$DIMBLK1
  1

  9
$DIMBLK2
  1

  9
$DIMSTYLE
  2
Standard
  9
$DIMCLRD
 70
     0
  9
$DIMCLRE
 70
     0
  9
$DIMCLRT
 70
     0
  9
$DIMTFAC
 40
1.0
  9
$DIMGAP
 40
0.09
  9
$DIMJUST
 70
     0
  9
$DIMSD1
 70
     0
  9
$DIMSD2
 70
     0
  9
$DIMTOLJ
 70
     1
  9
$DIMTZIN
 70
     0
  9
$DIMALTZ
 70
     0
  9
$DIMALTTZ
 70
     0
  9
$DIMUPT
 70
     0
  9
$DIMDEC
 70
     4
  9
$DIMTDEC
 70
     4
  9
$DIMALTU
 70
     2
  9
$DIMALTTD
 70
     2
  9
$DIMTXSTY
  7
STANDARD
  9
$DIMAUNIT
 70
     0
  9
$DIMADEC
 70
     0
  9
$DIMALTRND
 40
0.0
  9
$DIMAZIN
 70
     0
  9
$DIMDSEP
 70
    46
  9
$DIMATFIT
 70
     3
  9
$DIMFRAC
 70
     0
  9
$DIMLDRBLK
  1

  9
$DIMLUNIT
 70
     2
  9
$DIMLWD
 70
    -2
  9
$DIMLWE
 70
    -2
  9
$DIMTMOVE
 70
     0
  9
$LUNITS
 70
     2
  9
$LUPREC
 70
     3
  9
$SKETCHINC
 40
0.1
  9
$FILLETRAD
 40
0.0625
  9
$AUNITS
 70
     0
  9
$AUPREC
 70
     0
  9
$MENU
  1
ACAD
  9
$ELEVATION
 40
0.0
  9
$PELEVATION
 40
0.0
  9
$THICKNESS
 40
0.0
  9
$LIMCHECK
 70
     0
  9
$CHAMFERA
 40
0.0
  9
$CHAMFERB
 40
0.0
  9
$CHAMFERC
 40
0.0
  9
$CHAMFERD
 40
0.0
  9
$SKPOLY
 70
     0
  9
$TDCREATE
 40
2453377.955000000
  9
$TDUCREATE
 40
2453377.580000000
  9
$TDUPDATE
 40
2453390.675841643
  9
$TDUUPDATE
 40
2453390.300841643
  9
$TDINDWG
 40
0.0026329282
  9
$TDUSRTIMER
 40
0.0026327431
  9
$USRTIMER
 70
     1
  9
$ANGBASE
 50
0.0
  9
$ANGDIR
 70
     0
  9
$PDMODE
 70
     0
  9
$PDSIZE
 40
0.0
  9
$PLINEWID
 40
0.0
  9
$SPLFRAME
 70
     0
  9
$SPLINETYPE
 70
     6
  9
$SPLINESEGS
 70
     8
  9
$HANDSEED
  5
40E
  9
$SURFTAB1
 70
     6
  9
$SURFTAB2
 70
     6
  9
$SURFTYPE
 70
     6
  9
$SURFU
 70
     6
  9
$SURFV
 70
     6
  9
$UCSBASE
  2

  9
$UCSNAME
  2

  9
$UCSORG
 10
0.0
 20
0.0
 30
0.0
  9
$UCSXDIR
 10
1.0
 20
0.0
 30
0.0
  9
$UCSYDIR
 10
0.0
 20
1.0
 30
0.0
  9
$UCSORTHOREF
  2

  9
$UCSORTHOVIEW
 70
     0
  9
$UCSORGTOP
 10
0.0
 20
0.0
 30
0.0
  9
$UCSORGBOTTOM
 10
0.0
 20
0.0
 30
0.0
  9
$UCSORGLEFT
 10
0.0
 20
0.0
 30
0.0
  9
$UCSORGRIGHT
 10
0.0
 20
0.0
 30
0.0
  9
$UCSORGFRONT
 10
0.0
 20
0.0
 30
0.0
  9
$UCSORGBACK
 10
0.0
 20
0.0
 30
0.0
  9
$PUCSBASE
  2

  9
$PUCSNAME
  2

  9
$PUCSORG
 10
0.0
 20
0.0
 30
0.0
  9
$PUCSXDIR
 10
1.0
 20
0.0
 30
0.0
  9
$PUCSYDIR
 10
0.0
 20
1.0
 30
0.0
  9
$PUCSORTHOREF
  2

  9
$PUCSORTHOVIEW
 70
     0
  9
$PUCSORGTOP
 10
0.0
 20
0.0
 30
0.0
  9
$PUCSORGBOTTOM
 10
0.0
 20
0.0
 30
0.0
  9
$PUCSORGLEFT
 10
0.0
 20
0.0
 30
0.0
  9
$PUCSORGRIGHT
 10
0.0
 20
0.0
 30
0.0
  9
$PUCSORGFRONT
 10
0.0
 20
0.0
 30
0.0
  9
$PUCSORGBACK
 10
0.0
 20
0.0
 30
0.0
  9
$USERI1
 70
    24
  9
$USERI2
 70
     0
  9
$USERI3
 70
     0
  9
$USERI4
 70
     0
  9
$USERI5
 70
     0
  9
$USERR1
 40
0.0
  9
$USERR2
 40
0.0
  9
$USERR3
 40
0.0
  9
$USERR4
 40
0.0
  9
$USERR5
 40
0.0
  9
$WORLDVIEW
 70
     1
  9
$SHADEDGE
 70
     3
  9
$SHADEDIF
 70
    70
  9
$TILEMODE
 70
     1
  9
$MAXACTVP
 70
    64
  9
$PINSBASE
 10
0.0
 20
0.0
 30
0.0
  9
$PLIMCHECK
 70
     0
  9
$PEXTMIN
 10
1.000000000000000E+20
 20
1.000000000000000E+20
 30
1.000000000000000E+20
  9
$PEXTMAX
 10
-1.000000000000000E+20
 20
-1.000000000000000E+20
 30
-1.000000000000000E+20
  9
$PLIMMIN
 10
0.0
 20
0.0
  9
$PLIMMAX
 10
12.0
 20
9.0
  9
$UNITMODE
 70
     0
  9
$VISRETAIN
 70
     1
  9
$PLINEGEN
 70
     0
  9
$PSLTSCALE
 70
     1
  9
$TREEDEPTH
 70
  3020
  9
$CMLSTYLE
  2
Standard
  9
$CMLJUST
 70
     0
  9
$CMLSCALE
 40
1.0
  9
$PROXYGRAPHICS
 70
     1
  9
$MEASUREMENT
 70
     0
  9
$CELWEIGHT
370
    -1
  9
$ENDCAPS
280
     0
  9
$JOINSTYLE
280
     0
  9
$LWDISPLAY
290
     0
  9
$INSUNITS
 70
     0
  9
$HYPERLINKBASE
  1

  9
$STYLESHEET
  1

  9
$XEDIT
290
     1
  9
$CEPSNTYPE
380
     0
  9
$PSTYLEMODE
290
     1
  9
$FINGERPRINTGUID
  2
{6275E007-85DA-4670-B19E-E578B4AB9F7A}
  9
$VERSIONGUID
  2
{C8CED819-FC8D-4D2F-8A42-BF60C1D06A4C}
  9
$EXTNAMES
290
     1
  9
$PSVPSCALE
 40
0.0
  9
$OLESTARTUP
290
     0
  0
ENDSEC
  0
SECTION
  2
CLASSES
  0
CLASS
  1
ACDBDICTIONARYWDFLT
  2
AcDbDictionaryWithDefault
  3
AutoCAD 2000
 90
        0
280
     0
281
     0
  0
CLASS
  1
ACDBPLACEHOLDER
  2
AcDbPlaceHolder
  3
AutoCAD 2000
 90
        0
280
     0
281
     0
  0
CLASS
  1
LAYOUT
  2
AcDbLayout
  3
AutoCAD 2000
 90
        0
280
     0
281
     0
  0
CLASS
  1
DICTIONARYVAR
  2
AcDbDictionaryVar
  3
AutoCAD 2000
 90
        0
280
     0
281
     0
  0
ENDSEC
  0
SECTION
  2
TABLES
  0
TABLE
  2
VPORT
  5
19
330
0
100
AcDbSymbolTable
 70
     2
  0
VPORT
  5
40D
330
19
100
AcDbSymbolTableRecord
100
AcDbViewportTableRecord
  2
*Active
 70
     0
 10
0.0
 20
0.0
 11
1.0
 21
1.0
 12
104.9935779948989
 22
148.507989252817
 13
0.0
 23
0.0
 14
1.0
 24
1.0
 15
0.0
 25
0.0
 16
0.0
 26
0.0
 36
1.0
 17
0.0
 27
0.0
 37
0.0
 40
301.3535332733199
 41
2.407317073170731
 42
50.0
 43
0.0
 44
0.0
 50
0.0
 51
0.0
 71
     0
 72
   100
 73
     1
 74
     1
 75
     0
 76
     0
 77
     0
 78
     0
281
     0
 65
     1
110
0.0
120
0.0
130
0.0
111
1.0
121
0.0
131
0.0
112
0.0
122
1.0
132
0.0
 79
     0
146
0.0
  0
ENDTAB
  0
TABLE
  2
LTYPE
  5
14
330
0
100
AcDbSymbolTable
 70
     3
  0
LTYPE
  5
15
330
14
100
AcDbSymbolTableRecord
100
AcDbLinetypeTableRecord
  2
ByBlock
 70
     0
  3

 72
    65
 73
     0
 40
0.0
  0
LTYPE
  5
16
330
14
100
AcDbSymbolTableRecord
100
AcDbLinetypeTableRecord
  2
ByLayer
 70
     0
  3

 72
    65
 73
     0
 40
0.0
  0
LTYPE
  5
8
330
14
100
AcDbSymbolTableRecord
100
AcDbLinetypeTableRecord
  2
Continuous
 70
     0
  3
Solid line
 72
    65
 73
     0
 40
0.0
  0
LTYPE
  5
28A
330
14
100
AcDbSymbolTableRecord
100
AcDbLinetypeTableRecord
  2
CENTER
 70
     0
  3
Center
 72
    65
 73
     4
 40
9.100006759199999
 49
6.5000119209
 74
     0
 49
-0.7999984026000001
 74
     0
 49
0.9999980329999999
 74
     0
 49
-0.7999984026000001
 74
     0
  0
LTYPE
  5
3B
330
14
100
AcDbSymbolTableRecord
100
AcDbLinetypeTableRecord
  2
PHANTOM
 70
     0
  3
Phantom
 72
    65
 73
     6
 40
9.499981462999999
 49
4.799990654
 74
     0
 49
-0.8999982475999999
 74
     0
 49
0.9999980329999999
 74
     0
 49
-0.8999982475999999
 74
     0
 49
0.9999980329999999
 74
     0
 49
-0.8999982475999999
 74
     0
  0
ENDTAB
  0
TABLE
  2
LAYER
  5
10
330
0
100
AcDbSymbolTable
 70
     1
  0
LAYER
  5
4
330
10
100
AcDbSymbolTableRecord
100
AcDbLayerTableRecord
  2
0
 70
     0
 62
     7
  6
Continuous
370
    -3
390
5
  0
ENDTAB
  0
TABLE
  2
STYLE
  5
11
330
0
100
AcDbSymbolTable
 70
     1
  0
STYLE
  5
12
330
11
100
AcDbSymbolTableRecord
100
AcDbTextStyleTableRecord
  2
STANDARD
 70
     0
 40
0.0
 41
1.0
 50
0.0
 71
     0
 42
2.999994039499997
  3
romans.shx
  4
bigfont.shx
  0
ENDTAB
  0
TABLE
  2
VIEW
  5
17
330
0
100
AcDbSymbolTable
 70
     0
  0
ENDTAB
  0
TABLE
  2
UCS
  5
18
330
0
100
AcDbSymbolTable
 70
     0
  0
ENDTAB
  0
TABLE
  2
APPID
  5
1B
330
0
100
AcDbSymbolTable
 70
     1
  0
APPID
  5
1C
330
1B
100
AcDbSymbolTableRecord
100
AcDbRegAppTableRecord
  2
ACAD
 70
     0
  0
ENDTAB
  0
TABLE
  2
DIMSTYLE
  5
1D
330
0
100
AcDbSymbolTable
 70
     1
100
AcDbDimStyleTable
 71
     0
  0
DIMSTYLE
105
23
330
1D
100
AcDbSymbolTableRecord
100
AcDbDimStyleTableRecord
  2
Standard
 70
     0
340
12
  0
ENDTAB
  0
TABLE
  2
BLOCK_RECORD
  5
1
330
0
100
AcDbSymbolTable
 70
     1
  0
BLOCK_RECORD
  5
2
330
1
100
AcDbSymbolTableRecord
100
AcDbBlockTableRecord
  2
*Model_Space
340
A
  0
BLOCK_RECORD
  5
C
330
1
100
AcDbSymbolTableRecord
100
AcDbBlockTableRecord
  2
*Paper_Space
340
F
  0
ENDTAB
  0
ENDSEC
  0
SECTION
  2
BLOCKS
  0
BLOCK
  5
3
330
2
100
AcDbEntity
  8
0
100
AcDbBlockBegin
  2
*Model_Space
 70
     0
 10
0.0
 20
0.0
 30
0.0
  3
*Model_Space
  1

  0
ENDBLK
  5
9
330
2
100
AcDbEntity
  8
0
100
AcDbBlockEnd
  0
BLOCK
  5
D
330
C
100
AcDbEntity
 67
     1
  8
0
100
AcDbBlockBegin
  2
*Paper_Space
 70
     0
 10
0.0
 20
0.0
 30
0.0
  3
*Paper_Space
  1

  0
ENDBLK
  5
E
330
C
100
AcDbEntity
 67
     1
  8
0
100
AcDbBlockEnd
  0
ENDSEC
  0
SECTION
  2
ENTITIES
  0
LINE
  5
24
330
2
100
AcDbEntity
  8
0
100
AcDbLine
 10
210.0
 20
0.0
 30
0.0
 11
210.0
 21
297.0
 31
0.0
  0
LINE
  5
25
330
2
100
AcDbEntity
  8
0
 62
     3
100
AcDbLine
 10
124.6145844518999
 20
183.154181284
 30
0.0
 11
124.6145844518999
 21
214.1541812839999
 31
0.0
  0
LINE
  5
26
330
2
100
AcDbEntity
  8
0
 62
     3
100
AcDbLine
 10
125.6145844518999
 20
182.654181284
 30
0.0
 11
125.6145844518999
 21
214.6541812839998
 31
0.0
  0
LINE
  5
27
330
2
100
AcDbEntity
  8
0
 62
     3
100
AcDbLine
 10
114.6145844518999
 20
193.6541812839998
 30
0.0
 11
114.6145844518999
 21
203.6541812839999
 31
0.0
  0
LINE
  5
28
330
2
100
AcDbEntity
  8
0
 62
     3
100
AcDbLine
 10
60.61458445189998
 20
203.6541812839999
 30
0.0
 11
60.61458445189998
 21
193.6541812839998
 31
0.0
  0
LINE
  5
29
330
2
100
AcDbEntity
  8
0
100
AcDbLine
 10
0.0
 20
297.0
 30
0.0
 11
0.0
 21
0.0
 31
0.0
  0
LINE
  5
2A
330
2
100
AcDbEntity
  8
0
 62
     3
100
AcDbLine
 10
77.31459665899999
 20
194.4541843357999
 30
0.0
 11
77.31459665899999
 21
181.654181284
 31
0.0
  0
LINE
  5
2B
330
2
100
AcDbEntity
  8
0
 62
     3
100
AcDbLine
 10
70.61458445189998
 20
194.4541843357999
 30
0.0
 11
70.61458445189998
 21
181.654181284
 31
0.0
  0
LINE
  5
2C
330
2
100
AcDbEntity
  8
0
 62
     3
100
AcDbLine
 10
68.81459665900002
 20
194.4541843357999
 30
0.0
 11
68.81459665900002
 21
181.654181284
 31
0.0
  0
LINE
  5
2D
330
2
100
AcDbEntity
  8
0
 62
     3
100
AcDbLine
 10
62.11458445189999
 20
194.4541843357999
 30
0.0
 11
62.11458445189999
 21
181.654181284
 31
0.0
  0
LINE
  5
2E
330
2
100
AcDbEntity
  8
0
 62
     3
100
AcDbLine
 10
102.8145966589999
 20
194.4541843357999
 30
0.0
 11
102.8145966589999
 21
181.654181284
 31
0.0
  0
LINE
  5
2F
330
2
100
AcDbEntity
  8
0
 62
     3
100
AcDbLine
 10
96.11458445189994
 20
194.4541843357999
 30
0.0
 11
96.11458445189994
 21
181.654181284
 31
0.0
  0
LINE
  5
30
330
2
100
AcDbEntity
  8
0
 62
     3
100
AcDbLine
 10
94.31459665899996
 20
194.4541843357999
 30
0.0
 11
94.31459665899996
 21
181.654181284
 31
0.0
  0
LINE
  5
31
330
2
100
AcDbEntity
  8
0
 62
     3
100
AcDbLine
 10
87.61458445189999
 20
194.4541843357999
 30
0.0
 11
87.61458445189999
 21
181.654181284
 31
0.0
  0
LINE
  5
32
330
2
100
AcDbEntity
  8
0
 62
     3
100
AcDbLine
 10
79.11458445189999
 20
194.4541843357999
 30
0.0
 11
79.11458445189999
 21
181.654181284
 31
0.0
  0
LINE
  5
33
330
2
100
AcDbEntity
  8
0
 62
     3
100
AcDbLine
 10
116.1145844518999
 20
181.654181284
 30
0.0
 11
116.1145844518999
 21
196.4747226659
 31
0.0
  0
LINE
  5
34
330
2
100
AcDbEntity
  8
0
 62
     3
100
AcDbLine
 10
59.11458445189999
 20
196.4747226659
 30
0.0
 11
59.11458445189999
 21
181.654181284
 31
0.0
  0
LINE
  5
35
330
2
100
AcDbEntity
  8
0
 62
     3
100
AcDbLine
 10
50.61458445189998
 20
214.1541812839999
 30
0.0
 11
50.61458445189998
 21
183.154181284
 31
0.0
  0
LINE
  5
36
330
2
100
AcDbEntity
  8
0
 62
     3
100
AcDbLine
 10
49.61458445189999
 20
214.6541812839998
 30
0.0
 11
49.61458445189999
 21
182.6541355076999
 31
0.0
  0
LINE
  5
37
330
2
100
AcDbEntity
  8
0
 62
     3
100
AcDbLine
 10
111.3145966589998
 20
194.4541843357999
 30
0.0
 11
111.3145966589998
 21
181.654181284
 31
0.0
  0
LINE
  5
38
330
2
100
AcDbEntity
  8
0
 62
     3
100
AcDbLine
 10
113.1145844518999
 20
194.4541843357999
 30
0.0
 11
113.1145844518999
 21
181.654181284
 31
0.0
  0
LINE
  5
39
330
2
100
AcDbEntity
  8
0
 62
     3
100
AcDbLine
 10
104.6145844518999
 20
194.4541843357999
 30
0.0
 11
104.6145844518999
 21
181.654181284
 31
0.0
  0
LINE
  5
3A
330
2
100
AcDbEntity
  8
0
  6
PHANTOM
 62
     3
100
AcDbLine
 10
60.61458445189998
 20
180.4541812839999
 30
0.0
 11
60.61458445189998
 21
216.854181284
 31
0.0
  0
LINE
  5
3C
330
2
100
AcDbEntity
  8
0
  6
PHANTOM
 62
     3
100
AcDbLine
 10
114.6145844518999
 20
180.4541812839999
 30
0.0
 11
114.6145844518999
 21
216.854181284
 31
0.0
  0
LINE
  5
3D
330
2
100
AcDbEntity
  8
0
 62
     3
100
AcDbLine
 10
85.81459665899998
 20
194.4541843357999
 30
0.0
 11
85.81459665899998
 21
181.654181284
 31
0.0
  0
LINE
  5
3E
330
2
100
AcDbEntity
  8
0
100
AcDbLine
 10
0.0
 20
0.0
 30
0.0
 11
210.0
 21
0.0
 31
0.0
  0
LINE
  5
3F
330
2
100
AcDbEntity
  8
0
 62
     3
100
AcDbLine
 10
85.20834494179997
 20
192.8375475773
 30
0.0
 11
83.86455214329998
 21
192.9921862704999
 31
0.0
  0
LINE
  5
40
330
2
100
AcDbEntity
  8
0
 62
     3
100
AcDbLine
 10
79.11458445189999
 20
193.904181284
 30
0.0
 11
85.81459665899998
 21
193.904181284
 31
0.0
  0
LINE
  5
41
330
2
100
AcDbEntity
  8
0
 62
     3
100
AcDbLine
 10
85.2083607994
 20
186.4708253845
 30
0.0
 11
83.86456800089996
 21
186.3161866913
 31
0.0
  0
LINE
  5
42
330
2
100
AcDbEntity
  8
0
 62
     3
100
AcDbLine
 10
85.81459665899998
 20
186.154181284
 30
0.0
 11
79.11458445189999
 21
186.154181284
 31
0.0
  0
LINE
  5
43
330
2
100
AcDbEntity
  8
0
 62
     3
100
AcDbLine
 10
85.31459665899999
 20
184.154181284
 30
0.0
 11
79.11458445189999
 21
184.154181284
 31
0.0
  0
LINE
  5
44
330
2
100
AcDbEntity
  8
0
 62
     3
100
AcDbLine
 10
84.11458432619998
 20
121.9625643022
 30
0.0
 11
85.43567143069997
 21
121.5222034556999
 31
0.0
  0
LINE
  5
45
330
2
100
AcDbEntity
  8
0
 62
     3
100
AcDbLine
 10
84.11458684519997
 20
122.9625795279
 30
0.0
 11
85.43568801049998
 21
122.5222125281
 31
0.0
  0
LINE
  5
46
330
2
100
AcDbEntity
  8
0
 62
     3
100
AcDbLine
 10
79.11458445189999
 20
120.4626682225
 30
0.0
 11
85.31459665899999
 21
120.4626682225
 31
0.0
  0
LINE
  5
47
330
2
100
AcDbEntity
  8
0
 62
     3
100
AcDbLine
 10
79.11458445189999
 20
121.4626682225
 30
0.0
 11
85.81459665899998
 21
121.4626682225
 31
0.0
  0
ARC
  5
48
330
2
100
AcDbEntity
  8
0
 62
     3
100
AcDbCircle
 10
82.46459055539999
 20
118.9626529636999
 30
0.0
 40
7.0
100
AcDbArc
 50
73.742929676
 51
106.2569797102999
  0
LINE
  5
49
330
2
100
AcDbEntity
  8
0
 62
     3
100
AcDbLine
 10
79.11458445189999
 20
129.9626682224999
 30
0.0
 11
85.81459665899998
 21
129.9626682224999
 31
0.0
  0
LINE
  5
4A
330
2
100
AcDbEntity
  8
0
 62
     3
100
AcDbLine
 10
79.71460581419998
 20
123.9626529636999
 30
0.0
 11
85.21459055539997
 21
123.9626529636999
 31
0.0
  0
LINE
  5
4B
330
2
100
AcDbEntity
  8
0
 62
     3
100
AcDbLine
 10
79.11459971069999
 20
122.9626529636999
 30
0.0
 11
85.81459665899998
 21
122.9626529636999
 31
0.0
  0
LINE
  5
4C
330
2
100
AcDbEntity
  8
0
 62
     3
100
AcDbLine
 10
79.11458445189999
 20
113.9626682225
 30
0.0
 11
85.31459665899999
 21
113.9626682225
 31
0.0
  0
LINE
  5
4D
330
2
100
AcDbEntity
  8
0
 62
     3
100
AcDbLine
 10
79.11458445189999
 20
116.4626682224999
 30
0.0
 11
85.31459665899999
 21
116.4626682224999
 31
0.0
  0
LINE
  5
4E
330
2
100
AcDbEntity
  8
0
  6
PHANTOM
 62
     3
100
AcDbLine
 10
60.61458445189998
 20
133.7626682225
 30
0.0
 11
114.6145844518999
 21
133.7626682225
 31
0.0
  0
LINE
  5
4F
330
2
100
AcDbEntity
  8
0
  6
PHANTOM
 62
     3
100
AcDbLine
 10
114.6145844518999
 20
180.4541812839999
 30
0.0
 11
60.61458445189998
 21
180.4541812839999
 31
0.0
  0
LINE
  5
50
330
2
100
AcDbEntity
  8
0
  6
PHANTOM
 62
     3
100
AcDbLine
 10
60.61458445189998
 20
128.3626682225
 30
0.0
 11
114.6145844518999
 21
128.3626682225
 31
0.0
  0
CIRCLE
  5
51
330
2
100
AcDbEntity
  8
0
 62
     3
100
AcDbCircle
 10
82.46459055539999
 20
189.6541812839998
 30
0.0
 40
2.75
  0
LINE
  5
52
330
2
100
AcDbEntity
  8
0
 62
     3
100
AcDbLine
 10
124.6146592902999
 20
181.654181284
 30
0.0
 11
70.61458445189998
 21
181.654181284
 31
0.0
  0
LINE
  5
53
330
2
100
AcDbEntity
  8
0
 62
     3
100
AcDbLine
 10
50.61458445189998
 20
108.4626682224999
 30
0.0
 11
124.6145109766999
 21
108.4626682224999
 31
0.0
  0
LINE
  5
54
330
2
100
AcDbEntity
  8
0
 62
     3
100
AcDbLine
 10
50.61458445189998
 20
106.9626682225
 30
0.0
 11
124.6146668971997
 21
106.9626682225
 31
0.0
  0
LINE
  5
55
330
2
100
AcDbEntity
  8
0
 62
     3
100
AcDbLine
 10
62.11458445189999
 20
183.154181284
 30
0.0
 11
50.61458445189998
 21
183.154181284
 31
0.0
  0
LINE
  5
56
330
2
100
AcDbEntity
  8
0
 62
     3
100
AcDbLine
 10
50.61458445189998
 20
114.9626682224999
 30
0.0
 11
59.11458445189999
 21
114.9626682224999
 31
0.0
  0
LINE
  5
57
330
2
100
AcDbEntity
  8
0
 62
     3
100
AcDbLine
 10
50.61458445189998
 20
116.4626682224999
 30
0.0
 11
59.11458445189999
 21
116.4626682224999
 31
0.0
  0
LINE
  5
58
330
2
100
AcDbEntity
  8
0
 62
     3
100
AcDbLine
 10
70.61458445189998
 20
181.654181284
 30
0.0
 11
50.61459971069999
 21
181.654181284
 31
0.0
  0
LINE
  5
59
330
2
100
AcDbEntity
  8
0
 62
     3
100
AcDbLine
 10
50.61458445189998
 20
108.4626682224999
 30
0.0
 11
50.61458445189998
 21
114.9626682224999
 31
0.0
  0
LINE
  5
5A
330
2
100
AcDbEntity
  8
0
 62
     3
100
AcDbLine
 10
49.61458445189999
 20
107.9626529637
 30
0.0
 11
49.61458445189999
 21
115.4626377049
 31
0.0
  0
LINE
  5
5B
330
2
100
AcDbEntity
  8
0
 62
     3
100
AcDbLine
 10
50.01458646599997
 20
107.5625710470999
 30
0.0
 11
50.61460320309999
 21
108.4625961204999
 31
0.0
  0
LINE
  5
5C
330
2
100
AcDbEntity
  8
0
 62
     3
100
AcDbLine
 10
49.61460647039999
 20
107.9625510261999
 30
0.0
 11
50.6146078692
 21
106.9625503018
 31
0.0
  0
LINE
  5
5D
330
2
100
AcDbEntity
  8
0
 62
     3
100
AcDbLine
 10
49.61459883579999
 20
115.4625661055
 30
0.0
 11
50.61460124599998
 21
116.4625873977
 31
0.0
  0
LINE
  5
5E
330
2
100
AcDbEntity
  8
0
 62
     3
100
AcDbLine
 10
50.01457481589998
 20
115.8625723519
 30
0.0
 11
50.6145661608
 21
114.9625853667999
 31
0.0
  0
LINE
  5
5F
330
2
100
AcDbEntity
  8
0
 62
     3
100
AcDbLine
 10
50.01460039679995
 20
182.2541279078
 30
0.0
 11
50.6146002058
 21
183.1541275889998
 31
0.0
  0
LINE
  5
60
330
2
100
AcDbEntity
  8
0
 62
     3
100
AcDbLine
 10
50.61461032269995
 20
181.6541228727
 30
0.0
 11
49.61460614229998
 21
182.6541208153999
 31
0.0
  0
LINE
  5
61
330
2
100
AcDbEntity
  8
0
 62
     3
100
AcDbLine
 10
68.81459665900002
 20
131.9626682225
 30
0.0
 11
70.61458445189998
 21
131.9626682225
 31
0.0
  0
LINE
  5
62
330
2
100
AcDbEntity
  8
0
 62
     3
100
AcDbLine
 10
68.81459665900002
 20
125.9626682224999
 30
0.0
 11
70.61458445189998
 21
125.9626682224999
 31
0.0
  0
LINE
  5
63
330
2
100
AcDbEntity
  8
0
 62
     3
100
AcDbLine
 10
68.81459665900002
 20
126.4626682225
 30
0.0
 11
70.61458445189998
 21
126.4626682225
 31
0.0
  0
LINE
  5
64
330
2
100
AcDbEntity
  8
0
 62
     3
100
AcDbLine
 10
68.81459665900002
 20
127.4626682224999
 30
0.0
 11
70.61458445189998
 21
127.4626682224999
 31
0.0
  0
LINE
  5
65
330
2
100
AcDbEntity
  8
0
 62
     3
100
AcDbLine
 10
68.81459665900002
 20
130.4626682224999
 30
0.0
 11
70.61458445189998
 21
130.4626682224999
 31
0.0
  0
ARC
  5
66
330
2
100
AcDbEntity
  8
0
 62
     3
100
AcDbCircle
 10
67.14427805539997
 20
124.7227390232999
 30
0.0
 40
1.0
100
AcDbArc
 50
5.000005831000001
 51
73.7429843175
  0
LINE
  5
67
330
2
100
AcDbEntity
  8
0
 62
     3
100
AcDbLine
 10
68.81459665900002
 20
131.9626682225
 30
0.0
 11
68.81459665900002
 21
121.4626682225
 31
0.0
  0
ARC
  5
68
330
2
100
AcDbEntity
  8
0
 62
     3
100
AcDbCircle
 10
63.78491831419996
 20
124.7227390232999
 30
0.0
 40
1.0
100
AcDbArc
 50
106.2569797102999
 51
174.9999923478
  0
LINE
  5
69
330
2
100
AcDbEntity
  8
0
 62
     3
100
AcDbLine
 10
59.11458445189999
 20
114.9626682224999
 30
0.0
 11
59.11458445189999
 21
131.9626682225
 31
0.0
  0
LINE
  5
6A
330
2
100
AcDbEntity
  8
0
 62
     3
100
AcDbLine
 10
62.11458445189999
 20
131.9626682225
 30
0.0
 11
62.11458445189999
 21
106.9626682225
 31
0.0
  0
LINE
  5
6B
330
2
100
AcDbEntity
  8
0
 62
     3
100
AcDbLine
 10
63.73249681719997
 20
124.9626066681
 30
0.0
 11
65.46454759369999
 21
125.9626066681
 31
0.0
  0
LINE
  5
6C
330
2
100
AcDbEntity
  8
0
 62
     3
100
AcDbLine
 10
62.49346206519999
 20
121.5221804681
 30
0.0
 11
63.81454875469998
 21
121.9625426426
 31
0.0
  0
LINE
  5
6D
330
2
100
AcDbEntity
  8
0
 62
     3
100
AcDbLine
 10
62.49345727759996
 20
122.5221803414999
 30
0.0
 11
63.81454396709997
 21
122.962542516
 31
0.0
  0
LINE
  5
6E
330
2
100
AcDbEntity
  8
0
 62
     3
100
AcDbLine
 10
62.11458445189999
 20
113.9626682225
 30
0.0
 11
68.31459665899996
 21
113.9626682225
 31
0.0
  0
LINE
  5
6F
330
2
100
AcDbEntity
  8
0
 62
     3
100
AcDbLine
 10
62.11458445189999
 20
116.4626682224999
 30
0.0
 11
68.31459665899996
 21
116.4626682224999
 31
0.0
  0
LINE
  5
70
330
2
100
AcDbEntity
  8
0
 62
     3
100
AcDbLine
 10
62.11458445189999
 20
120.4626682225
 30
0.0
 11
68.31459665899996
 21
120.4626682225
 31
0.0
  0
LINE
  5
71
330
2
100
AcDbEntity
  8
0
 62
     3
100
AcDbLine
 10
62.11458445189999
 20
121.4626682225
 30
0.0
 11
68.81459665900002
 21
121.4626682225
 31
0.0
  0
LINE
  5
72
330
2
100
AcDbEntity
  8
0
 62
     3
100
AcDbLine
 10
62.11459971069999
 20
122.9626529636999
 30
0.0
 11
68.81459665900002
 21
122.9626529636999
 31
0.0
  0
LINE
  5
73
330
2
100
AcDbEntity
  8
0
 62
     3
100
AcDbLine
 10
62.31459665899999
 20
122.2126529636999
 30
0.0
 11
62.31459665899999
 21
121.7126529636999
 31
0.0
  0
LINE
  5
74
330
2
100
AcDbEntity
  8
0
 62
     3
100
AcDbLine
 10
62.11457539329998
 20
121.9625550493
 30
0.0
 11
62.24454215449998
 21
121.637639377
 31
0.0
  0
LINE
  5
75
330
2
100
AcDbEntity
  8
0
 62
     3
100
AcDbLine
 10
62.11458542119999
 20
122.962548936
 30
0.0
 11
62.24454651539997
 21
122.6376474310999
 31
0.0
  0
LINE
  5
76
330
2
100
AcDbEntity
  8
0
 62
     3
100
AcDbLine
 10
62.11459971069999
 20
122.9626529636999
 30
0.0
 11
62.11459971069999
 21
121.9626529636999
 31
0.0
  0
ARC
  5
77
330
2
100
AcDbEntity
  8
0
 62
     3
100
AcDbCircle
 10
62.43025828009996
 20
122.7120120946
 30
0.0
 40
0.1999999881
100
AcDbArc
 50
201.8017812367999
 51
288.4350810464998
  0
ARC
  5
78
330
2
100
AcDbEntity
  8
0
 62
     3
100
AcDbCircle
 10
62.43025828009996
 20
121.7120120946
 30
0.0
 40
0.1999999881
100
AcDbArc
 50
201.8016173122999
 51
288.4351903295997
  0
LINE
  5
79
330
2
100
AcDbEntity
  8
0
 62
     3
100
AcDbLine
 10
64.66460276249998
 20
121.4626529637
 30
0.0
 11
66.2645936072
 21
121.4626529637
 31
0.0
  0
LINE
  5
7A
330
2
100
AcDbEntity
  8
0
 62
     3
100
AcDbLine
 10
66.46462645369999
 20
123.9625509644999
 30
0.0
 11
65.46462539209997
 21
122.9625499028999
 31
0.0
  0
LINE
  5
7B
330
2
100
AcDbEntity
  8
0
 62
     3
100
AcDbLine
 10
62.71460581419995
 20
123.9626529636999
 30
0.0
 11
68.21459055539998
 21
123.9626529636999
 31
0.0
  0
LINE
  5
7C
330
2
100
AcDbEntity
  8
0
 62
     3
100
AcDbLine
 10
63.81459665899999
 20
121.9626529636999
 30
0.0
 11
64.66460276249998
 21
121.9626529636999
 31
0.0
  0
LINE
  5
7D
330
2
100
AcDbEntity
  8
0
 62
     3
100
AcDbLine
 10
64.11459971069999
 20
121.4626529637
 30
0.0
 11
64.11459971069999
 21
121.9626529636999
 31
0.0
  0
LINE
  5
7E
330
2
100
AcDbEntity
  8
0
 62
     3
100
AcDbLine
 10
62.7645936072
 20
122.9626529636999
 30
0.0
 11
62.7645936072
 21
123.9626529636999
 31
0.0
  0
LINE
  5
7F
330
2
100
AcDbEntity
  8
0
 62
     3
100
AcDbLine
 10
62.7886617142
 20
124.8098019723999
 30
0.0
 11
62.7145376108
 21
123.9625591573999
 31
0.0
  0
LINE
  5
80
330
2
100
AcDbEntity
  8
0
 62
     3
100
AcDbLine
 10
64.66460276249998
 20
121.4626529637
 30
0.0
 11
64.66460276249998
 21
121.9626529636999
 31
0.0
  0
LINE
  5
81
330
2
100
AcDbEntity
  8
0
 62
     3
100
AcDbLine
 10
64.96460581419999
 20
122.4626529636999
 30
0.0
 11
65.96460581419996
 21
122.4626529636999
 31
0.0
  0
LINE
  5
82
330
2
100
AcDbEntity
  8
0
 62
     3
100
AcDbLine
 10
65.96460581419996
 20
122.9626529636999
 30
0.0
 11
65.96460581419996
 21
122.4626529636999
 31
0.0
  0
LINE
  5
83
330
2
100
AcDbEntity
  8
0
 62
     3
100
AcDbLine
 10
64.96460581419999
 20
122.9626529636999
 30
0.0
 11
64.96460581419999
 21
122.4626529636999
 31
0.0
  0
LINE
  5
84
330
2
100
AcDbEntity
  8
0
 62
     3
100
AcDbLine
 10
64.46462433049998
 20
122.9625499028999
 30
0.0
 11
65.46462539209997
 21
123.9625509644999
 31
0.0
  0
LINE
  5
85
330
2
100
AcDbEntity
  8
0
 62
     3
100
AcDbLine
 10
68.31459665899996
 20
121.4626682225
 30
0.0
 11
68.31459665899996
 21
113.9626682225
 31
0.0
  0
LINE
  5
86
330
2
100
AcDbEntity
  8
0
 62
     3
100
AcDbLine
 10
67.1145819724
 20
121.9625659797
 30
0.0
 11
68.43566907699997
 21
121.5222051332
 31
0.0
  0
LINE
  5
87
330
2
100
AcDbEntity
  8
0
 62
     3
100
AcDbLine
 10
67.11458899629997
 20
122.9625644113
 30
0.0
 11
68.43567568579999
 21
122.5222022367999
 31
0.0
  0
LINE
  5
88
330
2
100
AcDbEntity
  8
0
 62
     3
100
AcDbLine
 10
66.81459665900002
 20
121.4626529637
 30
0.0
 11
66.81459665900002
 21
121.9626529636999
 31
0.0
  0
LINE
  5
89
330
2
100
AcDbEntity
  8
0
 62
     3
100
AcDbLine
 10
66.2645936072
 20
121.9626529636999
 30
0.0
 11
67.11459971069999
 21
121.9626529636999
 31
0.0
  0
LINE
  5
8A
330
2
100
AcDbEntity
  8
0
 62
     3
100
AcDbLine
 10
66.2645936072
 20
121.4626529637
 30
0.0
 11
66.2645936072
 21
121.9626529636999
 31
0.0
  0
ARC
  5
8B
330
2
100
AcDbEntity
  8
0
 62
     3
100
AcDbCircle
 10
68.49893808959999
 20
122.7120120946
 30
0.0
 40
0.1999999881
100
AcDbArc
 50
251.5650095670999
 51
338.1982239995
  0
ARC
  5
8C
330
2
100
AcDbEntity
  8
0
 62
     3
100
AcDbCircle
 10
68.49893808959999
 20
121.7120120946
 30
0.0
 40
0.1999999881
100
AcDbArc
 50
251.5649002841
 51
338.1983537731
  0
LINE
  5
8D
330
2
100
AcDbEntity
  8
0
 62
     3
100
AcDbLine
 10
68.61459971069999
 20
121.7126529636999
 30
0.0
 11
68.61459971069999
 21
122.2126529636999
 31
0.0
  0
LINE
  5
8E
330
2
100
AcDbEntity
  8
0
 62
     3
100
AcDbLine
 10
68.68460695159999
 20
121.6376688688
 30
0.0
 11
68.81456842129995
 21
121.9625702277
 31
0.0
  0
LINE
  5
8F
330
2
100
AcDbEntity
  8
0
 62
     3
100
AcDbLine
 10
68.6846321242
 20
122.6376680575999
 30
0.0
 11
68.81459321839997
 21
122.9625695624999
 31
0.0
  0
LINE
  5
90
330
2
100
AcDbEntity
  8
0
 62
     3
100
AcDbLine
 10
68.16460276249998
 20
123.9626529636999
 30
0.0
 11
68.16460276249998
 21
122.9626529636999
 31
0.0
  0
LINE
  5
91
330
2
100
AcDbEntity
  8
0
 62
     3
100
AcDbLine
 10
68.2145359171
 20
123.9625772356
 30
0.0
 11
68.1404104838
 21
124.8098352513
 31
0.0
  0
LINE
  5
92
330
2
100
AcDbEntity
  8
0
 62
     3
100
AcDbLine
 10
62.11458445189999
 20
129.9626682224999
 30
0.0
 11
68.81459665900002
 21
129.9626682224999
 31
0.0
  0
LINE
  5
93
330
2
100
AcDbEntity
  8
0
  6
PHANTOM
 62
     3
100
AcDbLine
 10
60.61458445189998
 20
133.7626682225
 30
0.0
 11
60.61458445189998
 21
128.3626682225
 31
0.0
  0
LINE
  5
94
330
2
100
AcDbEntity
  8
0
 62
     3
100
AcDbLine
 10
60.61458445189998
 20
125.9626682224999
 30
0.0
 11
62.11458445189999
 21
125.9626682224999
 31
0.0
  0
LINE
  5
95
330
2
100
AcDbEntity
  8
0
 62
     3
100
AcDbLine
 10
60.61458445189998
 20
126.4626682225
 30
0.0
 11
62.11458445189999
 21
126.4626682225
 31
0.0
  0
LINE
  5
96
330
2
100
AcDbEntity
  8
0
 62
     3
100
AcDbLine
 10
60.61458445189998
 20
127.4626682224999
 30
0.0
 11
62.11458445189999
 21
127.4626682224999
 31
0.0
  0
LINE
  5
97
330
2
100
AcDbEntity
  8
0
 62
     3
100
AcDbLine
 10
59.11458445189999
 20
130.4626682224999
 30
0.0
 11
62.11458445189999
 21
130.4626682224999
 31
0.0
  0
LINE
  5
98
330
2
100
AcDbEntity
  8
0
 62
     3
100
AcDbLine
 10
60.61458445189998
 20
125.9626682224999
 30
0.0
 11
60.61458445189998
 21
130.4626682224999
 31
0.0
  0
LINE
  5
99
330
2
100
AcDbEntity
  8
0
 62
     3
100
AcDbLine
 10
59.11458445189999
 20
131.9626682225
 30
0.0
 11
62.11458445189999
 21
131.9626682225
 31
0.0
  0
LINE
  5
9A
330
2
100
AcDbEntity
  8
0
 62
     3
100
AcDbLine
 10
66.33064394219999
 20
125.4626025868999
 30
0.0
 11
65.46461855389998
 21
125.9626025868999
 31
0.0
  0
ARC
  5
9B
330
2
100
AcDbEntity
  8
0
 62
     3
100
AcDbCircle
 10
65.46459055539997
 20
118.9626529636999
 30
0.0
 40
7.0
100
AcDbArc
 50
73.742929676
 51
106.2569797102999
  0
ARC
  5
9C
330
2
100
AcDbEntity
  8
0
 62
     3
100
AcDbCircle
 10
80.78491831419999
 20
124.7227390232999
 30
0.0
 40
1.0
100
AcDbArc
 50
106.2569797102999
 51
174.9999923478
  0
LINE
  5
9D
330
2
100
AcDbEntity
  8
0
 62
     3
100
AcDbLine
 10
80.73250590909998
 20
124.9626121815999
 30
0.0
 11
82.46455668559997
 21
125.9626121815999
 31
0.0
  0
LINE
  5
9E
330
2
100
AcDbEntity
  8
0
 62
     3
100
AcDbLine
 10
79.11458445189999
 20
131.9626682225
 30
0.0
 11
79.11458445189999
 21
106.9626682225
 31
0.0
  0
ARC
  5
9F
330
2
100
AcDbEntity
  8
0
 62
     3
100
AcDbCircle
 10
75.64427805539998
 20
124.7227390232999
 30
0.0
 40
1.0
100
AcDbArc
 50
5.000005831000001
 51
73.7429843175
  0
LINE
  5
A0
330
2
100
AcDbEntity
  8
0
 62
     3
100
AcDbLine
 10
72.23250136319999
 20
124.9626094247999
 30
0.0
 11
73.96455213959999
 21
125.9626094247999
 31
0.0
  0
LINE
  5
A1
330
2
100
AcDbEntity
  8
0
 62
     3
100
AcDbLine
 10
77.31459665899999
 20
131.9626682225
 30
0.0
 11
77.31459665899999
 21
121.4626682225
 31
0.0
  0
ARC
  5
A2
330
2
100
AcDbEntity
  8
0
 62
     3
100
AcDbCircle
 10
72.28491831419998
 20
124.7227390232999
 30
0.0
 40
1.0
100
AcDbArc
 50
106.2569797102999
 51
174.9999923478
  0
LINE
  5
A3
330
2
100
AcDbEntity
  8
0
 62
     3
100
AcDbLine
 10
70.61458445189998
 20
131.9626682225
 30
0.0
 11
70.61458445189998
 21
106.9626682225
 31
0.0
  0
ARC
  5
A4
330
2
100
AcDbEntity
  8
0
 62
     3
100
AcDbCircle
 10
76.99893808959996
 20
121.7120120946
 30
0.0
 40
0.1999999881
100
AcDbArc
 50
251.5649002841
 51
338.1983537731
  0
ARC
  5
A5
330
2
100
AcDbEntity
  8
0
 62
     3
100
AcDbCircle
 10
76.99893808959996
 20
122.7120120946
 30
0.0
 40
0.1999999881
100
AcDbArc
 50
251.5650095670999
 51
338.1982239995
  0
LINE
  5
A6
330
2
100
AcDbEntity
  8
0
 62
     3
100
AcDbLine
 10
70.61458445189998
 20
121.4626682225
 30
0.0
 11
77.31459665899999
 21
121.4626682225
 31
0.0
  0
LINE
  5
A7
330
2
100
AcDbEntity
  8
0
 62
     3
100
AcDbLine
 10
70.61459971069999
 20
122.9626529636999
 30
0.0
 11
77.31459665899999
 21
122.9626529636999
 31
0.0
  0
LINE
  5
A8
330
2
100
AcDbEntity
  8
0
 62
     3
100
AcDbLine
 10
72.96462256439998
 20
122.9625499028999
 30
0.0
 11
73.96462362599999
 21
123.9625509644999
 31
0.0
  0
LINE
  5
A9
330
2
100
AcDbEntity
  8
0
 62
     3
100
AcDbLine
 10
73.16460276249998
 20
121.4626529637
 30
0.0
 11
74.76459360719997
 21
121.4626529637
 31
0.0
  0
LINE
  5
AA
330
2
100
AcDbEntity
  8
0
 62
     3
100
AcDbLine
 10
70.61458445189998
 20
120.4626682225
 30
0.0
 11
76.81459665899999
 21
120.4626682225
 31
0.0
  0
LINE
  5
AB
330
2
100
AcDbEntity
  8
0
 62
     3
100
AcDbLine
 10
71.21460581419999
 20
123.9626529636999
 30
0.0
 11
76.71459055539997
 21
123.9626529636999
 31
0.0
  0
LINE
  5
AC
330
2
100
AcDbEntity
  8
0
 62
     3
100
AcDbLine
 10
70.61458445189998
 20
113.9626682225
 30
0.0
 11
76.81459665899999
 21
113.9626682225
 31
0.0
  0
LINE
  5
AD
330
2
100
AcDbEntity
  8
0
 62
     3
100
AcDbLine
 10
70.61458445189998
 20
116.4626682224999
 30
0.0
 11
76.81459665899999
 21
116.4626682224999
 31
0.0
  0
LINE
  5
AE
330
2
100
AcDbEntity
  8
0
 62
     3
100
AcDbLine
 10
70.99345375179999
 20
121.5221704971
 30
0.0
 11
72.31454044129998
 21
121.9625326715999
 31
0.0
  0
LINE
  5
AF
330
2
100
AcDbEntity
  8
0
 62
     3
100
AcDbLine
 10
70.99344896419998
 20
122.5221703706
 30
0.0
 11
72.31453565369998
 21
122.9625325451
 31
0.0
  0
ARC
  5
B0
330
2
100
AcDbEntity
  8
0
 62
     3
100
AcDbCircle
 10
70.93025828009996
 20
121.7120120946
 30
0.0
 40
0.1999999881
100
AcDbArc
 50
201.8016173122999
 51
288.4351903295997
  0
ARC
  5
B1
330
2
100
AcDbEntity
  8
0
 62
     3
100
AcDbCircle
 10
70.93025828009996
 20
122.7120120946
 30
0.0
 40
0.1999999881
100
AcDbArc
 50
201.8017812367999
 51
288.4350810464998
  0
LINE
  5
B2
330
2
100
AcDbEntity
  8
0
 62
     3
100
AcDbLine
 10
70.81459665899998
 20
122.2126529636999
 30
0.0
 11
70.81459665899998
 21
121.7126529636999
 31
0.0
  0
LINE
  5
B3
330
2
100
AcDbEntity
  8
0
 62
     3
100
AcDbLine
 10
70.6145715991
 20
121.9625548168999
 30
0.0
 11
70.74453836029997
 21
121.6376391445999
 31
0.0
  0
LINE
  5
B4
330
2
100
AcDbEntity
  8
0
 62
     3
100
AcDbLine
 10
70.61458162700001
 20
122.9625487035999
 30
0.0
 11
70.74454272119999
 21
122.6376471987
 31
0.0
  0
LINE
  5
B5
330
2
100
AcDbEntity
  8
0
 62
     3
100
AcDbLine
 10
71.2645936072
 20
122.9626529636999
 30
0.0
 11
71.2645936072
 21
123.9626529636999
 31
0.0
  0
LINE
  5
B6
330
2
100
AcDbEntity
  8
0
 62
     3
100
AcDbLine
 10
70.61459971069999
 20
122.9626529636999
 30
0.0
 11
70.61459971069999
 21
121.9626529636999
 31
0.0
  0
LINE
  5
B7
330
2
100
AcDbEntity
  8
0
 62
     3
100
AcDbLine
 10
71.28867268069999
 20
124.8097917661999
 30
0.0
 11
71.21454857739999
 21
123.9625489512
 31
0.0
  0
LINE
  5
B8
330
2
100
AcDbEntity
  8
0
 62
     3
100
AcDbLine
 10
72.61459971069999
 20
121.4626529637
 30
0.0
 11
72.61459971069999
 21
121.9626529636999
 31
0.0
  0
LINE
  5
B9
330
2
100
AcDbEntity
  8
0
 62
     3
100
AcDbLine
 10
73.16460276249998
 20
121.4626529637
 30
0.0
 11
73.16460276249998
 21
121.9626529636999
 31
0.0
  0
LINE
  5
BA
330
2
100
AcDbEntity
  8
0
 62
     3
100
AcDbLine
 10
72.31459665899999
 20
121.9626529636999
 30
0.0
 11
73.16460276249998
 21
121.9626529636999
 31
0.0
  0
LINE
  5
BB
330
2
100
AcDbEntity
  8
0
 62
     3
100
AcDbLine
 10
76.81459665899999
 20
121.4626682225
 30
0.0
 11
76.81459665899999
 21
113.9626682225
 31
0.0
  0
LINE
  5
BC
330
2
100
AcDbEntity
  8
0
 62
     3
100
AcDbLine
 10
74.76459360719997
 20
121.9626529636999
 30
0.0
 11
75.61459971069999
 21
121.9626529636999
 31
0.0
  0
LINE
  5
BD
330
2
100
AcDbEntity
  8
0
 62
     3
100
AcDbLine
 10
74.76459360719997
 20
121.4626529637
 30
0.0
 11
74.76459360719997
 21
121.9626529636999
 31
0.0
  0
LINE
  5
BE
330
2
100
AcDbEntity
  8
0
 62
     3
100
AcDbLine
 10
73.46460581419998
 20
122.4626529636999
 30
0.0
 11
74.46460581419998
 21
122.4626529636999
 31
0.0
  0
LINE
  5
BF
330
2
100
AcDbEntity
  8
0
 62
     3
100
AcDbLine
 10
74.46460581419998
 20
122.9626529636999
 30
0.0
 11
74.46460581419998
 21
122.4626529636999
 31
0.0
  0
LINE
  5
C0
330
2
100
AcDbEntity
  8
0
 62
     3
100
AcDbLine
 10
73.46460581419998
 20
122.9626529636999
 30
0.0
 11
73.46460581419998
 21
122.4626529636999
 31
0.0
  0
LINE
  5
C1
330
2
100
AcDbEntity
  8
0
 62
     3
100
AcDbLine
 10
74.96462468759998
 20
123.9625509644999
 30
0.0
 11
73.96462362599999
 21
122.9625499028999
 31
0.0
  0
LINE
  5
C2
330
2
100
AcDbEntity
  8
0
 62
     3
100
AcDbLine
 10
75.31459665899999
 20
121.4626529637
 30
0.0
 11
75.31459665899999
 21
121.9626529636999
 31
0.0
  0
LINE
  5
C3
330
2
100
AcDbEntity
  8
0
 62
     3
100
AcDbLine
 10
76.66460276249998
 20
123.9626529636999
 30
0.0
 11
76.66460276249998
 21
122.9626529636999
 31
0.0
  0
LINE
  5
C4
330
2
100
AcDbEntity
  8
0
 62
     3
100
AcDbLine
 10
75.61458314929999
 20
121.9625651408999
 30
0.0
 11
76.9356702538
 21
121.5222042945
 31
0.0
  0
LINE
  5
C5
330
2
100
AcDbEntity
  8
0
 62
     3
100
AcDbLine
 10
75.61459515869998
 20
122.962569557
 30
0.0
 11
76.93568184819998
 21
122.5222073824999
 31
0.0
  0
LINE
  5
C6
330
2
100
AcDbEntity
  8
0
 62
     3
100
AcDbLine
 10
76.71454821349994
 20
123.962572241
 30
0.0
 11
76.64042278029999
 21
124.8098302566999
 31
0.0
  0
LINE
  5
C7
330
2
100
AcDbEntity
  8
0
 62
     3
100
AcDbLine
 10
79.49345508879997
 20
121.5221798272
 30
0.0
 11
80.8145417783
 21
121.9625420017
 31
0.0
  0
LINE
  5
C8
330
2
100
AcDbEntity
  8
0
 62
     3
100
AcDbLine
 10
79.49345030129999
 20
122.5221797007
 30
0.0
 11
80.81453699079998
 21
122.9625418752
 31
0.0
  0
LINE
  5
C9
330
2
100
AcDbEntity
  8
0
 62
     3
100
AcDbLine
 10
77.11459971069999
 20
121.7126529636999
 30
0.0
 11
77.11459971069999
 21
122.2126529636999
 31
0.0
  0
LINE
  5
CA
330
2
100
AcDbEntity
  8
0
 62
     3
100
AcDbLine
 10
77.18460891849997
 20
121.6376734843
 30
0.0
 11
77.31457038809998
 21
121.9625748432
 31
0.0
  0
LINE
  5
CB
330
2
100
AcDbEntity
  8
0
 62
     3
100
AcDbLine
 10
77.18462832999998
 20
122.6376682900999
 30
0.0
 11
77.31458942419997
 21
122.9625697949999
 31
0.0
  0
ARC
  5
CC
330
2
100
AcDbEntity
  8
0
 62
     3
100
AcDbCircle
 10
79.43025828009997
 20
121.7120120946
 30
0.0
 40
0.1999999881
100
AcDbArc
 50
201.8016173122999
 51
288.4351903295997
  0
ARC
  5
CD
330
2
100
AcDbEntity
  8
0
 62
     3
100
AcDbCircle
 10
79.43025828009997
 20
122.7120120946
 30
0.0
 40
0.1999999881
100
AcDbArc
 50
201.8017812367999
 51
288.4350810464998
  0
LINE
  5
CE
330
2
100
AcDbEntity
  8
0
 62
     3
100
AcDbLine
 10
79.31459665899999
 20
122.2126529636999
 30
0.0
 11
79.31459665899999
 21
121.7126529636999
 31
0.0
  0
LINE
  5
CF
330
2
100
AcDbEntity
  8
0
 62
     3
100
AcDbLine
 10
79.11458197229999
 20
121.9625602514999
 30
0.0
 11
79.24454873349998
 21
121.6376445791
 31
0.0
  0
LINE
  5
D0
330
2
100
AcDbEntity
  8
0
 62
     3
100
AcDbLine
 10
79.11459200019999
 20
122.9625541380999
 30
0.0
 11
79.24455309439998
 21
122.6376526331999
 31
0.0
  0
LINE
  5
D1
330
2
100
AcDbEntity
  8
0
 62
     3
100
AcDbLine
 10
79.76459360719997
 20
122.9626529636999
 30
0.0
 11
79.76459360719997
 21
123.9626529636999
 31
0.0
  0
LINE
  5
D2
330
2
100
AcDbEntity
  8
0
 62
     3
100
AcDbLine
 10
79.11459971069999
 20
122.9626529636999
 30
0.0
 11
79.11459971069999
 21
121.9626529636999
 31
0.0
  0
LINE
  5
D3
330
2
100
AcDbEntity
  8
0
 62
     3
100
AcDbLine
 10
79.78866977639999
 20
124.8097980905999
 30
0.0
 11
79.71454567309999
 21
123.9625552756
 31
0.0
  0
LINE
  5
D4
330
2
100
AcDbEntity
  8
0
 62
     3
100
AcDbLine
 10
81.96460581419998
 20
122.4626529636999
 30
0.0
 11
82.96460581419998
 21
122.4626529636999
 31
0.0
  0
LINE
  5
D5
330
2
100
AcDbEntity
  8
0
 62
     3
100
AcDbLine
 10
81.46462079830001
 20
122.9625499028999
 30
0.0
 11
82.46462185989996
 21
123.9625509644999
 31
0.0
  0
LINE
  5
D6
330
2
100
AcDbEntity
  8
0
 62
     3
100
AcDbLine
 10
81.66460276249996
 20
121.4626529637
 30
0.0
 11
83.26459360719997
 21
121.4626529637
 31
0.0
  0
LINE
  5
D7
330
2
100
AcDbEntity
  8
0
 62
     3
100
AcDbLine
 10
81.11459971069999
 20
121.4626529637
 30
0.0
 11
81.11459971069999
 21
121.9626529636999
 31
0.0
  0
LINE
  5
D8
330
2
100
AcDbEntity
  8
0
 62
     3
100
AcDbLine
 10
81.66460276249996
 20
121.4626529637
 30
0.0
 11
81.66460276249996
 21
121.9626529636999
 31
0.0
  0
LINE
  5
D9
330
2
100
AcDbEntity
  8
0
 62
     3
100
AcDbLine
 10
81.96460581419998
 20
122.9626529636999
 30
0.0
 11
81.96460581419998
 21
122.4626529636999
 31
0.0
  0
LINE
  5
DA
330
2
100
AcDbEntity
  8
0
 62
     3
100
AcDbLine
 10
80.81459665899998
 20
121.9626529636999
 30
0.0
 11
81.66460276249996
 21
121.9626529636999
 31
0.0
  0
LINE
  5
DB
330
2
100
AcDbEntity
  8
0
 62
     3
100
AcDbLine
 10
83.81459665899999
 20
121.4626529637
 30
0.0
 11
83.81459665899999
 21
121.9626529636999
 31
0.0
  0
LINE
  5
DC
330
2
100
AcDbEntity
  8
0
 62
     3
100
AcDbLine
 10
83.26459360719997
 20
121.4626529637
 30
0.0
 11
83.26459360719997
 21
121.9626529636999
 31
0.0
  0
LINE
  5
DD
330
2
100
AcDbEntity
  8
0
 62
     3
100
AcDbLine
 10
82.96460581419998
 20
122.9626529636999
 30
0.0
 11
82.96460581419998
 21
122.4626529636999
 31
0.0
  0
LINE
  5
DE
330
2
100
AcDbEntity
  8
0
 62
     3
100
AcDbLine
 10
83.46462292149999
 20
123.9625509644999
 30
0.0
 11
82.46462185989996
 21
122.9625499028999
 31
0.0
  0
LINE
  5
DF
330
2
100
AcDbEntity
  8
0
 62
     3
100
AcDbLine
 10
83.26459360719997
 20
121.9626529636999
 30
0.0
 11
84.1145997107
 21
121.9626529636999
 31
0.0
  0
LINE
  5
E0
330
2
100
AcDbEntity
  8
0
 62
     3
100
AcDbLine
 10
70.61458445189998
 20
129.9626682224999
 30
0.0
 11
77.31459665899999
 21
129.9626682224999
 31
0.0
  0
ARC
  5
E1
330
2
100
AcDbEntity
  8
0
 62
     3
100
AcDbCircle
 10
73.96459055539998
 20
118.9626529636999
 30
0.0
 40
7.0
100
AcDbArc
 50
73.742929676
 51
106.2569797102999
  0
LINE
  5
E2
330
2
100
AcDbEntity
  8
0
 62
     3
100
AcDbLine
 10
74.83064848809999
 20
125.4625998302
 30
0.0
 11
73.96462309979998
 21
125.9625998302
 31
0.0
  0
LINE
  5
E3
330
2
100
AcDbEntity
  8
0
 62
     3
100
AcDbLine
 10
77.31459665899999
 20
125.9626682224999
 30
0.0
 11
79.11458445189999
 21
125.9626682224999
 31
0.0
  0
LINE
  5
E4
330
2
100
AcDbEntity
  8
0
 62
     3
100
AcDbLine
 10
77.31459665899999
 20
126.4626682225
 30
0.0
 11
79.11458445189999
 21
126.4626682225
 31
0.0
  0
LINE
  5
E5
330
2
100
AcDbEntity
  8
0
 62
     3
100
AcDbLine
 10
77.31459665899999
 20
127.4626682224999
 30
0.0
 11
79.11458445189999
 21
127.4626682224999
 31
0.0
  0
LINE
  5
E6
330
2
100
AcDbEntity
  8
0
 62
     3
100
AcDbLine
 10
77.31459665899999
 20
130.4626682224999
 30
0.0
 11
79.11458445189999
 21
130.4626682224999
 31
0.0
  0
LINE
  5
E7
330
2
100
AcDbEntity
  8
0
 62
     3
100
AcDbLine
 10
77.31459665899999
 20
131.9626682225
 30
0.0
 11
79.11458445189999
 21
131.9626682225
 31
0.0
  0
LINE
  5
E8
330
2
100
AcDbEntity
  8
0
 62
     3
100
AcDbLine
 10
83.33063981949999
 20
125.4626047029
 30
0.0
 11
82.4646144313
 21
125.9626047028999
 31
0.0
  0
LINE
  5
E9
330
2
100
AcDbEntity
  8
0
 62
     3
100
AcDbLine
 10
70.61458445189998
 20
191.154181284
 30
0.0
 11
68.81459665900002
 21
191.154181284
 31
0.0
  0
LINE
  5
EA
330
2
100
AcDbEntity
  8
0
 62
     3
100
AcDbLine
 10
70.61458445189998
 20
192.654181284
 30
0.0
 11
68.81459665900002
 21
192.654181284
 31
0.0
  0
LINE
  5
EB
330
2
100
AcDbEntity
  8
0
 62
     3
100
AcDbLine
 10
70.61458445189998
 20
183.154181284
 30
0.0
 11
68.81459665900002
 21
183.154181284
 31
0.0
  0
LINE
  5
EC
330
2
100
AcDbEntity
  8
0
 62
     3
100
AcDbLine
 10
70.61458445189998
 20
185.154181284
 30
0.0
 11
68.81459665900002
 21
185.154181284
 31
0.0
  0
LINE
  5
ED
330
2
100
AcDbEntity
  8
0
 62
     3
100
AcDbLine
 10
62.76044321659998
 20
190.1541660252
 30
0.0
 11
62.1266236365
 21
190.1541660252
 31
0.0
  0
LINE
  5
EE
330
2
100
AcDbEntity
  8
0
 62
     3
100
AcDbLine
 10
62.76044321659998
 20
189.1541965428
 30
0.0
 11
62.1266236365
 21
189.1541965428
 31
0.0
  0
ARC
  5
EF
330
2
100
AcDbEntity
  8
0
 62
     3
100
AcDbCircle
 10
62.77797556519996
 20
192.3407962743
 30
0.0
 40
0.5
100
AcDbArc
 50
96.56439486289999
 51
173.4354418958
  0
LINE
  5
F0
330
2
100
AcDbEntity
  8
0
 62
     3
100
AcDbLine
 10
62.11458445189999
 20
193.904181284
 30
0.0
 11
68.81459665900002
 21
193.904181284
 31
0.0
  0
ARC
  5
F1
330
2
100
AcDbEntity
  8
0
 62
     3
100
AcDbCircle
 10
62.77797556519996
 20
186.9675662938
 30
0.0
 40
0.5
100
AcDbArc
 50
186.5645581041999
 51
263.4356051370999
  0
LINE
  5
F2
330
2
100
AcDbEntity
  8
0
 62
     3
100
AcDbLine
 10
68.31459665899996
 20
184.154181284
 30
0.0
 11
62.11458445189999
 21
184.154181284
 31
0.0
  0
LINE
  5
F3
330
2
100
AcDbEntity
  8
0
 62
     3
100
AcDbLine
 10
68.81459665900002
 20
186.154181284
 30
0.0
 11
62.11458445189999
 21
186.154181284
 31
0.0
  0
LINE
  5
F4
330
2
100
AcDbEntity
  8
0
 62
     3
100
AcDbLine
 10
62.12660837769997
 20
191.0541904393
 30
0.0
 11
62.12660837769997
 21
188.2541873876
 31
0.0
  0
LINE
  5
F5
330
2
100
AcDbEntity
  8
0
 62
     3
100
AcDbLine
 10
62.28122449709997
 20
186.9103612584
 30
0.0
 11
62.12658588449997
 21
188.2541540567999
 31
0.0
  0
LINE
  5
F6
330
2
100
AcDbEntity
  8
0
 62
     3
100
AcDbLine
 10
62.28121656989998
 20
192.3979906803
 30
0.0
 11
62.12657795729999
 21
191.0541978818999
 31
0.0
  0
LINE
  5
F7
330
2
100
AcDbEntity
  8
0
 62
     3
100
AcDbLine
 10
68.31459665899996
 20
186.154181284
 30
0.0
 11
68.31459665899996
 21
181.654181284
 31
0.0
  0
LINE
  5
F8
330
2
100
AcDbEntity
  8
0
 62
     3
100
AcDbLine
 10
66.17168428229999
 20
190.3612486131999
 30
0.0
 11
64.75747074419999
 21
188.947035075
 31
0.0
  0
LINE
  5
F9
330
2
100
AcDbEntity
  8
0
 62
     3
100
AcDbLine
 10
66.86459971069999
 20
192.9921634618
 30
0.0
 11
64.06459665900001
 21
192.9921634618
 31
0.0
  0
LINE
  5
FA
330
2
100
AcDbEntity
  8
0
 62
     3
100
AcDbLine
 10
66.87879105139995
 20
188.2399283059
 30
0.0
 11
64.05037476469999
 21
191.0683445927
 31
0.0
  0
LINE
  5
FB
330
2
100
AcDbEntity
  8
0
 62
     3
100
AcDbLine
 10
66.86459971069999
 20
186.3161991062998
 30
0.0
 11
64.06459665900001
 21
186.3161991062998
 31
0.0
  0
CIRCLE
  5
FC
330
2
100
AcDbEntity
  8
0
 62
     3
100
AcDbCircle
 10
65.46459055539997
 20
189.6541812839998
 30
0.0
 40
2.75
  0
LINE
  5
FD
330
2
100
AcDbEntity
  8
0
 62
     3
100
AcDbLine
 10
62.6111223966
 20
187.7696323115999
 30
0.0
 11
63.58011392279997
 21
186.8006402954
 31
0.0
  0
LINE
  5
FE
330
2
100
AcDbEntity
  8
0
 62
     3
100
AcDbLine
 10
64.0646126325
 20
186.31617367
 30
0.0
 11
62.72083499279998
 21
186.4708106187999
 31
0.0
  0
LINE
  5
FF
330
2
100
AcDbEntity
  8
0
 62
     3
100
AcDbLine
 10
65.96457529669999
 20
186.9500034275999
 30
0.0
 11
65.96457529669999
 21
186.3161838475
 31
0.0
  0
LINE
  5
100
330
2
100
AcDbEntity
  8
0
 62
     3
100
AcDbLine
 10
64.96457529669999
 20
186.9500034275999
 30
0.0
 11
64.96457529669999
 21
186.3161838475
 31
0.0
  0
LINE
  5
101
330
2
100
AcDbEntity
  8
0
 62
     3
100
AcDbLine
 10
64.0646133313
 20
192.9921975474
 30
0.0
 11
62.7208356916
 21
192.8375605985999
 31
0.0
  0
LINE
  5
102
330
2
100
AcDbEntity
  8
0
 62
     3
100
AcDbLine
 10
62.61110841749999
 20
191.5387322985999
 30
0.0
 11
63.58009994369999
 21
192.5077243147998
 31
0.0
  0
LINE
  5
103
330
2
100
AcDbEntity
  8
0
 62
     3
100
AcDbLine
 10
65.96457529669999
 20
192.3583286229
 30
0.0
 11
65.96457529669999
 21
192.9921482029998
 31
0.0
  0
LINE
  5
104
330
2
100
AcDbEntity
  8
0
 62
     3
100
AcDbLine
 10
64.96460581419999
 20
192.3583591405
 30
0.0
 11
64.96460581419999
 21
192.9921787205999
 31
0.0
  0
LINE
  5
105
330
2
100
AcDbEntity
  8
0
 62
     3
100
AcDbLine
 10
65.96460581419996
 20
192.9921787205999
 30
0.0
 11
64.96460581419999
 21
192.9921787205999
 31
0.0
  0
LINE
  5
106
330
2
100
AcDbEntity
  8
0
 62
     3
100
AcDbLine
 10
68.80258799199999
 20
191.0541904393
 30
0.0
 11
68.80258799199999
 21
188.2541873876
 31
0.0
  0
LINE
  5
107
330
2
100
AcDbEntity
  8
0
 62
     3
100
AcDbLine
 10
67.34907886719998
 20
186.8006347701
 30
0.0
 11
68.31807039339998
 21
187.7696267862999
 31
0.0
  0
LINE
  5
108
330
2
100
AcDbEntity
  8
0
 62
     3
100
AcDbLine
 10
68.20834808809999
 20
186.470829592
 30
0.0
 11
66.86455528959999
 21
186.3161908987999
 31
0.0
  0
ARC
  5
109
330
2
100
AcDbEntity
  8
0
 62
     3
100
AcDbCircle
 10
68.15122080449999
 20
186.9675662938
 30
0.0
 40
0.5
100
AcDbArc
 50
276.5645401181
 51
353.4355427547
  0
LINE
  5
10A
330
2
100
AcDbEntity
  8
0
 62
     3
100
AcDbLine
 10
68.80258767409998
 20
188.2541484822999
 30
0.0
 11
68.64794906150001
 21
186.9103556839
 31
0.0
  0
LINE
  5
10B
330
2
100
AcDbEntity
  8
0
 62
     3
100
AcDbLine
 10
67.3490874515
 20
192.5077244452999
 30
0.0
 11
68.31807897769997
 21
191.5387324291
 31
0.0
  0
LINE
  5
10C
330
2
100
AcDbEntity
  8
0
 62
     3
100
AcDbLine
 10
68.20834738919995
 20
192.8375416254
 30
0.0
 11
66.8645545908
 21
192.9921803185998
 31
0.0
  0
LINE
  5
10D
330
2
100
AcDbEntity
  8
0
 62
     3
100
AcDbLine
 10
68.80259560129999
 20
191.0542034563999
 30
0.0
 11
68.64795698869997
 21
192.3979962547999
 31
0.0
  0
LINE
  5
10E
330
2
100
AcDbEntity
  8
0
 62
     3
100
AcDbLine
 10
68.16876841189998
 20
190.1541660252
 30
0.0
 11
68.80258799199999
 21
190.1541660252
 31
0.0
  0
LINE
  5
10F
330
2
100
AcDbEntity
  8
0
 62
     3
100
AcDbLine
 10
68.16876841189998
 20
189.1541660252
 30
0.0
 11
68.80258799199999
 21
189.1541660252
 31
0.0
  0
ARC
  5
110
330
2
100
AcDbEntity
  8
0
 62
     3
100
AcDbCircle
 10
68.15122080449999
 20
192.3407962743
 30
0.0
 40
0.5
100
AcDbArc
 50
6.564457245299998
 51
83.43545988189999
  0
LINE
  5
111
330
2
100
AcDbEntity
  8
0
 62
     3
100
AcDbLine
 10
76.66876841189997
 20
190.1541660252
 30
0.0
 11
77.30258799199998
 21
190.1541660252
 31
0.0
  0
LINE
  5
112
330
2
100
AcDbEntity
  8
0
 62
     3
100
AcDbLine
 10
76.66876841189997
 20
189.1541660252
 30
0.0
 11
77.30258799199998
 21
189.1541660252
 31
0.0
  0
ARC
  5
113
330
2
100
AcDbEntity
  8
0
 62
     3
100
AcDbCircle
 10
76.65122080449998
 20
192.3407962743
 30
0.0
 40
0.5
100
AcDbArc
 50
6.564457245299998
 51
83.43545988189999
  0
LINE
  5
114
330
2
100
AcDbEntity
  8
0
 62
     3
100
AcDbLine
 10
70.61458445189998
 20
193.904181284
 30
0.0
 11
77.31459665899999
 21
193.904181284
 31
0.0
  0
ARC
  5
115
330
2
100
AcDbEntity
  8
0
 62
     3
100
AcDbCircle
 10
76.65122080449998
 20
186.9675662938
 30
0.0
 40
0.5
100
AcDbArc
 50
276.5645401181
 51
353.4355427547
  0
LINE
  5
116
330
2
100
AcDbEntity
  8
0
 62
     3
100
AcDbLine
 10
77.31459665899999
 20
186.154181284
 30
0.0
 11
70.61458445189998
 21
186.154181284
 31
0.0
  0
LINE
  5
117
330
2
100
AcDbEntity
  8
0
 62
     3
100
AcDbLine
 10
76.81459665899999
 20
186.154181284
 30
0.0
 11
76.81459665899999
 21
181.654181284
 31
0.0
  0
LINE
  5
118
330
2
100
AcDbEntity
  8
0
 62
     3
100
AcDbLine
 10
74.67167644709997
 20
190.3612425441
 30
0.0
 11
73.25746290889998
 21
188.9470290058999
 31
0.0
  0
LINE
  5
119
330
2
100
AcDbEntity
  8
0
 62
     3
100
AcDbLine
 10
75.36459971069999
 20
192.9921634618
 30
0.0
 11
72.56459665899999
 21
192.9921634618
 31
0.0
  0
LINE
  5
11A
330
2
100
AcDbEntity
  8
0
 62
     3
100
AcDbLine
 10
75.37878321619996
 20
188.2399222367999
 30
0.0
 11
72.55036692939999
 21
191.0683385235
 31
0.0
  0
LINE
  5
11B
330
2
100
AcDbEntity
  8
0
 62
     3
100
AcDbLine
 10
75.36459971069999
 20
186.3161991062998
 30
0.0
 11
72.56459665899999
 21
186.3161991062998
 31
0.0
  0
LINE
  5
11C
330
2
100
AcDbEntity
  8
0
 62
     3
100
AcDbLine
 10
76.81459665899999
 20
184.154181284
 30
0.0
 11
70.61458445189998
 21
184.154181284
 31
0.0
  0
CIRCLE
  5
11D
330
2
100
AcDbEntity
  8
0
 62
     3
100
AcDbCircle
 10
73.96459055539998
 20
189.6541812839998
 30
0.0
 40
2.75
  0
LINE
  5
11E
330
2
100
AcDbEntity
  8
0
 62
     3
100
AcDbLine
 10
70.62660837769993
 20
191.0541904393
 30
0.0
 11
70.62660837769993
 21
188.2541873876
 31
0.0
  0
LINE
  5
11F
330
2
100
AcDbEntity
  8
0
 62
     3
100
AcDbLine
 10
71.1111206306
 20
187.7696301620999
 30
0.0
 11
72.08011215669998
 21
186.8006381458999
 31
0.0
  0
LINE
  5
120
330
2
100
AcDbEntity
  8
0
 62
     3
100
AcDbLine
 10
72.56461450199998
 20
186.3161633528
 30
0.0
 11
71.22082170359997
 21
186.470802046
 31
0.0
  0
ARC
  5
121
330
2
100
AcDbEntity
  8
0
 62
     3
100
AcDbCircle
 10
71.27797556519997
 20
186.9675662938
 30
0.0
 40
0.5
100
AcDbArc
 50
186.5645581041999
 51
263.4356051370999
  0
LINE
  5
122
330
2
100
AcDbEntity
  8
0
 62
     3
100
AcDbLine
 10
70.78122630869998
 20
186.9103710721998
 30
0.0
 11
70.62658769609999
 21
188.2541638706999
 31
0.0
  0
LINE
  5
123
330
2
100
AcDbEntity
  8
0
 62
     3
100
AcDbLine
 10
71.11109855929999
 20
191.5387263558999
 30
0.0
 11
72.08009008539997
 21
192.5077183720999
 31
0.0
  0
LINE
  5
124
330
2
100
AcDbEntity
  8
0
 62
     3
100
AcDbLine
 10
72.56461520080001
 20
192.9922078646
 30
0.0
 11
71.22083756109998
 21
192.8375709158
 31
0.0
  0
LINE
  5
125
330
2
100
AcDbEntity
  8
0
 62
     3
100
AcDbLine
 10
70.7812183815
 20
192.3979808665
 30
0.0
 11
70.62657976889994
 21
191.054188068
 31
0.0
  0
LINE
  5
126
330
2
100
AcDbEntity
  8
0
 62
     3
100
AcDbLine
 10
71.26044321659998
 20
190.1541660252
 30
0.0
 11
70.6266236365
 21
190.1541660252
 31
0.0
  0
LINE
  5
127
330
2
100
AcDbEntity
  8
0
 62
     3
100
AcDbLine
 10
71.26044321659998
 20
189.1541965428
 30
0.0
 11
70.6266236365
 21
189.1541965428
 31
0.0
  0
ARC
  5
128
330
2
100
AcDbEntity
  8
0
 62
     3
100
AcDbCircle
 10
71.27797556519997
 20
192.3407962743
 30
0.0
 40
0.5
100
AcDbArc
 50
96.56439486289999
 51
173.4354418958
  0
LINE
  5
129
330
2
100
AcDbEntity
  8
0
 62
     3
100
AcDbLine
 10
74.46457529669999
 20
186.9500034275999
 30
0.0
 11
74.46457529669999
 21
186.3161838475
 31
0.0
  0
LINE
  5
12A
330
2
100
AcDbEntity
  8
0
 62
     3
100
AcDbLine
 10
73.46457529669999
 20
186.9500034275999
 30
0.0
 11
73.46457529669999
 21
186.3161838475
 31
0.0
  0
LINE
  5
12B
330
2
100
AcDbEntity
  8
0
 62
     3
100
AcDbLine
 10
75.84907979859997
 20
186.8006180378
 30
0.0
 11
76.81807132469998
 21
187.7696100539999
 31
0.0
  0
LINE
  5
12C
330
2
100
AcDbEntity
  8
0
 62
     3
100
AcDbLine
 10
76.70835170199999
 20
186.4708247503999
 30
0.0
 11
75.36455890359997
 21
186.3161860571999
 31
0.0
  0
LINE
  5
12D
330
2
100
AcDbEntity
  8
0
 62
     3
100
AcDbLine
 10
74.46457529669999
 20
192.3583286229
 30
0.0
 11
74.46457529669999
 21
192.9921482029998
 31
0.0
  0
LINE
  5
12E
330
2
100
AcDbEntity
  8
0
 62
     3
100
AcDbLine
 10
73.46460581419998
 20
192.3583591405
 30
0.0
 11
73.46460581419998
 21
192.9921787205999
 31
0.0
  0
LINE
  5
12F
330
2
100
AcDbEntity
  8
0
 62
     3
100
AcDbLine
 10
74.46460581419998
 20
192.9921787205999
 30
0.0
 11
73.46460581419998
 21
192.9921787205999
 31
0.0
  0
LINE
  5
130
330
2
100
AcDbEntity
  8
0
 62
     3
100
AcDbLine
 10
75.8490708498
 20
192.5077074602
 30
0.0
 11
76.81806237589999
 21
191.5387154439
 31
0.0
  0
LINE
  5
131
330
2
100
AcDbEntity
  8
0
 62
     3
100
AcDbLine
 10
76.70835100319999
 20
192.8375464668999
 30
0.0
 11
75.36455820469999
 21
192.9921851601
 31
0.0
  0
LINE
  5
132
330
2
100
AcDbEntity
  8
0
 62
     3
100
AcDbLine
 10
81.06462429819998
 20
192.9922084986
 30
0.0
 11
79.7208314998
 21
192.8375698054
 31
0.0
  0
LINE
  5
133
330
2
100
AcDbEntity
  8
0
 62
     3
100
AcDbLine
 10
81.06460844059999
 20
186.3161644632
 30
0.0
 11
79.72083080089999
 21
186.470801412
 31
0.0
  0
LINE
  5
134
330
2
100
AcDbEntity
  8
0
 62
     3
100
AcDbLine
 10
79.12660837769997
 20
191.0541904393
 30
0.0
 11
79.12660837769997
 21
188.2541873876
 31
0.0
  0
LINE
  5
135
330
2
100
AcDbEntity
  8
0
 62
     3
100
AcDbLine
 10
77.30258799199998
 20
191.0541904393
 30
0.0
 11
77.30258799199998
 21
188.2541873876
 31
0.0
  0
LINE
  5
136
330
2
100
AcDbEntity
  8
0
 62
     3
100
AcDbLine
 10
79.11458445189999
 20
183.154181284
 30
0.0
 11
77.31459665899999
 21
183.154181284
 31
0.0
  0
LINE
  5
137
330
2
100
AcDbEntity
  8
0
 62
     3
100
AcDbLine
 10
79.11458445189999
 20
185.154181284
 30
0.0
 11
77.31459665899999
 21
185.154181284
 31
0.0
  0
LINE
  5
138
330
2
100
AcDbEntity
  8
0
 62
     3
100
AcDbLine
 10
77.3025894857
 20
188.2541386685
 30
0.0
 11
77.1479508731
 21
186.9103458699999
 31
0.0
  0
ARC
  5
139
330
2
100
AcDbEntity
  8
0
 62
     3
100
AcDbCircle
 10
79.77797556519997
 20
186.9675662938
 30
0.0
 40
0.5
100
AcDbArc
 50
186.5645581041999
 51
263.4356051370999
  0
LINE
  5
13A
330
2
100
AcDbEntity
  8
0
 62
     3
100
AcDbLine
 10
79.61110589139997
 20
187.7696142728
 30
0.0
 11
80.58009741759997
 21
186.8006222565
 31
0.0
  0
LINE
  5
13B
330
2
100
AcDbEntity
  8
0
 62
     3
100
AcDbLine
 10
79.28123523229999
 20
186.9103701962998
 30
0.0
 11
79.12659661970002
 21
188.2541629948
 31
0.0
  0
LINE
  5
13C
330
2
100
AcDbEntity
  8
0
 62
     3
100
AcDbLine
 10
79.11458445189999
 20
191.154181284
 30
0.0
 11
77.31459665899999
 21
191.154181284
 31
0.0
  0
LINE
  5
13D
330
2
100
AcDbEntity
  8
0
 62
     3
100
AcDbLine
 10
79.11458445189999
 20
192.654181284
 30
0.0
 11
77.31459665899999
 21
192.654181284
 31
0.0
  0
LINE
  5
13E
330
2
100
AcDbEntity
  8
0
 62
     3
100
AcDbLine
 10
77.30259741289998
 20
191.0542132703
 30
0.0
 11
77.14795880029999
 21
192.3980060687
 31
0.0
  0
LINE
  5
13F
330
2
100
AcDbEntity
  8
0
 62
     3
100
AcDbLine
 10
79.76044321659998
 20
189.1541965428
 30
0.0
 11
79.12662363649997
 21
189.1541965428
 31
0.0
  0
LINE
  5
140
330
2
100
AcDbEntity
  8
0
 62
     3
100
AcDbLine
 10
79.76044321659998
 20
190.1541660252
 30
0.0
 11
79.12662363649997
 21
190.1541660252
 31
0.0
  0
LINE
  5
141
330
2
100
AcDbEntity
  8
0
 62
     3
100
AcDbLine
 10
79.28121214639998
 20
192.3979834867999
 30
0.0
 11
79.12657353379998
 21
191.0541906883
 31
0.0
  0
ARC
  5
142
330
2
100
AcDbEntity
  8
0
 62
     3
100
AcDbCircle
 10
79.77797556519997
 20
192.3407962743
 30
0.0
 40
0.5
100
AcDbArc
 50
96.56439486289999
 51
173.4354418958
  0
LINE
  5
143
330
2
100
AcDbEntity
  8
0
 62
     3
100
AcDbLine
 10
79.6111256298
 20
191.5387220146998
 30
0.0
 11
80.58011715599997
 21
192.5077140309999
 31
0.0
  0
LINE
  5
144
330
2
100
AcDbEntity
  8
0
 62
     3
100
AcDbLine
 10
83.87877791789998
 20
188.2399222367999
 30
0.0
 11
81.05036163119995
 21
191.0683385235
 31
0.0
  0
LINE
  5
145
330
2
100
AcDbEntity
  8
0
 62
     3
100
AcDbLine
 10
83.86459971069999
 20
186.3161991062998
 30
0.0
 11
81.06459665899999
 21
186.3161991062998
 31
0.0
  0
LINE
  5
146
330
2
100
AcDbEntity
  8
0
 62
     3
100
AcDbLine
 10
81.96459055539998
 20
186.9500034275999
 30
0.0
 11
81.96459055539998
 21
186.3161838475
 31
0.0
  0
LINE
  5
147
330
2
100
AcDbEntity
  8
0
 62
     3
100
AcDbLine
 10
82.96459055539996
 20
186.9500034275999
 30
0.0
 11
82.96459055539996
 21
186.3161838475
 31
0.0
  0
LINE
  5
148
330
2
100
AcDbEntity
  8
0
 62
     3
100
AcDbLine
 10
82.96460581419998
 20
192.9921787205999
 30
0.0
 11
81.96460581419998
 21
192.9921787205999
 31
0.0
  0
LINE
  5
149
330
2
100
AcDbEntity
  8
0
 62
     3
100
AcDbLine
 10
83.17167114889997
 20
190.3612425441
 30
0.0
 11
81.75745761069999
 21
188.9470290058999
 31
0.0
  0
LINE
  5
14A
330
2
100
AcDbEntity
  8
0
 62
     3
100
AcDbLine
 10
83.86459971069999
 20
192.9921634618
 30
0.0
 11
81.06459665899999
 21
192.9921634618
 31
0.0
  0
LINE
  5
14B
330
2
100
AcDbEntity
  8
0
 62
     3
100
AcDbLine
 10
81.96460581419998
 20
192.3583591405
 30
0.0
 11
81.96460581419998
 21
192.9921787205999
 31
0.0
  0
LINE
  5
14C
330
2
100
AcDbEntity
  8
0
 62
     3
100
AcDbLine
 10
82.96459055539996
 20
192.3583286229
 30
0.0
 11
82.96459055539996
 21
192.9921482029998
 31
0.0
  0
LINE
  5
14D
330
2
100
AcDbEntity
  8
0
 62
     3
100
AcDbLine
 10
111.3145966589998
 20
125.9626682224999
 30
0.0
 11
114.6145844518999
 21
125.9626682224999
 31
0.0
  0
LINE
  5
14E
330
2
100
AcDbEntity
  8
0
 62
     3
100
AcDbLine
 10
111.3145966589998
 20
126.4626682225
 30
0.0
 11
114.6145844518999
 21
126.4626682225
 31
0.0
  0
LINE
  5
14F
330
2
100
AcDbEntity
  8
0
 62
     3
100
AcDbLine
 10
111.3145966589998
 20
127.4626682224999
 30
0.0
 11
114.6145844518999
 21
127.4626682224999
 31
0.0
  0
LINE
  5
150
330
2
100
AcDbEntity
  8
0
 62
     3
100
AcDbLine
 10
111.3145966589998
 20
130.4626682224999
 30
0.0
 11
116.1145844518999
 21
130.4626682224999
 31
0.0
  0
LINE
  5
151
330
2
100
AcDbEntity
  8
0
 62
     3
100
AcDbLine
 10
111.3145966589998
 20
131.9626682225
 30
0.0
 11
116.1145844518999
 21
131.9626682225
 31
0.0
  0
LINE
  5
152
330
2
100
AcDbEntity
  8
0
 62
     3
100
AcDbLine
 10
124.6145844518999
 20
183.154181284
 30
0.0
 11
111.3145966589998
 21
183.154181284
 31
0.0
  0
LINE
  5
153
330
2
100
AcDbEntity
  8
0
 62
     3
100
AcDbLine
 10
97.7325017865
 20
124.9626100656
 30
0.0
 11
99.46455256290001
 21
125.9626100656
 31
0.0
  0
LINE
  5
154
330
2
100
AcDbEntity
  8
0
 62
     3
100
AcDbLine
 10
98.66460276250002
 20
121.4626529637
 30
0.0
 11
100.2645936071999
 21
121.4626529637
 31
0.0
  0
LINE
  5
155
330
2
100
AcDbEntity
  8
0
 62
     3
100
AcDbLine
 10
98.46461119699998
 20
122.9625438337999
 30
0.0
 11
99.46461225859998
 21
123.9625448953999
 31
0.0
  0
LINE
  5
156
330
2
100
AcDbEntity
  8
0
 62
     3
100
AcDbLine
 10
96.11458445189994
 20
129.9626682224999
 30
0.0
 11
102.8145966589999
 21
129.9626682224999
 31
0.0
  0
LINE
  5
157
330
2
100
AcDbEntity
  8
0
 62
     3
100
AcDbLine
 10
96.71460581420001
 20
123.9626529636999
 30
0.0
 11
102.2145905553999
 21
123.9626529636999
 31
0.0
  0
LINE
  5
158
330
2
100
AcDbEntity
  8
0
 62
     3
100
AcDbLine
 10
96.11459971069999
 20
122.9626529636999
 30
0.0
 11
102.8145966589999
 21
122.9626529636999
 31
0.0
  0
LINE
  5
159
330
2
100
AcDbEntity
  8
0
 62
     3
100
AcDbLine
 10
96.11458445189994
 20
120.4626682225
 30
0.0
 11
102.314596659
 21
120.4626682225
 31
0.0
  0
LINE
  5
15A
330
2
100
AcDbEntity
  8
0
 62
     3
100
AcDbLine
 10
96.11458445189994
 20
121.4626682225
 30
0.0
 11
102.8145966589999
 21
121.4626682225
 31
0.0
  0
ARC
  5
15B
330
2
100
AcDbEntity
  8
0
 62
     3
100
AcDbCircle
 10
99.46459055540001
 20
118.9626529636999
 30
0.0
 40
7.0
100
AcDbArc
 50
73.742929676
 51
106.2569797102999
  0
LINE
  5
15C
330
2
100
AcDbEntity
  8
0
 62
     3
100
AcDbLine
 10
96.11458445189994
 20
113.9626682225
 30
0.0
 11
102.314596659
 21
113.9626682225
 31
0.0
  0
LINE
  5
15D
330
2
100
AcDbEntity
  8
0
 62
     3
100
AcDbLine
 10
96.11458445189994
 20
116.4626682224999
 30
0.0
 11
102.314596659
 21
116.4626682224999
 31
0.0
  0
ARC
  5
15E
330
2
100
AcDbEntity
  8
0
 62
     3
100
AcDbCircle
 10
97.78491831420002
 20
124.7227390232999
 30
0.0
 40
1.0
100
AcDbArc
 50
106.2569797102999
 51
174.9999923478
  0
LINE
  5
15F
330
2
100
AcDbEntity
  8
0
 62
     3
100
AcDbLine
 10
94.31459665899996
 20
131.9626682225
 30
0.0
 11
94.31459665899996
 21
121.4626682225
 31
0.0
  0
LINE
  5
160
330
2
100
AcDbEntity
  8
0
 62
     3
100
AcDbLine
 10
96.11458445189994
 20
131.9626682225
 30
0.0
 11
96.11458445189994
 21
106.9626682225
 31
0.0
  0
ARC
  5
161
330
2
100
AcDbEntity
  8
0
 62
     3
100
AcDbCircle
 10
89.28491831420002
 20
124.7227390232999
 30
0.0
 40
1.0
100
AcDbArc
 50
106.2569797102999
 51
174.9999923478
  0
LINE
  5
162
330
2
100
AcDbEntity
  8
0
 62
     3
100
AcDbLine
 10
89.23250590909999
 20
124.9626121815999
 30
0.0
 11
90.9645566856
 21
125.9626121815999
 31
0.0
  0
ARC
  5
163
330
2
100
AcDbEntity
  8
0
 62
     3
100
AcDbCircle
 10
84.14427805539999
 20
124.7227390232999
 30
0.0
 40
1.0
100
AcDbArc
 50
5.000005831000001
 51
73.7429843175
  0
LINE
  5
164
330
2
100
AcDbEntity
  8
0
 62
     3
100
AcDbLine
 10
85.81459665899998
 20
131.9626682225
 30
0.0
 11
85.81459665899998
 21
121.4626682225
 31
0.0
  0
LINE
  5
165
330
2
100
AcDbEntity
  8
0
 62
     3
100
AcDbLine
 10
87.61458445189999
 20
131.9626682225
 30
0.0
 11
87.61458445189999
 21
106.9626682225
 31
0.0
  0
ARC
  5
166
330
2
100
AcDbEntity
  8
0
 62
     3
100
AcDbCircle
 10
92.6442780554
 20
124.7227390232999
 30
0.0
 40
1.0
100
AcDbArc
 50
5.000005831000001
 51
73.7429843175
  0
LINE
  5
167
330
2
100
AcDbEntity
  8
0
 62
     3
100
AcDbLine
 10
90.16460276250001
 20
121.4626529637
 30
0.0
 11
91.7645936072
 21
121.4626529637
 31
0.0
  0
LINE
  5
168
330
2
100
AcDbEntity
  8
0
 62
     3
100
AcDbLine
 10
91.9646229215
 20
123.9625509644999
 30
0.0
 11
90.96462185989997
 21
122.9625499028999
 31
0.0
  0
LINE
  5
169
330
2
100
AcDbEntity
  8
0
 62
     3
100
AcDbLine
 10
90.46460581420001
 20
122.4626529636999
 30
0.0
 11
91.46460581420001
 21
122.4626529636999
 31
0.0
  0
LINE
  5
16A
330
2
100
AcDbEntity
  8
0
 62
     3
100
AcDbLine
 10
87.61458445189999
 20
113.9626682225
 30
0.0
 11
93.81459665900001
 21
113.9626682225
 31
0.0
  0
LINE
  5
16B
330
2
100
AcDbEntity
  8
0
 62
     3
100
AcDbLine
 10
87.61458445189999
 20
116.4626682224999
 30
0.0
 11
93.81459665900001
 21
116.4626682224999
 31
0.0
  0
LINE
  5
16C
330
2
100
AcDbEntity
  8
0
 62
     3
100
AcDbLine
 10
87.61458445189999
 20
121.4626682225
 30
0.0
 11
94.31459665899996
 21
121.4626682225
 31
0.0
  0
LINE
  5
16D
330
2
100
AcDbEntity
  8
0
 62
     3
100
AcDbLine
 10
87.61459971069996
 20
122.9626529636999
 30
0.0
 11
94.31459665899996
 21
122.9626529636999
 31
0.0
  0
LINE
  5
16E
330
2
100
AcDbEntity
  8
0
 62
     3
100
AcDbLine
 10
88.21460581420002
 20
123.9626529636999
 30
0.0
 11
93.7145905554
 21
123.9626529636999
 31
0.0
  0
ARC
  5
16F
330
2
100
AcDbEntity
  8
0
 62
     3
100
AcDbCircle
 10
87.93025828009996
 20
122.7120120946
 30
0.0
 40
0.1999999881
100
AcDbArc
 50
201.8017812367999
 51
288.4350810464998
  0
ARC
  5
170
330
2
100
AcDbEntity
  8
0
 62
     3
100
AcDbCircle
 10
87.93025828009996
 20
121.7120120946
 30
0.0
 40
0.1999999881
100
AcDbArc
 50
201.8016173122999
 51
288.4351903295997
  0
LINE
  5
171
330
2
100
AcDbEntity
  8
0
 62
     3
100
AcDbLine
 10
85.31459665899999
 20
121.4626682225
 30
0.0
 11
85.31459665899999
 21
113.9626682225
 31
0.0
  0
ARC
  5
172
330
2
100
AcDbEntity
  8
0
 62
     3
100
AcDbCircle
 10
85.49893808959996
 20
121.7120120946
 30
0.0
 40
0.1999999881
100
AcDbArc
 50
251.5649002841
 51
338.1983537731
  0
ARC
  5
173
330
2
100
AcDbEntity
  8
0
 62
     3
100
AcDbCircle
 10
85.49893808959996
 20
122.7120120946
 30
0.0
 40
0.1999999881
100
AcDbArc
 50
251.5650095670999
 51
338.1982239995
  0
LINE
  5
174
330
2
100
AcDbEntity
  8
0
 62
     3
100
AcDbLine
 10
85.61459971069998
 20
121.7126529636999
 30
0.0
 11
85.61459971069998
 21
122.2126529636999
 31
0.0
  0
LINE
  5
175
330
2
100
AcDbEntity
  8
0
 62
     3
100
AcDbLine
 10
85.68461088539999
 20
121.6376780997
 30
0.0
 11
85.814572355
 21
121.9625794585999
 31
0.0
  0
LINE
  5
176
330
2
100
AcDbEntity
  8
0
 62
     3
100
AcDbLine
 10
85.68463870310001
 20
122.6376628554999
 30
0.0
 11
85.81459979729999
 21
122.9625643604
 31
0.0
  0
LINE
  5
177
330
2
100
AcDbEntity
  8
0
 62
     3
100
AcDbLine
 10
85.16460276249999
 20
123.9626529636999
 30
0.0
 11
85.16460276249999
 21
122.9626529636999
 31
0.0
  0
LINE
  5
178
330
2
100
AcDbEntity
  8
0
 62
     3
100
AcDbLine
 10
85.21454530919999
 20
123.9625659165999
 30
0.0
 11
85.14041987599998
 21
124.8098239323
 31
0.0
  0
LINE
  5
179
330
2
100
AcDbEntity
  8
0
 62
     3
100
AcDbLine
 10
87.81459665899996
 20
122.2126529636999
 30
0.0
 11
87.81459665899996
 21
121.7126529636999
 31
0.0
  0
LINE
  5
17A
330
2
100
AcDbEntity
  8
0
 62
     3
100
AcDbLine
 10
87.61459200019997
 20
122.9625541380999
 30
0.0
 11
87.74455309439998
 21
122.6376526331999
 31
0.0
  0
LINE
  5
17B
330
2
100
AcDbEntity
  8
0
 62
     3
100
AcDbLine
 10
87.61458197229996
 20
121.9625602514999
 30
0.0
 11
87.74454873349998
 21
121.6376445791
 31
0.0
  0
LINE
  5
17C
330
2
100
AcDbEntity
  8
0
 62
     3
100
AcDbLine
 10
89.31459665899996
 20
121.9626529636999
 30
0.0
 11
90.16460276250001
 21
121.9626529636999
 31
0.0
  0
LINE
  5
17D
330
2
100
AcDbEntity
  8
0
 62
     3
100
AcDbLine
 10
89.61459971069997
 20
121.4626529637
 30
0.0
 11
89.61459971069997
 21
121.9626529636999
 31
0.0
  0
LINE
  5
17E
330
2
100
AcDbEntity
  8
0
 62
     3
100
AcDbLine
 10
88.26459360719999
 20
122.9626529636999
 30
0.0
 11
88.26459360719999
 21
123.9626529636999
 31
0.0
  0
LINE
  5
17F
330
2
100
AcDbEntity
  8
0
 62
     3
100
AcDbLine
 10
87.99345030129998
 20
122.5221797007
 30
0.0
 11
89.31453699079998
 21
122.9625418752
 31
0.0
  0
LINE
  5
180
330
2
100
AcDbEntity
  8
0
 62
     3
100
AcDbLine
 10
87.99345508879998
 20
121.5221798272
 30
0.0
 11
89.3145417783
 21
121.9625420017
 31
0.0
  0
LINE
  5
181
330
2
100
AcDbEntity
  8
0
 62
     3
100
AcDbLine
 10
88.28866977640002
 20
124.8097980905999
 30
0.0
 11
88.21454567309997
 21
123.9625552756
 31
0.0
  0
LINE
  5
182
330
2
100
AcDbEntity
  8
0
 62
     3
100
AcDbLine
 10
89.96462079829996
 20
122.9625499028999
 30
0.0
 11
90.96462185989997
 21
123.9625509644999
 31
0.0
  0
LINE
  5
183
330
2
100
AcDbEntity
  8
0
 62
     3
100
AcDbLine
 10
90.46460581420001
 20
122.9626529636999
 30
0.0
 11
90.46460581420001
 21
122.4626529636999
 31
0.0
  0
LINE
  5
184
330
2
100
AcDbEntity
  8
0
 62
     3
100
AcDbLine
 10
90.16460276250001
 20
121.4626529637
 30
0.0
 11
90.16460276250001
 21
121.9626529636999
 31
0.0
  0
LINE
  5
185
330
2
100
AcDbEntity
  8
0
 62
     3
100
AcDbLine
 10
93.81459665900001
 20
121.4626682225
 30
0.0
 11
93.81459665900001
 21
113.9626682225
 31
0.0
  0
LINE
  5
186
330
2
100
AcDbEntity
  8
0
 62
     3
100
AcDbLine
 10
92.61458684519999
 20
122.9625795279
 30
0.0
 11
93.93568801049998
 21
122.5222125281
 31
0.0
  0
LINE
  5
187
330
2
100
AcDbEntity
  8
0
 62
     3
100
AcDbLine
 10
92.61458432620001
 20
121.9625643022
 30
0.0
 11
93.93567143069999
 21
121.5222034556999
 31
0.0
  0
LINE
  5
188
330
2
100
AcDbEntity
  8
0
 62
     3
100
AcDbLine
 10
91.46460581420001
 20
122.9626529636999
 30
0.0
 11
91.46460581420001
 21
122.4626529636999
 31
0.0
  0
LINE
  5
189
330
2
100
AcDbEntity
  8
0
 62
     3
100
AcDbLine
 10
91.7645936072
 20
121.4626529637
 30
0.0
 11
91.7645936072
 21
121.9626529636999
 31
0.0
  0
LINE
  5
18A
330
2
100
AcDbEntity
  8
0
 62
     3
100
AcDbLine
 10
91.7645936072
 20
121.9626529636999
 30
0.0
 11
92.61459971069999
 21
121.9626529636999
 31
0.0
  0
LINE
  5
18B
330
2
100
AcDbEntity
  8
0
 62
     3
100
AcDbLine
 10
92.31459665900002
 20
121.4626529637
 30
0.0
 11
92.31459665900002
 21
121.9626529636999
 31
0.0
  0
LINE
  5
18C
330
2
100
AcDbEntity
  8
0
 62
     3
100
AcDbLine
 10
94.18460718519998
 20
121.6376685478
 30
0.0
 11
94.31456865479999
 21
121.9625699067
 31
0.0
  0
LINE
  5
18D
330
2
100
AcDbEntity
  8
0
 62
     3
100
AcDbLine
 10
94.18463490889999
 20
122.6376630879999
 30
0.0
 11
94.31459600310001
 21
122.9625645928999
 31
0.0
  0
LINE
  5
18E
330
2
100
AcDbEntity
  8
0
 62
     3
100
AcDbLine
 10
93.6646027625
 20
123.9626529636999
 30
0.0
 11
93.6646027625
 21
122.9626529636999
 31
0.0
  0
ARC
  5
18F
330
2
100
AcDbEntity
  8
0
 62
     3
100
AcDbCircle
 10
93.99893808959999
 20
121.7120120946
 30
0.0
 40
0.1999999881
100
AcDbArc
 50
251.5649002841
 51
338.1983537731
  0
ARC
  5
190
330
2
100
AcDbEntity
  8
0
 62
     3
100
AcDbCircle
 10
93.99893808959999
 20
122.7120120946
 30
0.0
 40
0.1999999881
100
AcDbArc
 50
251.5650095670999
 51
338.1982239995
  0
LINE
  5
191
330
2
100
AcDbEntity
  8
0
 62
     3
100
AcDbLine
 10
94.1145997107
 20
121.7126529636999
 30
0.0
 11
94.1145997107
 21
122.2126529636999
 31
0.0
  0
LINE
  5
192
330
2
100
AcDbEntity
  8
0
 62
     3
100
AcDbLine
 10
93.71454530919999
 20
123.9625659165999
 30
0.0
 11
93.64041987599998
 21
124.8098239323
 31
0.0
  0
LINE
  5
193
330
2
100
AcDbEntity
  8
0
 62
     3
100
AcDbLine
 10
96.49346258820001
 20
121.5221840115999
 30
0.0
 11
97.81454927779998
 21
121.9625461861
 31
0.0
  0
LINE
  5
194
330
2
100
AcDbEntity
  8
0
 62
     3
100
AcDbLine
 10
96.49345780070001
 20
122.5221838851
 30
0.0
 11
97.81454449020001
 21
122.9625460595999
 31
0.0
  0
LINE
  5
195
330
2
100
AcDbEntity
  8
0
 62
     3
100
AcDbLine
 10
96.7645936072
 20
122.9626529636999
 30
0.0
 11
96.7645936072
 21
123.9626529636999
 31
0.0
  0
LINE
  5
196
330
2
100
AcDbEntity
  8
0
 62
     3
100
AcDbLine
 10
96.31459665900003
 20
122.2126529636999
 30
0.0
 11
96.31459665900003
 21
121.7126529636999
 31
0.0
  0
LINE
  5
197
330
2
100
AcDbEntity
  8
0
 62
     3
100
AcDbLine
 10
96.1145743838
 20
121.9625597865999
 30
0.0
 11
96.244541145
 21
121.6376441143
 31
0.0
  0
LINE
  5
198
330
2
100
AcDbEntity
  8
0
 62
     3
100
AcDbLine
 10
96.11458441169999
 20
122.9625536731999
 30
0.0
 11
96.24454550589996
 21
122.6376521682999
 31
0.0
  0
LINE
  5
199
330
2
100
AcDbEntity
  8
0
 62
     3
100
AcDbLine
 10
96.11459971069999
 20
122.9626529636999
 30
0.0
 11
96.11459971069999
 21
121.9626529636999
 31
0.0
  0
ARC
  5
19A
330
2
100
AcDbEntity
  8
0
 62
     3
100
AcDbCircle
 10
96.43025828009996
 20
121.7120120946
 30
0.0
 40
0.1999999881
100
AcDbArc
 50
201.8016173122999
 51
288.4351903295997
  0
ARC
  5
19B
330
2
100
AcDbEntity
  8
0
 62
     3
100
AcDbCircle
 10
96.43025828009996
 20
122.7120120946
 30
0.0
 40
0.1999999881
100
AcDbArc
 50
201.8017812367999
 51
288.4350810464998
  0
LINE
  5
19C
330
2
100
AcDbEntity
  8
0
 62
     3
100
AcDbLine
 10
96.78866263800001
 20
124.8097955388
 30
0.0
 11
96.7145385346
 21
123.9625527238
 31
0.0
  0
LINE
  5
19D
330
2
100
AcDbEntity
  8
0
 62
     3
100
AcDbLine
 10
98.66460276250002
 20
121.4626529637
 30
0.0
 11
98.66460276250002
 21
121.9626529636999
 31
0.0
  0
LINE
  5
19E
330
2
100
AcDbEntity
  8
0
 62
     3
100
AcDbLine
 10
98.1145997107
 20
121.4626529637
 30
0.0
 11
98.1145997107
 21
121.9626529636999
 31
0.0
  0
LINE
  5
19F
330
2
100
AcDbEntity
  8
0
 62
     3
100
AcDbLine
 10
97.81459665900001
 20
121.9626529636999
 30
0.0
 11
98.66460276250002
 21
121.9626529636999
 31
0.0
  0
LINE
  5
1A0
330
2
100
AcDbEntity
  8
0
 62
     3
100
AcDbLine
 10
91.83063981949993
 20
125.4626047029
 30
0.0
 11
90.96461443129999
 21
125.9626047028999
 31
0.0
  0
ARC
  5
1A1
330
2
100
AcDbEntity
  8
0
 62
     3
100
AcDbCircle
 10
90.9645905554
 20
118.9626529636999
 30
0.0
 40
7.0
100
AcDbArc
 50
73.742929676
 51
106.2569797102999
  0
LINE
  5
1A2
330
2
100
AcDbEntity
  8
0
 62
     3
100
AcDbLine
 10
87.61458445189999
 20
129.9626682224999
 30
0.0
 11
94.31459665899996
 21
129.9626682224999
 31
0.0
  0
LINE
  5
1A3
330
2
100
AcDbEntity
  8
0
 62
     3
100
AcDbLine
 10
85.81459665899998
 20
125.9626682224999
 30
0.0
 11
87.61458445189999
 21
125.9626682224999
 31
0.0
  0
LINE
  5
1A4
330
2
100
AcDbEntity
  8
0
 62
     3
100
AcDbLine
 10
85.81459665899998
 20
126.4626682225
 30
0.0
 11
87.61458445189999
 21
126.4626682225
 31
0.0
  0
LINE
  5
1A5
330
2
100
AcDbEntity
  8
0
 62
     3
100
AcDbLine
 10
85.81459665899998
 20
127.4626682224999
 30
0.0
 11
87.61458445189999
 21
127.4626682224999
 31
0.0
  0
LINE
  5
1A6
330
2
100
AcDbEntity
  8
0
 62
     3
100
AcDbLine
 10
85.81459665899998
 20
130.4626682224999
 30
0.0
 11
87.61458445189999
 21
130.4626682224999
 31
0.0
  0
LINE
  5
1A7
330
2
100
AcDbEntity
  8
0
 62
     3
100
AcDbLine
 10
85.81459665899998
 20
131.9626682225
 30
0.0
 11
87.61458445189999
 21
131.9626682225
 31
0.0
  0
LINE
  5
1A8
330
2
100
AcDbEntity
  8
0
 62
     3
100
AcDbLine
 10
94.31459665899996
 20
131.9626682225
 30
0.0
 11
96.11458445189994
 21
131.9626682225
 31
0.0
  0
LINE
  5
1A9
330
2
100
AcDbEntity
  8
0
 62
     3
100
AcDbLine
 10
94.31459665899996
 20
125.9626682224999
 30
0.0
 11
96.11458445189994
 21
125.9626682224999
 31
0.0
  0
LINE
  5
1AA
330
2
100
AcDbEntity
  8
0
 62
     3
100
AcDbLine
 10
94.31459665899996
 20
126.4626682225
 30
0.0
 11
96.11458445189994
 21
126.4626682225
 31
0.0
  0
LINE
  5
1AB
330
2
100
AcDbEntity
  8
0
 62
     3
100
AcDbLine
 10
94.31459665899996
 20
127.4626682224999
 30
0.0
 11
96.11458445189994
 21
127.4626682224999
 31
0.0
  0
LINE
  5
1AC
330
2
100
AcDbEntity
  8
0
 62
     3
100
AcDbLine
 10
94.31459665899996
 20
130.4626682224999
 30
0.0
 11
96.11458445189994
 21
130.4626682224999
 31
0.0
  0
ARC
  5
1AD
330
2
100
AcDbEntity
  8
0
 62
     3
100
AcDbCircle
 10
109.6442780553999
 20
124.7227390232999
 30
0.0
 40
1.0
100
AcDbArc
 50
5.000005831000001
 51
73.7429843175
  0
LINE
  5
1AE
330
2
100
AcDbEntity
  8
0
 62
     3
100
AcDbLine
 10
111.3145966589998
 20
131.9626682225
 30
0.0
 11
111.3145966589998
 21
121.4626682225
 31
0.0
  0
LINE
  5
1AF
330
2
100
AcDbEntity
  8
0
 62
     3
100
AcDbLine
 10
113.1145844518999
 20
131.9626682225
 30
0.0
 11
113.1145844518999
 21
106.9626682225
 31
0.0
  0
ARC
  5
1B0
330
2
100
AcDbEntity
  8
0
 62
     3
100
AcDbCircle
 10
106.2849183141999
 20
124.7227390232999
 30
0.0
 40
1.0
100
AcDbArc
 50
106.2569797102999
 51
174.9999923478
  0
ARC
  5
1B1
330
2
100
AcDbEntity
  8
0
 62
     3
100
AcDbCircle
 10
101.1442780553999
 20
124.7227390232999
 30
0.0
 40
1.0
100
AcDbArc
 50
5.000005831000001
 51
73.7429843175
  0
LINE
  5
1B2
330
2
100
AcDbEntity
  8
0
 62
     3
100
AcDbLine
 10
102.8145966589999
 20
131.9626682225
 30
0.0
 11
102.8145966589999
 21
121.4626682225
 31
0.0
  0
LINE
  5
1B3
330
2
100
AcDbEntity
  8
0
 62
     3
100
AcDbLine
 10
104.6145844518999
 20
131.9626682225
 30
0.0
 11
104.6145844518999
 21
106.9626682225
 31
0.0
  0
LINE
  5
1B4
330
2
100
AcDbEntity
  8
0
 62
     3
100
AcDbLine
 10
106.2325063324
 20
124.9626128223
 30
0.0
 11
107.9645571088998
 21
125.9626128223
 31
0.0
  0
LINE
  5
1B5
330
2
100
AcDbEntity
  8
0
 62
     3
100
AcDbLine
 10
104.9934542747998
 20
121.5221740407
 30
0.0
 11
106.3145409642999
 21
121.9625362152
 31
0.0
  0
LINE
  5
1B6
330
2
100
AcDbEntity
  8
0
 62
     3
100
AcDbLine
 10
104.9934494871998
 20
122.5221739141999
 30
0.0
 11
106.3145361767999
 21
122.9625360887
 31
0.0
  0
LINE
  5
1B7
330
2
100
AcDbEntity
  8
0
 62
     3
100
AcDbLine
 10
105.2146058141999
 20
123.9626529636999
 30
0.0
 11
110.7145905553999
 21
123.9626529636999
 31
0.0
  0
LINE
  5
1B8
330
2
100
AcDbEntity
  8
0
 62
     3
100
AcDbLine
 10
104.6145997106999
 20
122.9626529636999
 30
0.0
 11
111.3145966589998
 21
122.9626529636999
 31
0.0
  0
LINE
  5
1B9
330
2
100
AcDbEntity
  8
0
 62
     3
100
AcDbLine
 10
104.6145844518999
 20
113.9626682225
 30
0.0
 11
110.8145966589999
 21
113.9626682225
 31
0.0
  0
LINE
  5
1BA
330
2
100
AcDbEntity
  8
0
 62
     3
100
AcDbLine
 10
104.6145844518999
 20
116.4626682224999
 30
0.0
 11
110.8145966589999
 21
116.4626682224999
 31
0.0
  0
LINE
  5
1BB
330
2
100
AcDbEntity
  8
0
 62
     3
100
AcDbLine
 10
104.6145844518999
 20
120.4626682225
 30
0.0
 11
110.8145966589999
 21
120.4626682225
 31
0.0
  0
LINE
  5
1BC
330
2
100
AcDbEntity
  8
0
 62
     3
100
AcDbLine
 10
104.6145844518999
 20
121.4626682225
 30
0.0
 11
111.3145966589998
 21
121.4626682225
 31
0.0
  0
LINE
  5
1BD
330
2
100
AcDbEntity
  8
0
 62
     3
100
AcDbLine
 10
101.1145866798997
 20
121.9625626245999
 30
0.0
 11
102.4356737844998
 21
121.5222017782
 31
0.0
  0
LINE
  5
1BE
330
2
100
AcDbEntity
  8
0
 62
     3
100
AcDbLine
 10
101.1145943445999
 20
122.9625753435
 30
0.0
 11
102.4356810340999
 21
122.522213169
 31
0.0
  0
LINE
  5
1BF
330
2
100
AcDbEntity
  8
0
 62
     3
100
AcDbLine
 10
100.2645936071999
 20
121.9626529636999
 30
0.0
 11
101.1145997107
 21
121.9626529636999
 31
0.0
  0
LINE
  5
1C0
330
2
100
AcDbEntity
  8
0
 62
     3
100
AcDbLine
 10
100.2645936071999
 20
121.4626529637
 30
0.0
 11
100.2645936071999
 21
121.9626529636999
 31
0.0
  0
LINE
  5
1C1
330
2
100
AcDbEntity
  8
0
 62
     3
100
AcDbLine
 10
98.96460581420001
 20
122.4626529636999
 30
0.0
 11
99.96460581420002
 21
122.4626529636999
 31
0.0
  0
LINE
  5
1C2
330
2
100
AcDbEntity
  8
0
 62
     3
100
AcDbLine
 10
99.96460581420002
 20
122.9626529636999
 30
0.0
 11
99.96460581420002
 21
122.4626529636999
 31
0.0
  0
LINE
  5
1C3
330
2
100
AcDbEntity
  8
0
 62
     3
100
AcDbLine
 10
98.96460581420001
 20
122.9626529636999
 30
0.0
 11
98.96460581420001
 21
122.4626529636999
 31
0.0
  0
LINE
  5
1C4
330
2
100
AcDbEntity
  8
0
 62
     3
100
AcDbLine
 10
100.4646133201999
 20
123.9625448953999
 30
0.0
 11
99.46461225859998
 21
122.9625438337999
 31
0.0
  0
LINE
  5
1C5
330
2
100
AcDbEntity
  8
0
 62
     3
100
AcDbLine
 10
102.1646027624999
 20
123.9626529636999
 30
0.0
 11
102.1646027624999
 21
122.9626529636999
 31
0.0
  0
LINE
  5
1C6
330
2
100
AcDbEntity
  8
0
 62
     3
100
AcDbLine
 10
100.8145966589997
 20
121.4626529637
 30
0.0
 11
100.8145966589997
 21
121.9626529636999
 31
0.0
  0
LINE
  5
1C7
330
2
100
AcDbEntity
  8
0
 62
     3
100
AcDbLine
 10
102.2145381706998
 20
123.9625684684
 30
0.0
 11
102.1404127374997
 21
124.8098264840999
 31
0.0
  0
LINE
  5
1C8
330
2
100
AcDbEntity
  8
0
 62
     3
100
AcDbLine
 10
102.314596659
 20
121.4626682225
 30
0.0
 11
102.314596659
 21
113.9626682225
 31
0.0
  0
LINE
  5
1C9
330
2
100
AcDbEntity
  8
0
 62
     3
100
AcDbLine
 10
102.6145997106999
 20
121.7126529636999
 30
0.0
 11
102.6145997106999
 21
122.2126529636999
 31
0.0
  0
LINE
  5
1CA
330
2
100
AcDbEntity
  8
0
 62
     3
100
AcDbLine
 10
102.6846091520999
 20
121.6376731632999
 30
0.0
 11
102.8145706217
 21
121.9625745222
 31
0.0
  0
LINE
  5
1CB
330
2
100
AcDbEntity
  8
0
 62
     3
100
AcDbLine
 10
102.6846311146998
 20
122.6376633203999
 30
0.0
 11
102.8145922088999
 21
122.9625648252999
 31
0.0
  0
ARC
  5
1CC
330
2
100
AcDbEntity
  8
0
 62
     3
100
AcDbCircle
 10
102.4989380896
 20
121.7120120946
 30
0.0
 40
0.1999999881
100
AcDbArc
 50
251.5649002841
 51
338.1983537731
  0
ARC
  5
1CD
330
2
100
AcDbEntity
  8
0
 62
     3
100
AcDbCircle
 10
102.4989380896
 20
122.7120120946
 30
0.0
 40
0.1999999881
100
AcDbArc
 50
251.5650095670999
 51
338.1982239995
  0
LINE
  5
1CE
330
2
100
AcDbEntity
  8
0
 62
     3
100
AcDbLine
 10
104.8145966589999
 20
122.2126529636999
 30
0.0
 11
104.8145966589999
 21
121.7126529636999
 31
0.0
  0
LINE
  5
1CF
330
2
100
AcDbEntity
  8
0
 62
     3
100
AcDbLine
 10
104.6145705895999
 20
121.9625595540999
 30
0.0
 11
104.7445373506998
 21
121.6376438818
 31
0.0
  0
LINE
  5
1D0
330
2
100
AcDbEntity
  8
0
 62
     3
100
AcDbLine
 10
104.6145806174999
 20
122.9625534407999
 30
0.0
 11
104.7445417116999
 21
122.6376519358999
 31
0.0
  0
LINE
  5
1D1
330
2
100
AcDbEntity
  8
0
 62
     3
100
AcDbLine
 10
105.2645936071999
 20
122.9626529636999
 30
0.0
 11
105.2645936071999
 21
123.9626529636999
 31
0.0
  0
LINE
  5
1D2
330
2
100
AcDbEntity
  8
0
 62
     3
100
AcDbLine
 10
104.6145997106999
 20
122.9626529636999
 30
0.0
 11
104.6145997106999
 21
121.9626529636999
 31
0.0
  0
ARC
  5
1D3
330
2
100
AcDbEntity
  8
0
 62
     3
100
AcDbCircle
 10
104.9302582800997
 20
121.7120120946
 30
0.0
 40
0.1999999881
100
AcDbArc
 50
201.8016173122999
 51
288.4351903295997
  0
ARC
  5
1D4
330
2
100
AcDbEntity
  8
0
 62
     3
100
AcDbCircle
 10
104.9302582800997
 20
122.7120120946
 30
0.0
 40
0.1999999881
100
AcDbArc
 50
201.8017812367999
 51
288.4350810464998
  0
LINE
  5
1D5
330
2
100
AcDbEntity
  8
0
 62
     3
100
AcDbLine
 10
105.2886749343999
 20
124.8098005333
 30
0.0
 11
105.2145508310999
 21
123.9625577183
 31
0.0
  0
LINE
  5
1D6
330
2
100
AcDbEntity
  8
0
 62
     3
100
AcDbLine
 10
108.7645936071998
 20
121.9626529636999
 30
0.0
 11
109.6145997107
 21
121.9626529636999
 31
0.0
  0
LINE
  5
1D7
330
2
100
AcDbEntity
  8
0
 62
     3
100
AcDbLine
 10
107.4646058142
 20
122.4626529636999
 30
0.0
 11
108.4646058142
 21
122.4626529636999
 31
0.0
  0
LINE
  5
1D8
330
2
100
AcDbEntity
  8
0
 62
     3
100
AcDbLine
 10
106.9646094308999
 20
122.9625438337999
 30
0.0
 11
107.9646104924999
 21
123.9625448953999
 31
0.0
  0
LINE
  5
1D9
330
2
100
AcDbEntity
  8
0
 62
     3
100
AcDbLine
 10
107.1646027624999
 20
121.4626529637
 30
0.0
 11
108.7645936071998
 21
121.4626529637
 31
0.0
  0
LINE
  5
1DA
330
2
100
AcDbEntity
  8
0
 62
     3
100
AcDbLine
 10
106.6145997106999
 20
121.4626529637
 30
0.0
 11
106.6145997106999
 21
121.9626529636999
 31
0.0
  0
LINE
  5
1DB
330
2
100
AcDbEntity
  8
0
 62
     3
100
AcDbLine
 10
107.1646027624999
 20
121.4626529637
 30
0.0
 11
107.1646027624999
 21
121.9626529636999
 31
0.0
  0
LINE
  5
1DC
330
2
100
AcDbEntity
  8
0
 62
     3
100
AcDbLine
 10
107.4646058142
 20
122.9626529636999
 30
0.0
 11
107.4646058142
 21
122.4626529636999
 31
0.0
  0
LINE
  5
1DD
330
2
100
AcDbEntity
  8
0
 62
     3
100
AcDbLine
 10
106.3145966589999
 20
121.9626529636999
 30
0.0
 11
107.1646027624999
 21
121.9626529636999
 31
0.0
  0
LINE
  5
1DE
330
2
100
AcDbEntity
  8
0
 62
     3
100
AcDbLine
 10
109.3145966589998
 20
121.4626529637
 30
0.0
 11
109.3145966589998
 21
121.9626529636999
 31
0.0
  0
LINE
  5
1DF
330
2
100
AcDbEntity
  8
0
 62
     3
100
AcDbLine
 10
108.7645936071998
 20
121.4626529637
 30
0.0
 11
108.7645936071998
 21
121.9626529636999
 31
0.0
  0
LINE
  5
1E0
330
2
100
AcDbEntity
  8
0
 62
     3
100
AcDbLine
 10
108.4646058142
 20
122.9626529636999
 30
0.0
 11
108.4646058142
 21
122.4626529636999
 31
0.0
  0
LINE
  5
1E1
330
2
100
AcDbEntity
  8
0
 62
     3
100
AcDbLine
 10
108.9646115540999
 20
123.9625448953999
 30
0.0
 11
107.9646104924999
 21
122.9625438337999
 31
0.0
  0
LINE
  5
1E2
330
2
100
AcDbEntity
  8
0
 62
     3
100
AcDbLine
 10
110.8145966589999
 20
121.4626682225
 30
0.0
 11
110.8145966589999
 21
113.9626682225
 31
0.0
  0
LINE
  5
1E3
330
2
100
AcDbEntity
  8
0
 62
     3
100
AcDbLine
 10
109.6145926819999
 20
121.9625762615999
 30
0.0
 11
110.9356797865999
 21
121.5222154152
 31
0.0
  0
LINE
  5
1E4
330
2
100
AcDbEntity
  8
0
 62
     3
100
AcDbLine
 10
111.1145997106999
 20
121.7126529636999
 30
0.0
 11
111.1145997106999
 21
122.2126529636999
 31
0.0
  0
LINE
  5
1E5
330
2
100
AcDbEntity
  8
0
 62
     3
100
AcDbLine
 10
109.6145956816999
 20
122.9625660134
 30
0.0
 11
110.9356823711999
 21
122.5222038389
 31
0.0
  0
LINE
  5
1E6
330
2
100
AcDbEntity
  8
0
 62
     3
100
AcDbLine
 10
110.6646027625
 20
123.9626529636999
 30
0.0
 11
110.6646027625
 21
122.9626529636999
 31
0.0
  0
ARC
  5
1E7
330
2
100
AcDbEntity
  8
0
 62
     3
100
AcDbCircle
 10
110.9989380895999
 20
121.7120120946
 30
0.0
 40
0.1999999881
100
AcDbArc
 50
251.5649002841
 51
338.1983537731
  0
ARC
  5
1E8
330
2
100
AcDbEntity
  8
0
 62
     3
100
AcDbCircle
 10
110.9989380895999
 20
122.7120120946
 30
0.0
 40
0.1999999881
100
AcDbArc
 50
251.5650095670999
 51
338.1982239995
  0
LINE
  5
1E9
330
2
100
AcDbEntity
  8
0
 62
     3
100
AcDbLine
 10
110.7145491372999
 20
123.9625786745999
 30
0.0
 11
110.6404237040997
 21
124.8098366903
 31
0.0
  0
LINE
  5
1EA
330
2
100
AcDbEntity
  8
0
 62
     3
100
AcDbLine
 10
111.1846111188999
 20
121.6376777787999
 30
0.0
 11
111.3145725885999
 21
121.9625791377
 31
0.0
  0
LINE
  5
1EB
330
2
100
AcDbEntity
  8
0
 62
     3
100
AcDbLine
 10
111.1846273203999
 20
122.6376635527999
 30
0.0
 11
111.3145884145999
 21
122.9625650577
 31
0.0
  0
LINE
  5
1EC
330
2
100
AcDbEntity
  8
0
 62
     3
100
AcDbLine
 10
104.6145844518999
 20
129.9626682224999
 30
0.0
 11
111.3145966589998
 21
129.9626682224999
 31
0.0
  0
LINE
  5
1ED
330
2
100
AcDbEntity
  8
0
 62
     3
100
AcDbLine
 10
100.3306489113999
 20
125.4625991894999
 30
0.0
 11
99.4646235231
 21
125.9625991894999
 31
0.0
  0
LINE
  5
1EE
330
2
100
AcDbEntity
  8
0
 62
     3
100
AcDbLine
 10
102.8145966589999
 20
125.9626682224999
 30
0.0
 11
104.6145844518999
 21
125.9626682224999
 31
0.0
  0
LINE
  5
1EF
330
2
100
AcDbEntity
  8
0
 62
     3
100
AcDbLine
 10
102.8145966589999
 20
126.4626682225
 30
0.0
 11
104.6145844518999
 21
126.4626682225
 31
0.0
  0
LINE
  5
1F0
330
2
100
AcDbEntity
  8
0
 62
     3
100
AcDbLine
 10
102.8145966589999
 20
127.4626682224999
 30
0.0
 11
104.6145844518999
 21
127.4626682224999
 31
0.0
  0
LINE
  5
1F1
330
2
100
AcDbEntity
  8
0
 62
     3
100
AcDbLine
 10
102.8145966589999
 20
130.4626682224999
 30
0.0
 11
104.6145844518999
 21
130.4626682224999
 31
0.0
  0
LINE
  5
1F2
330
2
100
AcDbEntity
  8
0
 62
     3
100
AcDbLine
 10
102.8145966589999
 20
131.9626682225
 30
0.0
 11
104.6145844518999
 21
131.9626682225
 31
0.0
  0
ARC
  5
1F3
330
2
100
AcDbEntity
  8
0
 62
     3
100
AcDbCircle
 10
107.9645905553999
 20
118.9626529636999
 30
0.0
 40
7.0
100
AcDbArc
 50
73.742929676
 51
106.2569797102999
  0
LINE
  5
1F4
330
2
100
AcDbEntity
  8
0
 62
     3
100
AcDbLine
 10
108.8306402427999
 20
125.4626040620999
 30
0.0
 11
107.9646148545999
 21
125.9626040620999
 31
0.0
  0
LINE
  5
1F5
330
2
100
AcDbEntity
  8
0
 62
     3
100
AcDbLine
 10
100.8645997106997
 20
192.9921634618
 30
0.0
 11
98.06459665900002
 21
192.9921634618
 31
0.0
  0
LINE
  5
1F6
330
2
100
AcDbEntity
  8
0
 62
     3
100
AcDbLine
 10
100.8787779178999
 20
188.2399222367999
 30
0.0
 11
98.05036163120002
 21
191.0683385235
 31
0.0
  0
LINE
  5
1F7
330
2
100
AcDbEntity
  8
0
 62
     3
100
AcDbLine
 10
96.11458445189994
 20
193.904181284
 30
0.0
 11
102.8145966589999
 21
193.904181284
 31
0.0
  0
LINE
  5
1F8
330
2
100
AcDbEntity
  8
0
 62
     3
100
AcDbLine
 10
100.8645997106997
 20
186.3161991062998
 30
0.0
 11
98.06459665900002
 21
186.3161991062998
 31
0.0
  0
LINE
  5
1F9
330
2
100
AcDbEntity
  8
0
 62
     3
100
AcDbLine
 10
102.314596659
 20
184.154181284
 30
0.0
 11
96.11458445189994
 21
184.154181284
 31
0.0
  0
LINE
  5
1FA
330
2
100
AcDbEntity
  8
0
 62
     3
100
AcDbLine
 10
102.8145966589999
 20
186.154181284
 30
0.0
 11
96.11458445189994
 21
186.154181284
 31
0.0
  0
CIRCLE
  5
1FB
330
2
100
AcDbEntity
  8
0
 62
     3
100
AcDbCircle
 10
99.46459055540001
 20
189.6541812839998
 30
0.0
 40
2.75
  0
LINE
  5
1FC
330
2
100
AcDbEntity
  8
0
 62
     3
100
AcDbLine
 10
92.36459971069999
 20
192.9921634618
 30
0.0
 11
89.56459665899997
 21
192.9921634618
 31
0.0
  0
LINE
  5
1FD
330
2
100
AcDbEntity
  8
0
 62
     3
100
AcDbLine
 10
91.67167291490001
 20
190.3612425441
 30
0.0
 11
90.2574701664
 21
188.9470397954999
 31
0.0
  0
LINE
  5
1FE
330
2
100
AcDbEntity
  8
0
 62
     3
100
AcDbLine
 10
92.37879047360001
 20
188.2399330264
 30
0.0
 11
89.55037418689997
 21
191.0683493130999
 31
0.0
  0
LINE
  5
1FF
330
2
100
AcDbEntity
  8
0
 62
     3
100
AcDbLine
 10
91.46460581420001
 20
192.9921787205999
 30
0.0
 11
90.46460581420001
 21
192.9921787205999
 31
0.0
  0
LINE
  5
200
330
2
100
AcDbEntity
  8
0
 62
     3
100
AcDbLine
 10
87.61458445189999
 20
193.904181284
 30
0.0
 11
94.31459665899996
 21
193.904181284
 31
0.0
  0
LINE
  5
201
330
2
100
AcDbEntity
  8
0
 62
     3
100
AcDbLine
 10
92.36459971069999
 20
186.3161991062998
 30
0.0
 11
89.56459665899997
 21
186.3161991062998
 31
0.0
  0
LINE
  5
202
330
2
100
AcDbEntity
  8
0
 62
     3
100
AcDbLine
 10
93.81459665900001
 20
184.154181284
 30
0.0
 11
87.61458445189999
 21
184.154181284
 31
0.0
  0
LINE
  5
203
330
2
100
AcDbEntity
  8
0
 62
     3
100
AcDbLine
 10
94.31459665899996
 20
186.154181284
 30
0.0
 11
87.61458445189999
 21
186.154181284
 31
0.0
  0
CIRCLE
  5
204
330
2
100
AcDbEntity
  8
0
 62
     3
100
AcDbCircle
 10
90.9645905554
 20
189.6541812839998
 30
0.0
 40
2.75
  0
LINE
  5
205
330
2
100
AcDbEntity
  8
0
 62
     3
100
AcDbLine
 10
85.31459665899999
 20
186.154181284
 30
0.0
 11
85.31459665899999
 21
181.654181284
 31
0.0
  0
ARC
  5
206
330
2
100
AcDbEntity
  8
0
 62
     3
100
AcDbCircle
 10
88.2779755652
 20
192.3407962743
 30
0.0
 40
0.5
100
AcDbArc
 50
96.56439486289999
 51
173.4354418958
  0
LINE
  5
207
330
2
100
AcDbEntity
  8
0
 62
     3
100
AcDbLine
 10
88.26044321659997
 20
190.1541660252
 30
0.0
 11
87.62662363649997
 21
190.1541660252
 31
0.0
  0
LINE
  5
208
330
2
100
AcDbEntity
  8
0
 62
     3
100
AcDbLine
 10
88.26044321659997
 20
189.1541965428
 30
0.0
 11
87.62662363649997
 21
189.1541965428
 31
0.0
  0
ARC
  5
209
330
2
100
AcDbEntity
  8
0
 62
     3
100
AcDbCircle
 10
88.2779755652
 20
186.9675662938
 30
0.0
 40
0.5
100
AcDbArc
 50
186.5645581041999
 51
263.4356051370999
  0
LINE
  5
20A
330
2
100
AcDbEntity
  8
0
 62
     3
100
AcDbLine
 10
87.62660837769997
 20
191.0541904393
 30
0.0
 11
87.62660837769997
 21
188.2541873876
 31
0.0
  0
LINE
  5
20B
330
2
100
AcDbEntity
  8
0
 62
     3
100
AcDbLine
 10
85.80258799199999
 20
191.0541904393
 30
0.0
 11
85.80258799199999
 21
188.2541873876
 31
0.0
  0
LINE
  5
20C
330
2
100
AcDbEntity
  8
0
 62
     3
100
AcDbLine
 10
87.61458445189999
 20
185.154181284
 30
0.0
 11
85.81459665899998
 21
185.154181284
 31
0.0
  0
LINE
  5
20D
330
2
100
AcDbEntity
  8
0
 62
     3
100
AcDbLine
 10
87.61458445189999
 20
183.154181284
 30
0.0
 11
85.81459665899998
 21
183.154181284
 31
0.0
  0
LINE
  5
20E
330
2
100
AcDbEntity
  8
0
 62
     3
100
AcDbLine
 10
84.34908528989998
 20
186.8006352757997
 30
0.0
 11
85.31807681609995
 21
187.7696272920999
 31
0.0
  0
ARC
  5
20F
330
2
100
AcDbEntity
  8
0
 62
     3
100
AcDbCircle
 10
85.15122080449998
 20
186.9675662938
 30
0.0
 40
0.5
100
AcDbArc
 50
276.5645401181
 51
353.4355427547
  0
LINE
  5
210
330
2
100
AcDbEntity
  8
0
 62
     3
100
AcDbLine
 10
85.80258325059999
 20
188.2541412887999
 30
0.0
 11
85.64794463799998
 21
186.9103484903
 31
0.0
  0
LINE
  5
211
330
2
100
AcDbEntity
  8
0
 62
     3
100
AcDbLine
 10
87.78123167629997
 20
186.9103755412
 30
0.0
 11
87.6265930637
 21
188.2541683396999
 31
0.0
  0
LINE
  5
212
330
2
100
AcDbEntity
  8
0
 62
     3
100
AcDbLine
 10
87.61458445189999
 20
192.654181284
 30
0.0
 11
85.81459665899998
 21
192.654181284
 31
0.0
  0
LINE
  5
213
330
2
100
AcDbEntity
  8
0
 62
     3
100
AcDbLine
 10
87.61458445189999
 20
191.154181284
 30
0.0
 11
85.81459665899998
 21
191.154181284
 31
0.0
  0
LINE
  5
214
330
2
100
AcDbEntity
  8
0
 62
     3
100
AcDbLine
 10
85.16878367069995
 20
189.1541660252
 30
0.0
 11
85.80260325079995
 21
189.1541660252
 31
0.0
  0
LINE
  5
215
330
2
100
AcDbEntity
  8
0
 62
     3
100
AcDbLine
 10
85.16876841189997
 20
190.1541660252
 30
0.0
 11
85.80258799199999
 21
190.1541660252
 31
0.0
  0
LINE
  5
216
330
2
100
AcDbEntity
  8
0
 62
     3
100
AcDbLine
 10
85.80259117779997
 20
191.0542106499
 30
0.0
 11
85.6479525652
 21
192.3980034484
 31
0.0
  0
LINE
  5
217
330
2
100
AcDbEntity
  8
0
 62
     3
100
AcDbLine
 10
84.34907634109999
 20
192.5077118013
 30
0.0
 11
85.31806786729999
 21
191.538719785
 31
0.0
  0
ARC
  5
218
330
2
100
AcDbEntity
  8
0
 62
     3
100
AcDbCircle
 10
85.15122080449998
 20
192.3407962743
 30
0.0
 40
0.5
100
AcDbArc
 50
6.564457245299998
 51
83.43545988189999
  0
LINE
  5
219
330
2
100
AcDbEntity
  8
0
 62
     3
100
AcDbLine
 10
87.78122374909997
 20
192.3979763974999
 30
0.0
 11
87.62658513649999
 21
191.0541835989999
 31
0.0
  0
LINE
  5
21A
330
2
100
AcDbEntity
  8
0
 62
     3
100
AcDbLine
 10
88.11110765749999
 20
187.7696164223
 30
0.0
 11
89.08009918369998
 21
186.800624406
 31
0.0
  0
LINE
  5
21B
330
2
100
AcDbEntity
  8
0
 62
     3
100
AcDbLine
 10
89.5646065711
 20
186.3161747802999
 30
0.0
 11
88.22082893139997
 21
186.4708117291
 31
0.0
  0
LINE
  5
21C
330
2
100
AcDbEntity
  8
0
 62
     3
100
AcDbLine
 10
90.46457529669998
 20
186.9500034275999
 30
0.0
 11
90.46457529669998
 21
186.3161838475
 31
0.0
  0
LINE
  5
21D
330
2
100
AcDbEntity
  8
0
 62
     3
100
AcDbLine
 10
88.11111660629999
 20
191.5387090756999
 30
0.0
 11
89.08011892209998
 21
192.5077118814997
 31
0.0
  0
LINE
  5
21E
330
2
100
AcDbEntity
  8
0
 62
     3
100
AcDbLine
 10
89.56462242869998
 20
192.9921981814
 30
0.0
 11
88.22082963029998
 21
192.8375594881998
 31
0.0
  0
LINE
  5
21F
330
2
100
AcDbEntity
  8
0
 62
     3
100
AcDbLine
 10
90.46460581420001
 20
192.3583591405
 30
0.0
 11
90.46460581420001
 21
192.9921787205999
 31
0.0
  0
LINE
  5
220
330
2
100
AcDbEntity
  8
0
 62
     3
100
AcDbLine
 10
93.81459665900001
 20
186.154181284
 30
0.0
 11
93.81459665900001
 21
181.654181284
 31
0.0
  0
LINE
  5
221
330
2
100
AcDbEntity
  8
0
 62
     3
100
AcDbLine
 10
96.11458445189994
 20
191.154181284
 30
0.0
 11
94.31459665899996
 21
191.154181284
 31
0.0
  0
LINE
  5
222
330
2
100
AcDbEntity
  8
0
 62
     3
100
AcDbLine
 10
96.11458445189994
 20
192.654181284
 30
0.0
 11
94.31459665899996
 21
192.654181284
 31
0.0
  0
LINE
  5
223
330
2
100
AcDbEntity
  8
0
 62
     3
100
AcDbLine
 10
96.11458445189994
 20
183.154181284
 30
0.0
 11
94.31459665899996
 21
183.154181284
 31
0.0
  0
LINE
  5
224
330
2
100
AcDbEntity
  8
0
 62
     3
100
AcDbLine
 10
96.11458445189994
 20
185.154181284
 30
0.0
 11
94.31459665899996
 21
185.154181284
 31
0.0
  0
LINE
  5
225
330
2
100
AcDbEntity
  8
0
 62
     3
100
AcDbLine
 10
94.30258799199998
 20
191.0541904393
 30
0.0
 11
94.30258799199998
 21
188.2541873876
 31
0.0
  0
LINE
  5
226
330
2
100
AcDbEntity
  8
0
 62
     3
100
AcDbLine
 10
92.8490762664
 20
186.8006223367
 30
0.0
 11
93.81807858219998
 21
187.7696251426
 31
0.0
  0
LINE
  5
227
330
2
100
AcDbEntity
  8
0
 62
     3
100
AcDbLine
 10
93.70835718539998
 20
186.4708302261
 30
0.0
 11
92.36456438700001
 21
186.3161915328
 31
0.0
  0
LINE
  5
228
330
2
100
AcDbEntity
  8
0
 62
     3
100
AcDbLine
 10
91.4645752967
 20
186.9500034275999
 30
0.0
 11
91.4645752967
 21
186.3161838475
 31
0.0
  0
ARC
  5
229
330
2
100
AcDbEntity
  8
0
 62
     3
100
AcDbCircle
 10
93.65122080449998
 20
186.9675662938
 30
0.0
 40
0.5
100
AcDbArc
 50
276.5645401181
 51
353.4355427547
  0
LINE
  5
22A
330
2
100
AcDbEntity
  8
0
 62
     3
100
AcDbLine
 10
94.30258143899999
 20
188.2541511025999
 30
0.0
 11
94.1479428264
 21
186.9103583041999
 31
0.0
  0
LINE
  5
22B
330
2
100
AcDbEntity
  8
0
 62
     3
100
AcDbLine
 10
92.8490781072
 20
192.5077139507999
 30
0.0
 11
93.81806963339995
 21
191.5387219345
 31
0.0
  0
LINE
  5
22C
330
2
100
AcDbEntity
  8
0
 62
     3
100
AcDbLine
 10
93.70834132790003
 20
192.8375427356998
 30
0.0
 11
92.36454852939994
 21
192.9921814288998
 31
0.0
  0
LINE
  5
22D
330
2
100
AcDbEntity
  8
0
 62
     3
100
AcDbLine
 10
91.4645752967
 20
192.3583286229
 30
0.0
 11
91.4645752967
 21
192.9921482029998
 31
0.0
  0
LINE
  5
22E
330
2
100
AcDbEntity
  8
0
 62
     3
100
AcDbLine
 10
94.30260452490001
 20
191.0542025805
 30
0.0
 11
94.14796591229999
 21
192.3979953788997
 31
0.0
  0
LINE
  5
22F
330
2
100
AcDbEntity
  8
0
 62
     3
100
AcDbLine
 10
93.66876841189995
 20
190.1541660252
 30
0.0
 11
94.30258799199998
 21
190.1541660252
 31
0.0
  0
LINE
  5
230
330
2
100
AcDbEntity
  8
0
 62
     3
100
AcDbLine
 10
93.66876841189995
 20
189.1541660252
 30
0.0
 11
94.30258799199998
 21
189.1541660252
 31
0.0
  0
ARC
  5
231
330
2
100
AcDbEntity
  8
0
 62
     3
100
AcDbCircle
 10
93.65122080449998
 20
192.3407962743
 30
0.0
 40
0.5
100
AcDbArc
 50
6.564457245299998
 51
83.43545988189999
  0
LINE
  5
232
330
2
100
AcDbEntity
  8
0
 62
     3
100
AcDbLine
 10
96.1266083777
 20
191.0541904393
 30
0.0
 11
96.1266083777
 21
188.2541873876
 31
0.0
  0
LINE
  5
233
330
2
100
AcDbEntity
  8
0
 62
     3
100
AcDbLine
 10
96.61110589139997
 20
187.7696142728
 30
0.0
 11
97.58009741759998
 21
186.8006222565
 31
0.0
  0
LINE
  5
234
330
2
100
AcDbEntity
  8
0
 62
     3
100
AcDbLine
 10
98.06460844059996
 20
186.3161644632
 30
0.0
 11
96.72083080089993
 21
186.470801412
 31
0.0
  0
ARC
  5
235
330
2
100
AcDbEntity
  8
0
 62
     3
100
AcDbCircle
 10
96.77797556519999
 20
186.9675662938
 30
0.0
 40
0.5
100
AcDbArc
 50
186.5645581041999
 51
263.4356051370999
  0
LINE
  5
236
330
2
100
AcDbEntity
  8
0
 62
     3
100
AcDbLine
 10
96.2812352323
 20
186.9103701962998
 30
0.0
 11
96.12659661969999
 21
188.2541629948
 31
0.0
  0
LINE
  5
237
330
2
100
AcDbEntity
  8
0
 62
     3
100
AcDbLine
 10
96.61112562980001
 20
191.5387220146998
 30
0.0
 11
97.58011715599998
 21
192.5077140309999
 31
0.0
  0
LINE
  5
238
330
2
100
AcDbEntity
  8
0
 62
     3
100
AcDbLine
 10
98.06462429819999
 20
192.9922084986
 30
0.0
 11
96.72083149979995
 21
192.8375698054
 31
0.0
  0
LINE
  5
239
330
2
100
AcDbEntity
  8
0
 62
     3
100
AcDbLine
 10
96.28121214639998
 20
192.3979834867999
 30
0.0
 11
96.12657353380001
 21
191.0541906883
 31
0.0
  0
ARC
  5
23A
330
2
100
AcDbEntity
  8
0
 62
     3
100
AcDbCircle
 10
96.77797556519999
 20
192.3407962743
 30
0.0
 40
0.5
100
AcDbArc
 50
96.56439486289999
 51
173.4354418958
  0
LINE
  5
23B
330
2
100
AcDbEntity
  8
0
 62
     3
100
AcDbLine
 10
96.76044321659999
 20
190.1541660252
 30
0.0
 11
96.12662363650001
 21
190.1541660252
 31
0.0
  0
LINE
  5
23C
330
2
100
AcDbEntity
  8
0
 62
     3
100
AcDbLine
 10
96.76044321659999
 20
189.1541965428
 30
0.0
 11
96.12662363650001
 21
189.1541965428
 31
0.0
  0
LINE
  5
23D
330
2
100
AcDbEntity
  8
0
 62
     3
100
AcDbLine
 10
106.0800830210999
 20
192.5076406532999
 30
0.0
 11
105.1110914949999
 21
191.5386486370999
 31
0.0
  0
LINE
  5
23E
330
2
100
AcDbEntity
  8
0
 62
     3
100
AcDbLine
 10
105.2208234437999
 20
192.8375329018999
 30
0.0
 11
106.5646010834999
 21
192.9921698507
 31
0.0
  0
LINE
  5
23F
330
2
100
AcDbEntity
  8
0
 62
     3
100
AcDbLine
 10
104.6145844518999
 20
193.904181284
 30
0.0
 11
111.3145966589998
 21
193.904181284
 31
0.0
  0
LINE
  5
240
330
2
100
AcDbEntity
  8
0
 62
     3
100
AcDbLine
 10
105.1110933356999
 20
187.7696660712999
 30
0.0
 11
106.0800848618999
 21
186.800674055
 31
0.0
  0
LINE
  5
241
330
2
100
AcDbEntity
  8
0
 62
     3
100
AcDbLine
 10
106.5646155433999
 20
186.3161996222
 30
0.0
 11
105.2208227448999
 21
186.4708383154
 31
0.0
  0
LINE
  5
242
330
2
100
AcDbEntity
  8
0
 62
     3
100
AcDbLine
 10
110.8145966589999
 20
184.154181284
 30
0.0
 11
104.6145844518999
 21
184.154181284
 31
0.0
  0
LINE
  5
243
330
2
100
AcDbEntity
  8
0
 62
     3
100
AcDbLine
 10
111.3145966589998
 20
186.154181284
 30
0.0
 11
104.6145844518999
 21
186.154181284
 31
0.0
  0
CIRCLE
  5
244
330
2
100
AcDbEntity
  8
0
 62
     3
100
AcDbCircle
 10
107.9645905553999
 20
189.6541812839998
 30
0.0
 40
2.75
  0
LINE
  5
245
330
2
100
AcDbEntity
  8
0
 62
     3
100
AcDbLine
 10
102.314596659
 20
186.154181284
 30
0.0
 11
102.314596659
 21
181.654181284
 31
0.0
  0
LINE
  5
246
330
2
100
AcDbEntity
  8
0
 62
     3
100
AcDbLine
 10
102.1687684118999
 20
190.1541660252
 30
0.0
 11
102.8025879919999
 21
190.1541660252
 31
0.0
  0
LINE
  5
247
330
2
100
AcDbEntity
  8
0
 62
     3
100
AcDbLine
 10
102.1687836706999
 20
189.1541660252
 30
0.0
 11
102.8026032507999
 21
189.1541660252
 31
0.0
  0
ARC
  5
248
330
2
100
AcDbEntity
  8
0
 62
     3
100
AcDbCircle
 10
102.1512208044999
 20
192.3407962743
 30
0.0
 40
0.5
100
AcDbArc
 50
6.564457245299998
 51
83.43545988189999
  0
LINE
  5
249
330
2
100
AcDbEntity
  8
0
 62
     3
100
AcDbLine
 10
101.3490763410999
 20
192.5077118013
 30
0.0
 11
102.3180678672999
 21
191.538719785
 31
0.0
  0
ARC
  5
24A
330
2
100
AcDbEntity
  8
0
 62
     3
100
AcDbCircle
 10
102.1512208044999
 20
186.9675662938
 30
0.0
 40
0.5
100
AcDbArc
 50
276.5645401181
 51
353.4355427547
  0
LINE
  5
24B
330
2
100
AcDbEntity
  8
0
 62
     3
100
AcDbLine
 10
101.3490852898997
 20
186.8006352757997
 30
0.0
 11
102.3180768160999
 21
187.7696272920999
 31
0.0
  0
LINE
  5
24C
330
2
100
AcDbEntity
  8
0
 62
     3
100
AcDbLine
 10
99.9645905554
 20
186.9500034275999
 30
0.0
 11
99.9645905554
 21
186.3161838475
 31
0.0
  0
LINE
  5
24D
330
2
100
AcDbEntity
  8
0
 62
     3
100
AcDbLine
 10
98.96459055540001
 20
186.9500034275999
 30
0.0
 11
98.96459055540001
 21
186.3161838475
 31
0.0
  0
LINE
  5
24E
330
2
100
AcDbEntity
  8
0
 62
     3
100
AcDbLine
 10
102.2083607993999
 20
186.4708253845
 30
0.0
 11
100.8645680008999
 21
186.3161866913
 31
0.0
  0
LINE
  5
24F
330
2
100
AcDbEntity
  8
0
 62
     3
100
AcDbLine
 10
100.1716711488999
 20
190.3612425441
 30
0.0
 11
98.7574576107
 21
188.9470290058999
 31
0.0
  0
LINE
  5
250
330
2
100
AcDbEntity
  8
0
 62
     3
100
AcDbLine
 10
99.9645905554
 20
192.3583286229
 30
0.0
 11
99.9645905554
 21
192.9921482029998
 31
0.0
  0
LINE
  5
251
330
2
100
AcDbEntity
  8
0
 62
     3
100
AcDbLine
 10
98.96460581420001
 20
192.3583591405
 30
0.0
 11
98.96460581420001
 21
192.9921787205999
 31
0.0
  0
LINE
  5
252
330
2
100
AcDbEntity
  8
0
 62
     3
100
AcDbLine
 10
99.96460581420002
 20
192.9921787205999
 30
0.0
 11
98.96460581420001
 21
192.9921787205999
 31
0.0
  0
LINE
  5
253
330
2
100
AcDbEntity
  8
0
 62
     3
100
AcDbLine
 10
102.2083449417999
 20
192.8375475773
 30
0.0
 11
100.8645521432999
 21
192.9921862704999
 31
0.0
  0
LINE
  5
254
330
2
100
AcDbEntity
  8
0
 62
     3
100
AcDbLine
 10
104.6266083776999
 20
191.0541904393
 30
0.0
 11
104.6266083776999
 21
188.2541873876
 31
0.0
  0
LINE
  5
255
330
2
100
AcDbEntity
  8
0
 62
     3
100
AcDbLine
 10
102.8025879919999
 20
191.0541904393
 30
0.0
 11
102.8025879919999
 21
188.2541873876
 31
0.0
  0
LINE
  5
256
330
2
100
AcDbEntity
  8
0
 62
     3
100
AcDbLine
 10
104.6145844518999
 20
183.154181284
 30
0.0
 11
102.8145966589999
 21
183.154181284
 31
0.0
  0
LINE
  5
257
330
2
100
AcDbEntity
  8
0
 62
     3
100
AcDbLine
 10
104.6145844518999
 20
185.154181284
 30
0.0
 11
102.8145966589999
 21
185.154181284
 31
0.0
  0
LINE
  5
258
330
2
100
AcDbEntity
  8
0
 62
     3
100
AcDbLine
 10
102.8025832505998
 20
188.2541412887999
 30
0.0
 11
102.6479446379999
 21
186.9103484903
 31
0.0
  0
ARC
  5
259
330
2
100
AcDbEntity
  8
0
 62
     3
100
AcDbCircle
 10
105.2779755651999
 20
186.9675662938
 30
0.0
 40
0.5
100
AcDbArc
 50
186.5645581041999
 51
263.4356051370999
  0
LINE
  5
25A
330
2
100
AcDbEntity
  8
0
 62
     3
100
AcDbLine
 10
104.7812522026999
 20
186.9103817545999
 30
0.0
 11
104.6266135900999
 21
188.2541745531
 31
0.0
  0
LINE
  5
25B
330
2
100
AcDbEntity
  8
0
 62
     3
100
AcDbLine
 10
104.6145844518999
 20
191.154181284
 30
0.0
 11
102.8145966589999
 21
191.154181284
 31
0.0
  0
LINE
  5
25C
330
2
100
AcDbEntity
  8
0
 62
     3
100
AcDbLine
 10
104.6145844518999
 20
192.654181284
 30
0.0
 11
102.8145966589999
 21
192.654181284
 31
0.0
  0
LINE
  5
25D
330
2
100
AcDbEntity
  8
0
 62
     3
100
AcDbLine
 10
102.8025911777999
 20
191.0542106499
 30
0.0
 11
102.6479525651999
 21
192.3980034484
 31
0.0
  0
LINE
  5
25E
330
2
100
AcDbEntity
  8
0
 62
     3
100
AcDbLine
 10
105.2604432165999
 20
190.1541965428
 30
0.0
 11
104.6266236364999
 21
190.1541965428
 31
0.0
  0
LINE
  5
25F
330
2
100
AcDbEntity
  8
0
 62
     3
100
AcDbLine
 10
105.2604432165999
 20
189.1541965428
 30
0.0
 11
104.6266236364999
 21
189.1541965428
 31
0.0
  0
LINE
  5
260
330
2
100
AcDbEntity
  8
0
 62
     3
100
AcDbLine
 10
104.6266342359998
 20
191.0541587381
 30
0.0
 11
104.7812711041999
 21
192.3979363778
 31
0.0
  0
ARC
  5
261
330
2
100
AcDbEntity
  8
0
 62
     3
100
AcDbCircle
 10
105.2779755651999
 20
192.3408115330999
 30
0.0
 40
0.5
100
AcDbArc
 50
96.56439486289999
 51
173.4354965372999
  0
LINE
  5
262
330
2
100
AcDbEntity
  8
0
 62
     3
100
AcDbLine
 10
110.8145966589999
 20
186.154181284
 30
0.0
 11
110.8145966589999
 21
181.654181284
 31
0.0
  0
LINE
  5
263
330
2
100
AcDbEntity
  8
0
 62
     3
100
AcDbLine
 10
109.3646146478999
 20
192.9921689757
 30
0.0
 11
110.7083922875
 21
192.8375320268999
 31
0.0
  0
LINE
  5
264
330
2
100
AcDbEntity
  8
0
 62
     3
100
AcDbLine
 10
110.7083929863998
 20
186.4708391904999
 30
0.0
 11
109.3646001878999
 21
186.3162004972997
 31
0.0
  0
LINE
  5
265
330
2
100
AcDbEntity
  8
0
 62
     3
100
AcDbLine
 10
109.3787977309997
 20
188.239943816
 30
0.0
 11
106.5503814442999
 21
191.0683601027
 31
0.0
  0
LINE
  5
266
330
2
100
AcDbEntity
  8
0
 62
     3
100
AcDbLine
 10
109.3645997106999
 20
186.3161991062998
 30
0.0
 11
106.5645966589999
 21
186.3161991062998
 31
0.0
  0
LINE
  5
267
330
2
100
AcDbEntity
  8
0
 62
     3
100
AcDbLine
 10
107.4645752966999
 20
186.9500339452
 30
0.0
 11
107.4645752966999
 21
186.3162143650999
 31
0.0
  0
LINE
  5
268
330
2
100
AcDbEntity
  8
0
 62
     3
100
AcDbLine
 10
108.4645752966999
 20
186.9500339452
 30
0.0
 11
108.4645752966999
 21
186.3162143650999
 31
0.0
  0
LINE
  5
269
330
2
100
AcDbEntity
  8
0
 62
     3
100
AcDbLine
 10
108.6716909619999
 20
190.3612641231999
 30
0.0
 11
107.2574774237999
 21
188.9470505851
 31
0.0
  0
LINE
  5
26A
330
2
100
AcDbEntity
  8
0
 62
     3
100
AcDbLine
 10
109.3645997106999
 20
192.9921787205999
 30
0.0
 11
106.5645966589999
 21
192.9921787205999
 31
0.0
  0
LINE
  5
26B
330
2
100
AcDbEntity
  8
0
 62
     3
100
AcDbLine
 10
107.4646058142
 20
192.3583591405
 30
0.0
 11
107.4646058142
 21
192.9921787205999
 31
0.0
  0
LINE
  5
26C
330
2
100
AcDbEntity
  8
0
 62
     3
100
AcDbLine
 10
108.4645752966999
 20
192.3583591405
 30
0.0
 11
108.4645752966999
 21
192.9921787205999
 31
0.0
  0
LINE
  5
26D
330
2
100
AcDbEntity
  8
0
 62
     3
100
AcDbLine
 10
111.3025879919999
 20
191.0541904393
 30
0.0
 11
111.3025879919999
 21
188.2541873876
 31
0.0
  0
LINE
  5
26E
330
2
100
AcDbEntity
  8
0
 62
     3
100
AcDbLine
 10
113.1145844518999
 20
185.154181284
 30
0.0
 11
111.3145966589998
 21
185.154181284
 31
0.0
  0
LINE
  5
26F
330
2
100
AcDbEntity
  8
0
 62
     3
100
AcDbLine
 10
109.8490835237999
 20
186.8006590044999
 30
0.0
 11
110.8180750499997
 21
187.7696510208
 31
0.0
  0
ARC
  5
270
330
2
100
AcDbEntity
  8
0
 62
     3
100
AcDbCircle
 10
110.6512208044999
 20
186.9675662938
 30
0.0
 40
0.5
100
AcDbArc
 50
276.5645401181
 51
353.4355427547
  0
LINE
  5
271
330
2
100
AcDbEntity
  8
0
 62
     3
100
AcDbLine
 10
111.3025885509999
 20
188.2541617923999
 30
0.0
 11
111.1479499383999
 21
186.910368994
 31
0.0
  0
LINE
  5
272
330
2
100
AcDbEntity
  8
0
 62
     3
100
AcDbLine
 10
113.1145844518999
 20
191.154181284
 30
0.0
 11
111.3145966589998
 21
191.154181284
 31
0.0
  0
LINE
  5
273
330
2
100
AcDbEntity
  8
0
 62
     3
100
AcDbLine
 10
113.1145844518999
 20
192.654181284
 30
0.0
 11
111.3145966589998
 21
192.654181284
 31
0.0
  0
LINE
  5
274
330
2
100
AcDbEntity
  8
0
 62
     3
100
AcDbLine
 10
110.8180768907997
 20
191.5386636876
 30
0.0
 11
109.8490853645999
 21
192.5076557037998
 31
0.0
  0
LINE
  5
275
330
2
100
AcDbEntity
  8
0
 62
     3
100
AcDbLine
 10
110.6687684118997
 20
190.1541965428
 30
0.0
 11
111.3025879919999
 21
190.1541965428
 31
0.0
  0
LINE
  5
276
330
2
100
AcDbEntity
  8
0
 62
     3
100
AcDbLine
 10
110.6687836706998
 20
189.1541965428
 30
0.0
 11
111.3026032507999
 21
189.1541965428
 31
0.0
  0
LINE
  5
277
330
2
100
AcDbEntity
  8
0
 62
     3
100
AcDbLine
 10
111.1479461956998
 20
192.3979508828
 30
0.0
 11
111.3025830637999
 21
191.0541732431999
 31
0.0
  0
ARC
  5
278
330
2
100
AcDbEntity
  8
0
 62
     3
100
AcDbCircle
 10
110.6512208044999
 20
192.3408115330999
 30
0.0
 40
0.5
100
AcDbArc
 50
6.564464075399997
 51
83.43551452339999
  0
LINE
  5
279
330
2
100
AcDbEntity
  8
0
 62
     3
100
AcDbLine
 10
116.1145844518999
 20
131.9626682225
 30
0.0
 11
116.1145844518999
 21
114.9626682224999
 31
0.0
  0
LINE
  5
27A
330
2
100
AcDbEntity
  8
0
 62
     3
100
AcDbLine
 10
116.1145844518999
 20
114.9626682224999
 30
0.0
 11
124.6145844518999
 21
114.9626682224999
 31
0.0
  0
LINE
  5
27B
330
2
100
AcDbEntity
  8
0
 62
     3
100
AcDbLine
 10
116.1145844518999
 20
116.4626682224999
 30
0.0
 11
124.6145844518999
 21
116.4626682224999
 31
0.0
  0
LINE
  5
27C
330
2
100
AcDbEntity
  8
0
 62
     3
100
AcDbLine
 10
124.6145844518999
 20
114.9626682224999
 30
0.0
 11
124.6145844518999
 21
108.4626682224999
 31
0.0
  0
LINE
  5
27D
330
2
100
AcDbEntity
  8
0
 62
     3
100
AcDbLine
 10
125.6145844518999
 20
115.4626377049
 30
0.0
 11
125.6145844518999
 21
107.9626529637
 31
0.0
  0
LINE
  5
27E
330
2
100
AcDbEntity
  8
0
 62
     3
100
AcDbLine
 10
124.6145676727999
 20
108.4625831782999
 30
0.0
 11
125.2145844098997
 21
107.5625581049999
 31
0.0
  0
LINE
  5
27F
330
2
100
AcDbEntity
  8
0
 62
     3
100
AcDbLine
 10
124.6145728763
 20
106.9625742016
 30
0.0
 11
125.6145742749999
 21
107.9625749260999
 31
0.0
  0
LINE
  5
280
330
2
100
AcDbEntity
  8
0
 62
     3
100
AcDbLine
 10
124.6145708588999
 20
114.9626025409
 30
0.0
 11
125.2145622037999
 21
115.862589526
 31
0.0
  0
LINE
  5
281
330
2
100
AcDbEntity
  8
0
 62
     3
100
AcDbLine
 10
124.6145841954999
 20
116.4625572939999
 30
0.0
 11
125.6145866056999
 21
115.4625360018
 31
0.0
  0
LINE
  5
282
330
2
100
AcDbEntity
  8
0
  6
PHANTOM
 62
     3
100
AcDbLine
 10
114.6145844518999
 20
133.7626682225
 30
0.0
 11
114.6145844518999
 21
128.3626682225
 31
0.0
  0
LINE
  5
283
330
2
100
AcDbEntity
  8
0
 62
     3
100
AcDbLine
 10
114.6145844518999
 20
130.4626682224999
 30
0.0
 11
114.6145844518999
 21
125.9626682224999
 31
0.0
  0
LINE
  5
284
330
2
100
AcDbEntity
  8
0
 62
     3
100
AcDbLine
 10
124.6145516259999
 20
183.1541019507999
 30
0.0
 11
125.2145429708999
 21
182.2541149656998
 31
0.0
  0
LINE
  5
285
330
2
100
AcDbEntity
  8
0
 62
     3
100
AcDbLine
 10
125.6145604390999
 20
182.6540761956999
 30
0.0
 11
124.6145562585999
 21
181.6540782529999
 31
0.0
  0
TEXT
  5
286
330
2
100
AcDbEntity
  8
0
 62
     5
100
AcDbText
 10
145.0
 20
10.0
 30
0.0
 40
5.0
  1
ＭＡ４-Ｂ００３３１Ｃ
 41
0.8418911459846412
 72
     5
 11
199.0413935612998
 21
10.0
 31
0.0
100
AcDbText
  0
LINE
  5
287
330
2
100
AcDbEntity
  8
0
 62
     3
100
AcDbLine
 10
157.7101833047999
 20
106.9626682225
 30
0.0
 11
188.7093745889998
 21
106.9626682225
 31
0.0
  0
LINE
  5
288
330
2
100
AcDbEntity
  8
0
 62
     3
100
AcDbLine
 10
156.9601070108999
 20
107.7127445164999
 30
0.0
 11
189.4595882119998
 21
107.7127445164999
 31
0.0
  0
LINE
  5
289
330
2
100
AcDbEntity
  8
0
  6
CENTER
 62
     3
100
AcDbLine
 10
153.7098476114
 20
111.6627262059
 30
0.0
 11
192.7098476113999
 21
111.6627262059
 31
0.0
  0
LINE
  5
28B
330
2
100
AcDbEntity
  8
0
 62
     3
100
AcDbLine
 10
156.9601070108999
 20
115.7126682224999
 30
0.0
 11
189.4595882119998
 21
115.7126682224999
 31
0.0
  0
LINE
  5
28C
330
2
100
AcDbEntity
  8
0
 62
     3
100
AcDbLine
 10
157.7098628701999
 20
131.9626682225
 30
0.0
 11
188.7099391641999
 21
131.9626682225
 31
0.0
  0
LINE
  5
28D
330
2
100
AcDbEntity
  8
0
 62
     3
100
AcDbLine
 10
157.7098628701999
 20
116.4626682224999
 30
0.0
 11
188.7098476113999
 21
116.4626682224999
 31
0.0
  0
LINE
  5
28E
330
2
100
AcDbEntity
  8
0
  6
PHANTOM
 62
     3
100
AcDbLine
 10
157.3993899735999
 20
133.7626682225
 30
0.0
 11
189.0203052491999
 21
133.7626682225
 31
0.0
  0
LINE
  5
28F
330
2
100
AcDbEntity
  8
0
  6
PHANTOM
 62
     3
100
AcDbLine
 10
157.3993899735999
 20
132.8626682225
 30
0.0
 11
189.0203052491999
 21
132.8626682225
 31
0.0
  0
ARC
  5
290
330
2
100
AcDbEntity
  8
0
  6
PHANTOM
 62
     3
100
AcDbCircle
 10
157.3993899735999
 20
131.5626682225
 30
0.0
 40
1.3
100
AcDbArc
 50
90.0
 51
194.9790771150999
  0
ARC
  5
291
330
2
100
AcDbEntity
  8
0
  6
PHANTOM
 62
     3
100
AcDbCircle
 10
157.3993899735999
 20
131.5626682225
 30
0.0
 40
2.2
100
AcDbArc
 50
90.0
 51
194.9790771150999
  0
ARC
  5
292
330
2
100
AcDbEntity
  8
0
  6
PHANTOM
 62
     3
100
AcDbCircle
 10
156.3887544918
 20
128.7626682224999
 30
0.0
 40
0.4
100
AcDbArc
 50
270.0
 51
14.97907711510003
  0
LINE
  5
293
330
2
100
AcDbEntity
  8
0
 62
     3
100
AcDbLine
 10
156.2099594001999
 20
130.4627606011999
 30
0.0
 11
157.7099861121998
 21
131.9627803588
 31
0.0
  0
LINE
  5
294
330
2
100
AcDbEntity
  8
0
  6
PHANTOM
 62
     3
100
AcDbLine
 10
156.1435636152999
 20
131.2266620355999
 30
0.0
 11
156.7751626020999
 21
128.8660547416
 31
0.0
  0
LINE
  5
295
330
2
100
AcDbEntity
  8
0
 62
     3
100
AcDbLine
 10
156.2099798246
 20
114.9627913607
 30
0.0
 11
157.7099987815
 21
116.4627971677
 31
0.0
  0
LINE
  5
296
330
2
100
AcDbEntity
  8
0
 62
     3
100
AcDbLine
 10
156.2099076470999
 20
108.4627187528
 30
0.0
 11
157.7102316802998
 21
106.9627159135
 31
0.0
  0
LINE
  5
297
330
2
100
AcDbEntity
  8
0
 62
     3
100
AcDbLine
 10
156.2098476113999
 20
108.4626682224999
 30
0.0
 11
156.2098476113999
 21
130.4626682224999
 31
0.0
  0
LINE
  5
298
330
2
100
AcDbEntity
  8
0
  6
PHANTOM
 62
     3
100
AcDbLine
 10
155.2741453671998
 20
130.9940423678
 30
0.0
 11
155.8988288855998
 21
128.6592817035
 31
0.0
  0
LINE
  5
299
330
2
100
AcDbEntity
  8
0
  6
PHANTOM
 62
     3
100
AcDbLine
 10
156.2852369958999
 20
128.3626682225
 30
0.0
 11
156.3887544918
 21
128.3626682225
 31
0.0
  0
ARC
  5
29A
330
2
100
AcDbEntity
  8
0
  6
PHANTOM
 62
     3
100
AcDbCircle
 10
156.2852369958999
 20
128.7626682224999
 30
0.0
 40
0.4
100
AcDbArc
 50
194.9790771150999
 51
270.0
  0
LINE
  5
29B
330
2
100
AcDbEntity
  8
0
 62
     3
100
AcDbLine
 10
162.2687074273
 20
108.9626747460999
 30
0.0
 11
164.2100399725999
 21
111.6629338989999
 31
0.0
  0
LINE
  5
29C
330
2
100
AcDbEntity
  8
0
 62
     3
100
AcDbLine
 10
162.2687877676999
 20
114.3626606955
 30
0.0
 11
164.2100490556998
 21
111.6625006563999
 31
0.0
  0
LINE
  5
29D
330
2
100
AcDbEntity
  8
0
  6
CENTER
 62
     3
100
AcDbLine
 10
160.7098476113999
 20
115.1626804294999
 30
0.0
 11
160.7098476113999
 21
108.1626804294999
 31
0.0
  0
CIRCLE
  5
29E
330
2
100
AcDbEntity
  8
0
 62
     3
100
AcDbCircle
 10
160.7098476113999
 20
111.6626804295
 30
0.0
 40
1.899999618499998
  0
LINE
  5
29F
330
2
100
AcDbEntity
  8
0
 62
     3
100
AcDbLine
 10
158.0098506631999
 20
112.6626499119999
 30
0.0
 11
158.0098506631999
 21
114.3626773777999
 31
0.0
  0
LINE
  5
2A0
330
2
100
AcDbEntity
  8
0
 62
     3
100
AcDbLine
 10
156.9601070108999
 20
107.7127445164999
 30
0.0
 11
156.9601070108999
 21
115.7126682224999
 31
0.0
  0
LINE
  5
2A1
330
2
100
AcDbEntity
  8
0
 62
     3
100
AcDbLine
 10
160.1098567666998
 20
109.4626834813
 30
0.0
 11
161.3098537149999
 21
109.4626834813
 31
0.0
  0
LINE
  5
2A2
330
2
100
AcDbEntity
  8
0
 62
     3
100
AcDbLine
 10
158.0098506631999
 20
108.9626834813
 30
0.0
 11
162.2687160196
 21
108.9626834813
 31
0.0
  0
LINE
  5
2A3
330
2
100
AcDbEntity
  8
0
 62
     3
100
AcDbLine
 10
158.0104869485999
 20
110.6631761053999
 30
0.0
 11
158.5098448255999
 21
111.0626715703
 31
0.0
  0
LINE
  5
2A4
330
2
100
AcDbEntity
  8
0
 62
     3
100
AcDbLine
 10
158.5098483702999
 20
112.2632118753999
 30
0.0
 11
158.0101732275999
 21
112.6629458718
 31
0.0
  0
LINE
  5
2A5
330
2
100
AcDbEntity
  8
0
 62
     3
100
AcDbLine
 10
158.0098506631999
 20
108.9626834813
 30
0.0
 11
158.0098506631999
 21
110.6626804294999
 31
0.0
  0
LINE
  5
2A6
330
2
100
AcDbEntity
  8
0
 62
     3
100
AcDbLine
 10
157.2105538798998
 20
111.6632418922
 30
0.0
 11
158.0104410597997
 21
110.6633867334
 31
0.0
  0
LINE
  5
2A7
330
2
100
AcDbEntity
  8
0
 62
     3
100
AcDbLine
 10
157.2102014729999
 20
111.6630733885
 30
0.0
 11
158.0101363134
 21
112.6629881228
 31
0.0
  0
LINE
  5
2A8
330
2
100
AcDbEntity
  8
0
 62
     3
100
AcDbLine
 10
160.1098567666998
 20
108.9626834813
 30
0.0
 11
160.1098567666998
 21
109.4626834813
 31
0.0
  0
LINE
  5
2A9
330
2
100
AcDbEntity
  8
0
 62
     3
100
AcDbLine
 10
158.5098506631998
 20
112.2632205906999
 30
0.0
 11
158.5098506631998
 21
111.0626895847999
 31
0.0
  0
LINE
  5
2AA
330
2
100
AcDbEntity
  8
0
 62
     3
100
AcDbLine
 10
161.3098537149999
 20
108.9626834813
 30
0.0
 11
161.3098537149999
 21
109.4626834813
 31
0.0
  0
LINE
  5
2AB
330
2
100
AcDbEntity
  8
0
 62
     3
100
AcDbLine
 10
163.4616311403999
 20
110.6219202299999
 30
0.0
 11
162.9098591545999
 21
111.0633479438
 31
0.0
  0
LINE
  5
2AC
330
2
100
AcDbEntity
  8
0
 62
     3
100
AcDbLine
 10
162.9098346440999
 20
112.262673756
 30
0.0
 11
163.4613527509999
 21
112.7038814889999
 31
0.0
  0
LINE
  5
2AD
330
2
100
AcDbEntity
  8
0
 62
     3
100
AcDbLine
 10
162.9098445596999
 20
112.2626865331
 30
0.0
 11
162.9098445596999
 21
111.0633609714999
 31
0.0
  0
LINE
  5
2AE
330
2
100
AcDbEntity
  8
0
 62
     3
100
AcDbLine
 10
160.1098567666998
 20
113.8626773778
 30
0.0
 11
161.3098537149999
 21
113.8626773778
 31
0.0
  0
LINE
  5
2AF
330
2
100
AcDbEntity
  8
0
 62
     3
100
AcDbLine
 10
162.2687923135998
 20
114.3626773777999
 30
0.0
 11
158.0098506631999
 21
114.3626773777999
 31
0.0
  0
LINE
  5
2B0
330
2
100
AcDbEntity
  8
0
 62
     3
100
AcDbLine
 10
160.1098567666998
 20
113.8626773778
 30
0.0
 11
160.1098567666998
 21
114.3626773777999
 31
0.0
  0
LINE
  5
2B1
330
2
100
AcDbEntity
  8
0
 62
     3
100
AcDbLine
 10
161.3098537149999
 20
113.8626773778
 30
0.0
 11
161.3098537149999
 21
114.3626773777999
 31
0.0
  0
LINE
  5
2B2
330
2
100
AcDbEntity
  8
0
 62
     3
100
AcDbLine
 10
184.1509792032
 20
108.9626834813
 30
0.0
 11
188.4098445597
 21
108.9626834813
 31
0.0
  0
LINE
  5
2B3
330
2
100
AcDbEntity
  8
0
 62
     3
100
AcDbLine
 10
188.4098445597
 20
114.3626773777999
 30
0.0
 11
184.1509181680999
 21
114.3626773777999
 31
0.0
  0
CIRCLE
  5
2B4
330
2
100
AcDbEntity
  8
0
 62
     3
100
AcDbCircle
 10
185.7098476114
 20
111.6627262059
 30
0.0
 40
1.899999618499998
  0
LINE
  5
2B5
330
2
100
AcDbEntity
  8
0
  6
CENTER
 62
     3
100
AcDbLine
 10
173.2098476113999
 20
105.3290164891
 30
0.0
 11
173.2098476113999
 21
134.9077981367999
 31
0.0
  0
LINE
  5
2B6
330
2
100
AcDbEntity
  8
0
 62
     3
100
AcDbLine
 10
171.4598476114
 20
116.4626682224999
 30
0.0
 11
171.4598476114
 21
131.9626682225
 31
0.0
  0
LINE
  5
2B7
330
2
100
AcDbEntity
  8
0
 62
     3
100
AcDbLine
 10
174.9598476113999
 20
131.9626682225
 30
0.0
 11
174.9598476113999
 21
116.4626682224999
 31
0.0
  0
LINE
  5
2B8
330
2
100
AcDbEntity
  8
0
 62
     3
100
AcDbLine
 10
184.1509049627999
 20
114.3626646361999
 30
0.0
 11
182.2096525818999
 21
111.6625169862999
 31
0.0
  0
LINE
  5
2B9
330
2
100
AcDbEntity
  8
0
 62
     3
100
AcDbLine
 10
184.1509763959999
 20
108.9626831946
 30
0.0
 11
182.2096527577999
 21
111.6629299583
 31
0.0
  0
LINE
  5
2BA
330
2
100
AcDbEntity
  8
0
 62
     3
100
AcDbLine
 10
190.2098476114
 20
130.4626682224999
 30
0.0
 11
190.2098476114
 21
108.4626682224999
 31
0.0
  0
LINE
  5
2BB
330
2
100
AcDbEntity
  8
0
 62
     3
100
AcDbLine
 10
188.4098445597
 20
114.3626773777999
 30
0.0
 11
188.4098445597
 21
112.6626804295
 31
0.0
  0
LINE
  5
2BC
330
2
100
AcDbEntity
  8
0
 62
     3
100
AcDbLine
 10
189.4595882119998
 20
115.7126682224999
 30
0.0
 11
189.4595882119998
 21
107.7127445164999
 31
0.0
  0
LINE
  5
2BD
330
2
100
AcDbEntity
  8
0
  6
CENTER
 62
     3
100
AcDbLine
 10
185.7098476114
 20
115.1627262059
 30
0.0
 11
185.7098476114
 21
108.1627262058999
 31
0.0
  0
LINE
  5
2BE
330
2
100
AcDbEntity
  8
0
 62
     3
100
AcDbLine
 10
188.4100426839999
 20
110.6629560977
 30
0.0
 11
189.2099870565999
 21
111.6628827471
 31
0.0
  0
LINE
  5
2BF
330
2
100
AcDbEntity
  8
0
 62
     3
100
AcDbLine
 10
188.4101687044998
 20
112.6629826650999
 30
0.0
 11
189.2101798018997
 21
111.6629726099999
 31
0.0
  0
LINE
  5
2C0
330
2
100
AcDbEntity
  8
0
 62
     3
100
AcDbLine
 10
188.7094926315999
 20
106.9627881178
 30
0.0
 11
190.2098382463999
 21
108.4628125339999
 31
0.0
  0
LINE
  5
2C1
330
2
100
AcDbEntity
  8
0
 62
     3
100
AcDbLine
 10
188.4098445597
 20
110.6626804294999
 30
0.0
 11
188.4098445597
 21
108.9626834813
 31
0.0
  0
LINE
  5
2C2
330
2
100
AcDbEntity
  8
0
 62
     3
100
AcDbLine
 10
188.7096941832999
 20
116.4628020102
 30
0.0
 11
190.2097131401998
 21
114.9627962032
 31
0.0
  0
ARC
  5
2C3
330
2
100
AcDbEntity
  8
0
  6
PHANTOM
 62
     3
100
AcDbCircle
 10
189.0203052491999
 20
131.5626682225
 30
0.0
 40
1.3
100
AcDbArc
 50
345.0209228848998
 51
90.0
  0
ARC
  5
2C4
330
2
100
AcDbEntity
  8
0
  6
PHANTOM
 62
     3
100
AcDbCircle
 10
189.0203052491999
 20
131.5626682225
 30
0.0
 40
2.2
100
AcDbArc
 50
345.0209228848998
 51
90.0
  0
LINE
  5
2C5
330
2
100
AcDbEntity
  8
0
 62
     3
100
AcDbLine
 10
188.7097570095999
 20
131.962852326
 30
0.0
 11
190.2097729319998
 21
130.4628433579999
 31
0.0
  0
LINE
  5
2C6
330
2
100
AcDbEntity
  8
0
  6
PHANTOM
 62
     3
100
AcDbLine
 10
191.1455498556999
 20
130.9940423678
 30
0.0
 11
190.5208663372999
 21
128.6592817035
 31
0.0
  0
LINE
  5
2C7
330
2
100
AcDbEntity
  8
0
  6
PHANTOM
 62
     3
100
AcDbLine
 10
190.2761316075999
 20
131.2266620355999
 30
0.0
 11
189.6445326207999
 21
128.8660547416
 31
0.0
  0
ARC
  5
2C8
330
2
100
AcDbEntity
  8
0
  6
PHANTOM
 62
     3
100
AcDbCircle
 10
190.0309407309999
 20
128.7626682224999
 30
0.0
 40
0.4
100
AcDbArc
 50
165.0209228849
 51
270.0
  0
ARC
  5
2C9
330
2
100
AcDbEntity
  8
0
  6
PHANTOM
 62
     3
100
AcDbCircle
 10
190.1344582269999
 20
128.7626682224999
 30
0.0
 40
0.4
100
AcDbArc
 50
270.0
 51
345.0209228848998
  0
LINE
  5
2CA
330
2
100
AcDbEntity
  8
0
  6
PHANTOM
 62
     3
100
AcDbLine
 10
190.1344582269999
 20
128.3626682225
 30
0.0
 11
190.0309407309999
 21
128.3626682225
 31
0.0
  0
LINE
  5
2D1
330
2
100
AcDbEntity
  8
0
100
AcDbLine
 10
210.0
 20
297.0
 30
0.0
 11
0.0
 21
297.0
 31
0.0
  0
LINE
  5
2D4
330
2
100
AcDbEntity
  8
0
 62
     3
100
AcDbLine
 10
79.11458445189999
 20
213.154181284
 30
0.0
 11
85.31459665899999
 21
213.154181284
 31
0.0
  0
LINE
  5
2D5
330
2
100
AcDbEntity
  8
0
 62
     3
100
AcDbLine
 10
79.11458445189999
 20
211.154181284
 30
0.0
 11
85.81459665899998
 21
211.154181284
 31
0.0
  0
LINE
  5
2D6
330
2
100
AcDbEntity
  8
0
 62
     3
100
AcDbLine
 10
83.8646064299
 20
210.9921091227
 30
0.0
 11
85.20839922839996
 21
210.8374704295
 31
0.0
  0
LINE
  5
2D7
330
2
100
AcDbEntity
  8
0
 62
     3
100
AcDbLine
 10
83.86460657329996
 20
204.3162641351
 30
0.0
 11
85.2083993717
 21
204.4709028283
 31
0.0
  0
LINE
  5
2D8
330
2
100
AcDbEntity
  8
0
 62
     3
100
AcDbLine
 10
79.11458445189999
 20
203.4041812839998
 30
0.0
 11
85.81459665899998
 21
203.4041812839998
 31
0.0
  0
CIRCLE
  5
2D9
330
2
100
AcDbEntity
  8
0
 62
     3
100
AcDbCircle
 10
82.46459055539999
 20
207.6541812839999
 30
0.0
 40
2.75
  0
LINE
  5
2DA
330
2
100
AcDbEntity
  8
0
  6
PHANTOM
 62
     3
100
AcDbLine
 10
114.6145844518999
 20
216.854181284
 30
0.0
 11
60.61458445189998
 21
216.854181284
 31
0.0
  0
LINE
  5
2DB
330
2
100
AcDbEntity
  8
0
 62
     3
100
AcDbLine
 10
50.61459971069999
 20
215.654181284
 30
0.0
 11
124.6144581894999
 21
215.654181284
 31
0.0
  0
LINE
  5
2DC
330
2
100
AcDbEntity
  8
0
  6
CENTER
 62
     3
100
AcDbLine
 10
46.61458445189999
 20
198.654181284
 30
0.0
 11
129.0518086369999
 21
198.654181284
 31
0.0
  0
LINE
  5
2DD
330
2
100
AcDbEntity
  8
0
 62
     3
100
AcDbLine
 10
50.61458445189998
 20
214.1541812839999
 30
0.0
 11
62.11458445189999
 21
214.1541812839999
 31
0.0
  0
ARC
  5
2DE
330
2
100
AcDbEntity
  8
0
 62
     3
100
AcDbCircle
 10
54.61458445189999
 20
198.654181284
 30
0.0
 40
2.25
100
AcDbArc
 50
270.0000179861
 51
89.99998201389994
  0
ARC
  5
2DF
330
2
100
AcDbEntity
  8
0
 62
     3
100
AcDbCircle
 10
53.61458445189999
 20
198.654181284
 30
0.0
 40
2.25
100
AcDbArc
 50
89.99998201389999
 51
269.9999460416999
  0
LINE
  5
2E0
330
2
100
AcDbEntity
  8
0
  6
CENTER
 62
     3
100
AcDbLine
 10
54.11458445189999
 20
201.6541812839999
 30
0.0
 11
54.11458445189999
 21
194.9882724705998
 31
0.0
  0
LINE
  5
2E1
330
2
100
AcDbEntity
  8
0
 62
     3
100
AcDbLine
 10
54.61458445189999
 20
196.404181284
 30
0.0
 11
53.61458445189999
 21
196.404181284
 31
0.0
  0
LINE
  5
2E2
330
2
100
AcDbEntity
  8
0
 62
     3
100
AcDbLine
 10
54.61458445189999
 20
200.904181284
 30
0.0
 11
53.61458445189999
 21
200.904181284
 31
0.0
  0
LINE
  5
2E3
330
2
100
AcDbEntity
  8
0
 62
     3
100
AcDbLine
 10
49.61469824649999
 20
214.6539695646
 30
0.0
 11
50.61470242689996
 21
215.6539675072997
 31
0.0
  0
LINE
  5
2E4
330
2
100
AcDbEntity
  8
0
 62
     3
100
AcDbLine
 10
50.61457721709999
 20
214.1540929089998
 30
0.0
 11
50.0146451206
 21
215.0539910216
 31
0.0
  0
LINE
  5
2E5
330
2
100
AcDbEntity
  8
0
 62
     3
100
AcDbLine
 10
68.81459665900002
 20
214.1541812839999
 30
0.0
 11
70.61458445189998
 21
214.1541812839999
 31
0.0
  0
LINE
  5
2E6
330
2
100
AcDbEntity
  8
0
 62
     3
100
AcDbLine
 10
68.81459665900002
 20
212.1541812839999
 30
0.0
 11
70.61458445189998
 21
212.1541812839999
 31
0.0
  0
LINE
  5
2E7
330
2
100
AcDbEntity
  8
0
 62
     3
100
AcDbLine
 10
68.81459665900002
 20
206.1541812839998
 30
0.0
 11
70.61458445189998
 21
206.1541812839998
 31
0.0
  0
LINE
  5
2E8
330
2
100
AcDbEntity
  8
0
 62
     3
100
AcDbLine
 10
68.81459665900002
 20
204.654181284
 30
0.0
 11
70.61458445189998
 21
204.654181284
 31
0.0
  0
LINE
  5
2E9
330
2
100
AcDbEntity
  8
0
 62
     3
100
AcDbLine
 10
68.81459665900002
 20
202.8541782322999
 30
0.0
 11
70.61458445189998
 21
202.8541782322999
 31
0.0
  0
LINE
  5
2EA
330
2
100
AcDbEntity
  8
0
 62
     3
100
AcDbLine
 10
70.61458445189998
 20
194.4541843357999
 30
0.0
 11
68.81459665900002
 21
194.4541843357999
 31
0.0
  0
LINE
  5
2EB
330
2
100
AcDbEntity
  8
0
 62
     3
100
AcDbLine
 10
62.12660837769997
 20
207.1541202489
 30
0.0
 11
62.76042795779995
 21
207.1541202489
 31
0.0
  0
LINE
  5
2EC
330
2
100
AcDbEntity
  8
0
 62
     3
100
AcDbLine
 10
62.1266236365
 20
208.1541660251999
 30
0.0
 11
62.76044321659998
 21
208.1541660251999
 31
0.0
  0
ARC
  5
2ED
330
2
100
AcDbEntity
  8
0
 62
     3
100
AcDbCircle
 10
62.77797556519996
 20
210.3407962742999
 30
0.0
 40
0.5
100
AcDbArc
 50
96.56444950450001
 51
173.4354965372999
  0
ARC
  5
2EE
330
2
100
AcDbEntity
  8
0
 62
     3
100
AcDbCircle
 10
62.77797556519996
 20
204.9675662937999
 30
0.0
 40
0.5
100
AcDbArc
 50
186.5645034627
 51
263.4355504954999
  0
LINE
  5
2EF
330
2
100
AcDbEntity
  8
0
 62
     3
100
AcDbLine
 10
62.11458445189999
 20
213.154181284
 30
0.0
 11
68.31459665899996
 21
213.154181284
 31
0.0
  0
LINE
  5
2F0
330
2
100
AcDbEntity
  8
0
 62
     3
100
AcDbLine
 10
62.11458445189999
 20
211.154181284
 30
0.0
 11
68.81459665900002
 21
211.154181284
 31
0.0
  0
LINE
  5
2F1
330
2
100
AcDbEntity
  8
0
 62
     3
100
AcDbLine
 10
62.11458445189999
 20
203.4041812839998
 30
0.0
 11
68.81459665900002
 21
203.4041812839998
 31
0.0
  0
LINE
  5
2F2
330
2
100
AcDbEntity
  8
0
 62
     3
100
AcDbLine
 10
62.12664616499998
 20
206.254238598
 30
0.0
 11
62.28128477749999
 21
204.9104457994999
 31
0.0
  0
LINE
  5
2F3
330
2
100
AcDbEntity
  8
0
 62
     3
100
AcDbLine
 10
62.11458445189999
 20
215.654181284
 30
0.0
 11
62.11458445189999
 21
202.8541782322999
 31
0.0
  0
LINE
  5
2F4
330
2
100
AcDbEntity
  8
0
 62
     3
100
AcDbLine
 10
59.11458445189999
 20
215.654181284
 30
0.0
 11
59.11458445189999
 21
200.8336246434
 31
0.0
  0
ARC
  5
2F5
330
2
100
AcDbEntity
  8
0
 62
     3
100
AcDbCircle
 10
54.61458445189999
 20
198.654181284
 30
0.0
 40
5.0
100
AcDbArc
 50
334.1580680677
 51
25.84193193230003
  0
LINE
  5
2F6
330
2
100
AcDbEntity
  8
0
 62
     3
100
AcDbLine
 10
62.11458445189999
 20
194.4541843357999
 30
0.0
 11
60.61458445189998
 21
194.4541843357999
 31
0.0
  0
LINE
  5
2F7
330
2
100
AcDbEntity
  8
0
 62
     3
100
AcDbLine
 10
60.61458445189998
 20
202.8541782322999
 30
0.0
 11
62.11458445189999
 21
202.8541782322999
 31
0.0
  0
LINE
  5
2F8
330
2
100
AcDbEntity
  8
0
 62
     3
100
AcDbLine
 10
62.12665182029997
 20
209.0541133914999
 30
0.0
 11
62.2812904329
 21
210.3979061898999
 31
0.0
  0
LINE
  5
2F9
330
2
100
AcDbEntity
  8
0
 62
     3
100
AcDbLine
 10
62.12660837769997
 20
209.0541751804998
 30
0.0
 11
62.12660837769997
 21
206.2541721287999
 31
0.0
  0
LINE
  5
2FA
330
2
100
AcDbEntity
  8
0
 62
     3
100
AcDbLine
 10
68.64790393979999
 20
204.9104384805999
 30
0.0
 11
68.80254255239998
 21
206.2542312790999
 31
0.0
  0
LINE
  5
2FB
330
2
100
AcDbEntity
  8
0
 62
     3
100
AcDbLine
 10
68.31810090769997
 20
205.7697456986999
 30
0.0
 11
67.3491093815
 21
204.8007536824
 31
0.0
  0
LINE
  5
2FC
330
2
100
AcDbEntity
  8
0
 62
     3
100
AcDbLine
 10
68.81459665900002
 20
215.654181284
 30
0.0
 11
68.81459665900002
 21
202.8541782322999
 31
0.0
  0
LINE
  5
2FD
330
2
100
AcDbEntity
  8
0
 62
     3
100
AcDbLine
 10
63.58008745459997
 20
204.8007578589999
 30
0.0
 11
62.61109592839997
 21
205.7697498752999
 31
0.0
  0
CIRCLE
  5
2FE
330
2
100
AcDbEntity
  8
0
 62
     3
100
AcDbCircle
 10
65.46459055539997
 20
207.6541812839999
 30
0.0
 40
2.75
  0
LINE
  5
2FF
330
2
100
AcDbEntity
  8
0
 62
     3
100
AcDbLine
 10
64.06459665900001
 20
204.3161991062999
 30
0.0
 11
66.86459971069999
 21
204.3161991062999
 31
0.0
  0
LINE
  5
300
330
2
100
AcDbEntity
  8
0
 62
     3
100
AcDbLine
 10
62.72077403379999
 20
204.4708801239
 30
0.0
 11
64.06456683229999
 21
204.3162414305999
 31
0.0
  0
LINE
  5
301
330
2
100
AcDbEntity
  8
0
 62
     3
100
AcDbLine
 10
65.96462107299998
 20
204.3161380711
 30
0.0
 11
65.96462107299998
 21
204.9499576512
 31
0.0
  0
LINE
  5
302
330
2
100
AcDbEntity
  8
0
 62
     3
100
AcDbLine
 10
64.96460581419999
 20
204.3161838475
 30
0.0
 11
64.96460581419999
 21
204.9500034275999
 31
0.0
  0
LINE
  5
303
330
2
100
AcDbEntity
  8
0
 62
     3
100
AcDbLine
 10
64.96460581419999
 20
204.3161838475
 30
0.0
 11
65.96459055539998
 21
204.3161838475
 31
0.0
  0
LINE
  5
304
330
2
100
AcDbEntity
  8
0
 62
     3
100
AcDbLine
 10
66.86460108989999
 20
204.3162586594
 30
0.0
 11
68.20839388829998
 21
204.4708973527
 31
0.0
  0
ARC
  5
305
330
2
100
AcDbEntity
  8
0
 62
     3
100
AcDbCircle
 10
68.15122080449999
 20
204.9675662937999
 30
0.0
 40
0.5
100
AcDbArc
 50
276.5644854766
 51
353.4355393395998
  0
LINE
  5
306
330
2
100
AcDbEntity
  8
0
 62
     3
100
AcDbLine
 10
64.75747546459999
 20
208.3612077046999
 30
0.0
 11
66.17168900279998
 21
206.9469941664999
 31
0.0
  0
LINE
  5
307
330
2
100
AcDbEntity
  8
0
 62
     3
100
AcDbLine
 10
64.05037948509996
 20
206.2398981869999
 30
0.0
 11
66.87879577189997
 21
209.0683144738
 31
0.0
  0
LINE
  5
308
330
2
100
AcDbEntity
  8
0
 62
     3
100
AcDbLine
 10
64.06459665900001
 20
210.9921634617999
 30
0.0
 11
66.86459971069999
 21
210.9921634617999
 31
0.0
  0
LINE
  5
309
330
2
100
AcDbEntity
  8
0
 62
     3
100
AcDbLine
 10
63.58008729969998
 20
210.5075842769
 30
0.0
 11
62.61109577349998
 21
209.5385922606999
 31
0.0
  0
LINE
  5
30A
330
2
100
AcDbEntity
  8
0
 62
     3
100
AcDbLine
 10
62.72077417719995
 20
210.8374931338999
 30
0.0
 11
64.06456697559997
 21
210.9921318271998
 31
0.0
  0
LINE
  5
30B
330
2
100
AcDbEntity
  8
0
 62
     3
100
AcDbLine
 10
65.96462107299998
 20
210.9921024265998
 30
0.0
 11
65.96462107299998
 21
210.3582828464998
 31
0.0
  0
LINE
  5
30C
330
2
100
AcDbEntity
  8
0
 62
     3
100
AcDbLine
 10
64.96463633179996
 20
210.9921024265998
 30
0.0
 11
64.96463633179996
 21
210.3582828464998
 31
0.0
  0
LINE
  5
30D
330
2
100
AcDbEntity
  8
0
 62
     3
100
AcDbLine
 10
68.31459665899996
 20
215.654181284
 30
0.0
 11
68.31459665899996
 21
211.154181284
 31
0.0
  0
LINE
  5
30E
330
2
100
AcDbEntity
  8
0
 62
     3
100
AcDbLine
 10
68.31810106259997
 20
209.5385964372999
 30
0.0
 11
67.34910953640002
 21
210.5075884535
 31
0.0
  0
LINE
  5
30F
330
2
100
AcDbEntity
  8
0
 62
     3
100
AcDbLine
 10
66.86460094649999
 20
210.9921145983999
 30
0.0
 11
68.20839374489998
 21
210.8374759051
 31
0.0
  0
LINE
  5
310
330
2
100
AcDbEntity
  8
0
 62
     3
100
AcDbLine
 10
68.80257273319998
 20
207.1541202489
 30
0.0
 11
68.16875315309999
 21
207.1541202489
 31
0.0
  0
LINE
  5
311
330
2
100
AcDbEntity
  8
0
 62
     3
100
AcDbLine
 10
68.80258799199999
 20
208.1541202488999
 30
0.0
 11
68.16876841189998
 21
208.1541202488999
 31
0.0
  0
LINE
  5
312
330
2
100
AcDbEntity
  8
0
 62
     3
100
AcDbLine
 10
68.6479134432
 20
210.3979152531999
 30
0.0
 11
68.80255205579999
 21
209.0541224547999
 31
0.0
  0
LINE
  5
313
330
2
100
AcDbEntity
  8
0
 62
     3
100
AcDbLine
 10
68.80258799199999
 20
209.0541751804998
 30
0.0
 11
68.80258799199999
 21
206.2541721287999
 31
0.0
  0
ARC
  5
314
330
2
100
AcDbEntity
  8
0
 62
     3
100
AcDbCircle
 10
68.15122080449999
 20
210.3407962742999
 30
0.0
 40
0.5
100
AcDbArc
 50
6.564460660399999
 51
83.43551452339999
  0
LINE
  5
315
330
2
100
AcDbEntity
  8
0
 62
     3
100
AcDbLine
 10
70.61458445189998
 20
211.154181284
 30
0.0
 11
77.31459665899999
 21
211.154181284
 31
0.0
  0
LINE
  5
316
330
2
100
AcDbEntity
  8
0
 62
     3
100
AcDbLine
 10
77.30257273319998
 20
207.1541202489
 30
0.0
 11
76.6687531531
 21
207.1541202489
 31
0.0
  0
LINE
  5
317
330
2
100
AcDbEntity
  8
0
 62
     3
100
AcDbLine
 10
77.30258799199998
 20
208.1541202488999
 30
0.0
 11
76.66876841189997
 21
208.1541202488999
 31
0.0
  0
ARC
  5
318
330
2
100
AcDbEntity
  8
0
 62
     3
100
AcDbCircle
 10
76.65122080449998
 20
210.3407962742999
 30
0.0
 40
0.5
100
AcDbArc
 50
6.564460660399999
 51
83.43551452339999
  0
ARC
  5
319
330
2
100
AcDbEntity
  8
0
 62
     3
100
AcDbCircle
 10
76.65122080449998
 20
204.9675662937999
 30
0.0
 40
0.5
100
AcDbArc
 50
276.5644854766
 51
353.4355393395998
  0
LINE
  5
31A
330
2
100
AcDbEntity
  8
0
 62
     3
100
AcDbLine
 10
70.61458445189998
 20
203.4041812839998
 30
0.0
 11
77.31459665899999
 21
203.4041812839998
 31
0.0
  0
LINE
  5
31B
330
2
100
AcDbEntity
  8
0
 62
     3
100
AcDbLine
 10
76.81809914159998
 20
205.7697478481999
 30
0.0
 11
75.84910761539998
 21
204.8007558319
 31
0.0
  0
LINE
  5
31C
330
2
100
AcDbEntity
  8
0
 62
     3
100
AcDbLine
 10
70.62664797649998
 20
206.2542484118999
 30
0.0
 11
70.78128658909998
 21
204.9104556133999
 31
0.0
  0
LINE
  5
31D
330
2
100
AcDbEntity
  8
0
 62
     3
100
AcDbLine
 10
72.08009647809999
 20
204.8007449198999
 30
0.0
 11
71.11109416239997
 21
205.7697477257999
 31
0.0
  0
CIRCLE
  5
31E
330
2
100
AcDbEntity
  8
0
 62
     3
100
AcDbCircle
 10
73.96459055539998
 20
207.6541812839999
 30
0.0
 40
2.75
  0
LINE
  5
31F
330
2
100
AcDbEntity
  8
0
 62
     3
100
AcDbLine
 10
70.61458445189998
 20
215.654181284
 30
0.0
 11
70.61458445189998
 21
202.8541782322999
 31
0.0
  0
LINE
  5
320
330
2
100
AcDbEntity
  8
0
 62
     3
100
AcDbLine
 10
72.56459665899999
 20
204.3161991062999
 30
0.0
 11
75.36459971069999
 21
204.3161991062999
 31
0.0
  0
LINE
  5
321
330
2
100
AcDbEntity
  8
0
 62
     3
100
AcDbLine
 10
71.22077764769994
 20
204.4708849654
 30
0.0
 11
72.56457044619998
 21
204.3162462721998
 31
0.0
  0
ARC
  5
322
330
2
100
AcDbEntity
  8
0
 62
     3
100
AcDbCircle
 10
71.27797556519997
 20
204.9675662937999
 30
0.0
 40
0.5
100
AcDbArc
 50
186.5645034627
 51
263.4355504954999
  0
LINE
  5
323
330
2
100
AcDbEntity
  8
0
 62
     3
100
AcDbLine
 10
74.46462107299999
 20
204.3161380711
 30
0.0
 11
74.46462107299999
 21
204.9499576512
 31
0.0
  0
LINE
  5
324
330
2
100
AcDbEntity
  8
0
 62
     3
100
AcDbLine
 10
73.46460581419998
 20
204.3161838475
 30
0.0
 11
73.46460581419998
 21
204.9500034275999
 31
0.0
  0
LINE
  5
325
330
2
100
AcDbEntity
  8
0
 62
     3
100
AcDbLine
 10
73.46460581419998
 20
204.3161838475
 30
0.0
 11
74.46459055539998
 21
204.3161838475
 31
0.0
  0
LINE
  5
326
330
2
100
AcDbEntity
  8
0
 62
     3
100
AcDbLine
 10
75.36460295939997
 20
204.3162689765999
 30
0.0
 11
76.70839575779999
 21
204.4709076698
 31
0.0
  0
LINE
  5
327
330
2
100
AcDbEntity
  8
0
 62
     3
100
AcDbLine
 10
70.61458445189998
 20
213.154181284
 30
0.0
 11
76.81459665899999
 21
213.154181284
 31
0.0
  0
LINE
  5
328
330
2
100
AcDbEntity
  8
0
 62
     3
100
AcDbLine
 10
73.25747369849998
 20
208.3612077046999
 30
0.0
 11
74.67168723669999
 21
206.9469941664999
 31
0.0
  0
LINE
  5
329
330
2
100
AcDbEntity
  8
0
 62
     3
100
AcDbLine
 10
72.55037771899998
 20
206.2398981869999
 30
0.0
 11
75.37879400579999
 21
209.0683144738
 31
0.0
  0
LINE
  5
32A
330
2
100
AcDbEntity
  8
0
 62
     3
100
AcDbLine
 10
72.56459665899999
 20
210.9921634617999
 30
0.0
 11
75.36459971069999
 21
210.9921634617999
 31
0.0
  0
LINE
  5
32B
330
2
100
AcDbEntity
  8
0
 62
     3
100
AcDbLine
 10
72.08009632319999
 20
210.5075972159998
 30
0.0
 11
71.1110940074
 21
209.5385944101999
 31
0.0
  0
LINE
  5
32C
330
2
100
AcDbEntity
  8
0
 62
     3
100
AcDbLine
 10
71.22077779109995
 20
210.8374882924
 30
0.0
 11
72.56457058949999
 21
210.9921269855997
 31
0.0
  0
LINE
  5
32D
330
2
100
AcDbEntity
  8
0
 62
     3
100
AcDbLine
 10
70.62660837769993
 20
207.1541202489
 30
0.0
 11
71.2604279578
 21
207.1541202489
 31
0.0
  0
LINE
  5
32E
330
2
100
AcDbEntity
  8
0
 62
     3
100
AcDbLine
 10
70.6266236365
 20
208.1541660251999
 30
0.0
 11
71.26044321659998
 21
208.1541660251999
 31
0.0
  0
LINE
  5
32F
330
2
100
AcDbEntity
  8
0
 62
     3
100
AcDbLine
 10
70.62665363189998
 20
209.0541035775999
 30
0.0
 11
70.78129224449998
 21
210.3978963759999
 31
0.0
  0
LINE
  5
330
330
2
100
AcDbEntity
  8
0
 62
     3
100
AcDbLine
 10
70.62660837769993
 20
209.0541751804998
 30
0.0
 11
70.62660837769993
 21
206.2541721287999
 31
0.0
  0
ARC
  5
331
330
2
100
AcDbEntity
  8
0
 62
     3
100
AcDbCircle
 10
71.27797556519997
 20
210.3407962742999
 30
0.0
 40
0.5
100
AcDbArc
 50
96.56444950450001
 51
173.4354965372999
  0
LINE
  5
332
330
2
100
AcDbEntity
  8
0
 62
     3
100
AcDbLine
 10
76.81459665899999
 20
215.654181284
 30
0.0
 11
76.81459665899999
 21
211.154181284
 31
0.0
  0
LINE
  5
333
330
2
100
AcDbEntity
  8
0
 62
     3
100
AcDbLine
 10
74.46462107299999
 20
210.9921024265998
 30
0.0
 11
74.46462107299999
 21
210.3582828464998
 31
0.0
  0
LINE
  5
334
330
2
100
AcDbEntity
  8
0
 62
     3
100
AcDbLine
 10
73.46463633179997
 20
210.9921024265998
 30
0.0
 11
73.46463633179997
 21
210.3582828464998
 31
0.0
  0
LINE
  5
335
330
2
100
AcDbEntity
  8
0
 62
     3
100
AcDbLine
 10
76.81809929649998
 20
209.5385942877999
 30
0.0
 11
75.8491077704
 21
210.5075863039999
 31
0.0
  0
LINE
  5
336
330
2
100
AcDbEntity
  8
0
 62
     3
100
AcDbLine
 10
75.36460281599994
 20
210.9921042812
 30
0.0
 11
76.70839561449998
 21
210.8374655879998
 31
0.0
  0
LINE
  5
337
330
2
100
AcDbEntity
  8
0
 62
     3
100
AcDbLine
 10
80.580094712
 20
204.8007427704999
 30
0.0
 11
79.61110318589994
 21
205.7697347867
 31
0.0
  0
LINE
  5
338
330
2
100
AcDbEntity
  8
0
 62
     3
100
AcDbLine
 10
79.12665153259997
 20
206.2542430669999
 30
0.0
 11
79.28129014509995
 21
204.9104502685
 31
0.0
  0
LINE
  5
339
330
2
100
AcDbEntity
  8
0
 62
     3
100
AcDbLine
 10
79.11458445189999
 20
215.654181284
 30
0.0
 11
79.11458445189999
 21
202.8541782322999
 31
0.0
  0
LINE
  5
33A
330
2
100
AcDbEntity
  8
0
 62
     3
100
AcDbLine
 10
77.14790575139994
 20
204.9104286668
 30
0.0
 11
77.302544364
 21
206.2542214652
 31
0.0
  0
LINE
  5
33B
330
2
100
AcDbEntity
  8
0
 62
     3
100
AcDbLine
 10
77.31459665899999
 20
215.654181284
 30
0.0
 11
77.31459665899999
 21
202.8541782322999
 31
0.0
  0
LINE
  5
33C
330
2
100
AcDbEntity
  8
0
 62
     3
100
AcDbLine
 10
79.72078126169998
 20
204.470889807
 30
0.0
 11
81.06457406009997
 21
204.3162511137999
 31
0.0
  0
LINE
  5
33D
330
2
100
AcDbEntity
  8
0
 62
     3
100
AcDbLine
 10
79.11458445189999
 20
194.4541843357999
 30
0.0
 11
77.31459665899999
 21
194.4541843357999
 31
0.0
  0
LINE
  5
33E
330
2
100
AcDbEntity
  8
0
 62
     3
100
AcDbLine
 10
77.31459665899999
 20
204.654181284
 30
0.0
 11
79.11458445189999
 21
204.654181284
 31
0.0
  0
LINE
  5
33F
330
2
100
AcDbEntity
  8
0
 62
     3
100
AcDbLine
 10
77.31459665899999
 20
202.8541782322999
 30
0.0
 11
79.11458445189999
 21
202.8541782322999
 31
0.0
  0
ARC
  5
340
330
2
100
AcDbEntity
  8
0
 62
     3
100
AcDbCircle
 10
79.77797556519997
 20
204.9675662937999
 30
0.0
 40
0.5
100
AcDbArc
 50
186.5645034627
 51
263.4355504954999
  0
LINE
  5
341
330
2
100
AcDbEntity
  8
0
 62
     3
100
AcDbLine
 10
81.06459665899999
 20
204.3161991062999
 30
0.0
 11
83.86459971069999
 21
204.3161991062999
 31
0.0
  0
LINE
  5
342
330
2
100
AcDbEntity
  8
0
 62
     3
100
AcDbLine
 10
81.96460581419998
 20
204.3161838475
 30
0.0
 11
82.96459055539996
 21
204.3161838475
 31
0.0
  0
LINE
  5
343
330
2
100
AcDbEntity
  8
0
 62
     3
100
AcDbLine
 10
81.96460581419998
 20
204.3161838475
 30
0.0
 11
81.96460581419998
 21
204.9500034275999
 31
0.0
  0
LINE
  5
344
330
2
100
AcDbEntity
  8
0
 62
     3
100
AcDbLine
 10
82.96462107299999
 20
204.3161380711
 30
0.0
 11
82.96462107299999
 21
204.9499576512
 31
0.0
  0
LINE
  5
345
330
2
100
AcDbEntity
  8
0
 62
     3
100
AcDbLine
 10
79.72078140499997
 20
210.8374834508
 30
0.0
 11
81.06457420349995
 21
210.992122144
 31
0.0
  0
LINE
  5
346
330
2
100
AcDbEntity
  8
0
 62
     3
100
AcDbLine
 10
77.31459665899999
 20
206.1541812839998
 30
0.0
 11
79.11458445189999
 21
206.1541812839998
 31
0.0
  0
LINE
  5
347
330
2
100
AcDbEntity
  8
0
 62
     3
100
AcDbLine
 10
77.14791525479999
 20
210.3979250671
 30
0.0
 11
77.30255386739997
 21
209.0541322686
 31
0.0
  0
LINE
  5
348
330
2
100
AcDbEntity
  8
0
 62
     3
100
AcDbLine
 10
77.30258799199998
 20
209.0541751804998
 30
0.0
 11
77.30258799199998
 21
206.2541721287999
 31
0.0
  0
LINE
  5
349
330
2
100
AcDbEntity
  8
0
 62
     3
100
AcDbLine
 10
79.12660837769997
 20
207.1541202489
 30
0.0
 11
79.76042795779995
 21
207.1541202489
 31
0.0
  0
LINE
  5
34A
330
2
100
AcDbEntity
  8
0
 62
     3
100
AcDbLine
 10
79.12662363649997
 20
208.1541660251999
 30
0.0
 11
79.76044321659998
 21
208.1541660251999
 31
0.0
  0
LINE
  5
34B
330
2
100
AcDbEntity
  8
0
 62
     3
100
AcDbLine
 10
79.1266420291
 20
209.0541106669
 30
0.0
 11
79.2812806417
 21
210.3979034653
 31
0.0
  0
LINE
  5
34C
330
2
100
AcDbEntity
  8
0
 62
     3
100
AcDbLine
 10
79.12660837769997
 20
209.0541751804998
 30
0.0
 11
79.12660837769997
 21
206.2541721287999
 31
0.0
  0
ARC
  5
34D
330
2
100
AcDbEntity
  8
0
 62
     3
100
AcDbCircle
 10
79.77797556519997
 20
210.3407962742999
 30
0.0
 40
0.5
100
AcDbArc
 50
96.56444950450001
 51
173.4354965372999
  0
LINE
  5
34E
330
2
100
AcDbEntity
  8
0
 62
     3
100
AcDbLine
 10
80.58009455709997
 20
210.5075993654999
 30
0.0
 11
79.61110303089999
 21
209.5386073492
 31
0.0
  0
LINE
  5
34F
330
2
100
AcDbEntity
  8
0
 62
     3
100
AcDbLine
 10
77.31459665899999
 20
214.1541812839999
 30
0.0
 11
79.11458445189999
 21
214.1541812839999
 31
0.0
  0
LINE
  5
350
330
2
100
AcDbEntity
  8
0
 62
     3
100
AcDbLine
 10
77.31459665899999
 20
212.1541812839999
 30
0.0
 11
79.11458445189999
 21
212.1541812839999
 31
0.0
  0
LINE
  5
351
330
2
100
AcDbEntity
  8
0
 62
     3
100
AcDbLine
 10
81.75747193239999
 20
208.3612077046999
 30
0.0
 11
83.17168547059997
 21
206.9469941664999
 31
0.0
  0
LINE
  5
352
330
2
100
AcDbEntity
  8
0
 62
     3
100
AcDbLine
 10
81.05037595289998
 20
206.2398981869999
 30
0.0
 11
83.87879223969997
 21
209.0683144738
 31
0.0
  0
LINE
  5
353
330
2
100
AcDbEntity
  8
0
 62
     3
100
AcDbLine
 10
81.06459665899999
 20
210.9921634617999
 30
0.0
 11
83.86459971069999
 21
210.9921634617999
 31
0.0
  0
LINE
  5
354
330
2
100
AcDbEntity
  8
0
 62
     3
100
AcDbLine
 10
81.96463633179996
 20
210.9921024265998
 30
0.0
 11
81.96463633179996
 21
210.3582828464998
 31
0.0
  0
LINE
  5
355
330
2
100
AcDbEntity
  8
0
 62
     3
100
AcDbLine
 10
82.96462107299999
 20
210.9921024265998
 30
0.0
 11
82.96462107299999
 21
210.3582828464998
 31
0.0
  0
LINE
  5
356
330
2
100
AcDbEntity
  8
0
 62
     3
100
AcDbLine
 10
111.3145966589998
 20
202.8541782322999
 30
0.0
 11
114.6145844518999
 21
202.8541782322999
 31
0.0
  0
LINE
  5
357
330
2
100
AcDbEntity
  8
0
 62
     3
100
AcDbLine
 10
114.6145844518999
 20
194.4541843357999
 30
0.0
 11
111.3145966589998
 21
194.4541843357999
 31
0.0
  0
LINE
  5
358
330
2
100
AcDbEntity
  8
0
 62
     3
100
AcDbLine
 10
111.3145966589998
 20
214.1541812839999
 30
0.0
 11
124.6145844518999
 21
214.1541812839999
 31
0.0
  0
LINE
  5
359
330
2
100
AcDbEntity
  8
0
 62
     3
100
AcDbLine
 10
96.11458445189994
 20
213.154181284
 30
0.0
 11
102.314596659
 21
213.154181284
 31
0.0
  0
LINE
  5
35A
330
2
100
AcDbEntity
  8
0
 62
     3
100
AcDbLine
 10
96.11458445189994
 20
211.154181284
 30
0.0
 11
102.8145966589999
 21
211.154181284
 31
0.0
  0
LINE
  5
35B
330
2
100
AcDbEntity
  8
0
 62
     3
100
AcDbLine
 10
98.06459665900002
 20
204.3161991062999
 30
0.0
 11
100.8645997106997
 21
204.3161991062999
 31
0.0
  0
LINE
  5
35C
330
2
100
AcDbEntity
  8
0
 62
     3
100
AcDbLine
 10
96.11458445189994
 20
203.4041812839998
 30
0.0
 11
102.8145966589999
 21
203.4041812839998
 31
0.0
  0
LINE
  5
35D
330
2
100
AcDbEntity
  8
0
 62
     3
100
AcDbLine
 10
98.05037242079999
 20
206.2398981869999
 30
0.0
 11
100.8787887075
 21
209.0683144738
 31
0.0
  0
LINE
  5
35E
330
2
100
AcDbEntity
  8
0
 62
     3
100
AcDbLine
 10
98.06459665900002
 20
210.9921634617999
 30
0.0
 11
100.8645997106997
 21
210.9921634617999
 31
0.0
  0
CIRCLE
  5
35F
330
2
100
AcDbEntity
  8
0
 62
     3
100
AcDbCircle
 10
99.46459055540001
 20
207.6541812839999
 30
0.0
 40
2.75
  0
LINE
  5
360
330
2
100
AcDbEntity
  8
0
 62
     3
100
AcDbLine
 10
89.56459665899997
 20
210.9921634617999
 30
0.0
 11
92.36459971069999
 21
210.9921634617999
 31
0.0
  0
LINE
  5
361
330
2
100
AcDbEntity
  8
0
 62
     3
100
AcDbLine
 10
89.55037242079995
 20
206.2398981869999
 30
0.0
 11
92.3787887075
 21
209.0683144738
 31
0.0
  0
LINE
  5
362
330
2
100
AcDbEntity
  8
0
 62
     3
100
AcDbLine
 10
90.2574684003
 20
208.3612077046999
 30
0.0
 11
91.67168193839996
 21
206.9469941664999
 31
0.0
  0
LINE
  5
363
330
2
100
AcDbEntity
  8
0
 62
     3
100
AcDbLine
 10
90.46460581420001
 20
204.3161838475
 30
0.0
 11
91.46460581420001
 21
204.3161838475
 31
0.0
  0
LINE
  5
364
330
2
100
AcDbEntity
  8
0
 62
     3
100
AcDbLine
 10
89.56459665899997
 20
204.3161991062999
 30
0.0
 11
92.36459971069999
 21
204.3161991062999
 31
0.0
  0
LINE
  5
365
330
2
100
AcDbEntity
  8
0
 62
     3
100
AcDbLine
 10
87.61458445189999
 20
213.154181284
 30
0.0
 11
93.81459665900001
 21
213.154181284
 31
0.0
  0
LINE
  5
366
330
2
100
AcDbEntity
  8
0
 62
     3
100
AcDbLine
 10
87.61458445189999
 20
203.4041812839998
 30
0.0
 11
94.31459665899996
 21
203.4041812839998
 31
0.0
  0
LINE
  5
367
330
2
100
AcDbEntity
  8
0
 62
     3
100
AcDbLine
 10
87.61458445189999
 20
211.154181284
 30
0.0
 11
94.31459665899996
 21
211.154181284
 31
0.0
  0
CIRCLE
  5
368
330
2
100
AcDbEntity
  8
0
 62
     3
100
AcDbCircle
 10
90.9645905554
 20
207.6541812839999
 30
0.0
 40
2.75
  0
LINE
  5
369
330
2
100
AcDbEntity
  8
0
 62
     3
100
AcDbLine
 10
89.0801019695
 20
204.8007492611
 30
0.0
 11
88.11111044329996
 21
205.7697412772999
 31
0.0
  0
LINE
  5
36A
330
2
100
AcDbEntity
  8
0
 62
     3
100
AcDbLine
 10
87.62665690019998
 20
206.2542475359999
 30
0.0
 11
87.78129551280001
 21
204.9104547375
 31
0.0
  0
LINE
  5
36B
330
2
100
AcDbEntity
  8
0
 62
     3
100
AcDbLine
 10
85.64790930739997
 20
204.9104340117
 30
0.0
 11
85.80254791999999
 21
206.2542268100999
 31
0.0
  0
LINE
  5
36C
330
2
100
AcDbEntity
  8
0
 62
     3
100
AcDbLine
 10
85.31809737549997
 20
205.7697499977
 30
0.0
 11
84.34910584939997
 21
204.8007579813998
 31
0.0
  0
LINE
  5
36D
330
2
100
AcDbEntity
  8
0
 62
     3
100
AcDbLine
 10
85.81459665899998
 20
215.654181284
 30
0.0
 11
85.81459665899998
 21
202.8541782322999
 31
0.0
  0
LINE
  5
36E
330
2
100
AcDbEntity
  8
0
 62
     3
100
AcDbLine
 10
87.61458445189999
 20
215.654181284
 30
0.0
 11
87.61458445189999
 21
202.8541782322999
 31
0.0
  0
ARC
  5
36F
330
2
100
AcDbEntity
  8
0
 62
     3
100
AcDbCircle
 10
88.2779755652
 20
204.9675662937999
 30
0.0
 40
0.5
100
AcDbArc
 50
186.5645034627
 51
263.4355504954999
  0
LINE
  5
370
330
2
100
AcDbEntity
  8
0
 62
     3
100
AcDbLine
 10
87.61458445189999
 20
194.4541843357999
 30
0.0
 11
85.81459665899998
 21
194.4541843357999
 31
0.0
  0
LINE
  5
371
330
2
100
AcDbEntity
  8
0
 62
     3
100
AcDbLine
 10
85.81459665899998
 20
202.8541782322999
 30
0.0
 11
87.61458445189999
 21
202.8541782322999
 31
0.0
  0
LINE
  5
372
330
2
100
AcDbEntity
  8
0
 62
     3
100
AcDbLine
 10
85.81459665899998
 20
204.654181284
 30
0.0
 11
87.61458445189999
 21
204.654181284
 31
0.0
  0
ARC
  5
373
330
2
100
AcDbEntity
  8
0
 62
     3
100
AcDbCircle
 10
85.15122080449998
 20
204.9675662937999
 30
0.0
 40
0.5
100
AcDbArc
 50
276.5644854766
 51
353.4355393395998
  0
LINE
  5
374
330
2
100
AcDbEntity
  8
0
 62
     3
100
AcDbLine
 10
88.22077158639999
 20
204.4708860757999
 30
0.0
 11
89.56456438480001
 21
204.3162473826
 31
0.0
  0
LINE
  5
375
330
2
100
AcDbEntity
  8
0
 62
     3
100
AcDbLine
 10
90.46460581420001
 20
204.3161838475
 30
0.0
 11
90.46460581420001
 21
204.9500034275999
 31
0.0
  0
ARC
  5
376
330
2
100
AcDbEntity
  8
0
 62
     3
100
AcDbCircle
 10
88.2779755652
 20
210.3407962742999
 30
0.0
 40
0.5
100
AcDbArc
 50
96.56444950450001
 51
173.4354965372999
  0
LINE
  5
377
330
2
100
AcDbEntity
  8
0
 62
     3
100
AcDbLine
 10
87.62662363649997
 20
208.1541660251999
 30
0.0
 11
88.26044321659997
 21
208.1541660251999
 31
0.0
  0
LINE
  5
378
330
2
100
AcDbEntity
  8
0
 62
     3
100
AcDbLine
 10
87.62662363649997
 20
207.1541202489
 30
0.0
 11
88.26044321659997
 21
207.1541202489
 31
0.0
  0
LINE
  5
379
330
2
100
AcDbEntity
  8
0
 62
     3
100
AcDbLine
 10
85.31459665899999
 20
215.654181284
 30
0.0
 11
85.31459665899999
 21
211.154181284
 31
0.0
  0
LINE
  5
37A
330
2
100
AcDbEntity
  8
0
 62
     3
100
AcDbLine
 10
85.81459665899998
 20
206.1541812839998
 30
0.0
 11
87.61458445189999
 21
206.1541812839998
 31
0.0
  0
LINE
  5
37B
330
2
100
AcDbEntity
  8
0
 62
     3
100
AcDbLine
 10
85.31809753049998
 20
209.5385921382999
 30
0.0
 11
84.34910600429999
 21
210.5075841545999
 31
0.0
  0
LINE
  5
37C
330
2
100
AcDbEntity
  8
0
 62
     3
100
AcDbLine
 10
85.80257273319999
 20
207.1541202489
 30
0.0
 11
85.1687531531
 21
207.1541202489
 31
0.0
  0
LINE
  5
37D
330
2
100
AcDbEntity
  8
0
 62
     3
100
AcDbLine
 10
85.80258799199999
 20
208.1541202488999
 30
0.0
 11
85.16876841189997
 21
208.1541202488999
 31
0.0
  0
LINE
  5
37E
330
2
100
AcDbEntity
  8
0
 62
     3
100
AcDbLine
 10
85.64791881089997
 20
210.3979197221998
 30
0.0
 11
85.8025574234
 21
209.0541269237999
 31
0.0
  0
LINE
  5
37F
330
2
100
AcDbEntity
  8
0
 62
     3
100
AcDbLine
 10
85.80258799199999
 20
209.0541751804998
 30
0.0
 11
85.80258799199999
 21
206.2541721287999
 31
0.0
  0
ARC
  5
380
330
2
100
AcDbEntity
  8
0
 62
     3
100
AcDbCircle
 10
85.15122080449998
 20
210.3407962742999
 30
0.0
 40
0.5
100
AcDbArc
 50
6.564460660399999
 51
83.43551452339999
  0
LINE
  5
381
330
2
100
AcDbEntity
  8
0
 62
     3
100
AcDbLine
 10
87.62660837769997
 20
209.0541751804998
 30
0.0
 11
87.62660837769997
 21
206.2541721287999
 31
0.0
  0
LINE
  5
382
330
2
100
AcDbEntity
  8
0
 62
     3
100
AcDbLine
 10
87.62664739669999
 20
209.0541061979
 30
0.0
 11
87.78128600929994
 21
210.3978989963
 31
0.0
  0
LINE
  5
383
330
2
100
AcDbEntity
  8
0
 62
     3
100
AcDbLine
 10
85.81459665899998
 20
212.1541812839999
 30
0.0
 11
87.61458445189999
 21
212.1541812839999
 31
0.0
  0
LINE
  5
384
330
2
100
AcDbEntity
  8
0
 62
     3
100
AcDbLine
 10
85.81459665899998
 20
214.1541812839999
 30
0.0
 11
87.61458445189999
 21
214.1541812839999
 31
0.0
  0
LINE
  5
385
330
2
100
AcDbEntity
  8
0
 62
     3
100
AcDbLine
 10
89.08011260409995
 20
210.5075820853
 30
0.0
 11
88.11112107799997
 21
209.538590069
 31
0.0
  0
LINE
  5
386
330
2
100
AcDbEntity
  8
0
 62
     3
100
AcDbLine
 10
88.22078688849996
 20
210.8374889263997
 30
0.0
 11
89.56457968689994
 21
210.9921276195999
 31
0.0
  0
LINE
  5
387
330
2
100
AcDbEntity
  8
0
 62
     3
100
AcDbLine
 10
90.46463633179996
 20
210.9921024265998
 30
0.0
 11
90.46463633179996
 21
210.3582828464998
 31
0.0
  0
LINE
  5
388
330
2
100
AcDbEntity
  8
0
 62
     3
100
AcDbLine
 10
96.12665690020001
 20
206.2542475359999
 30
0.0
 11
96.2812955128
 21
204.9104547375
 31
0.0
  0
LINE
  5
389
330
2
100
AcDbEntity
  8
0
 62
     3
100
AcDbLine
 10
94.14791467499998
 20
204.9104295427
 30
0.0
 11
94.30255328759995
 21
206.2542223411
 31
0.0
  0
LINE
  5
38A
330
2
100
AcDbEntity
  8
0
 62
     3
100
AcDbLine
 10
97.58010196949999
 20
204.8007492611
 30
0.0
 11
96.61111044329999
 21
205.7697412772999
 31
0.0
  0
LINE
  5
38B
330
2
100
AcDbEntity
  8
0
 62
     3
100
AcDbLine
 10
96.11458445189994
 20
215.654181284
 30
0.0
 11
96.11458445189994
 21
202.8541782322999
 31
0.0
  0
LINE
  5
38C
330
2
100
AcDbEntity
  8
0
 62
     3
100
AcDbLine
 10
94.31459665899996
 20
215.654181284
 30
0.0
 11
94.31459665899996
 21
202.8541782322999
 31
0.0
  0
LINE
  5
38D
330
2
100
AcDbEntity
  8
0
 62
     3
100
AcDbLine
 10
93.81810463299999
 20
205.769743507
 30
0.0
 11
92.84911310680001
 21
204.8007514907999
 31
0.0
  0
LINE
  5
38E
330
2
100
AcDbEntity
  8
0
 62
     3
100
AcDbLine
 10
94.31459665899996
 20
204.654181284
 30
0.0
 11
96.11458445189994
 21
204.654181284
 31
0.0
  0
LINE
  5
38F
330
2
100
AcDbEntity
  8
0
 62
     3
100
AcDbLine
 10
94.31459665899996
 20
202.8541782322999
 30
0.0
 11
96.11458445189994
 21
202.8541782322999
 31
0.0
  0
LINE
  5
390
330
2
100
AcDbEntity
  8
0
 62
     3
100
AcDbLine
 10
96.11458445189994
 20
194.4541843357999
 30
0.0
 11
94.31459665899996
 21
194.4541843357999
 31
0.0
  0
LINE
  5
391
330
2
100
AcDbEntity
  8
0
 62
     3
100
AcDbLine
 10
92.3646120567
 20
204.3162696107
 30
0.0
 11
93.70840485519995
 21
204.4709083038998
 31
0.0
  0
LINE
  5
392
330
2
100
AcDbEntity
  8
0
 62
     3
100
AcDbLine
 10
91.46462107299999
 20
204.3161380711
 30
0.0
 11
91.46462107299999
 21
204.9499576512
 31
0.0
  0
ARC
  5
393
330
2
100
AcDbEntity
  8
0
 62
     3
100
AcDbCircle
 10
93.65122080449998
 20
204.9675662937999
 30
0.0
 40
0.5
100
AcDbArc
 50
276.5644854766
 51
353.4355393395998
  0
LINE
  5
394
330
2
100
AcDbEntity
  8
0
 62
     3
100
AcDbLine
 10
96.7207715864
 20
204.4708860757999
 30
0.0
 11
98.06456438480001
 21
204.3162473826
 31
0.0
  0
ARC
  5
395
330
2
100
AcDbEntity
  8
0
 62
     3
100
AcDbCircle
 10
96.77797556519999
 20
204.9675662937999
 30
0.0
 40
0.5
100
AcDbArc
 50
186.5645034627
 51
263.4355504954999
  0
LINE
  5
396
330
2
100
AcDbEntity
  8
0
 62
     3
100
AcDbLine
 10
94.31459665899996
 20
214.1541812839999
 30
0.0
 11
96.11458445189994
 21
214.1541812839999
 31
0.0
  0
LINE
  5
397
330
2
100
AcDbEntity
  8
0
 62
     3
100
AcDbLine
 10
94.31459665899996
 20
212.1541812839999
 30
0.0
 11
96.11458445189994
 21
212.1541812839999
 31
0.0
  0
LINE
  5
398
330
2
100
AcDbEntity
  8
0
 62
     3
100
AcDbLine
 10
94.31459665899996
 20
206.1541812839998
 30
0.0
 11
96.11458445189994
 21
206.1541812839998
 31
0.0
  0
LINE
  5
399
330
2
100
AcDbEntity
  8
0
 62
     3
100
AcDbLine
 10
93.81459665900001
 20
215.654181284
 30
0.0
 11
93.81459665900001
 21
211.154181284
 31
0.0
  0
LINE
  5
39A
330
2
100
AcDbEntity
  8
0
 62
     3
100
AcDbLine
 10
92.36459675459997
 20
210.9921053914999
 30
0.0
 11
93.7083895531
 21
210.8374666982999
 31
0.0
  0
LINE
  5
39B
330
2
100
AcDbEntity
  8
0
 62
     3
100
AcDbLine
 10
93.81809399829998
 20
209.5385878392999
 30
0.0
 11
92.84910247209998
 21
210.5075798556
 31
0.0
  0
LINE
  5
39C
330
2
100
AcDbEntity
  8
0
 62
     3
100
AcDbLine
 10
91.46462107299999
 20
210.9921024265998
 30
0.0
 11
91.46462107299999
 21
210.3582828464998
 31
0.0
  0
LINE
  5
39D
330
2
100
AcDbEntity
  8
0
 62
     3
100
AcDbLine
 10
94.30258799199998
 20
209.0541751804998
 30
0.0
 11
94.30258799199998
 21
206.2541721287999
 31
0.0
  0
LINE
  5
39E
330
2
100
AcDbEntity
  8
0
 62
     3
100
AcDbLine
 10
94.1479241785
 20
210.3979241912
 30
0.0
 11
94.30256279099998
 21
209.0541313927
 31
0.0
  0
LINE
  5
39F
330
2
100
AcDbEntity
  8
0
 62
     3
100
AcDbLine
 10
94.30258799199998
 20
208.1541202488999
 30
0.0
 11
93.66876841189995
 21
208.1541202488999
 31
0.0
  0
LINE
  5
3A0
330
2
100
AcDbEntity
  8
0
 62
     3
100
AcDbLine
 10
94.30258799199998
 20
207.1541202489
 30
0.0
 11
93.66876841189995
 21
207.1541202489
 31
0.0
  0
ARC
  5
3A1
330
2
100
AcDbEntity
  8
0
 62
     3
100
AcDbCircle
 10
93.65122080449998
 20
210.3407962742999
 30
0.0
 40
0.5
100
AcDbArc
 50
6.564460660399999
 51
83.43551452339999
  0
LINE
  5
3A2
330
2
100
AcDbEntity
  8
0
 62
     3
100
AcDbLine
 10
97.5801126041
 20
210.5075820853
 30
0.0
 11
96.61112107800001
 21
209.538590069
 31
0.0
  0
LINE
  5
3A3
330
2
100
AcDbEntity
  8
0
 62
     3
100
AcDbLine
 10
96.72078688850001
 20
210.8374889263997
 30
0.0
 11
98.06457968689995
 21
210.9921276195999
 31
0.0
  0
LINE
  5
3A4
330
2
100
AcDbEntity
  8
0
 62
     3
100
AcDbLine
 10
96.12664739669998
 20
209.0541061979
 30
0.0
 11
96.28128600929995
 21
210.3978989963
 31
0.0
  0
LINE
  5
3A5
330
2
100
AcDbEntity
  8
0
 62
     3
100
AcDbLine
 10
96.1266083777
 20
209.0541751804998
 30
0.0
 11
96.1266083777
 21
206.2541721287999
 31
0.0
  0
ARC
  5
3A6
330
2
100
AcDbEntity
  8
0
 62
     3
100
AcDbCircle
 10
96.77797556519999
 20
210.3407962742999
 30
0.0
 40
0.5
100
AcDbArc
 50
96.56444950450001
 51
173.4354965372999
  0
LINE
  5
3A7
330
2
100
AcDbEntity
  8
0
 62
     3
100
AcDbLine
 10
96.12662363650001
 20
207.1541202489
 30
0.0
 11
96.76044321659999
 21
207.1541202489
 31
0.0
  0
LINE
  5
3A8
330
2
100
AcDbEntity
  8
0
 62
     3
100
AcDbLine
 10
96.12662363650001
 20
208.1541660251999
 30
0.0
 11
96.76044321659999
 21
208.1541660251999
 31
0.0
  0
LINE
  5
3A9
330
2
100
AcDbEntity
  8
0
 62
     3
100
AcDbLine
 10
106.0800784692997
 20
210.507551866
 30
0.0
 11
105.1110869430999
 21
209.5385598496998
 31
0.0
  0
LINE
  5
3AA
330
2
100
AcDbEntity
  8
0
 62
     3
100
AcDbLine
 10
105.2207619292998
 20
210.8374654372998
 30
0.0
 11
106.5645547277999
 21
210.9921041304999
 31
0.0
  0
LINE
  5
3AB
330
2
100
AcDbEntity
  8
0
 62
     3
100
AcDbLine
 10
105.2207466271999
 20
204.4709095648999
 30
0.0
 11
106.5645394256999
 21
204.3162708716999
 31
0.0
  0
LINE
  5
3AC
330
2
100
AcDbEntity
  8
0
 62
     3
100
AcDbLine
 10
106.0800786241999
 20
204.8007902699999
 30
0.0
 11
105.1110870979999
 21
205.7697822861999
 31
0.0
  0
LINE
  5
3AD
330
2
100
AcDbEntity
  8
0
 62
     3
100
AcDbLine
 10
104.6145844518999
 20
203.4041812839998
 30
0.0
 11
111.3145966589998
 21
203.4041812839998
 31
0.0
  0
LINE
  5
3AE
330
2
100
AcDbEntity
  8
0
 62
     3
100
AcDbLine
 10
104.6145844518999
 20
213.154181284
 30
0.0
 11
110.8145966589999
 21
213.154181284
 31
0.0
  0
LINE
  5
3AF
330
2
100
AcDbEntity
  8
0
 62
     3
100
AcDbLine
 10
104.6145844518999
 20
211.154181284
 30
0.0
 11
113.1145844518999
 21
211.154181284
 31
0.0
  0
CIRCLE
  5
3B0
330
2
100
AcDbEntity
  8
0
 62
     3
100
AcDbCircle
 10
107.9645905553999
 20
207.6541812839999
 30
0.0
 40
2.75
  0
LINE
  5
3B1
330
2
100
AcDbEntity
  8
0
 62
     3
100
AcDbLine
 10
104.6266301386999
 20
206.2542387021998
 30
0.0
 11
104.7812687512999
 21
204.9104459037999
 31
0.0
  0
LINE
  5
3B2
330
2
100
AcDbEntity
  8
0
 62
     3
100
AcDbLine
 10
102.3181046329997
 20
205.769743507
 30
0.0
 11
101.3491131067999
 21
204.8007514907999
 31
0.0
  0
LINE
  5
3B3
330
2
100
AcDbEntity
  8
0
 62
     3
100
AcDbLine
 10
102.6479146749999
 20
204.9104295427
 30
0.0
 11
102.8025532875998
 21
206.2542223411
 31
0.0
  0
LINE
  5
3B4
330
2
100
AcDbEntity
  8
0
 62
     3
100
AcDbLine
 10
102.8145966589999
 20
215.654181284
 30
0.0
 11
102.8145966589999
 21
202.8541782322999
 31
0.0
  0
LINE
  5
3B5
330
2
100
AcDbEntity
  8
0
 62
     3
100
AcDbLine
 10
104.6145844518999
 20
215.654181284
 30
0.0
 11
104.6145844518999
 21
202.8541782322999
 31
0.0
  0
ARC
  5
3B6
330
2
100
AcDbEntity
  8
0
 62
     3
100
AcDbCircle
 10
102.1512208044999
 20
204.9675662937999
 30
0.0
 40
0.5
100
AcDbArc
 50
276.5644854766
 51
353.4355393395998
  0
LINE
  5
3B7
330
2
100
AcDbEntity
  8
0
 62
     3
100
AcDbLine
 10
99.96462107299999
 20
204.3161380711
 30
0.0
 11
99.96462107299999
 21
204.9499576512
 31
0.0
  0
LINE
  5
3B8
330
2
100
AcDbEntity
  8
0
 62
     3
100
AcDbLine
 10
98.96460581420001
 20
204.3161838475
 30
0.0
 11
98.96460581420001
 21
204.9500034275999
 31
0.0
  0
LINE
  5
3B9
330
2
100
AcDbEntity
  8
0
 62
     3
100
AcDbLine
 10
98.96460581420001
 20
204.3161838475
 30
0.0
 11
99.96460581420002
 21
204.3161838475
 31
0.0
  0
LINE
  5
3BA
330
2
100
AcDbEntity
  8
0
 62
     3
100
AcDbLine
 10
100.8646120567
 20
204.3162696107
 30
0.0
 11
102.2084048551999
 21
204.4709083038998
 31
0.0
  0
LINE
  5
3BB
330
2
100
AcDbEntity
  8
0
 62
     3
100
AcDbLine
 10
104.6145844518999
 20
194.4541843357999
 30
0.0
 11
102.8145966589999
 21
194.4541843357999
 31
0.0
  0
LINE
  5
3BC
330
2
100
AcDbEntity
  8
0
 62
     3
100
AcDbLine
 10
102.8145966589999
 20
204.654181284
 30
0.0
 11
104.6145844518999
 21
204.654181284
 31
0.0
  0
LINE
  5
3BD
330
2
100
AcDbEntity
  8
0
 62
     3
100
AcDbLine
 10
102.8145966589999
 20
202.8541782322999
 30
0.0
 11
104.6145844518999
 21
202.8541782322999
 31
0.0
  0
ARC
  5
3BE
330
2
100
AcDbEntity
  8
0
 62
     3
100
AcDbCircle
 10
105.2779755651999
 20
204.9675662937999
 30
0.0
 40
0.5
100
AcDbArc
 50
186.5645034627
 51
263.4355504954999
  0
LINE
  5
3BF
330
2
100
AcDbEntity
  8
0
 62
     3
100
AcDbLine
 10
102.8025879919999
 20
207.1541202489
 30
0.0
 11
102.1687684118999
 21
207.1541202489
 31
0.0
  0
LINE
  5
3C0
330
2
100
AcDbEntity
  8
0
 62
     3
100
AcDbLine
 10
102.8025879919999
 20
208.1541202488999
 30
0.0
 11
102.1687684118999
 21
208.1541202488999
 31
0.0
  0
ARC
  5
3C1
330
2
100
AcDbEntity
  8
0
 62
     3
100
AcDbCircle
 10
102.1512208044999
 20
210.3407962742999
 30
0.0
 40
0.5
100
AcDbArc
 50
6.564460660399999
 51
83.43551452339999
  0
LINE
  5
3C2
330
2
100
AcDbEntity
  8
0
 62
     3
100
AcDbLine
 10
102.3180939982997
 20
209.5385878392999
 30
0.0
 11
101.3491024720998
 21
210.5075798556
 31
0.0
  0
LINE
  5
3C3
330
2
100
AcDbEntity
  8
0
 62
     3
100
AcDbLine
 10
98.75746840029998
 20
208.3612077046999
 30
0.0
 11
100.1716819383997
 21
206.9469941664999
 31
0.0
  0
LINE
  5
3C4
330
2
100
AcDbEntity
  8
0
 62
     3
100
AcDbLine
 10
99.96462107299999
 20
210.9921024265998
 30
0.0
 11
99.96462107299999
 21
210.3582828464998
 31
0.0
  0
LINE
  5
3C5
330
2
100
AcDbEntity
  8
0
 62
     3
100
AcDbLine
 10
98.96463633179997
 20
210.9921024265998
 30
0.0
 11
98.96463633179997
 21
210.3582828464998
 31
0.0
  0
LINE
  5
3C6
330
2
100
AcDbEntity
  8
0
 62
     3
100
AcDbLine
 10
100.8645967545999
 20
210.9921053914999
 30
0.0
 11
102.2083895530998
 21
210.8374666982999
 31
0.0
  0
LINE
  5
3C7
330
2
100
AcDbEntity
  8
0
 62
     3
100
AcDbLine
 10
102.314596659
 20
215.654181284
 30
0.0
 11
102.314596659
 21
211.154181284
 31
0.0
  0
LINE
  5
3C8
330
2
100
AcDbEntity
  8
0
 62
     3
100
AcDbLine
 10
102.8145966589999
 20
206.1541812839998
 30
0.0
 11
104.6145844518999
 21
206.1541812839998
 31
0.0
  0
LINE
  5
3C9
330
2
100
AcDbEntity
  8
0
 62
     3
100
AcDbLine
 10
102.6479241784999
 20
210.3979241912
 30
0.0
 11
102.8025627909999
 21
209.0541313927
 31
0.0
  0
LINE
  5
3CA
330
2
100
AcDbEntity
  8
0
 62
     3
100
AcDbLine
 10
102.8025879919999
 20
209.0541751804998
 30
0.0
 11
102.8025879919999
 21
206.2541721287999
 31
0.0
  0
LINE
  5
3CB
330
2
100
AcDbEntity
  8
0
 62
     3
100
AcDbLine
 10
104.6265931188999
 20
207.1540897312999
 30
0.0
 11
105.2604126989999
 21
207.1540897312999
 31
0.0
  0
LINE
  5
3CC
330
2
100
AcDbEntity
  8
0
 62
     3
100
AcDbLine
 10
104.6266236364999
 20
208.1541660251999
 30
0.0
 11
105.2604432165999
 21
208.1541660251999
 31
0.0
  0
LINE
  5
3CD
330
2
100
AcDbEntity
  8
0
 62
     3
100
AcDbLine
 10
104.6266206352999
 20
209.0541150315999
 30
0.0
 11
104.7812592477999
 21
210.39790783
 31
0.0
  0
LINE
  5
3CE
330
2
100
AcDbEntity
  8
0
 62
     3
100
AcDbLine
 10
104.6266083776999
 20
209.0541751804998
 30
0.0
 11
104.6266083776999
 21
206.2541721287999
 31
0.0
  0
ARC
  5
3CF
330
2
100
AcDbEntity
  8
0
 62
     3
100
AcDbCircle
 10
105.2779755651999
 20
210.3407962742999
 30
0.0
 40
0.5
100
AcDbArc
 50
96.56444950450001
 51
173.4354965372999
  0
LINE
  5
3D0
330
2
100
AcDbEntity
  8
0
 62
     3
100
AcDbLine
 10
102.8145966589999
 20
214.1541812839999
 30
0.0
 11
104.6145844518999
 21
214.1541812839999
 31
0.0
  0
LINE
  5
3D1
330
2
100
AcDbEntity
  8
0
 62
     3
100
AcDbLine
 10
102.8145966589999
 20
212.1541812839999
 30
0.0
 11
104.6145844518999
 21
212.1541812839999
 31
0.0
  0
LINE
  5
3D2
330
2
100
AcDbEntity
  8
0
 62
     3
100
AcDbLine
 10
110.8180812876999
 20
205.7697456564999
 30
0.0
 11
109.8490897614998
 21
204.8007536402999
 31
0.0
  0
LINE
  5
3D3
330
2
100
AcDbEntity
  8
0
 62
     3
100
AcDbLine
 10
111.1478896579999
 20
204.9104535350999
 30
0.0
 11
111.3025282705998
 21
206.2542463336
 31
0.0
  0
LINE
  5
3D4
330
2
100
AcDbEntity
  8
0
 62
     3
100
AcDbLine
 10
111.3145966589998
 20
215.654181284
 30
0.0
 11
111.3145966589998
 21
202.8541782322999
 31
0.0
  0
LINE
  5
3D5
330
2
100
AcDbEntity
  8
0
 62
     3
100
AcDbLine
 10
113.1145844518999
 20
215.654181284
 30
0.0
 11
113.1145844518999
 21
202.8541782322999
 31
0.0
  0
LINE
  5
3D6
330
2
100
AcDbEntity
  8
0
 62
     3
100
AcDbLine
 10
109.3646156706999
 20
204.3162647691
 30
0.0
 11
110.7083933103999
 21
204.4709017179
 31
0.0
  0
LINE
  5
3D7
330
2
100
AcDbEntity
  8
0
 62
     3
100
AcDbLine
 10
106.5645966589999
 20
204.3161991062999
 30
0.0
 11
109.3645997106999
 21
204.3161991062999
 31
0.0
  0
LINE
  5
3D8
330
2
100
AcDbEntity
  8
0
 62
     3
100
AcDbLine
 10
107.4646058142
 20
204.3161838475
 30
0.0
 11
108.4645447790999
 21
204.3161838475
 31
0.0
  0
LINE
  5
3D9
330
2
100
AcDbEntity
  8
0
 62
     3
100
AcDbLine
 10
107.4646058142
 20
204.3161838475
 30
0.0
 11
107.4646058142
 21
204.9500034275999
 31
0.0
  0
LINE
  5
3DA
330
2
100
AcDbEntity
  8
0
 62
     3
100
AcDbLine
 10
108.4645752966999
 20
204.3161075536
 30
0.0
 11
108.4645752966999
 21
204.9499271335999
 31
0.0
  0
LINE
  5
3DB
330
2
100
AcDbEntity
  8
0
 62
     3
100
AcDbLine
 10
111.3145966589998
 20
204.654181284
 30
0.0
 11
113.1145844518999
 21
204.654181284
 31
0.0
  0
ARC
  5
3DC
330
2
100
AcDbEntity
  8
0
 62
     3
100
AcDbCircle
 10
110.6512208044999
 20
204.9675662937999
 30
0.0
 40
0.5
100
AcDbArc
 50
276.5644854766
 51
353.4355393395998
  0
LINE
  5
3DD
330
2
100
AcDbEntity
  8
0
 62
     3
100
AcDbLine
 10
109.3646003685999
 20
210.9921102331
 30
0.0
 11
110.7083780083
 21
210.8374732843
 31
0.0
  0
LINE
  5
3DE
330
2
100
AcDbEntity
  8
0
 62
     3
100
AcDbLine
 10
107.2574774237999
 20
208.3611969151
 30
0.0
 11
108.6716909619999
 21
206.9469833768999
 31
0.0
  0
LINE
  5
3DF
330
2
100
AcDbEntity
  8
0
 62
     3
100
AcDbLine
 10
106.5503814442999
 20
206.2398873973999
 30
0.0
 11
109.3787977309997
 21
209.0683036841999
 31
0.0
  0
LINE
  5
3E0
330
2
100
AcDbEntity
  8
0
 62
     3
100
AcDbLine
 10
106.5645966589999
 20
210.9921634617999
 30
0.0
 11
109.3645997106999
 21
210.9921634617999
 31
0.0
  0
LINE
  5
3E1
330
2
100
AcDbEntity
  8
0
 62
     3
100
AcDbLine
 10
107.4646058142
 20
210.9920719089998
 30
0.0
 11
107.4646058142
 21
210.358252329
 31
0.0
  0
LINE
  5
3E2
330
2
100
AcDbEntity
  8
0
 62
     3
100
AcDbLine
 10
108.4645752966999
 20
210.9920719089998
 30
0.0
 11
108.4645752966999
 21
210.358252329
 31
0.0
  0
LINE
  5
3E3
330
2
100
AcDbEntity
  8
0
 62
     3
100
AcDbLine
 10
110.8145966589999
 20
215.654181284
 30
0.0
 11
110.8145966589999
 21
211.154181284
 31
0.0
  0
LINE
  5
3E4
330
2
100
AcDbEntity
  8
0
 62
     3
100
AcDbLine
 10
111.3145966589998
 20
206.1541812839998
 30
0.0
 11
113.1145844518999
 21
206.1541812839998
 31
0.0
  0
LINE
  5
3E5
330
2
100
AcDbEntity
  8
0
 62
     3
100
AcDbLine
 10
111.3025879919999
 20
209.0541751804998
 30
0.0
 11
111.3025879919999
 21
206.2541721287999
 31
0.0
  0
LINE
  5
3E6
330
2
100
AcDbEntity
  8
0
 62
     3
100
AcDbLine
 10
110.8180814425999
 20
209.5385964794
 30
0.0
 11
109.8490899163999
 21
210.5075884956999
 31
0.0
  0
LINE
  5
3E7
330
2
100
AcDbEntity
  8
0
 62
     3
100
AcDbLine
 10
111.3025422155998
 20
207.1540897312999
 30
0.0
 11
110.6687226354999
 21
207.1540897312999
 31
0.0
  0
LINE
  5
3E8
330
2
100
AcDbEntity
  8
0
 62
     3
100
AcDbLine
 10
111.3025422155998
 20
208.1540897312998
 30
0.0
 11
110.6687226354999
 21
208.1540897312998
 31
0.0
  0
LINE
  5
3E9
330
2
100
AcDbEntity
  8
0
 62
     3
100
AcDbLine
 10
111.1478991613997
 20
210.3979001986999
 30
0.0
 11
111.3025377739998
 21
209.0541074003
 31
0.0
  0
ARC
  5
3EA
330
2
100
AcDbEntity
  8
0
 62
     3
100
AcDbCircle
 10
110.6512208044999
 20
210.3407962742999
 30
0.0
 40
0.5
100
AcDbArc
 50
6.564460660399999
 51
83.43551452339999
  0
LINE
  5
3EB
330
2
100
AcDbEntity
  8
0
 62
     3
100
AcDbLine
 10
111.3145966589998
 20
212.1541812839999
 30
0.0
 11
113.1145844518999
 21
212.1541812839999
 31
0.0
  0
ARC
  5
3EC
330
2
100
AcDbEntity
  8
0
 62
     3
100
AcDbCircle
 10
120.6145844518999
 20
198.654181284
 30
0.0
 40
2.25
100
AcDbArc
 50
89.99998201389999
 51
269.9999460416999
  0
LINE
  5
3ED
330
2
100
AcDbEntity
  8
0
 62
     3
100
AcDbLine
 10
116.1145844518999
 20
200.8336246434
 30
0.0
 11
116.1145844518999
 21
215.654181284
 31
0.0
  0
ARC
  5
3EE
330
2
100
AcDbEntity
  8
0
 62
     3
100
AcDbCircle
 10
120.6145844518999
 20
198.654181284
 30
0.0
 40
5.0
100
AcDbArc
 50
154.1580252653
 51
205.8419027903
  0
LINE
  5
3EF
330
2
100
AcDbEntity
  8
0
  6
CENTER
 62
     3
100
AcDbLine
 10
121.1145844518999
 20
195.654181284
 30
0.0
 11
121.1145844518999
 21
203.1378543797
 31
0.0
  0
ARC
  5
3F0
330
2
100
AcDbEntity
  8
0
 62
     3
100
AcDbCircle
 10
121.6145844518999
 20
198.654181284
 30
0.0
 40
2.25
100
AcDbArc
 50
270.0000726275999
 51
89.99998201389994
  0
LINE
  5
3F1
330
2
100
AcDbEntity
  8
0
 62
     3
100
AcDbLine
 10
121.6145844518999
 20
196.404181284
 30
0.0
 11
120.6145844518999
 21
196.404181284
 31
0.0
  0
LINE
  5
3F2
330
2
100
AcDbEntity
  8
0
 62
     3
100
AcDbLine
 10
121.6145844518999
 20
200.904181284
 30
0.0
 11
120.6145844518999
 21
200.904181284
 31
0.0
  0
LINE
  5
3F3
330
2
100
AcDbEntity
  8
0
 62
     3
100
AcDbLine
 10
125.2145892356999
 20
215.0540716760999
 30
0.0
 11
124.6145978908
 21
214.154084691
 31
0.0
  0
LINE
  5
3F4
330
2
100
AcDbEntity
  8
0
 62
     3
100
AcDbLine
 10
124.6145565400999
 20
215.6540829339999
 30
0.0
 11
125.6145607204999
 21
214.6540849912999
 31
0.0
  0
TEXT
  5
40A
330
2
100
AcDbEntity
  8
0
 62
     7
100
AcDbText
 10
146.0
 20
85.00000295524989
 30
0.0
 40
2.999994089499998
  1
BTB15C6
 11
146.0
 21
86.49999999999989
 31
0.0
100
AcDbText
 73
     2
  0
ENDSEC
  0
SECTION
  2
OBJECTS
  0
DICTIONARY
  5
7
330
0
100
AcDbDictionary
281
     1
  3
ACAD_GROUP
350
1F
  3
ACAD_LAYOUT
350
B
  3
ACAD_MLINESTYLE
350
20
  3
ACAD_PLOTSETTINGS
350
21
  3
ACAD_PLOTSTYLENAME
350
6
  3
AcDbVariableDictionary
350
40B
  0
DICTIONARY
  5
1F
102
{ACAD_REACTORS
330
7
102
}
330
7
100
AcDbDictionary
281
     1
  0
DICTIONARY
  5
B
102
{ACAD_REACTORS
330
7
102
}
330
7
100
AcDbDictionary
281
     1
  3
Model
350
A
  3
ﾚｲｱｳﾄ1
350
F
  0
DICTIONARY
  5
20
102
{ACAD_REACTORS
330
7
102
}
330
7
100
AcDbDictionary
281
     1
  3
Standard
350
22
  0
DICTIONARY
  5
21
102
{ACAD_REACTORS
330
7
102
}
330
7
100
AcDbDictionary
281
     1
  0
ACDBDICTIONARYWDFLT
  5
6
102
{ACAD_REACTORS
330
7
102
}
330
7
100
AcDbDictionary
281
     1
  3
Normal
350
5
100
AcDbDictionaryWithDefault
340
5
  0
DICTIONARY
  5
40B
102
{ACAD_REACTORS
330
7
102
}
330
7
100
AcDbDictionary
281
     1
  3
DIMASSOC
350
40C
  0
LAYOUT
  5
A
102
{ACAD_REACTORS
330
B
102
}
330
B
100
AcDbPlotSettings
  1

  2
C:\Program Files\AutoCAD 2000i\plotters\DWF Classic.pc3
  4

  6

 40
0.0
 41
0.0
 42
0.0
 43
0.0
 44
0.0
 45
0.0
 46
0.0
 47
0.0
 48
0.0
 49
0.0
140
0.0
141
0.0
142
1.0
143
1.0
 70
  1712
 72
     0
 73
     0
 74
     0
  7

 75
     0
147
1.0
148
0.0
149
0.0
100
AcDbLayout
  1
Model
 70
     1
 71
     0
 10
0.0
 20
0.0
 11
12.0
 21
9.0
 12
0.0
 22
0.0
 32
0.0
 14
0.0
 24
0.0
 34
0.0
 15
0.0
 25
0.0
 35
0.0
146
0.0
 13
0.0
 23
0.0
 33
0.0
 16
1.0
 26
0.0
 36
0.0
 17
0.0
 27
1.0
 37
0.0
 76
     0
330
2
  0
LAYOUT
  5
F
102
{ACAD_REACTORS
330
B
102
}
330
B
100
AcDbPlotSettings
  1

  2
C:\Program Files\AutoCAD 2000i\plotters\DWF Classic.pc3
  4

  6

 40
0.0
 41
0.0
 42
0.0
 43
0.0
 44
0.0
 45
0.0
 46
0.0
 47
0.0
 48
0.0
 49
0.0
140
0.0
141
0.0
142
1.0
143
1.0
 70
   688
 72
     0
 73
     0
 74
     5
  7

 75
    16
147
1.0
148
0.0
149
0.0
100
AcDbLayout
  1
ﾚｲｱｳﾄ1
 70
     1
 71
     1
 10
0.0
 20
0.0
 11
12.0
 21
9.0
 12
0.0
 22
0.0
 32
0.0
 14
1.000000000000000E+20
 24
1.000000000000000E+20
 34
1.000000000000000E+20
 15
-1.000000000000000E+20
 25
-1.000000000000000E+20
 35
-1.000000000000000E+20
146
0.0
 13
0.0
 23
0.0
 33
0.0
 16
1.0
 26
0.0
 36
0.0
 17
0.0
 27
1.0
 37
0.0
 76
     0
330
C
  0
MLINESTYLE
  5
22
102
{ACAD_REACTORS
330
20
102
}
330
20
100
AcDbMlineStyle
  2
STANDARD
 70
     0
  3

 62
   256
 51
90.0
 52
90.0
 71
     2
 49
0.5
 62
   256
  6
BYLAYER
 49
-0.5
 62
   256
  6
BYLAYER
  0
ACDBPLACEHOLDER
  5
5
102
{ACAD_REACTORS
330
6
102
}
330
6
  0
DICTIONARYVAR
  5
40C
102
{ACAD_REACTORS
330
40B
102
}
330
40B
100
DictionaryVariables
280
     0
  1
1
  0
ENDSEC
  0
EOF
