  0
SECTION
  2
HEADER
  9
$ACADVER
  1
AC1004
  9
$ANGBASE
 50
0.0000000000
  9
$ANGDIR
 70
     0
  9
$ATTDIA
 70
     0
  9
$ATTMODE
 70
     1
  9
$ATTREQ
 70
     1
  9
$AUNITS
 70
     0
  9
$AUPREC
 70
     0
  9
$AXISMODE
 70
     0
  9
$AXISUNIT
 10
0.0000000000
 20
0.0000000000
  9
$BLIPMODE
 70
     1
  9
$CECOLOR
 62
   256
  9
$CELTYPE
  6
BYLAYER
  9
$CHAMFERA
 40
0.0000000000
  9
$CHAMFERB
 40
0.0000000000
  9
$CLAYER
  8
0
  9
$COORDS
 70
     0
  9
$DIMALT
 70
     0
  9
$DIMALTD
 70
     2
  9
$DIMALTF
 40
25.4000000000
  9
$DIMAPOST
  1

  9
$DIMASO
 70
     1
  9
$DIMASZ
 40
1.9727878460
  9
$DIMBLK
  1

  9
$DIMBLK1
  1

  9
$DIMBLK2
  1

  9
$DIMCEN
 40
9.0000000000E-02
  9
$DIMDLE
 40
0.0000000000
  9
$DIMDLI
 40
0.3800000000
  9
$DIMEXE
 40
3.8099999428
  9
$DIMEXO
 40
2.5399999619
  9
$DIMLFAC
 40
1.0000000000
  9
$DIMLIM
 70
     0
  9
$DIMPOST
  1

  9
$DIMRND
 40
0.0000000000
  9
$DIMSCALE
 40
1.0000000000
  9
$DIMSE1
 70
     0
  9
$DIMSE2
 70
     0
  9
$DIMSHO
 70
     0
  9
$DIMTAD
 70
     0
  9
$DIMTIH
 70
     0
  9
$DIMTM
 40
0.0000000000
  9
$DIMTOH
 70
     1
  9
$DIMTOL
 70
     0
  9
$DIMTP
 40
0.0000000000
  9
$DIMTSZ
 40
0.0000000000
  9
$DIMTXT
 40
2.9999940395
  9
$DIMZIN
 70
     0
  9
$DRAGMODE
 70
     1
  9
$ELEVATION
 40
0.0000000000
  9
$EXTMAX
 10
3.1750000000
 20
187.2237518311
 30
0.0000000000
  9
$EXTMIN
 10
-169.4354370117
 20
-3.1750000000
 30
0.0000000000
  9
$FASTZOOM
 70
     1
  9
$FILLETRAD
 40
6.2500000000E-02
  9
$FILLMODE
 70
     1
  9
$GRIDMODE
 70
     0
  9
$GRIDUNIT
 10
0.0000000000
 20
0.0000000000
  9
$INSBASE
 10
0.0000000000
 20
0.0000000000
 30
0.0000000000
  9
$LIMCHECK
 70
     0
  9
$LIMMAX
 10
3.1750000000
 20
187.2237518311
  9
$LIMMIN
 10
-169.4354370117
 20
-3.1750000000
  9
$LTSCALE
 40
1.0000000000
  9
$LUNITS
 70
     2
  9
$LUPREC
 70
     3
  9
$MEASUREMENT
 70
     0
  9
$MENU
  1
ACAD
  9
$MIRRTEXT
 70
     0
  9
$ORTHOMODE
 70
     0
  9
$OSMODE
 70
     0
  9
$PDMODE
 70
     0
  9
$PDSIZE
 40
0.0000000000
  9
$PLINEWID
 40
0.0000000000
  9
$PROXYGRAPHICS
 70
     0
  9
$QTEXTMODE
 70
     0
  9
$REGENMODE
 70
     1
  9
$SKETCHINC
 40
0.1000000000
  9
$SKPOLY
 70
     0
  9
$SNAPANG
 50
0.0000000000
  9
$SNAPBASE
 10
0.0000000000
 20
0.0000000000
  9
$SNAPISOPAIR
 70
     0
  9
$SNAPMODE
 70
     0
  9
$SNAPSTYLE
 70
     0
  9
$SNAPUNIT
 10
1.0000000000
 20
1.0000000000
  9
$SPLFRAME
 70
     0
  9
$SPLINESEGS
 70
     8
  9
$TDCREATE
 40
2455203.6306713009
  9
$TDINDWG
 40
0.0000000000
  9
$TDUPDATE
 40
2455203.6306713009
  9
$TDUSRTIMER
 40
0.0000000000
  9
$TEXTSIZE
 40
2.9999940395
  9
$TEXTSTYLE
  7
STANDARD
  9
$THICKNESS
 40
0.0000000000
  9
$TRACEWID
 40
5.0000000000E-02
  9
$USERI1
 70
     0
  9
$USERI2
 70
     0
  9
$USERI3
 70
     0
  9
$USERI4
 70
     0
  9
$USERI5
 70
     0
  9
$USERR1
 40
0.0000000000
  9
$USERR2
 40
0.0000000000
  9
$USERR3
 40
0.0000000000
  9
$USERR4
 40
0.0000000000
  9
$USERR5
 40
0.0000000000
  9
$USRTIMER
 70
     1
  9
$VIEWCTR
 10
-83.1302185059
 20
92.0243759155
  9
$VIEWDIR
 10
0.0000000000
 20
0.0000000000
 30
1.0000000000
  9
$VIEWSIZE
 40
190.3987518311
  0
ENDSEC
  0
SECTION
  2
TABLES
  0
TABLE
  2
LTYPE
 70
     3
  0
LTYPE
  2
SOLID
  3
Solid
 70
    64
 72
    65
 73
     0
 40
0.0000000000
  0
LTYPE
  2
CENTER
  3
Center
 70
    64
 72
    65
 73
     4
 40
9.1000000238
 49
6.5000000000
 49
-0.8000000119
 49
1.0000000000
 49
-0.8000000119
  0
LTYPE
  2
PHANTOM
  3
Phantom
 70
    64
 72
    65
 73
     6
 40
9.5000001192
 49
4.8000001907
 49
-0.8999999762
 49
1.0000000000
 49
-0.8999999762
 49
1.0000000000
 49
-0.8999999762
  0
ENDTAB
  0
TABLE
  2
LAYER
 70
     3
  0
LAYER
  2
Layer1$C$L1
 70
     0
  6
SOLID
 62
     3
  0
LAYER
  2
Layer6$C$L6
 70
     0
  6
SOLID
 62
    31
  0
LAYER
  2
Layer8$C$L8
 70
     0
  6
SOLID
 62
     7
  0
ENDTAB
  0
TABLE
  2
STYLE
 70
     1
  0
STYLE
  2
STANDARD
  3
txt
  4

 40
0.0000000000
 41
1.0000000000
 42
4.7999906540
 50
0.0000000000
 70
     0
 71
     0
  0
ENDTAB
  0
ENDSEC
  0
SECTION
  2
BLOCKS
  0
BLOCK
  8
Layer8$C$L8
  2
Cadra_attr_0
 70
     2
 10
0.0000000000
 20
0.0000000000
  0
TEXT
  8
Layer8$C$L8
 10
-67.0959259250
 20
25.7682661127
 40
4.1671714783
  1
BR-#
 41
0.8239006733
 72
     5
 11
-56.7959197654
 21
25.7682661127
  0
ATTDEF
  8
Layer8$C$L8
 10
-61.945923
 20
27.851852
 40
0.156000
  1
ìL>ÄK
  3

  2
10
 70
    11
  0
ENDBLK
  8
Layer8$C$L8
  0
BLOCK
  8
Layer8$C$L8
  2
Cadra_attr_1
 70
     2
 10
0.000000
 20
0.000000
  0
TEXT
  8
Layer8$C$L8
 62
     5
 10
-66.0872999535
 20
16.0000000000
 40
5.0000000000
  1
MA4-A03855
 41
0.8595637381
 72
     5
 11
-27.4069317370
 21
16.0000000000
  0
ATTDEF
  8
Layer8$C$L8
 62
     5
 10
-46.747117
 20
18.500000
 40
0.156000
  1
  
  3

  2
20
 70
    11
  0
ENDBLK
  8
Layer8$C$L8
  0
ENDSEC
  0
SECTION
  2
ENTITIES
  0
LINE
  8
Layer1$C$L1
  6
CENTER
 62
     3
 10
-117.4556596006
 20
84.8015647685
 11
-117.4556596006
 21
93.2966819560
  0
CIRCLE
  8
Layer1$C$L1
 62
     3
 10
-117.4556596006
 20
89.0491233623
 40
3.1500000000
  0
LINE
  8
Layer1$C$L1
 62
     3
 10
-116.2556596006
 20
88.0680525188
 11
-116.2556596006
 21
90.0301942058
  0
LINE
  8
Layer1$C$L1
 62
     3
 10
-118.6556596006
 20
88.0680525188
 11
-118.6556596006
 21
90.0301942058
  0
CIRCLE
  8
Layer1$C$L1
 62
     3
 10
-117.4556596006
 20
89.0491233623
 40
1.5500000000
  0
CIRCLE
  8
Layer1$C$L1
 62
     3
 10
-159.4556596006
 20
89.0491233623
 40
1.5500000000
  0
LINE
  8
Layer1$C$L1
 62
     3
 10
-158.2556596006
 20
88.0680525188
 11
-158.2556596006
 21
90.0301942058
  0
LINE
  8
Layer1$C$L1
 62
     3
 10
-160.6556596006
 20
88.0680525188
 11
-160.6556596006
 21
90.0301942058
  0
LINE
  8
Layer1$C$L1
  6
CENTER
 62
     3
 10
-128.7056596006
 20
84.1853538310
 11
-128.7056596006
 21
93.4446311748
  0
LINE
  8
Layer1$C$L1
  6
CENTER
 62
     3
 10
-110.6508805478
 20
89.0491233623
 11
-166.2604386533
 21
89.0491233623
  0
CIRCLE
  8
Layer1$C$L1
 62
     3
 10
-128.7056596006
 20
89.0491233623
 40
3.7500000000
  0
CIRCLE
  8
Layer1$C$L1
 62
     3
 10
-128.7056596006
 20
89.0491233623
 40
2.0000000000
  0
CIRCLE
  8
Layer1$C$L1
 62
     3
 10
-148.2056596006
 20
89.0491233623
 40
2.0000000000
  0
CIRCLE
  8
Layer1$C$L1
 62
     3
 10
-148.2056596006
 20
89.0491233623
 40
3.7500000000
  0
CIRCLE
  8
Layer1$C$L1
 62
     3
 10
-159.4556596006
 20
89.0491233623
 40
3.1500000000
  0
LINE
  8
Layer1$C$L1
 62
     3
 10
-74.0403674412
 20
114.0490012920
 11
-51.0403559971
 21
114.0490012920
  0
LINE
  8
Layer1$C$L1
 62
     3
 10
-74.0403674412
 20
107.0490012920
 11
-51.0403559971
 21
107.0490012920
  0
LINE
  8
Layer1$C$L1
 62
     3
 10
-64.0624309049
 20
112.9261944412
 11
-63.9037444893
 21
112.9261944412
  0
LINE
  8
Layer1$C$L1
 62
     3
 10
-63.9532946959
 20
108.0082136605
 11
-63.9433781422
 21
107.0490012920
  0
LINE
  8
Layer1$C$L1
 62
     3
 10
-54.4242310743
 20
111.6257094095
 11
-61.0124810356
 21
113.4263315245
  0
LINE
  8
Layer1$C$L1
 62
     3
 10
-61.0124679773
 20
113.4263279556
 11
-62.0672343540
 21
113.4263279556
  0
LINE
  8
Layer1$C$L1
 62
     3
 10
-63.6876996802
 20
107.0490012920
 11
-62.0124171960
 21
113.4262875428
  0
LINE
  8
Layer1$C$L1
 62
     3
 10
-54.0403674412
 20
111.1294415115
 11
-54.0403674412
 21
107.0490012920
  0
LINE
  8
Layer1$C$L1
 62
     3
 10
-51.0403559971
 20
111.4890991008
 11
-54.0403674412
 21
111.4890991008
  0
LINE
  8
Layer1$C$L1
 62
     3
 10
-51.0403559971
 20
108.8371215617
 11
-54.0403674412
 21
108.8371215617
  0
LINE
  8
Layer1$C$L1
 62
     3
 10
-63.6087966238
 20
114.0489718279
 11
-65.4476530102
 21
107.0490012920
  0
LINE
  8
Layer1$C$L1
 62
     3
 10
-63.7857913846
 20
111.4046744831
 11
-64.4328392314
 21
108.9415725001
  0
LINE
  8
Layer1$C$L1
 62
     3
 10
-64.2687729094
 20
111.5366421008
 11
-63.7858071439
 21
111.4046438080
  0
LINE
  8
Layer1$C$L1
 62
     3
 10
-64.9158208077
 20
109.0735293391
 11
-64.4328550422
 21
108.9415310463
  0
LINE
  8
Layer1$C$L1
 62
     3
 10
-63.6087717279
 20
114.0490012920
 11
-61.9667071327
 21
113.6002097912
  0
LINE
  8
Layer1$C$L1
 62
     3
 10
-62.9155188363
 20
111.9587997574
 11
-63.9507980559
 21
108.0178255161
  0
LINE
  8
Layer1$C$L1
 62
     3
 10
-62.9155036109
 20
111.9587658091
 11
-61.9666961207
 21
113.6001732187
  0
LINE
  8
Layer1$C$L1
 62
     3
 10
-63.9868357449
 20
113.8074445079
 11
-64.5159137449
 21
113.9026016701
  0
LINE
  8
Layer1$C$L1
 62
     3
 10
-66.0159617590
 20
107.0490012920
 11
-66.2896256745
 21
107.1505992706
  0
LINE
  8
Layer1$C$L1
 62
     3
 10
-65.0452115604
 20
108.5808748482
 11
-65.7455315438
 21
107.0490012920
  0
LINE
  8
Layer1$C$L1
 62
     3
 10
-63.9868437055
 20
113.8074288910
 11
-64.1393654476
 21
112.0292519689
  0
LINE
  8
Layer1$C$L1
 62
     3
 10
-63.9868052362
 20
113.8074577116
 11
-65.7622117758
 21
107.0490012920
  0
LINE
  8
Layer1$C$L1
 62
     3
 10
-63.8860827578
 20
108.2641053457
 11
-63.4031355700
 21
108.1321113951
  0
LINE
  8
Layer1$C$L1
 62
     3
 10
-62.9802238271
 20
111.7125011374
 11
-62.4972582407
 21
111.5805021582
  0
POLYLINE
  8
Layer1$C$L1
 62
     3
 66
     1
  0
VERTEX
  8
Layer1$C$L1
 62
     3
 10
-64.5163625634
 20
113.9026574556
  0
VERTEX
  8
Layer1$C$L1
 62
     3
 10
-64.5673888535
 20
113.9090502190
  0
VERTEX
  8
Layer1$C$L1
 62
     3
 10
-64.6187889792
 20
113.9100647137
  0
VERTEX
  8
Layer1$C$L1
 62
     3
 10
-64.6700195294
 20
113.9056902141
  0
VERTEX
  8
Layer1$C$L1
 62
     3
 10
-64.7205388860
 20
113.8959729682
  0
VERTEX
  8
Layer1$C$L1
 62
     3
 10
-64.7698129497
 20
113.8810157084
  0
VERTEX
  8
Layer1$C$L1
 62
     3
 10
-64.8173207867
 20
113.8609765654
  0
VERTEX
  8
Layer1$C$L1
 62
     3
 10
-64.8625601360
 20
113.8360673964
  0
VERTEX
  8
Layer1$C$L1
 62
     3
 10
-64.9050527195
 20
113.8065515455
  0
SEQEND
  8
Layer1$C$L1
 62
     3
  0
POLYLINE
  8
Layer1$C$L1
 62
     3
 66
     1
  0
VERTEX
  8
Layer1$C$L1
 62
     3
 10
-66.5792842892
 20
107.4315435207
  0
VERTEX
  8
Layer1$C$L1
 62
     3
 10
-66.5569400819
 20
107.3844423972
  0
VERTEX
  8
Layer1$C$L1
 62
     3
 10
-66.5299819502
 20
107.3399244841
  0
VERTEX
  8
Layer1$C$L1
 62
     3
 10
-66.4986936744
 20
107.2984584084
  0
VERTEX
  8
Layer1$C$L1
 62
     3
 10
-66.4634046170
 20
107.2604806714
  0
VERTEX
  8
Layer1$C$L1
 62
     3
 10
-66.4244862557
 20
107.2263910536
  0
VERTEX
  8
Layer1$C$L1
 62
     3
 10
-66.3823482726
 20
107.1965484066
  0
VERTEX
  8
Layer1$C$L1
 62
     3
 10
-66.3374342420
 20
107.1712668751
  0
VERTEX
  8
Layer1$C$L1
 62
     3
 10
-66.2902169609
 20
107.1508125903
  0
SEQEND
  8
Layer1$C$L1
 62
     3
  0
POLYLINE
  8
Layer1$C$L1
 62
     3
 66
     1
  0
VERTEX
  8
Layer1$C$L1
 62
     3
 10
-64.9049078887
 20
113.8067231404
  0
VERTEX
  8
Layer1$C$L1
 62
     3
 10
-65.4854577489
 20
113.2856516030
  0
VERTEX
  8
Layer1$C$L1
 62
     3
 10
-65.9850152598
 20
112.6835465993
  0
VERTEX
  8
Layer1$C$L1
 62
     3
 10
-66.3928282602
 20
112.0133674581
  0
VERTEX
  8
Layer1$C$L1
 62
     3
 10
-66.7001192402
 20
111.2895386928
  0
VERTEX
  8
Layer1$C$L1
 62
     3
 10
-66.9002742622
 20
110.5276395380
  0
VERTEX
  8
Layer1$C$L1
 62
     3
 10
-66.9889853157
 20
109.7440686308
  0
VERTEX
  8
Layer1$C$L1
 62
     3
 10
-66.9643430398
 20
108.9556910578
  0
VERTEX
  8
Layer1$C$L1
 62
     3
 10
-66.8268778193
 20
108.1794753613
  0
VERTEX
  8
Layer1$C$L1
 62
     3
 10
-66.5795483691
 20
107.4321283187
  0
SEQEND
  8
Layer1$C$L1
 62
     3
  0
POLYLINE
  8
Layer1$C$L1
 62
     3
 66
     1
  0
VERTEX
  8
Layer1$C$L1
 62
     3
 10
-54.0403674412
 20
111.1294415115
  0
VERTEX
  8
Layer1$C$L1
 62
     3
 10
-54.0470412197
 20
111.2124900994
  0
VERTEX
  8
Layer1$C$L1
 62
     3
 10
-54.0668843951
 20
111.2933216620
  0
VERTEX
  8
Layer1$C$L1
 62
     3
 10
-54.0993672435
 20
111.3697783586
  0
VERTEX
  8
Layer1$C$L1
 62
     3
 10
-54.1436226185
 20
111.4398191378
  0
VERTEX
  8
Layer1$C$L1
 62
     3
 10
-54.1984690995
 20
111.5015742244
  0
VERTEX
  8
Layer1$C$L1
 62
     3
 10
-54.2624425314
 20
111.5533950343
  0
VERTEX
  8
Layer1$C$L1
 62
     3
 10
-54.3338351099
 20
111.5938981840
  0
VERTEX
  8
Layer1$C$L1
 62
     3
 10
-54.4107409730
 20
111.6220024207
  0
SEQEND
  8
Layer1$C$L1
 62
     3
  0
LINE
  8
Layer1$C$L1
 62
     3
 10
-124.1557328428
 20
64.0491233623
 11
-133.4556596006
 21
64.0491233623
  0
LINE
  8
Layer1$C$L1
 62
     3
 10
-133.4556596006
 20
64.0491233623
 11
-152.7557084287
 21
64.0491233623
  0
LINE
  8
Layer1$C$L1
 62
     3
 10
-132.9084641660
 20
64.0491233623
 11
-126.0028550351
 21
64.0491233623
  0
ARC
  8
Layer1$C$L1
 62
     3
 10
-147.4556443418
 20
69.5133109843
 40
0.5000000000
 50
225.0000003416
 51
315.0000916386
  0
ARC
  8
Layer1$C$L1
 62
     3
 10
-146.0414292539
 20
68.0990958965
 40
0.5000000000
 50
134.9999466107
 51
224.9999457001
  0
ARC
  8
Layer1$C$L1
 62
     3
 10
-147.4556443418
 20
66.6848808086
 40
0.5000000000
 50
44.9999987478
 51
134.9999807617
  0
ARC
  8
Layer1$C$L1
 62
     3
 10
-148.8698594297
 20
68.0990958965
 40
0.5000000000
 50
315.0001635829
 51
404.9999987478
  0
CIRCLE
  8
Layer1$C$L1
 62
     3
 10
-147.4556596006
 20
68.0990958965
 40
3.5000000000
  0
LINE
  8
Layer1$C$L1
 62
     3
 10
-148.5162633436
 20
67.7455894220
 11
-149.2587168195
 21
67.0031359462
  0
LINE
  8
Layer1$C$L1
 62
     3
 10
-147.8091565745
 20
67.0384826529
 11
-148.5516100504
 21
66.2960291771
  0
LINE
  8
Layer1$C$L1
 62
     3
 10
-147.1020605950
 20
67.0384718634
 11
-145.3342936723
 21
65.2707049406
  0
LINE
  8
Layer1$C$L1
 62
     3
 10
-146.3949754051
 20
67.7455570533
 11
-144.6272084824
 21
65.9777901305
  0
LINE
  8
Layer1$C$L1
 62
     3
 10
-146.3596286984
 20
69.9022240673
 11
-145.6525219293
 21
69.1951172982
  0
LINE
  8
Layer1$C$L1
 62
     3
 10
-149.2587159178
 20
67.0031182782
 11
-148.5516143939
 21
66.2960062639
  0
LINE
  8
Layer1$C$L1
 62
     3
 10
-145.6525219293
 20
69.1951172982
 11
-146.3949754051
 21
68.4526638223
  0
LINE
  8
Layer1$C$L1
 62
     3
 10
-146.3596286984
 20
69.9022240673
 11
-147.1020821742
 21
69.1597705914
  0
LINE
  8
Layer1$C$L1
 62
     3
 10
-149.5515787432
 20
70.9021603913
 11
-147.8091889433
 21
69.1597705914
  0
LINE
  8
Layer1$C$L1
 62
     3
 10
-150.2586639331
 20
70.1950752014
 11
-148.5162741332
 21
68.4526854015
  0
LINE
  8
Layer1$C$L1
 62
     3
 10
-144.0028550351
 20
64.0491233623
 11
-150.9084641660
 21
64.0491233623
  0
LINE
  8
Layer1$C$L1
 62
     3
 10
-144.0028550351
 20
64.0491233623
 11
-144.0028550351
 21
72.1491233623
  0
LINE
  8
Layer1$C$L1
 62
     3
 10
-150.9084641660
 20
64.0491081035
 11
-150.9084641660
 21
72.1491233623
  0
LINE
  8
Layer1$C$L1
 62
     3
 10
-143.4556596006
 20
72.1491233623
 11
-151.4556596006
 21
72.1491233623
  0
LINE
  8
Layer1$C$L1
 62
     3
 10
-133.4556596006
 20
72.1491233623
 11
-125.4556596006
 21
72.1491233623
  0
LINE
  8
Layer1$C$L1
 62
     3
 10
-126.0028550351
 20
64.0491081035
 11
-126.0028550351
 21
72.1491233623
  0
LINE
  8
Layer1$C$L1
 62
     3
 10
-132.9084641660
 20
64.0491233623
 11
-132.9084641660
 21
72.1491233623
  0
LINE
  8
Layer1$C$L1
 62
     3
 10
-126.6526552680
 20
70.1950752014
 11
-128.3950450679
 21
68.4526854015
  0
LINE
  8
Layer1$C$L1
 62
     3
 10
-127.3597404579
 20
70.9021603913
 11
-129.1021302578
 21
69.1597705914
  0
LINE
  8
Layer1$C$L1
 62
     3
 10
-130.5516905028
 20
69.9022240673
 11
-129.8092370269
 21
69.1597705914
  0
LINE
  8
Layer1$C$L1
 62
     3
 10
-131.2587972719
 20
69.1951172982
 11
-130.5163437960
 21
68.4526638223
  0
LINE
  8
Layer1$C$L1
 62
     3
 10
-127.6526032834
 20
67.0031182782
 11
-128.3597048072
 21
66.2960062639
  0
LINE
  8
Layer1$C$L1
 62
     3
 10
-130.5516905028
 20
69.9022240673
 11
-131.2587972719
 21
69.1951172982
  0
LINE
  8
Layer1$C$L1
 62
     3
 10
-130.5163437960
 20
67.7455570533
 11
-132.2841107187
 21
65.9777901305
  0
LINE
  8
Layer1$C$L1
 62
     3
 10
-129.8092586061
 20
67.0384718634
 11
-131.5770255288
 21
65.2707049406
  0
LINE
  8
Layer1$C$L1
 62
     3
 10
-129.1021626266
 20
67.0384826529
 11
-128.3597091507
 21
66.2960291771
  0
LINE
  8
Layer1$C$L1
 62
     3
 10
-128.3950558575
 20
67.7455894220
 11
-127.6526023817
 21
67.0031359462
  0
CIRCLE
  8
Layer1$C$L1
 62
     3
 10
-129.4556596006
 20
68.0990958965
 40
3.5000000000
  0
ARC
  8
Layer1$C$L1
 62
     3
 10
-128.0414597715
 20
68.0990958965
 40
0.5000000000
 50
135.0000012522
 51
224.9998364171
  0
ARC
  8
Layer1$C$L1
 62
     3
 10
-129.4556748594
 20
66.6848808086
 40
0.5000000000
 50
45.0000192383
 51
135.0000012522
  0
ARC
  8
Layer1$C$L1
 62
     3
 10
-130.8698899473
 20
68.0990958965
 40
0.5000000000
 50
315.0000542999
 51
405.0000533893
  0
ARC
  8
Layer1$C$L1
 62
     3
 10
-129.4556748594
 20
69.5133109843
 40
0.5000000000
 50
224.9999083614
 51
314.9999996584
  0
ARC
  8
Layer1$C$L1
 62
     3
 10
-129.4556748594
 20
108.5849357402
 40
0.5000000000
 50
45.0000003416
 51
135.0000916386
  0
ARC
  8
Layer1$C$L1
 62
     3
 10
-130.8698899473
 20
109.9991508281
 40
0.5000000000
 50
314.9999466107
 51
404.9999457001
  0
ARC
  8
Layer1$C$L1
 62
     3
 10
-129.4556748594
 20
111.4133659160
 40
0.5000000000
 50
224.9999987478
 51
314.9999807617
  0
ARC
  8
Layer1$C$L1
 62
     3
 10
-128.0414597715
 20
109.9991508281
 40
0.5000000000
 50
135.0001635829
 51
224.9999987478
  0
CIRCLE
  8
Layer1$C$L1
 62
     3
 10
-129.4556596006
 20
109.9991508281
 40
3.5000000000
  0
LINE
  8
Layer1$C$L1
 62
     3
 10
-128.3950558575
 20
110.3526573025
 11
-127.6526023817
 21
111.0951107784
  0
LINE
  8
Layer1$C$L1
 62
     3
 10
-129.1021626266
 20
111.0597640716
 11
-128.3597091507
 21
111.8022175475
  0
LINE
  8
Layer1$C$L1
 62
     3
 10
-129.8092586061
 20
111.0597748612
 11
-131.5770255288
 21
112.8275417839
  0
LINE
  8
Layer1$C$L1
 62
     3
 10
-130.5163437960
 20
110.3526896713
 11
-132.2841107187
 21
112.1204565940
  0
LINE
  8
Layer1$C$L1
 62
     3
 10
-130.5516905028
 20
108.1960226573
 11
-131.2587972719
 21
108.9031294263
  0
LINE
  8
Layer1$C$L1
 62
     3
 10
-127.6526032834
 20
111.0951284464
 11
-128.3597048072
 21
111.8022404607
  0
LINE
  8
Layer1$C$L1
 62
     3
 10
-131.2587972719
 20
108.9031294263
 11
-130.5163437960
 21
109.6455829022
  0
LINE
  8
Layer1$C$L1
 62
     3
 10
-130.5516905028
 20
108.1960226573
 11
-129.8092370269
 21
108.9384761331
  0
LINE
  8
Layer1$C$L1
 62
     3
 10
-127.3597404579
 20
107.1960863332
 11
-129.1021302578
 21
108.9384761331
  0
LINE
  8
Layer1$C$L1
 62
     3
 10
-126.6526552680
 20
107.9031715231
 11
-128.3950450679
 21
109.6455613230
  0
LINE
  8
Layer1$C$L1
 62
     3
 10
-132.9084641660
 20
114.0491233623
 11
-126.0028550351
 21
114.0491233623
  0
LINE
  8
Layer1$C$L1
 62
     3
 10
-132.9084641660
 20
114.0491233623
 11
-132.9084641660
 21
105.9491233623
  0
LINE
  8
Layer1$C$L1
 62
     3
 10
-126.0028550351
 20
114.0491386211
 11
-126.0028550351
 21
105.9491233623
  0
LINE
  8
Layer1$C$L1
 62
     3
 10
-133.4556596006
 20
105.9491233623
 11
-125.4556596006
 21
105.9491233623
  0
LINE
  8
Layer1$C$L1
 62
     3
 10
-143.4556596006
 20
105.9491233623
 11
-151.4556596006
 21
105.9491233623
  0
LINE
  8
Layer1$C$L1
 62
     3
 10
-150.9084641660
 20
114.0491386211
 11
-150.9084641660
 21
105.9491233623
  0
LINE
  8
Layer1$C$L1
 62
     3
 10
-144.0028550351
 20
114.0491233623
 11
-144.0028550351
 21
105.9491233623
  0
LINE
  8
Layer1$C$L1
 62
     3
 10
-144.0028550351
 20
114.0491233623
 11
-150.9084641660
 21
114.0491233623
  0
LINE
  8
Layer1$C$L1
 62
     3
 10
-150.2586639331
 20
107.9031715231
 11
-148.5162741332
 21
109.6455613230
  0
LINE
  8
Layer1$C$L1
 62
     3
 10
-149.5515787432
 20
107.1960863332
 11
-147.8091889433
 21
108.9384761331
  0
LINE
  8
Layer1$C$L1
 62
     3
 10
-146.3596286984
 20
108.1960226573
 11
-147.1020821742
 21
108.9384761331
  0
LINE
  8
Layer1$C$L1
 62
     3
 10
-145.6525219293
 20
108.9031294263
 11
-146.3949754051
 21
109.6455829022
  0
LINE
  8
Layer1$C$L1
 62
     3
 10
-149.2587159178
 20
111.0951284464
 11
-148.5516143939
 21
111.8022404607
  0
LINE
  8
Layer1$C$L1
 62
     3
 10
-146.3596286984
 20
108.1960226573
 11
-145.6525219293
 21
108.9031294263
  0
LINE
  8
Layer1$C$L1
 62
     3
 10
-146.3949754051
 20
110.3526896713
 11
-144.6272084824
 21
112.1204565940
  0
LINE
  8
Layer1$C$L1
 62
     3
 10
-147.1020605950
 20
111.0597748612
 11
-145.3342936723
 21
112.8275417839
  0
LINE
  8
Layer1$C$L1
 62
     3
 10
-147.8091565745
 20
111.0597640716
 11
-148.5516100504
 21
111.8022175475
  0
LINE
  8
Layer1$C$L1
 62
     3
 10
-148.5162633436
 20
110.3526573025
 11
-149.2587168195
 21
111.0951107784
  0
CIRCLE
  8
Layer1$C$L1
 62
     3
 10
-147.4556596006
 20
109.9991508281
 40
3.5000000000
  0
ARC
  8
Layer1$C$L1
 62
     3
 10
-148.8698594297
 20
109.9991508281
 40
0.5000000000
 50
315.0000012522
 51
404.9998364171
  0
ARC
  8
Layer1$C$L1
 62
     3
 10
-147.4556443418
 20
111.4133659160
 40
0.5000000000
 50
225.0000192383
 51
315.0000012522
  0
ARC
  8
Layer1$C$L1
 62
     3
 10
-146.0414292539
 20
109.9991508281
 40
0.5000000000
 50
135.0000542999
 51
225.0000533893
  0
ARC
  8
Layer1$C$L1
 62
     3
 10
-147.4556443418
 20
108.5849357402
 40
0.5000000000
 50
44.9999083614
 51
134.9999996584
  0
INSERT
  8
Layer8$C$L8
 66
     1
  2
Cadra_attr_0
 10
0.000000
 20
0.000000
  0
ATTRIB
  8
Layer8$C$L8
 10
-61.945923
 20
27.851852
 40
0.156000
  1
ìL>ÄK
  2
10
 70
    11
  0
SEQEND
  8
Layer8$C$L8
  0
POLYLINE
  8
Layer1$C$L1
 62
     3
 66
     1
  0
VERTEX
  8
Layer1$C$L1
 62
     3
 10
-54.4107409730
 20
66.4762443038
  0
VERTEX
  8
Layer1$C$L1
 62
     3
 10
-54.3338351099
 20
66.5043485405
  0
VERTEX
  8
Layer1$C$L1
 62
     3
 10
-54.2624425314
 20
66.5448516902
  0
VERTEX
  8
Layer1$C$L1
 62
     3
 10
-54.1984690995
 20
66.5966725001
  0
VERTEX
  8
Layer1$C$L1
 62
     3
 10
-54.1436226185
 20
66.6584275868
  0
VERTEX
  8
Layer1$C$L1
 62
     3
 10
-54.0993672435
 20
66.7284683659
  0
VERTEX
  8
Layer1$C$L1
 62
     3
 10
-54.0668843951
 20
66.8049250625
  0
VERTEX
  8
Layer1$C$L1
 62
     3
 10
-54.0470412197
 20
66.8857566251
  0
VERTEX
  8
Layer1$C$L1
 62
     3
 10
-54.0403674412
 20
66.9688052131
  0
SEQEND
  8
Layer1$C$L1
 62
     3
  0
POLYLINE
  8
Layer1$C$L1
 62
     3
 66
     1
  0
VERTEX
  8
Layer1$C$L1
 62
     3
 10
-66.5795483691
 20
70.6661184058
  0
VERTEX
  8
Layer1$C$L1
 62
     3
 10
-66.8268778193
 20
69.9187713633
  0
VERTEX
  8
Layer1$C$L1
 62
     3
 10
-66.9643430398
 20
69.1425556667
  0
VERTEX
  8
Layer1$C$L1
 62
     3
 10
-66.9889853157
 20
68.3541780938
  0
VERTEX
  8
Layer1$C$L1
 62
     3
 10
-66.9002742622
 20
67.5706071866
  0
VERTEX
  8
Layer1$C$L1
 62
     3
 10
-66.7001192402
 20
66.8087080317
  0
VERTEX
  8
Layer1$C$L1
 62
     3
 10
-66.3928282602
 20
66.0848792665
  0
VERTEX
  8
Layer1$C$L1
 62
     3
 10
-65.9850152598
 20
65.4147001252
  0
VERTEX
  8
Layer1$C$L1
 62
     3
 10
-65.4854577489
 20
64.8125951215
  0
VERTEX
  8
Layer1$C$L1
 62
     3
 10
-64.9049078887
 20
64.2915235841
  0
SEQEND
  8
Layer1$C$L1
 62
     3
  0
POLYLINE
  8
Layer1$C$L1
 62
     3
 66
     1
  0
VERTEX
  8
Layer1$C$L1
 62
     3
 10
-66.2902169609
 20
70.9474341342
  0
VERTEX
  8
Layer1$C$L1
 62
     3
 10
-66.3374342420
 20
70.9269798495
  0
VERTEX
  8
Layer1$C$L1
 62
     3
 10
-66.3823482726
 20
70.9016983180
  0
VERTEX
  8
Layer1$C$L1
 62
     3
 10
-66.4244862557
 20
70.8718556709
  0
VERTEX
  8
Layer1$C$L1
 62
     3
 10
-66.4634046170
 20
70.8377660532
  0
VERTEX
  8
Layer1$C$L1
 62
     3
 10
-66.4986936744
 20
70.7997883162
  0
VERTEX
  8
Layer1$C$L1
 62
     3
 10
-66.5299819502
 20
70.7583222405
  0
VERTEX
  8
Layer1$C$L1
 62
     3
 10
-66.5569400819
 20
70.7138043274
  0
VERTEX
  8
Layer1$C$L1
 62
     3
 10
-66.5792842892
 20
70.6667032039
  0
SEQEND
  8
Layer1$C$L1
 62
     3
  0
POLYLINE
  8
Layer1$C$L1
 62
     3
 66
     1
  0
VERTEX
  8
Layer1$C$L1
 62
     3
 10
-64.9050527195
 20
64.2916951790
  0
VERTEX
  8
Layer1$C$L1
 62
     3
 10
-64.8625601360
 20
64.2621793281
  0
VERTEX
  8
Layer1$C$L1
 62
     3
 10
-64.8173207867
 20
64.2372701592
  0
VERTEX
  8
Layer1$C$L1
 62
     3
 10
-64.7698129497
 20
64.2172310162
  0
VERTEX
  8
Layer1$C$L1
 62
     3
 10
-64.7205388860
 20
64.2022737564
  0
VERTEX
  8
Layer1$C$L1
 62
     3
 10
-64.6700195294
 20
64.1925565105
  0
VERTEX
  8
Layer1$C$L1
 62
     3
 10
-64.6187889792
 20
64.1881820109
  0
VERTEX
  8
Layer1$C$L1
 62
     3
 10
-64.5673888535
 20
64.1891965055
  0
VERTEX
  8
Layer1$C$L1
 62
     3
 10
-64.5163625634
 20
64.1955892690
  0
SEQEND
  8
Layer1$C$L1
 62
     3
  0
LINE
  8
Layer1$C$L1
 62
     3
 10
-62.9802238271
 20
66.3857455872
 11
-62.4972582407
 21
66.5177445664
  0
LINE
  8
Layer1$C$L1
 62
     3
 10
-63.8860827578
 20
69.8341413788
 11
-63.4031355700
 21
69.9661353295
  0
LINE
  8
Layer1$C$L1
 62
     3
 10
-63.9868052362
 20
64.2907890129
 11
-65.7622117758
 21
71.0492454326
  0
LINE
  8
Layer1$C$L1
 62
     3
 10
-63.9868437055
 20
64.2908178336
 11
-64.1393654476
 21
66.0689947557
  0
LINE
  8
Layer1$C$L1
 62
     3
 10
-65.0452115604
 20
69.5173718764
 11
-65.7455315438
 21
71.0492454326
  0
LINE
  8
Layer1$C$L1
 62
     3
 10
-66.0159617590
 20
71.0492454326
 11
-66.2896256745
 21
70.9476474540
  0
LINE
  8
Layer1$C$L1
 62
     3
 10
-63.9868357449
 20
64.2908022166
 11
-64.5159137449
 21
64.1956450544
  0
LINE
  8
Layer1$C$L1
 62
     3
 10
-62.9155036109
 20
66.1394809155
 11
-61.9666961207
 21
64.4980735059
  0
LINE
  8
Layer1$C$L1
 62
     3
 10
-62.9155188363
 20
66.1394469672
 11
-63.9507980559
 21
70.0804212085
  0
LINE
  8
Layer1$C$L1
 62
     3
 10
-63.6087717279
 20
64.0492454326
 11
-61.9667071327
 21
64.4980369334
  0
LINE
  8
Layer1$C$L1
 62
     3
 10
-64.9158208077
 20
69.0247173854
 11
-64.4328550422
 21
69.1567156783
  0
LINE
  8
Layer1$C$L1
 62
     3
 10
-64.2687729094
 20
66.5616046237
 11
-63.7858071439
 21
66.6936029166
  0
LINE
  8
Layer1$C$L1
 62
     3
 10
-63.7857913846
 20
66.6935722415
 11
-64.4328392314
 21
69.1566742244
  0
LINE
  8
Layer1$C$L1
 62
     3
 10
-63.6087966238
 20
64.0492748966
 11
-65.4476530102
 21
71.0492454326
  0
LINE
  8
Layer1$C$L1
 62
     3
 10
-51.0403559971
 20
69.2611251628
 11
-54.0403674412
 21
69.2611251628
  0
LINE
  8
Layer1$C$L1
 62
     3
 10
-51.0403559971
 20
66.6091476237
 11
-54.0403674412
 21
66.6091476237
  0
LINE
  8
Layer1$C$L1
 62
     3
 10
-54.0403674412
 20
66.9688052131
 11
-54.0403674412
 21
71.0492454326
  0
LINE
  8
Layer1$C$L1
 62
     3
 10
-63.6876996802
 20
71.0492454326
 11
-62.0124171960
 21
64.6719591817
  0
LINE
  8
Layer1$C$L1
 62
     3
 10
-61.0124679773
 20
64.6719187690
 11
-62.0672343540
 21
64.6719187690
  0
LINE
  8
Layer1$C$L1
 62
     3
 10
-54.4242310743
 20
66.4725373150
 11
-61.0124810356
 21
64.6719152000
  0
LINE
  8
Layer1$C$L1
 62
     3
 10
-63.9532946959
 20
70.0900330640
 11
-63.9433781422
 21
71.0492454326
  0
LINE
  8
Layer1$C$L1
 62
     3
 10
-64.0624309049
 20
65.1720522834
 11
-63.9037444893
 21
65.1720522834
  0
LINE
  8
Layer1$C$L1
 62
     3
 10
-74.0403674412
 20
71.0492454326
 11
-51.0403559971
 21
71.0492454326
  0
LINE
  8
Layer1$C$L1
 62
     3
 10
-74.0403674412
 20
64.0492454326
 11
-51.0403559971
 21
64.0492454326
  0
LINE
  8
Layer1$C$L1
 62
     3
 10
-74.0403674412
 20
114.0490012920
 11
-74.0403674412
 21
64.0492454326
  0
LINE
  8
Layer1$C$L1
 62
     3
 10
-74.0403674412
 20
184.0487571513
 11
-74.0403674412
 21
134.0490012920
  0
LINE
  8
Layer1$C$L1
 62
     3
 10
-51.0403559971
 20
64.0492454326
 11
-51.0403559971
 21
114.0490012920
  0
LINE
  8
Layer1$C$L1
 62
     3
 10
-51.0403559971
 20
184.0487571513
 11
-51.0403559971
 21
134.0490012920
  0
LINE
  8
Layer1$C$L1
 62
     3
 10
-51.0403559971
 20
83.9491210735
 11
-74.0403674412
 21
83.9491210735
  0
POLYLINE
  8
Layer1$C$L1
 62
     3
 66
     1
  0
VERTEX
  8
Layer1$C$L1
 62
     3
 10
-66.9128870395
 20
171.7282117601
  0
VERTEX
  8
Layer1$C$L1
 62
     3
 10
-67.1350526709
 20
171.7952039964
  0
VERTEX
  8
Layer1$C$L1
 62
     3
 10
-67.3613326391
 20
171.8458829962
  0
VERTEX
  8
Layer1$C$L1
 62
     3
 10
-67.5905771662
 20
171.8799912483
  0
VERTEX
  8
Layer1$C$L1
 62
     3
 10
-67.8216214107
 20
171.8973554412
  0
VERTEX
  8
Layer1$C$L1
 62
     3
 10
-68.0532913864
 20
171.8978873438
  0
VERTEX
  8
Layer1$C$L1
 62
     3
 10
-68.2844099276
 20
171.8815842532
  0
VERTEX
  8
Layer1$C$L1
 62
     3
 10
-68.5138026706
 20
171.8485290091
  0
VERTEX
  8
Layer1$C$L1
 62
     3
 10
-68.7403040208
 20
171.7988895723
  0
SEQEND
  8
Layer1$C$L1
 62
     3
  0
POLYLINE
  8
Layer1$C$L1
 62
     3
 66
     1
  0
VERTEX
  8
Layer1$C$L1
 62
     3
 10
-69.0854036079
 20
164.7688678014
  0
VERTEX
  8
Layer1$C$L1
 62
     3
 10
-68.8225134162
 20
164.6811853545
  0
VERTEX
  8
Layer1$C$L1
 62
     3
 10
-68.5532660825
 20
164.6166199941
  0
VERTEX
  8
Layer1$C$L1
 62
     3
 10
-68.2796116509
 20
164.5756393395
  0
VERTEX
  8
Layer1$C$L1
 62
     3
 10
-68.0035320840
 20
164.5585401963
  0
VERTEX
  8
Layer1$C$L1
 62
     3
 10
-67.7270269088
 20
164.5654464062
  0
VERTEX
  8
Layer1$C$L1
 62
     3
 10
-67.4520987349
 20
164.5963079505
  0
VERTEX
  8
Layer1$C$L1
 62
     3
 10
-67.1807387500
 20
164.6509013122
  0
VERTEX
  8
Layer1$C$L1
 62
     3
 10
-66.9149122994
 20
164.7288310947
  0
SEQEND
  8
Layer1$C$L1
 62
     3
  0
POLYLINE
  8
Layer1$C$L1
 62
     3
 66
     1
  0
VERTEX
  8
Layer1$C$L1
 62
     3
 10
-65.7403491307
 20
170.0138644356
  0
VERTEX
  8
Layer1$C$L1
 62
     3
 10
-65.7307419672
 20
169.9143671454
  0
VERTEX
  8
Layer1$C$L1
 62
     3
 10
-65.7022895527
 20
169.8186934725
  0
VERTEX
  8
Layer1$C$L1
 62
     3
 10
-65.6560852989
 20
169.7305201069
  0
VERTEX
  8
Layer1$C$L1
 62
     3
 10
-65.5939048113
 20
169.6532355057
  0
VERTEX
  8
Layer1$C$L1
 62
     3
 10
-65.5181376542
 20
169.5898096763
  0
VERTEX
  8
Layer1$C$L1
 62
     3
 10
-65.4316955203
 20
169.5426800406
  0
VERTEX
  8
Layer1$C$L1
 62
     3
 10
-65.3379003364
 20
169.5136577663
  0
VERTEX
  8
Layer1$C$L1
 62
     3
 10
-65.2403566031
 20
169.5038581645
  0
SEQEND
  8
Layer1$C$L1
 62
     3
  0
POLYLINE
  8
Layer1$C$L1
 62
     3
 66
     1
  0
VERTEX
  8
Layer1$C$L1
 62
     3
 10
-65.2403566031
 20
166.9538665569
  0
VERTEX
  8
Layer1$C$L1
 62
     3
 10
-65.3379002595
 20
166.9440669706
  0
VERTEX
  8
Layer1$C$L1
 62
     3
 10
-65.4316953753
 20
166.9150447420
  0
VERTEX
  8
Layer1$C$L1
 62
     3
 10
-65.5181374585
 20
166.8679151785
  0
VERTEX
  8
Layer1$C$L1
 62
     3
 10
-65.5939045894
 20
166.8044894421
  0
VERTEX
  8
Layer1$C$L1
 62
     3
 10
-65.6560850809
 20
166.7272049472
  0
VERTEX
  8
Layer1$C$L1
 62
     3
 10
-65.7022893726
 20
166.6390316926
  0
VERTEX
  8
Layer1$C$L1
 62
     3
 10
-65.7307418600
 20
166.5433581255
  0
VERTEX
  8
Layer1$C$L1
 62
     3
 10
-65.7403491307
 20
166.4438609261
  0
SEQEND
  8
Layer1$C$L1
 62
     3
  0
POLYLINE
  8
Layer1$C$L1
 62
     3
 66
     1
  0
VERTEX
  8
Layer1$C$L1
 62
     3
 10
-67.8576142223
 20
166.0573237610
  0
VERTEX
  8
Layer1$C$L1
 62
     3
 10
-67.8212708735
 20
166.0018970209
  0
VERTEX
  8
Layer1$C$L1
 62
     3
 10
-67.7781488115
 20
165.9517805794
  0
VERTEX
  8
Layer1$C$L1
 62
     3
 10
-67.7289851889
 20
165.9078311550
  0
VERTEX
  8
Layer1$C$L1
 62
     3
 10
-67.6746204360
 20
165.8708000437
  0
VERTEX
  8
Layer1$C$L1
 62
     3
 10
-67.6159838944
 20
165.8413202759
  0
VERTEX
  8
Layer1$C$L1
 62
     3
 10
-67.5540779299
 20
165.8198957953
  0
VERTEX
  8
Layer1$C$L1
 62
     3
 10
-67.4899607975
 20
165.8068928440
  0
VERTEX
  8
Layer1$C$L1
 62
     3
 10
-67.4247285513
 20
165.8025337016
  0
SEQEND
  8
Layer1$C$L1
 62
     3
  0
POLYLINE
  8
Layer1$C$L1
 62
     3
 66
     1
  0
VERTEX
  8
Layer1$C$L1
 62
     3
 10
-67.6329094798
 20
166.8843549006
  0
VERTEX
  8
Layer1$C$L1
 62
     3
 10
-67.5965661311
 20
166.8289291969
  0
VERTEX
  8
Layer1$C$L1
 62
     3
 10
-67.5534440691
 20
166.7788136925
  0
VERTEX
  8
Layer1$C$L1
 62
     3
 10
-67.5042804464
 20
166.7348650899
  0
VERTEX
  8
Layer1$C$L1
 62
     3
 10
-67.4499156936
 20
166.6978346711
  0
VERTEX
  8
Layer1$C$L1
 62
     3
 10
-67.3912791520
 20
166.6683554546
  0
VERTEX
  8
Layer1$C$L1
 62
     3
 10
-67.3293731874
 20
166.6469313746
  0
VERTEX
  8
Layer1$C$L1
 62
     3
 10
-67.2652560551
 20
166.6339286664
  0
VERTEX
  8
Layer1$C$L1
 62
     3
 10
-67.2000238089
 20
166.6295696056
  0
SEQEND
  8
Layer1$C$L1
 62
     3
  0
POLYLINE
  8
Layer1$C$L1
 62
     3
 66
     1
  0
VERTEX
  8
Layer1$C$L1
 62
     3
 10
-69.7245293907
 20
170.7679828163
  0
VERTEX
  8
Layer1$C$L1
 62
     3
 10
-69.7427920586
 20
170.7131765855
  0
VERTEX
  8
Layer1$C$L1
 62
     3
 10
-69.7548483404
 20
170.6566124681
  0
VERTEX
  8
Layer1$C$L1
 62
     3
 10
-69.7605429192
 20
170.5990191594
  0
VERTEX
  8
Layer1$C$L1
 62
     3
 10
-69.7598024339
 20
170.5411386133
  0
VERTEX
  8
Layer1$C$L1
 62
     3
 10
-69.7526364238
 20
170.4837164843
  0
VERTEX
  8
Layer1$C$L1
 62
     3
 10
-69.7391372061
 20
170.4274925210
  0
VERTEX
  8
Layer1$C$L1
 62
     3
 10
-69.7194786865
 20
170.3731910366
  0
VERTEX
  8
Layer1$C$L1
 62
     3
 10
-69.6939141185
 20
170.3215115778
  0
SEQEND
  8
Layer1$C$L1
 62
     3
  0
POLYLINE
  8
Layer1$C$L1
 62
     3
 66
     1
  0
VERTEX
  8
Layer1$C$L1
 62
     3
 10
-68.7401297192
 20
146.2988049187
  0
VERTEX
  8
Layer1$C$L1
 62
     3
 10
-68.5139110017
 20
146.2492300128
  0
VERTEX
  8
Layer1$C$L1
 62
     3
 10
-68.2848075670
 20
146.2161977614
  0
VERTEX
  8
Layer1$C$L1
 62
     3
 10
-68.0539806308
 20
146.1998755892
  0
VERTEX
  8
Layer1$C$L1
 62
     3
 10
-67.8226001445
 20
146.2003462254
  0
VERTEX
  8
Layer1$C$L1
 62
     3
 10
-67.5918388652
 20
146.2176072845
  0
VERTEX
  8
Layer1$C$L1
 62
     3
 10
-67.3628664114
 20
146.2515712787
  0
VERTEX
  8
Layer1$C$L1
 62
     3
 10
-67.1368433351
 20
146.3020660605
  0
VERTEX
  8
Layer1$C$L1
 62
     3
 10
-66.9149152392
 20
146.3688356961
  0
SEQEND
  8
Layer1$C$L1
 62
     3
  0
POLYLINE
  8
Layer1$C$L1
 62
     3
 66
     1
  0
VERTEX
  8
Layer1$C$L1
 62
     3
 10
-66.9128870395
 20
153.3682073350
  0
VERTEX
  8
Layer1$C$L1
 62
     3
 10
-67.1788473479
 20
153.4463610346
  0
VERTEX
  8
Layer1$C$L1
 62
     3
 10
-67.4503624842
 20
153.5011496830
  0
VERTEX
  8
Layer1$C$L1
 62
     3
 10
-67.7254632873
 20
153.5321759262
  0
VERTEX
  8
Layer1$C$L1
 62
     3
 10
-68.0021545909
 20
153.5392147465
  0
VERTEX
  8
Layer1$C$L1
 62
     3
 10
-68.2784296937
 20
153.5222150950
  0
VERTEX
  8
Layer1$C$L1
 62
     3
 10
-68.5522849131
 20
153.4813002615
  0
VERTEX
  8
Layer1$C$L1
 62
     3
 10
-68.8217341163
 20
153.4167669805
  0
VERTEX
  8
Layer1$C$L1
 62
     3
 10
-69.0848231254
 20
153.3290832790
  0
SEQEND
  8
Layer1$C$L1
 62
     3
  0
POLYLINE
  8
Layer1$C$L1
 62
     3
 66
     1
  0
VERTEX
  8
Layer1$C$L1
 62
     3
 10
-65.2403566031
 20
148.5938716685
  0
VERTEX
  8
Layer1$C$L1
 62
     3
 10
-65.3379002595
 20
148.5840722656
  0
VERTEX
  8
Layer1$C$L1
 62
     3
 10
-65.4316953753
 20
148.5550505797
  0
VERTEX
  8
Layer1$C$L1
 62
     3
 10
-65.5181374585
 20
148.5079218974
  0
VERTEX
  8
Layer1$C$L1
 62
     3
 10
-65.5939045894
 20
148.4444973470
  0
VERTEX
  8
Layer1$C$L1
 62
     3
 10
-65.6560850809
 20
148.3672142973
  0
VERTEX
  8
Layer1$C$L1
 62
     3
 10
-65.7022893726
 20
148.2790426915
  0
VERTEX
  8
Layer1$C$L1
 62
     3
 10
-65.7307418600
 20
148.1833709134
  0
VERTEX
  8
Layer1$C$L1
 62
     3
 10
-65.7403491307
 20
148.0838755746
  0
SEQEND
  8
Layer1$C$L1
 62
     3
  0
POLYLINE
  8
Layer1$C$L1
 62
     3
 66
     1
  0
VERTEX
  8
Layer1$C$L1
 62
     3
 10
-65.7403491307
 20
151.6538790841
  0
VERTEX
  8
Layer1$C$L1
 62
     3
 10
-65.7307419672
 20
151.5543836544
  0
VERTEX
  8
Layer1$C$L1
 62
     3
 10
-65.7022895527
 20
151.4587117705
  0
VERTEX
  8
Layer1$C$L1
 62
     3
 10
-65.6560852989
 20
151.3705400537
  0
VERTEX
  8
Layer1$C$L1
 62
     3
 10
-65.5939048113
 20
151.2932568976
  0
VERTEX
  8
Layer1$C$L1
 62
     3
 10
-65.5181376542
 20
151.2298322542
  0
VERTEX
  8
Layer1$C$L1
 62
     3
 10
-65.4316955203
 20
151.1827034998
  0
VERTEX
  8
Layer1$C$L1
 62
     3
 10
-65.3379003364
 20
151.1536817683
  0
VERTEX
  8
Layer1$C$L1
 62
     3
 10
-65.2403566031
 20
151.1438823497
  0
SEQEND
  8
Layer1$C$L1
 62
     3
  0
POLYLINE
  8
Layer1$C$L1
 62
     3
 66
     1
  0
VERTEX
  8
Layer1$C$L1
 62
     3
 10
-67.4247285513
 20
152.2951961314
  0
VERTEX
  8
Layer1$C$L1
 62
     3
 10
-67.4900481378
 20
152.2908253394
  0
VERTEX
  8
Layer1$C$L1
 62
     3
 10
-67.5542481125
 20
152.2777878394
  0
VERTEX
  8
Layer1$C$L1
 62
     3
 10
-67.6162280516
 20
152.2563071014
  0
VERTEX
  8
Layer1$C$L1
 62
     3
 10
-67.6749255841
 20
152.2267513174
  0
VERTEX
  8
Layer1$C$L1
 62
     3
 10
-67.7293346012
 20
152.1896270903
  0
VERTEX
  8
Layer1$C$L1
 62
     3
 10
-67.7785225016
 20
152.1455707501
  0
VERTEX
  8
Layer1$C$L1
 62
     3
 10
-67.8216461772
 20
152.0953374474
  0
VERTEX
  8
Layer1$C$L1
 62
     3
 10
-67.8579664636
 20
152.0397882093
  0
SEQEND
  8
Layer1$C$L1
 62
     3
  0
POLYLINE
  8
Layer1$C$L1
 62
     3
 66
     1
  0
VERTEX
  8
Layer1$C$L1
 62
     3
 10
-67.2000238089
 20
151.4681602275
  0
VERTEX
  8
Layer1$C$L1
 62
     3
 10
-67.2653433954
 20
151.4637893538
  0
VERTEX
  8
Layer1$C$L1
 62
     3
 10
-67.3295433701
 20
151.4507516099
  0
VERTEX
  8
Layer1$C$L1
 62
     3
 10
-67.3915233092
 20
151.4292704703
  0
VERTEX
  8
Layer1$C$L1
 62
     3
 10
-67.4502208417
 20
151.3997141336
  0
VERTEX
  8
Layer1$C$L1
 62
     3
 10
-67.5046298587
 20
151.3625892123
  0
VERTEX
  8
Layer1$C$L1
 62
     3
 10
-67.5538177592
 20
151.3185320482
  0
VERTEX
  8
Layer1$C$L1
 62
     3
 10
-67.5969414347
 20
151.2682978062
  0
VERTEX
  8
Layer1$C$L1
 62
     3
 10
-67.6332617212
 20
151.2127475293
  0
SEQEND
  8
Layer1$C$L1
 62
     3
  0
POLYLINE
  8
Layer1$C$L1
 62
     3
 66
     1
  0
VERTEX
  8
Layer1$C$L1
 62
     3
 10
-69.6942663599
 20
147.7756099256
  0
VERTEX
  8
Layer1$C$L1
 62
     3
 10
-69.7197058155
 20
147.7240190192
  0
VERTEX
  8
Layer1$C$L1
 62
     3
 10
-69.7392643072
 20
147.6698253031
  0
VERTEX
  8
Layer1$C$L1
 62
     3
 10
-69.7526910643
 20
147.6137236262
  0
VERTEX
  8
Layer1$C$L1
 62
     3
 10
-69.7598139347
 20
147.5564333001
  0
VERTEX
  8
Layer1$C$L1
 62
     3
 10
-69.7605415919
 20
147.4986888772
  0
VERTEX
  8
Layer1$C$L1
 62
     3
 10
-69.7548647063
 20
147.4412307317
  0
VERTEX
  8
Layer1$C$L1
 62
     3
 10
-69.7428560644
 20
147.3847955676
  0
VERTEX
  8
Layer1$C$L1
 62
     3
 10
-69.7246696360
 20
147.3301069725
  0
SEQEND
  8
Layer1$C$L1
 62
     3
  0
POLYLINE
  8
Layer1$C$L1
 62
     3
 66
     1
  0
VERTEX
  8
Layer1$C$L1
 62
     3
 10
-67.9242944056
 20
152.7696342545
  0
VERTEX
  8
Layer1$C$L1
 62
     3
 10
-68.0771708522
 20
153.0129032537
  0
VERTEX
  8
Layer1$C$L1
 62
     3
 10
-68.2410347551
 20
153.2040831530
  0
VERTEX
  8
Layer1$C$L1
 62
     3
 10
-68.4131712840
 20
153.3400065621
  0
VERTEX
  8
Layer1$C$L1
 62
     3
 10
-68.5907285514
 20
153.4184215574
  0
VERTEX
  8
Layer1$C$L1
 62
     3
 10
-68.7707648610
 20
153.4380289914
  0
VERTEX
  8
Layer1$C$L1
 62
     3
 10
-68.9502974449
 20
153.3985040161
  0
VERTEX
  8
Layer1$C$L1
 62
     3
 10
-69.1263518804
 20
153.3005014651
  0
VERTEX
  8
Layer1$C$L1
 62
     3
 10
-69.2960113698
 20
153.1456450047
  0
VERTEX
  8
Layer1$C$L1
 62
     3
 10
-69.4564650639
 20
152.9365002335
  0
VERTEX
  8
Layer1$C$L1
 62
     3
 10
-69.6050546315
 20
152.6765321764
  0
VERTEX
  8
Layer1$C$L1
 62
     3
 10
-69.7393183014
 20
152.3700478780
  0
VERTEX
  8
Layer1$C$L1
 62
     3
 10
-69.8570316479
 20
152.0221250449
  0
VERTEX
  8
Layer1$C$L1
 62
     3
 10
-69.9562444445
 20
151.6385279205
  0
VERTEX
  8
Layer1$C$L1
 62
     3
 10
-70.0353129741
 20
151.2256117850
  0
VERTEX
  8
Layer1$C$L1
 62
     3
 10
-70.0929272617
 20
150.7902176642
  0
VERTEX
  8
Layer1$C$L1
 62
     3
 10
-70.1281327771
 20
150.3395589901
  0
VERTEX
  8
Layer1$C$L1
 62
     3
 10
-70.1403462499
 20
149.8811020912
  0
VERTEX
  8
Layer1$C$L1
 62
     3
 10
-70.1293653323
 20
149.4224424942
  0
VERTEX
  8
Layer1$C$L1
 62
     3
 10
-70.0953719515
 20
148.9711790838
  0
VERTEX
  8
Layer1$C$L1
 62
     3
 10
-70.0389292960
 20
148.5347882077
  0
VERTEX
  8
Layer1$C$L1
 62
     3
 10
-69.9609724847
 20
148.1204998116
  0
SEQEND
  8
Layer1$C$L1
 62
     3
  0
POLYLINE
  8
Layer1$C$L1
 62
     3
 66
     1
  0
VERTEX
  8
Layer1$C$L1
 62
     3
 10
-69.7244931614
 20
147.3297581190
  0
VERTEX
  8
Layer1$C$L1
 62
     3
 10
-69.5964999656
 20
147.0442070636
  0
VERTEX
  8
Layer1$C$L1
 62
     3
 10
-69.4558734383
 20
146.8003371544
  0
VERTEX
  8
Layer1$C$L1
 62
     3
 10
-69.3046886875
 20
146.6017469753
  0
VERTEX
  8
Layer1$C$L1
 62
     3
 10
-69.1451766196
 20
146.4513669552
  0
VERTEX
  8
Layer1$C$L1
 62
     3
 10
-68.9796910207
 20
146.3514161259
  0
VERTEX
  8
Layer1$C$L1
 62
     3
 10
-68.8106738229
 20
146.3033693780
  0
VERTEX
  8
Layer1$C$L1
 62
     3
 10
-68.6406190715
 20
146.3079356972
  0
VERTEX
  8
Layer1$C$L1
 62
     3
 10
-68.4720361219
 20
146.3650477021
  0
VERTEX
  8
Layer1$C$L1
 62
     3
 10
-68.3074126113
 20
146.4738626388
  0
VERTEX
  8
Layer1$C$L1
 62
     3
 10
-68.1491777509
 20
146.6327748163
  0
VERTEX
  8
Layer1$C$L1
 62
     3
 10
-67.9996664800
 20
146.8394393009
  0
VERTEX
  8
Layer1$C$L1
 62
     3
 10
-67.8610850111
 20
147.0908065180
  0
SEQEND
  8
Layer1$C$L1
 62
     3
  0
POLYLINE
  8
Layer1$C$L1
 62
     3
 66
     1
  0
VERTEX
  8
Layer1$C$L1
 62
     3
 10
-67.1903537083
 20
146.2988639629
  0
VERTEX
  8
Layer1$C$L1
 62
     3
 10
-67.0096802570
 20
146.3287174249
  0
VERTEX
  8
Layer1$C$L1
 62
     3
 10
-66.8320284992
 20
146.4177785234
  0
VERTEX
  8
Layer1$C$L1
 62
     3
 10
-66.6603695915
 20
146.5645577461
  0
VERTEX
  8
Layer1$C$L1
 62
     3
 10
-66.4975744626
 20
146.7666002674
  0
VERTEX
  8
Layer1$C$L1
 62
     3
 10
-66.3463657979
 20
147.0205270044
  0
VERTEX
  8
Layer1$C$L1
 62
     3
 10
-66.2092725036
 20
147.3220911311
  0
VERTEX
  8
Layer1$C$L1
 62
     3
 10
-66.0885874120
 20
147.6662491043
  0
VERTEX
  8
Layer1$C$L1
 62
     3
 10
-65.9863289343
 20
148.0472450154
  0
VERTEX
  8
Layer1$C$L1
 62
     3
 10
-65.9042073041
 20
148.4587068556
  0
VERTEX
  8
Layer1$C$L1
 62
     3
 10
-65.8435959736
 20
148.8937530851
  0
VERTEX
  8
Layer1$C$L1
 62
     3
 10
-65.8055086438
 20
149.3451077246
  0
VERTEX
  8
Layer1$C$L1
 62
     3
 10
-65.7905823107
 20
149.8052220427
  0
VERTEX
  8
Layer1$C$L1
 62
     3
 10
-65.7990666113
 20
150.2664008060
  0
VERTEX
  8
Layer1$C$L1
 62
     3
 10
-65.8308196489
 20
150.7209309784
  0
VERTEX
  8
Layer1$C$L1
 62
     3
 10
-65.8853103664
 20
151.1612107192
  0
VERTEX
  8
Layer1$C$L1
 62
     3
 10
-65.9616274277
 20
151.5798765204
  0
VERTEX
  8
Layer1$C$L1
 62
     3
 10
-66.0584944594
 20
151.9699263589
  0
VERTEX
  8
Layer1$C$L1
 62
     3
 10
-66.1742913981
 20
152.3248368024
  0
VERTEX
  8
Layer1$C$L1
 62
     3
 10
-66.3070815848
 20
152.6386721114
  0
VERTEX
  8
Layer1$C$L1
 62
     3
 10
-66.4546441552
 20
152.9061835121
  0
VERTEX
  8
Layer1$C$L1
 62
     3
 10
-66.6145111825
 20
153.1228969801
  0
VERTEX
  8
Layer1$C$L1
 62
     3
 10
-66.7840089528
 20
153.2851880667
  0
VERTEX
  8
Layer1$C$L1
 62
     3
 10
-66.9603026814
 20
153.3903425163
  0
VERTEX
  8
Layer1$C$L1
 62
     3
 10
-67.1404439243
 20
153.4366016616
  0
SEQEND
  8
Layer1$C$L1
 62
     3
  0
POLYLINE
  8
Layer1$C$L1
 62
     3
 66
     1
  0
VERTEX
  8
Layer1$C$L1
 62
     3
 10
-69.9609724847
 20
169.9772395582
  0
VERTEX
  8
Layer1$C$L1
 62
     3
 10
-70.0389292960
 20
169.5629511621
  0
VERTEX
  8
Layer1$C$L1
 62
     3
 10
-70.0953719515
 20
169.1265602860
  0
VERTEX
  8
Layer1$C$L1
 62
     3
 10
-70.1293653323
 20
168.6752968756
  0
VERTEX
  8
Layer1$C$L1
 62
     3
 10
-70.1403462499
 20
168.2166372786
  0
VERTEX
  8
Layer1$C$L1
 62
     3
 10
-70.1281327771
 20
167.7581803797
  0
VERTEX
  8
Layer1$C$L1
 62
     3
 10
-70.0929272617
 20
167.3075217056
  0
VERTEX
  8
Layer1$C$L1
 62
     3
 10
-70.0353129741
 20
166.8721275848
  0
VERTEX
  8
Layer1$C$L1
 62
     3
 10
-69.9562444445
 20
166.4592114493
  0
VERTEX
  8
Layer1$C$L1
 62
     3
 10
-69.8570316479
 20
166.0756143249
  0
VERTEX
  8
Layer1$C$L1
 62
     3
 10
-69.7393183014
 20
165.7276914918
  0
VERTEX
  8
Layer1$C$L1
 62
     3
 10
-69.6050546315
 20
165.4212071934
  0
VERTEX
  8
Layer1$C$L1
 62
     3
 10
-69.4564650639
 20
165.1612391363
  0
VERTEX
  8
Layer1$C$L1
 62
     3
 10
-69.2960113698
 20
164.9520943651
  0
VERTEX
  8
Layer1$C$L1
 62
     3
 10
-69.1263518804
 20
164.7972379047
  0
VERTEX
  8
Layer1$C$L1
 62
     3
 10
-68.9502974449
 20
164.6992353537
  0
VERTEX
  8
Layer1$C$L1
 62
     3
 10
-68.7707648610
 20
164.6597103784
  0
VERTEX
  8
Layer1$C$L1
 62
     3
 10
-68.5907285514
 20
164.6793178124
  0
VERTEX
  8
Layer1$C$L1
 62
     3
 10
-68.4131712840
 20
164.7577328078
  0
VERTEX
  8
Layer1$C$L1
 62
     3
 10
-68.2410347551
 20
164.8936562168
  0
VERTEX
  8
Layer1$C$L1
 62
     3
 10
-68.0771708522
 20
165.0848361161
  0
VERTEX
  8
Layer1$C$L1
 62
     3
 10
-67.9242944056
 20
165.3281051153
  0
SEQEND
  8
Layer1$C$L1
 62
     3
  0
POLYLINE
  8
Layer1$C$L1
 62
     3
 66
     1
  0
VERTEX
  8
Layer1$C$L1
 62
     3
 10
-67.8610850111
 20
171.0069328518
  0
VERTEX
  8
Layer1$C$L1
 62
     3
 10
-67.9996664800
 20
171.2583000689
  0
VERTEX
  8
Layer1$C$L1
 62
     3
 10
-68.1491777509
 20
171.4649645535
  0
VERTEX
  8
Layer1$C$L1
 62
     3
 10
-68.3074126113
 20
171.6238767310
  0
VERTEX
  8
Layer1$C$L1
 62
     3
 10
-68.4720361219
 20
171.7326916677
  0
VERTEX
  8
Layer1$C$L1
 62
     3
 10
-68.6406190715
 20
171.7898036726
  0
VERTEX
  8
Layer1$C$L1
 62
     3
 10
-68.8106738229
 20
171.7943699918
  0
VERTEX
  8
Layer1$C$L1
 62
     3
 10
-68.9796910207
 20
171.7463232440
  0
VERTEX
  8
Layer1$C$L1
 62
     3
 10
-69.1451766196
 20
171.6463724146
  0
VERTEX
  8
Layer1$C$L1
 62
     3
 10
-69.3046886875
 20
171.4959923945
  0
VERTEX
  8
Layer1$C$L1
 62
     3
 10
-69.4558734383
 20
171.2974022154
  0
VERTEX
  8
Layer1$C$L1
 62
     3
 10
-69.5964999656
 20
171.0535323062
  0
VERTEX
  8
Layer1$C$L1
 62
     3
 10
-69.7244931614
 20
170.7679812508
  0
SEQEND
  8
Layer1$C$L1
 62
     3
  0
POLYLINE
  8
Layer1$C$L1
 62
     3
 66
     1
  0
VERTEX
  8
Layer1$C$L1
 62
     3
 10
-67.1404439243
 20
164.6611377082
  0
VERTEX
  8
Layer1$C$L1
 62
     3
 10
-66.9603026814
 20
164.7073968535
  0
VERTEX
  8
Layer1$C$L1
 62
     3
 10
-66.7840089528
 20
164.8125513031
  0
VERTEX
  8
Layer1$C$L1
 62
     3
 10
-66.6145111825
 20
164.9748423897
  0
VERTEX
  8
Layer1$C$L1
 62
     3
 10
-66.4546441552
 20
165.1915558577
  0
VERTEX
  8
Layer1$C$L1
 62
     3
 10
-66.3070815848
 20
165.4590672584
  0
VERTEX
  8
Layer1$C$L1
 62
     3
 10
-66.1742913981
 20
165.7729025674
  0
VERTEX
  8
Layer1$C$L1
 62
     3
 10
-66.0584944594
 20
166.1278130109
  0
VERTEX
  8
Layer1$C$L1
 62
     3
 10
-65.9616274277
 20
166.5178628494
  0
VERTEX
  8
Layer1$C$L1
 62
     3
 10
-65.8853103664
 20
166.9365286506
  0
VERTEX
  8
Layer1$C$L1
 62
     3
 10
-65.8308196489
 20
167.3768083914
  0
VERTEX
  8
Layer1$C$L1
 62
     3
 10
-65.7990666113
 20
167.8313385638
  0
VERTEX
  8
Layer1$C$L1
 62
     3
 10
-65.7905823107
 20
168.2925173271
  0
VERTEX
  8
Layer1$C$L1
 62
     3
 10
-65.8055086438
 20
168.7526316452
  0
VERTEX
  8
Layer1$C$L1
 62
     3
 10
-65.8435959736
 20
169.2039862847
  0
VERTEX
  8
Layer1$C$L1
 62
     3
 10
-65.9042073041
 20
169.6390325143
  0
VERTEX
  8
Layer1$C$L1
 62
     3
 10
-65.9863289343
 20
170.0504943544
  0
VERTEX
  8
Layer1$C$L1
 62
     3
 10
-66.0885874120
 20
170.4314902655
  0
VERTEX
  8
Layer1$C$L1
 62
     3
 10
-66.2092725036
 20
170.7756482387
  0
VERTEX
  8
Layer1$C$L1
 62
     3
 10
-66.3463657979
 20
171.0772123654
  0
VERTEX
  8
Layer1$C$L1
 62
     3
 10
-66.4975744626
 20
171.3311391024
  0
VERTEX
  8
Layer1$C$L1
 62
     3
 10
-66.6603695915
 20
171.5331816237
  0
VERTEX
  8
Layer1$C$L1
 62
     3
 10
-66.8320284992
 20
171.6799608464
  0
VERTEX
  8
Layer1$C$L1
 62
     3
 10
-67.0096802570
 20
171.7690219449
  0
VERTEX
  8
Layer1$C$L1
 62
     3
 10
-67.1903537083
 20
171.7988754069
  0
SEQEND
  8
Layer1$C$L1
 62
     3
  0
POLYLINE
  8
Layer1$C$L1
 62
     3
 66
     1
  0
VERTEX
  8
Layer1$C$L1
 62
     3
 10
-58.3403511683
 20
75.4831348216
  0
VERTEX
  8
Layer1$C$L1
 62
     3
 10
-58.1842790952
 20
75.4988139296
  0
VERTEX
  8
Layer1$C$L1
 62
     3
 10
-58.0342047915
 20
75.5452486147
  0
VERTEX
  8
Layer1$C$L1
 62
     3
 10
-57.8958955264
 20
75.6206544186
  0
VERTEX
  8
Layer1$C$L1
 62
     3
 10
-57.7746664452
 20
75.7221335397
  0
VERTEX
  8
Layer1$C$L1
 62
     3
 10
-57.6751763117
 20
75.8457861938
  0
VERTEX
  8
Layer1$C$L1
 62
     3
 10
-57.6012484743
 20
75.9868604808
  0
VERTEX
  8
Layer1$C$L1
 62
     3
 10
-57.5557239373
 20
76.1399349970
  0
VERTEX
  8
Layer1$C$L1
 62
     3
 10
-57.5403521824
 20
76.2991271770
  0
SEQEND
  8
Layer1$C$L1
 62
     3
  0
POLYLINE
  8
Layer1$C$L1
 62
     3
 66
     1
  0
VERTEX
  8
Layer1$C$L1
 62
     3
 10
-57.5403521824
 20
79.3591056621
  0
VERTEX
  8
Layer1$C$L1
 62
     3
 10
-57.5557239373
 20
79.5182997026
  0
VERTEX
  8
Layer1$C$L1
 62
     3
 10
-57.6012484743
 20
79.6713760078
  0
VERTEX
  8
Layer1$C$L1
 62
     3
 10
-57.6751763117
 20
79.8124519435
  0
VERTEX
  8
Layer1$C$L1
 62
     3
 10
-57.7746664452
 20
79.9361060429
  0
VERTEX
  8
Layer1$C$L1
 62
     3
 10
-57.8958955264
 20
80.0375863500
  0
VERTEX
  8
Layer1$C$L1
 62
     3
 10
-58.0342047915
 20
80.1129930351
  0
VERTEX
  8
Layer1$C$L1
 62
     3
 10
-58.1842790952
 20
80.1594282629
  0
VERTEX
  8
Layer1$C$L1
 62
     3
 10
-58.3403511683
 20
80.1751075542
  0
SEQEND
  8
Layer1$C$L1
 62
     3
  0
POLYLINE
  8
Layer1$C$L1
 62
     3
 66
     1
  0
VERTEX
  8
Layer1$C$L1
 62
     3
 10
-57.5403521824
 20
101.7991004741
  0
VERTEX
  8
Layer1$C$L1
 62
     3
 10
-57.5557239373
 20
101.9582945146
  0
VERTEX
  8
Layer1$C$L1
 62
     3
 10
-57.6012484743
 20
102.1113708198
  0
VERTEX
  8
Layer1$C$L1
 62
     3
 10
-57.6751763117
 20
102.2524467556
  0
VERTEX
  8
Layer1$C$L1
 62
     3
 10
-57.7746664452
 20
102.3761008549
  0
VERTEX
  8
Layer1$C$L1
 62
     3
 10
-57.8958955264
 20
102.4775811620
  0
VERTEX
  8
Layer1$C$L1
 62
     3
 10
-58.0342047915
 20
102.5529878472
  0
VERTEX
  8
Layer1$C$L1
 62
     3
 10
-58.1842790952
 20
102.5994230749
  0
VERTEX
  8
Layer1$C$L1
 62
     3
 10
-58.3403511683
 20
102.6151023662
  0
SEQEND
  8
Layer1$C$L1
 62
     3
  0
POLYLINE
  8
Layer1$C$L1
 62
     3
 66
     1
  0
VERTEX
  8
Layer1$C$L1
 62
     3
 10
-58.3403511683
 20
97.9231010234
  0
VERTEX
  8
Layer1$C$L1
 62
     3
 10
-58.1842790952
 20
97.9387803147
  0
VERTEX
  8
Layer1$C$L1
 62
     3
 10
-58.0342047915
 20
97.9852155424
  0
VERTEX
  8
Layer1$C$L1
 62
     3
 10
-57.8958955264
 20
98.0606222276
  0
VERTEX
  8
Layer1$C$L1
 62
     3
 10
-57.7746664452
 20
98.1621025347
  0
VERTEX
  8
Layer1$C$L1
 62
     3
 10
-57.6751763117
 20
98.2857566340
  0
VERTEX
  8
Layer1$C$L1
 62
     3
 10
-57.6012484743
 20
98.4268325698
  0
VERTEX
  8
Layer1$C$L1
 62
     3
 10
-57.5557239373
 20
98.5799088750
  0
VERTEX
  8
Layer1$C$L1
 62
     3
 10
-57.5403521824
 20
98.7391029155
  0
SEQEND
  8
Layer1$C$L1
 62
     3
  0
LINE
  8
Layer1$C$L1
 62
     3
 10
-74.0403674412
 20
172.3088622844
 11
-54.0403483677
 21
172.3088622844
  0
LINE
  8
Layer1$C$L1
 62
     3
 10
-74.6403430271
 20
102.0541129863
 11
-74.0403674412
 21
102.0541129863
  0
LINE
  8
Layer1$C$L1
 62
     3
 10
-75.0402826702
 20
101.5440847958
 11
-74.6402744865
 21
102.0540834682
  0
LINE
  8
Layer1$C$L1
 62
     3
 10
-75.0403521824
 20
96.4441047465
 11
-75.0403521824
 21
101.5441070354
  0
LINE
  8
Layer1$C$L1
 62
     3
 10
-74.6402937803
 20
95.9340718526
 11
-75.0403136965
 21
96.4440855714
  0
LINE
  8
Layer1$C$L1
 62
     3
 10
-74.0403674412
 20
95.9341178691
 11
-74.6403430271
 21
95.9341178691
  0
LINE
  8
Layer1$C$L1
 62
     3
 10
-72.0403598118
 20
98.5350929057
 11
-72.0403598118
 21
102.0031104839
  0
LINE
  8
Layer1$C$L1
 62
     3
 10
-74.0403674412
 20
98.5350929057
 11
-57.5657580662
 21
98.5350929057
  0
LINE
  8
Layer1$C$L1
 62
     3
 10
-57.5657580662
 20
102.0031104839
 11
-74.0403674412
 21
102.0031104839
  0
LINE
  8
Layer1$C$L1
 62
     3
 10
-74.0403674412
 20
97.9231010234
 11
-58.3403514195
 21
97.9231010234
  0
LINE
  8
Layer1$C$L1
 62
     3
 10
-57.5403521824
 20
98.7391029155
 11
-57.5403521824
 21
101.7991004741
  0
LINE
  8
Layer1$C$L1
 62
     3
 10
-58.3403514195
 20
102.6151023662
 11
-74.0403674412
 21
102.6151023662
  0
LINE
  8
Layer1$C$L1
  6
CENTER
 62
     3
 10
-77.0403598118
 20
100.2691016948
 11
-56.0068248081
 21
100.2691016948
  0
LINE
  8
Layer1$C$L1
 62
     3
 10
-74.0403674412
 20
94.1491065776
 11
-51.0403559971
 21
94.1491065776
  0
LINE
  8
Layer1$C$L1
 62
     3
 10
-74.0403674412
 20
76.0440955913
 11
-74.6403430271
 21
76.0440955913
  0
LINE
  8
Layer1$C$L1
 62
     3
 10
-74.6402922265
 20
76.0441341155
 11
-75.0403003715
 21
76.5541328265
  0
LINE
  8
Layer1$C$L1
 62
     3
 10
-75.0403521824
 20
76.5541206157
 11
-75.0403521824
 21
81.6541229045
  0
LINE
  8
Layer1$C$L1
 62
     3
 10
-75.0402976597
 20
81.6541322521
 11
-74.6402894760
 21
82.1641309244
  0
LINE
  8
Layer1$C$L1
 62
     3
 10
-74.6403430271
 20
82.1641097819
 11
-74.0403674412
 21
82.1641097819
  0
LINE
  8
Layer1$C$L1
 62
     3
 10
-72.0403598118
 20
76.0951171672
 11
-72.0403598118
 21
79.5631156718
  0
LINE
  8
Layer1$C$L1
 62
     3
 10
-57.5657580662
 20
79.5631156718
 11
-74.0403674412
 21
79.5631156718
  0
LINE
  8
Layer1$C$L1
 62
     3
 10
-74.0403674412
 20
76.0951171672
 11
-57.5657580662
 21
76.0951171672
  0
LINE
  8
Layer1$C$L1
 62
     3
 10
-58.3403514195
 20
80.1751075542
 11
-74.0403674412
 21
80.1751075542
  0
LINE
  8
Layer1$C$L1
 62
     3
 10
-57.5403521824
 20
76.2991271770
 11
-57.5403521824
 21
79.3591056621
  0
LINE
  8
Layer1$C$L1
 62
     3
 10
-74.0403674412
 20
75.4831252849
 11
-58.3403514195
 21
75.4831252849
  0
LINE
  8
Layer1$C$L1
  6
CENTER
 62
     3
 10
-56.0068248081
 20
77.8291068828
 11
-77.0403598118
 21
77.8291068828
  0
LINE
  8
Layer1$C$L1
 62
     3
 10
-68.7403605747
 20
146.2988830363
 11
-68.7403605747
 21
145.7888580119
  0
LINE
  8
Layer1$C$L1
 62
     3
 10
-67.7554410290
 20
148.4335551068
 11
-68.2792099269
 21
149.3588934245
  0
LINE
  8
Layer1$C$L1
 62
     3
 10
-68.5678855396
 20
149.8688943179
 11
-69.4795179573
 21
151.4794680102
  0
LINE
  8
Layer1$C$L1
 62
     3
 10
-69.5575613359
 20
148.1204375903
 11
-68.5678954842
 21
149.8688723255
  0
LINE
  8
Layer1$C$L1
 62
     3
 10
-68.2792399693
 20
150.3788924968
 11
-68.7980960179
 21
150.3788924968
  0
LINE
  8
Layer1$C$L1
 62
     3
 10
-68.5679171849
 20
149.8688865459
 11
-68.9713023472
 21
149.8688865459
  0
LINE
  8
Layer1$C$L1
 62
     3
 10
-68.2792399693
 20
149.3588805949
 11
-68.7980960179
 21
149.3588805949
  0
LINE
  8
Layer1$C$L1
 62
     3
 10
-68.2792181098
 20
150.3788763313
 11
-67.1945277158
 21
152.2951901645
  0
LINE
  8
Layer1$C$L1
 62
     3
 10
-67.1945447066
 20
152.2952024514
 11
-66.9698398319
 21
151.4681754683
  0
LINE
  8
Layer1$C$L1
 62
     3
 10
-67.1945689488
 20
152.2951865947
 11
-67.4247287083
 21
152.2951865947
  0
LINE
  8
Layer1$C$L1
 62
     3
 10
-66.9698451329
 20
151.4681793010
 11
-67.2000239659
 21
151.4681793010
  0
LINE
  8
Layer1$C$L1
 62
     3
 10
-69.4990847874
 20
148.1204391277
 11
-69.9609683323
 21
148.1204391277
  0
LINE
  8
Layer1$C$L1
 62
     3
 10
-67.6990261835
 20
148.6411766279
 11
-67.9237470558
 21
147.8141935062
  0
LINE
  8
Layer1$C$L1
 62
     3
 10
-69.4605758663
 20
151.5492742971
 11
-69.6103198873
 21
150.9978014772
  0
LINE
  8
Layer1$C$L1
 62
     3
 10
-68.3939155683
 20
149.8688772116
 11
-67.6330075233
 21
151.2131673617
  0
LINE
  8
Layer1$C$L1
 62
     3
 10
-68.7980747420
 20
150.3788877059
 11
-67.8577327243
 21
152.0401824186
  0
LINE
  8
Layer1$C$L1
 62
     3
 10
-67.6990356685
 20
148.6411908050
 11
-68.3939429320
 21
149.8688779029
  0
LINE
  8
Layer1$C$L1
 62
     3
 10
-67.9237388289
 20
147.8142142501
 11
-68.7980806523
 21
149.3589069482
  0
LINE
  8
Layer1$C$L1
 62
     3
 10
-68.7980621700
 20
150.3788907805
 11
-69.4605550848
 21
151.5493117082
  0
LINE
  8
Layer1$C$L1
 62
     3
 10
-68.9712866456
 20
149.8688886541
 11
-69.6103002974
 21
150.9978289558
  0
LINE
  8
Layer1$C$L1
 62
     3
 10
-69.9609398239
 20
148.1204444923
 11
-68.9712835145
 21
149.8688623693
  0
LINE
  8
Layer1$C$L1
 62
     3
 10
-69.6940263650
 20
147.7760393837
 11
-68.7980875390
 21
149.3588873333
  0
LINE
  8
Layer1$C$L1
 62
     3
 10
-68.7403605747
 20
153.9488769328
 11
-68.7403605747
 21
153.4388709819
  0
LINE
  8
Layer1$C$L1
 62
     3
 10
-65.2403567601
 20
151.1438537395
 11
-65.2403567601
 21
148.5938621318
  0
LINE
  8
Layer1$C$L1
 62
     3
 10
-65.7403491307
 20
151.9088722026
 11
-65.7403491307
 21
151.6538787639
  0
LINE
  8
Layer1$C$L1
 62
     3
 10
-64.5819400120
 20
148.1481719768
 11
-64.5819400120
 21
148.5938049113
  0
LINE
  8
Layer1$C$L1
 62
     3
 10
-64.0403865147
 20
151.1437965190
 11
-65.2403949070
 21
151.1437965190
  0
LINE
  8
Layer1$C$L1
 62
     3
 10
-64.0403865147
 20
148.5938049113
 11
-65.2403758335
 21
148.5938049113
  0
LINE
  8
Layer1$C$L1
 62
     3
 10
-64.5819400120
 20
151.1437965190
 11
-64.5819400120
 21
151.5894485271
  0
LINE
  8
Layer1$C$L1
 62
     3
 10
-64.5819347232
 20
151.5895197494
 11
-64.0403766932
 21
153.6333604419
  0
LINE
  8
Layer1$C$L1
 62
     3
 10
-64.0403413236
 20
146.1043708592
 11
-64.5819091243
 21
148.1482484262
  0
LINE
  8
Layer1$C$L1
 62
     3
 10
-65.1998214233
 20
145.7888749495
 11
-65.7403633053
 21
147.8288806982
  0
LINE
  8
Layer1$C$L1
 62
     3
 10
-65.7403753523
 20
151.9088641549
 11
-65.1998334703
 21
153.9488699035
  0
LINE
  8
Layer1$C$L1
 62
     3
 10
-65.7403491307
 20
148.0838752544
 11
-65.7403491307
 21
147.8288627422
  0
LINE
  8
Layer1$C$L1
 62
     3
 10
-64.0403483677
 20
153.9488769328
 11
-64.0403483677
 21
144.4628692424
  0
LINE
  8
Layer1$C$L1
 62
     3
 10
-54.0403483677
 20
153.9488769328
 11
-54.0403483677
 21
144.4628692424
  0
LINE
  8
Layer1$C$L1
 62
     3
 10
-54.0403483677
 20
144.4628692424
 11
-64.0403483677
 21
144.4628692424
  0
LINE
  8
Layer1$C$L1
 62
     3
 10
-54.0403483677
 20
145.7888580119
 11
-74.0403674412
 21
145.7888580119
  0
LINE
  8
Layer1$C$L1
 62
     3
 10
-51.0403559971
 20
153.9488769328
 11
-74.0403674412
 21
153.9488769328
  0
LINE
  8
Layer1$C$L1
 62
     3
 10
-68.7403605747
 20
172.3088622844
 11
-68.7403605747
 21
171.7988563335
  0
LINE
  8
Layer1$C$L1
 62
     3
 10
-68.2792353763
 20
168.7388327905
 11
-67.7554676529
 21
169.6641690333
  0
LINE
  8
Layer1$C$L1
 62
     3
 10
-69.4795398834
 20
166.6182644294
 11
-68.5679027680
 21
168.2288464210
  0
LINE
  8
Layer1$C$L1
 62
     3
 10
-68.5679161514
 20
168.2288579220
 11
-69.5575778925
 21
169.9772853952
  0
LINE
  8
Layer1$C$L1
 62
     3
 10
-68.7980960179
 20
167.7188468730
 11
-68.2792399693
 21
167.7188468730
  0
LINE
  8
Layer1$C$L1
 62
     3
 10
-68.9713023472
 20
168.2288528239
 11
-68.5679171849
 21
168.2288528239
  0
LINE
  8
Layer1$C$L1
 62
     3
 10
-68.7980960179
 20
168.7388397014
 11
-68.2792399693
 21
168.7388397014
  0
LINE
  8
Layer1$C$L1
 62
     3
 10
-67.1945530807
 20
165.8025483824
 11
-68.2792405386
 21
167.7188570285
  0
LINE
  8
Layer1$C$L1
 62
     3
 10
-66.9698574530
 20
166.6295487370
 11
-67.1945623278
 21
165.8025217539
  0
LINE
  8
Layer1$C$L1
 62
     3
 10
-67.4247287083
 20
165.8025527751
 11
-67.1945689488
 21
165.8025527751
  0
LINE
  8
Layer1$C$L1
 62
     3
 10
-67.2000239659
 20
166.6295600688
 11
-66.9698451329
 21
166.6295600688
  0
LINE
  8
Layer1$C$L1
 62
     3
 10
-69.9609683323
 20
169.9772811687
 11
-69.4990847874
 21
169.9772811687
  0
LINE
  8
Layer1$C$L1
 62
     3
 10
-67.9237318861
 20
170.2835293617
 11
-67.6990110139
 21
169.4565462399
  0
LINE
  8
Layer1$C$L1
 62
     3
 10
-69.6102946649
 20
167.0999110163
 11
-69.4605506438
 21
166.5484381964
  0
LINE
  8
Layer1$C$L1
 62
     3
 10
-67.6330299521
 20
166.8845659981
 11
-68.3939497414
 21
168.2288768968
  0
LINE
  8
Layer1$C$L1
 62
     3
 10
-67.8577403159
 20
166.0575634489
 11
-68.7980758742
 21
167.7188467499
  0
LINE
  8
Layer1$C$L1
 62
     3
 10
-68.3939488464
 20
168.2288441037
 11
-67.6990445190
 21
169.4565260145
  0
LINE
  8
Layer1$C$L1
 62
     3
 10
-68.7981014040
 20
168.7388275662
 11
-67.9237672143
 21
170.2835067777
  0
LINE
  8
Layer1$C$L1
 62
     3
 10
-69.4605775981
 20
166.5484196940
 11
-68.7980882066
 21
167.7188343970
  0
LINE
  8
Layer1$C$L1
 62
     3
 10
-69.6103103223
 20
167.0998857888
 11
-68.9712907983
 21
168.2288364648
  0
LINE
  8
Layer1$C$L1
 62
     3
 10
-68.9712840595
 20
168.2288710491
 11
-69.9609458006
 21
169.9772985223
  0
LINE
  8
Layer1$C$L1
 62
     3
 10
-68.7980927817
 20
168.7388543846
 11
-69.6940347755
 21
170.3217079306
  0
LINE
  8
Layer1$C$L1
 62
     3
 10
-68.7403605747
 20
164.6588683879
 11
-68.7403605747
 21
164.1488624370
  0
LINE
  8
Layer1$C$L1
 62
     3
 10
-65.2403567601
 20
169.5038772380
 11
-65.2403567601
 21
166.9538665569
  0
LINE
  8
Layer1$C$L1
 62
     3
 10
-65.7403491307
 20
166.4438606059
 11
-65.7403491307
 21
166.1888671672
  0
LINE
  8
Layer1$C$L1
 62
     3
 10
-64.5818827915
 20
169.5039153850
 11
-64.5818827915
 21
169.9495673930
  0
LINE
  8
Layer1$C$L1
 62
     3
 10
-65.2402995396
 20
166.9539047038
 11
-64.0403102207
 21
166.9539047038
  0
LINE
  8
Layer1$C$L1
 62
     3
 10
-65.2402995396
 20
169.5039153850
 11
-64.0403102207
 21
169.5039153850
  0
LINE
  8
Layer1$C$L1
 62
     3
 10
-64.5818827915
 20
166.5082717693
 11
-64.5818827915
 21
166.9539047038
  0
LINE
  8
Layer1$C$L1
 62
     3
 10
-64.0403325939
 20
164.4643637246
 11
-64.5818955092
 21
166.5082228543
  0
LINE
  8
Layer1$C$L1
 62
     3
 10
-64.5819250156
 20
169.9495077294
 11
-64.0403621003
 21
171.9933668591
  0
LINE
  8
Layer1$C$L1
 62
     3
 10
-65.7403840820
 20
170.2688570202
 11
-65.1998470854
 21
172.3088443317
  0
LINE
  8
Layer1$C$L1
 62
     3
 10
-65.1997942564
 20
164.1488727002
 11
-65.7403312530
 21
166.1888600116
  0
LINE
  8
Layer1$C$L1
 62
     3
 10
-65.7403491307
 20
170.2688575542
 11
-65.7403491307
 21
170.0138641154
  0
LINE
  8
Layer1$C$L1
 62
     3
 10
-64.0403483677
 20
173.6348510539
 11
-64.0403483677
 21
164.1488624370
  0
LINE
  8
Layer1$C$L1
 62
     3
 10
-54.0403483677
 20
173.6348510539
 11
-54.0403483677
 21
164.1488624370
  0
LINE
  8
Layer1$C$L1
 62
     3
 10
-64.0403483677
 20
173.6348510539
 11
-54.0403483677
 21
173.6348510539
  0
LINE
  8
Layer1$C$L1
 62
     3
 10
-74.0403674412
 20
164.1488624370
 11
-51.0403559971
 21
164.1488624370
  0
LINE
  8
Layer1$C$L1
 62
     3
 10
-74.0403674412
 20
134.0490012920
 11
-51.0403559971
 21
134.0490012920
  0
LINE
  8
Layer1$C$L1
 62
     3
 10
-74.0403674412
 20
141.0490012920
 11
-51.0403559971
 21
141.0490012920
  0
LINE
  8
Layer1$C$L1
 62
     3
 10
-74.0403674412
 20
184.0487571513
 11
-51.0403559971
 21
184.0487571513
  0
LINE
  8
Layer1$C$L1
 62
     3
 10
-74.0403674412
 20
177.0487571513
 11
-51.0403559971
 21
177.0487571513
  0
LINE
  8
Layer1$C$L1
  6
CENTER
 62
     3
 10
-138.4556596006
 20
62.4041038310
 11
-138.4556596006
 21
116.5418255784
  0
LINE
  8
Layer1$C$L1
 62
     3
 10
-163.4556596006
 20
84.0491233623
 11
-163.4556596006
 21
94.0491233623
  0
LINE
  8
Layer1$C$L1
 62
     3
 10
-163.4556596006
 20
84.0491233623
 11
-156.4556596006
 21
84.0491233623
  0
LINE
  8
Layer1$C$L1
 62
     3
 10
-156.4556596006
 20
94.0491233623
 11
-163.4556596006
 21
94.0491233623
  0
LINE
  8
Layer1$C$L1
 62
     3
 10
-154.4556596006
 20
71.0491233623
 11
-151.4556596006
 21
71.0491233623
  0
LINE
  8
Layer1$C$L1
 62
     3
 10
-156.4556596006
 20
73.0491233623
 11
-156.4556596006
 21
84.0491233623
  0
LINE
  8
Layer1$C$L1
  6
CENTER
 62
     3
 10
-157.9794633115
 20
78.0491233623
 11
-154.0636918271
 21
78.0491233623
  0
LINE
  8
Layer1$C$L1
  6
CENTER
 62
     3
 10
-142.4296586240
 20
68.0491233623
 11
-134.4817826474
 21
68.0491233623
  0
LINE
  8
Layer1$C$L1
  6
CENTER
 62
     3
 10
-148.2056596006
 20
84.1853538310
 11
-148.2056596006
 21
93.4446311748
  0
LINE
  8
Layer1$C$L1
 62
     3
 10
-139.2997758115
 20
69.3491721904
 11
-137.6116654599
 21
69.3491721904
  0
LINE
  8
Layer1$C$L1
 62
     3
 10
-139.3001420224
 20
66.7493186748
 11
-137.6112992490
 21
66.7493186748
  0
LINE
  8
Layer1$C$L1
 62
     3
 10
-153.1056840146
 20
74.3992210185
 11
-153.1056840146
 21
80.3992210185
  0
LINE
  8
Layer1$C$L1
 62
     3
 10
-153.1056840146
 20
74.3992210185
 11
-143.1056840146
 21
74.3992210185
  0
LINE
  8
Layer1$C$L1
 62
     3
 10
-152.6056840146
 20
74.8992210185
 11
-143.6056840146
 21
74.8992210185
  0
LINE
  8
Layer1$C$L1
 62
     3
 10
-152.6056840146
 20
79.8992210185
 11
-143.6056840146
 21
79.8992210185
  0
LINE
  8
Layer1$C$L1
 62
     3
 10
-153.1056840146
 20
80.3992210185
 11
-143.1056840146
 21
80.3992210185
  0
LINE
  8
Layer1$C$L1
 62
     3
 10
-143.1056840146
 20
74.3992210185
 11
-143.1056840146
 21
80.3992210185
  0
LINE
  8
Layer1$C$L1
 62
     3
 10
-152.6056840146
 20
74.8992210185
 11
-152.6056840146
 21
79.8992210185
  0
LINE
  8
Layer1$C$L1
 62
     3
 10
-143.6056840146
 20
74.8992210185
 11
-143.6056840146
 21
79.8992210185
  0
LINE
  8
Layer1$C$L1
  6
CENTER
 62
     3
 10
-159.4556596006
 20
84.8015647685
 11
-159.4556596006
 21
93.2966819560
  0
LINE
  8
Layer1$C$L1
 62
     3
 10
-151.8556840146
 20
75.6792503154
 11
-144.3556840146
 21
75.6792503154
  0
LINE
  8
Layer1$C$L1
 62
     3
 10
-151.8556840146
 20
79.1194358623
 11
-144.3556840146
 21
79.1194358623
  0
LINE
  8
Layer1$C$L1
 62
     3
 10
-144.3556840146
 20
75.6792503154
 11
-144.3556840146
 21
79.1194358623
  0
LINE
  8
Layer1$C$L1
 62
     3
 10
-151.8556840146
 20
75.6792503154
 11
-151.8556840146
 21
79.1194358623
  0
LINE
  8
Layer1$C$L1
 62
     3
 10
-141.5557572568
 20
72.5491233623
 11
-141.5557572568
 21
76.5491233623
  0
LINE
  8
Layer1$C$L1
 62
     3
 10
-141.5557572568
 20
79.5491233623
 11
-141.5557572568
 21
82.5491233623
  0
LINE
  8
Layer1$C$L1
 62
     3
 10
-152.7557084287
 20
64.0491233623
 11
-152.7557084287
 21
70.8491721904
  0
LINE
  8
Layer1$C$L1
 62
     3
 10
-151.4556596006
 20
64.0491233623
 11
-151.4556596006
 21
73.2991233623
  0
LINE
  8
Layer1$C$L1
 62
     3
 10
-143.4556596006
 20
64.0491233623
 11
-143.4556596006
 21
73.2991233623
  0
LINE
  8
Layer1$C$L1
 62
     3
 10
-151.4556596006
 20
73.2991233623
 11
-143.4556596006
 21
73.2991233623
  0
LINE
  8
Layer1$C$L1
 62
     3
 10
-141.5557572568
 20
82.5491233623
 11
-135.3556840146
 21
82.5491233623
  0
LINE
  8
Layer1$C$L1
 62
     3
 10
-139.4556596006
 20
72.8491721904
 11
-137.4556596006
 21
72.8491721904
  0
LINE
  8
Layer1$C$L1
 62
     3
 10
-139.4556596006
 20
72.8491721904
 11
-139.4556596006
 21
73.0493675029
  0
LINE
  8
Layer1$C$L1
 62
     3
 10
-139.4556596006
 20
73.0493675029
 11
-140.2557084287
 21
73.0493675029
  0
LINE
  8
Layer1$C$L1
 62
     3
 10
-140.2556068215
 20
73.0499934390
 11
-140.3111749177
 21
72.5498973684
  0
LINE
  8
Layer1$C$L1
 62
     3
 10
-141.5557572568
 20
72.5491233623
 11
-140.3112504209
 21
72.5491233623
  0
LINE
  8
Layer1$C$L1
 62
     3
 10
-139.4556596006
 20
83.3491721904
 11
-137.4556596006
 21
83.3491721904
  0
LINE
  8
Layer1$C$L1
 62
     3
 10
-139.4556596006
 20
82.5491233623
 11
-139.4556596006
 21
83.3491721904
  0
LINE
  8
Layer1$C$L1
  6
CENTER
 62
     3
 10
-142.1237504209
 20
78.0491233623
 11
-134.7876908506
 21
78.0491233623
  0
LINE
  8
Layer1$C$L1
 62
     3
 10
-151.4556596006
 20
107.0491233623
 11
-154.4556596006
 21
107.0491233623
  0
LINE
  8
Layer1$C$L1
 62
     3
 10
-156.4556596006
 20
94.0491233623
 11
-156.4556596006
 21
105.0491233623
  0
LINE
  8
Layer1$C$L1
 62
     3
 10
-133.4556596006
 20
114.0491233623
 11
-152.7557084287
 21
114.0491233623
  0
LINE
  8
Layer1$C$L1
  6
CENTER
 62
     3
 10
-154.0636918271
 20
100.0491233623
 11
-157.9794633115
 21
100.0491233623
  0
LINE
  8
Layer1$C$L1
  6
CENTER
 62
     3
 10
-134.4817826474
 20
110.0491233623
 11
-142.4296586240
 21
110.0491233623
  0
LINE
  8
Layer1$C$L1
 62
     3
 10
-137.6116654599
 20
108.7490745341
 11
-139.2997758115
 21
108.7490745341
  0
LINE
  8
Layer1$C$L1
 62
     3
 10
-137.6112992490
 20
111.3489280498
 11
-139.3001420224
 21
111.3489280498
  0
LINE
  8
Layer1$C$L1
 62
     3
 10
-153.1056840146
 20
97.6990257060
 11
-153.1056840146
 21
103.6990257060
  0
LINE
  8
Layer1$C$L1
 62
     3
 10
-143.1056840146
 20
103.6990257060
 11
-153.1056840146
 21
103.6990257060
  0
LINE
  8
Layer1$C$L1
 62
     3
 10
-143.6056840146
 20
103.1990257060
 11
-152.6056840146
 21
103.1990257060
  0
LINE
  8
Layer1$C$L1
 62
     3
 10
-143.6056840146
 20
98.1990257060
 11
-152.6056840146
 21
98.1990257060
  0
LINE
  8
Layer1$C$L1
 62
     3
 10
-143.1056840146
 20
97.6990257060
 11
-153.1056840146
 21
97.6990257060
  0
LINE
  8
Layer1$C$L1
 62
     3
 10
-143.1056840146
 20
97.6990257060
 11
-143.1056840146
 21
103.6990257060
  0
LINE
  8
Layer1$C$L1
 62
     3
 10
-152.6056840146
 20
98.1990257060
 11
-152.6056840146
 21
103.1990257060
  0
LINE
  8
Layer1$C$L1
 62
     3
 10
-143.6056840146
 20
98.1990257060
 11
-143.6056840146
 21
103.1990257060
  0
LINE
  8
Layer1$C$L1
 62
     3
 10
-144.3556840146
 20
102.4189964091
 11
-151.8556840146
 21
102.4189964091
  0
LINE
  8
Layer1$C$L1
 62
     3
 10
-144.3556840146
 20
98.9788108623
 11
-151.8556840146
 21
98.9788108623
  0
LINE
  8
Layer1$C$L1
 62
     3
 10
-144.3556840146
 20
98.9788108623
 11
-144.3556840146
 21
102.4189964091
  0
LINE
  8
Layer1$C$L1
 62
     3
 10
-151.8556840146
 20
98.9788108623
 11
-151.8556840146
 21
102.4189964091
  0
LINE
  8
Layer1$C$L1
 62
     3
 10
-141.5557572568
 20
101.5491233623
 11
-141.5557572568
 21
105.5491233623
  0
LINE
  8
Layer1$C$L1
 62
     3
 10
-141.5557572568
 20
95.5491233623
 11
-141.5557572568
 21
98.5491233623
  0
LINE
  8
Layer1$C$L1
 62
     3
 10
-152.7557084287
 20
107.2490745341
 11
-152.7557084287
 21
114.0491233623
  0
LINE
  8
Layer1$C$L1
 62
     3
 10
-151.4556596006
 20
104.7991233623
 11
-151.4556596006
 21
114.0491233623
  0
LINE
  8
Layer1$C$L1
 62
     3
 10
-143.4556596006
 20
104.7991233623
 11
-143.4556596006
 21
114.0491233623
  0
LINE
  8
Layer1$C$L1
 62
     3
 10
-143.4556596006
 20
104.7991233623
 11
-151.4556596006
 21
104.7991233623
  0
LINE
  8
Layer1$C$L1
 62
     3
 10
-135.3556840146
 20
95.5491233623
 11
-141.5557572568
 21
95.5491233623
  0
LINE
  8
Layer1$C$L1
 62
     3
 10
-137.4556596006
 20
105.2490745341
 11
-139.4556596006
 21
105.2490745341
  0
LINE
  8
Layer1$C$L1
 62
     3
 10
-139.4556596006
 20
105.0488792216
 11
-139.4556596006
 21
105.2490745341
  0
LINE
  8
Layer1$C$L1
 62
     3
 10
-140.2557084287
 20
105.0488792216
 11
-139.4556596006
 21
105.0488792216
  0
LINE
  8
Layer1$C$L1
 62
     3
 10
-140.3113039360
 20
105.5496632234
 11
-140.2557358398
 21
105.0495671527
  0
LINE
  8
Layer1$C$L1
 62
     3
 10
-140.3112504209
 20
105.5491233623
 11
-141.5557572568
 21
105.5491233623
  0
LINE
  8
Layer1$C$L1
 62
     3
 10
-137.4556596006
 20
94.7490745341
 11
-139.4556596006
 21
94.7490745341
  0
LINE
  8
Layer1$C$L1
 62
     3
 10
-139.4556596006
 20
94.7490745341
 11
-139.4556596006
 21
95.5491233623
  0
LINE
  8
Layer1$C$L1
  6
CENTER
 62
     3
 10
-134.7876908506
 20
100.0491233623
 11
-142.1237504209
 21
100.0491233623
  0
LINE
  8
Layer1$C$L1
 62
     3
 10
-125.4557816709
 20
71.0491233623
 11
-122.4557816709
 21
71.0491233623
  0
LINE
  8
Layer1$C$L1
 62
     3
 10
-120.4557816709
 20
84.0491233623
 11
-120.4557816709
 21
73.0491233623
  0
LINE
  8
Layer1$C$L1
 62
     3
 10
-113.4557816709
 20
94.0491233623
 11
-113.4557816709
 21
84.0491233623
  0
LINE
  8
Layer1$C$L1
 62
     3
 10
-120.4557816709
 20
84.0491233623
 11
-113.4557816709
 21
84.0491233623
  0
LINE
  8
Layer1$C$L1
  6
CENTER
 62
     3
 10
-122.8477494443
 20
78.0491233623
 11
-118.9318558896
 21
78.0491233623
  0
LINE
  8
Layer1$C$L1
 62
     3
 10
-123.8057572568
 20
80.3992210185
 11
-123.8057572568
 21
74.3992210185
  0
LINE
  8
Layer1$C$L1
 62
     3
 10
-133.8057572568
 20
74.3992210185
 11
-123.8057572568
 21
74.3992210185
  0
LINE
  8
Layer1$C$L1
 62
     3
 10
-133.3057572568
 20
74.8992210185
 11
-124.3057572568
 21
74.8992210185
  0
LINE
  8
Layer1$C$L1
 62
     3
 10
-133.3057572568
 20
79.8992210185
 11
-124.3057572568
 21
79.8992210185
  0
LINE
  8
Layer1$C$L1
 62
     3
 10
-133.8057572568
 20
80.3992210185
 11
-123.8057572568
 21
80.3992210185
  0
LINE
  8
Layer1$C$L1
 62
     3
 10
-133.8057572568
 20
80.3992210185
 11
-133.8057572568
 21
74.3992210185
  0
LINE
  8
Layer1$C$L1
 62
     3
 10
-124.3057572568
 20
79.8992210185
 11
-124.3057572568
 21
74.8992210185
  0
LINE
  8
Layer1$C$L1
 62
     3
 10
-133.3057572568
 20
79.8992210185
 11
-133.3057572568
 21
74.8992210185
  0
LINE
  8
Layer1$C$L1
 62
     3
 10
-132.5557572568
 20
75.6792503154
 11
-125.0557572568
 21
75.6792503154
  0
LINE
  8
Layer1$C$L1
 62
     3
 10
-132.5557572568
 20
79.1194358623
 11
-125.0557572568
 21
79.1194358623
  0
LINE
  8
Layer1$C$L1
 62
     3
 10
-132.5557572568
 20
79.1194358623
 11
-132.5557572568
 21
75.6792503154
  0
LINE
  8
Layer1$C$L1
 62
     3
 10
-125.0557572568
 20
79.1194358623
 11
-125.0557572568
 21
75.6792503154
  0
LINE
  8
Layer1$C$L1
 62
     3
 10
-135.3556840146
 20
76.5491233623
 11
-135.3556840146
 21
72.5491233623
  0
LINE
  8
Layer1$C$L1
 62
     3
 10
-135.3556840146
 20
82.5491233623
 11
-135.3556840146
 21
79.5491233623
  0
LINE
  8
Layer1$C$L1
 62
     3
 10
-124.1557328428
 20
70.8491721904
 11
-124.1557328428
 21
64.0491233623
  0
LINE
  8
Layer1$C$L1
 62
     3
 10
-125.4557816709
 20
73.2991233623
 11
-125.4557816709
 21
64.0491233623
  0
LINE
  8
Layer1$C$L1
 62
     3
 10
-133.4556596006
 20
73.2991233623
 11
-133.4556596006
 21
64.0491233623
  0
LINE
  8
Layer1$C$L1
 62
     3
 10
-133.4556596006
 20
73.2991233623
 11
-125.4557816709
 21
73.2991233623
  0
LINE
  8
Layer1$C$L1
 62
     3
 10
-137.4556596006
 20
73.0493675029
 11
-137.4556596006
 21
72.8491721904
  0
LINE
  8
Layer1$C$L1
 62
     3
 10
-136.6557328428
 20
73.0493675029
 11
-137.4556596006
 21
73.0493675029
  0
LINE
  8
Layer1$C$L1
 62
     3
 10
-136.6002409241
 20
72.5502516500
 11
-136.6558090204
 21
73.0503477207
  0
LINE
  8
Layer1$C$L1
 62
     3
 10
-136.6001908506
 20
72.5491233623
 11
-135.3556840146
 21
72.5491233623
  0
LINE
  8
Layer1$C$L1
 62
     3
 10
-137.4556596006
 20
83.3491721904
 11
-137.4556596006
 21
82.5491233623
  0
LINE
  8
Layer1$C$L1
 62
     3
 10
-122.4557816709
 20
107.0491233623
 11
-125.4557816709
 21
107.0491233623
  0
LINE
  8
Layer1$C$L1
 62
     3
 10
-120.4557816709
 20
105.0491233623
 11
-120.4557816709
 21
94.0491233623
  0
LINE
  8
Layer1$C$L1
 62
     3
 10
-124.1557328428
 20
114.0491233623
 11
-133.4556596006
 21
114.0491233623
  0
LINE
  8
Layer1$C$L1
 62
     3
 10
-113.4557816709
 20
94.0491233623
 11
-120.4557816709
 21
94.0491233623
  0
LINE
  8
Layer1$C$L1
 62
     3
 10
-123.8057572568
 20
103.6990257060
 11
-123.8057572568
 21
97.6990257060
  0
LINE
  8
Layer1$C$L1
 62
     3
 10
-123.8057572568
 20
103.6990257060
 11
-133.8057572568
 21
103.6990257060
  0
LINE
  8
Layer1$C$L1
 62
     3
 10
-124.3057572568
 20
103.1990257060
 11
-133.3057572568
 21
103.1990257060
  0
LINE
  8
Layer1$C$L1
 62
     3
 10
-124.3057572568
 20
98.1990257060
 11
-133.3057572568
 21
98.1990257060
  0
LINE
  8
Layer1$C$L1
 62
     3
 10
-123.8057572568
 20
97.6990257060
 11
-133.8057572568
 21
97.6990257060
  0
LINE
  8
Layer1$C$L1
 62
     3
 10
-133.8057572568
 20
103.6990257060
 11
-133.8057572568
 21
97.6990257060
  0
LINE
  8
Layer1$C$L1
 62
     3
 10
-124.3057572568
 20
103.1990257060
 11
-124.3057572568
 21
98.1990257060
  0
LINE
  8
Layer1$C$L1
 62
     3
 10
-133.3057572568
 20
103.1990257060
 11
-133.3057572568
 21
98.1990257060
  0
LINE
  8
Layer1$C$L1
 62
     3
 10
-125.0557572568
 20
102.4189964091
 11
-132.5557572568
 21
102.4189964091
  0
LINE
  8
Layer1$C$L1
 62
     3
 10
-125.0557572568
 20
98.9788108623
 11
-132.5557572568
 21
98.9788108623
  0
LINE
  8
Layer1$C$L1
 62
     3
 10
-132.5557572568
 20
102.4189964091
 11
-132.5557572568
 21
98.9788108623
  0
LINE
  8
Layer1$C$L1
 62
     3
 10
-125.0557572568
 20
102.4189964091
 11
-125.0557572568
 21
98.9788108623
  0
LINE
  8
Layer1$C$L1
 62
     3
 10
-135.3556840146
 20
105.5491233623
 11
-135.3556840146
 21
101.5491233623
  0
LINE
  8
Layer1$C$L1
 62
     3
 10
-135.3556840146
 20
98.5491233623
 11
-135.3556840146
 21
95.5491233623
  0
LINE
  8
Layer1$C$L1
 62
     3
 10
-124.1557328428
 20
114.0491233623
 11
-124.1557328428
 21
107.2490745341
  0
LINE
  8
Layer1$C$L1
 62
     3
 10
-125.4557816709
 20
114.0491233623
 11
-125.4557816709
 21
104.7991233623
  0
LINE
  8
Layer1$C$L1
 62
     3
 10
-133.4556596006
 20
114.0491233623
 11
-133.4556596006
 21
104.7991233623
  0
LINE
  8
Layer1$C$L1
 62
     3
 10
-125.4557816709
 20
104.7991233623
 11
-133.4556596006
 21
104.7991233623
  0
LINE
  8
Layer1$C$L1
 62
     3
 10
-137.4556596006
 20
105.2490745341
 11
-137.4556596006
 21
105.0488792216
  0
LINE
  8
Layer1$C$L1
 62
     3
 10
-137.4556596006
 20
105.0488792216
 11
-136.6557328428
 21
105.0488792216
  0
LINE
  8
Layer1$C$L1
 62
     3
 10
-136.6556395595
 20
105.0495768419
 11
-136.6000714632
 21
105.5496729126
  0
LINE
  8
Layer1$C$L1
 62
     3
 10
-135.3556840146
 20
105.5491233623
 11
-136.6001908506
 21
105.5491233623
  0
LINE
  8
Layer1$C$L1
 62
     3
 10
-137.4556596006
 20
95.5491233623
 11
-137.4556596006
 21
94.7490745341
  0
LINE
  8
Layer1$C$L1
  6
CENTER
 62
     3
 10
-156.8971879209
 20
100.0492454326
 11
-153.8448197568
 21
100.0492454326
  0
LINE
  8
Layer1$C$L1
 62
     3
 10
-155.3057572568
 20
98.4492698466
 11
-155.3057572568
 21
101.6492210185
  0
LINE
  8
Layer1$C$L1
 62
     3
 10
-155.7056596006
 20
101.6492210185
 11
-155.3057572568
 21
101.6492210185
  0
LINE
  8
Layer1$C$L1
 62
     3
 10
-155.7056596006
 20
98.4492698466
 11
-155.3057572568
 21
98.4492698466
  0
LINE
  8
Layer1$C$L1
 62
     3
 10
-156.4554126823
 20
97.4494636062
 11
-155.7054078096
 21
98.4494598958
  0
LINE
  8
Layer1$C$L1
 62
     3
 10
-156.4554879691
 20
102.6495748115
 11
-155.7054830964
 21
101.6495785219
  0
LINE
  8
Layer1$C$L1
  6
CENTER
 62
     3
 10
-153.8448197568
 20
78.0490012920
 11
-156.8971879209
 21
78.0490012920
  0
LINE
  8
Layer1$C$L1
 62
     3
 10
-155.3057572568
 20
76.4490257060
 11
-155.3057572568
 21
79.6489768779
  0
LINE
  8
Layer1$C$L1
 62
     3
 10
-155.3057572568
 20
76.4490257060
 11
-155.7056596006
 21
76.4490257060
  0
LINE
  8
Layer1$C$L1
 62
     3
 10
-155.3057572568
 20
79.6489768779
 11
-155.7056596006
 21
79.6489768779
  0
LINE
  8
Layer1$C$L1
 62
     3
 10
-155.7054241332
 20
79.6491154413
 11
-156.4554290059
 21
80.6491117309
  0
LINE
  8
Layer1$C$L1
 62
     3
 10
-155.7053996344
 20
76.4489464608
 11
-156.4554045071
 21
75.4489501712
  0
LINE
  8
Layer1$C$L1
  6
CENTER
 62
     3
 10
-118.9318558896
 20
100.0491233623
 11
-122.8477494443
 21
100.0491233623
  0
LINE
  8
Layer1$C$L1
  6
CENTER
 62
     3
 10
-123.0664994443
 20
100.0492454326
 11
-120.0142533506
 21
100.0492454326
  0
LINE
  8
Layer1$C$L1
 62
     3
 10
-121.6056840146
 20
101.6492210185
 11
-121.6056840146
 21
98.4492698466
  0
LINE
  8
Layer1$C$L1
 62
     3
 10
-121.6056840146
 20
101.6492210185
 11
-121.2057816709
 21
101.6492210185
  0
LINE
  8
Layer1$C$L1
 62
     3
 10
-121.6056840146
 20
98.4492698466
 11
-121.2056596006
 21
98.4492698466
  0
LINE
  8
Layer1$C$L1
 62
     3
 10
-121.2057860342
 20
98.4496500113
 11
-120.4557811615
 21
97.4496537217
  0
LINE
  8
Layer1$C$L1
 62
     3
 10
-121.2057412641
 20
101.6495638826
 11
-120.4557363914
 21
102.6495601722
  0
LINE
  8
Layer1$C$L1
  6
CENTER
 62
     3
 10
-120.0142533506
 20
78.0490012920
 11
-123.0664994443
 21
78.0490012920
  0
LINE
  8
Layer1$C$L1
 62
     3
 10
-121.6056840146
 20
79.6489768779
 11
-121.6056840146
 21
76.4490257060
  0
LINE
  8
Layer1$C$L1
 62
     3
 10
-121.2057816709
 20
76.4490257060
 11
-121.6056840146
 21
76.4490257060
  0
LINE
  8
Layer1$C$L1
 62
     3
 10
-121.2056596006
 20
79.6489768779
 11
-121.6056840146
 21
79.6489768779
  0
LINE
  8
Layer1$C$L1
 62
     3
 10
-120.4558624930
 20
80.6491474459
 11
-121.2057941230
 21
79.6492488121
  0
LINE
  8
Layer1$C$L1
 62
     3
 10
-120.4558198542
 20
75.4491173984
 11
-121.2058247269
 21
76.4491136880
  0
LINE
  8
Layer1$C$L1
 62
     3
 10
-136.8464066709
 20
79.5491233623
 11
-135.3556840146
 21
79.5491233623
  0
LINE
  8
Layer1$C$L1
 62
     3
 10
-136.8464066709
 20
76.5491233623
 11
-135.3556840146
 21
76.5491233623
  0
LINE
  8
Layer1$C$L1
 62
     3
 10
-141.5557572568
 20
79.5491233623
 11
-140.0650346006
 21
79.5491233623
  0
LINE
  8
Layer1$C$L1
 62
     3
 10
-141.5557572568
 20
76.5491233623
 11
-140.0650346006
 21
76.5491233623
  0
LINE
  8
Layer1$C$L1
 62
     3
 10
-135.3556840146
 20
98.5491233623
 11
-136.8464066709
 21
98.5491233623
  0
LINE
  8
Layer1$C$L1
 62
     3
 10
-135.3556840146
 20
101.5491233623
 11
-136.8464066709
 21
101.5491233623
  0
LINE
  8
Layer1$C$L1
 62
     3
 10
-140.0650346006
 20
98.5491233623
 11
-141.5557572568
 21
98.5491233623
  0
LINE
  8
Layer1$C$L1
 62
     3
 10
-140.0650346006
 20
101.5491233623
 11
-141.5557572568
 21
101.5491233623
  0
LINE
  8
Layer1$C$L1
 62
     3
 10
-133.3057493618
 20
98.1991569529
 11
-133.8056959446
 21
97.6992103701
  0
LINE
  8
Layer1$C$L1
 62
     3
 10
-133.3057493618
 20
103.1991406817
 11
-133.8057822613
 21
103.6991735813
  0
LINE
  8
Layer1$C$L1
 62
     3
 10
-152.6055853484
 20
98.1990868206
 11
-153.1056182480
 21
97.6990539210
  0
LINE
  8
Layer1$C$L1
 62
     3
 10
-152.6055907432
 20
103.1990759441
 11
-153.1055912740
 21
103.6990764749
  0
LINE
  8
Layer1$C$L1
 62
     3
 10
-143.6055542149
 20
103.1991137077
 11
-143.1056076321
 21
103.6990602905
  0
LINE
  8
Layer1$C$L1
 62
     3
 10
-143.6057538224
 20
98.1991569529
 11
-143.1058072395
 21
97.6992103701
  0
LINE
  8
Layer1$C$L1
 62
     3
 10
-124.3057613866
 20
98.1992432697
 11
-123.8057284871
 21
97.6992103701
  0
LINE
  8
Layer1$C$L1
 62
     3
 10
-124.3057613866
 20
103.1992269984
 11
-123.8057284871
 21
103.6992598980
  0
LINE
  8
Layer1$C$L1
 62
     3
 10
-133.3057493618
 20
74.8993329043
 11
-133.8056959446
 21
74.3993863215
  0
LINE
  8
Layer1$C$L1
 62
     3
 10
-133.3057493618
 20
79.8994892666
 11
-133.8056959446
 21
80.3994358494
  0
LINE
  8
Layer1$C$L1
 62
     3
 10
-124.3057613866
 20
79.8994029498
 11
-123.8057284871
 21
80.3994358494
  0
LINE
  8
Layer1$C$L1
 62
     3
 10
-124.3057613866
 20
74.8994192211
 11
-123.8057284871
 21
74.3993863215
  0
LINE
  8
Layer1$C$L1
 62
     3
 10
-152.6057417975
 20
74.8994192211
 11
-153.1057746971
 21
74.3993863215
  0
LINE
  8
Layer1$C$L1
 62
     3
 10
-152.6057417975
 20
79.8994029498
 11
-153.1057746971
 21
80.3994358494
  0
LINE
  8
Layer1$C$L1
 62
     3
 10
-143.6056675056
 20
79.8994029498
 11
-143.1057209228
 21
80.3993495326
  0
LINE
  8
Layer1$C$L1
 62
     3
 10
-143.6056675056
 20
74.8994192211
 11
-143.1057209228
 21
74.3994726382
  0
ARC
  8
Layer1$C$L1
 62
     3
 10
-154.4556596006
 20
73.0491233623
 40
1.9999990463
 50
179.9999820139
 51
269.9999640278
  0
CIRCLE
  8
Layer1$C$L1
 62
     3
 10
-138.4556596006
 20
68.0491233623
 40
1.5499982834
  0
CIRCLE
  8
Layer1$C$L1
 62
     3
 10
-138.4556596006
 20
68.0491233623
 40
3.1499967575
  0
ARC
  8
Layer1$C$L1
 62
     3
 10
-152.5556351865
 20
70.8491721904
 40
0.1999998093
 50
90.0000000000
 51
179.9999820139
  0
ARC
  8
Layer1$C$L1
 62
     3
 10
-154.4556596006
 20
105.0491233623
 40
1.9999990463
 50
90.0000000000
 51
179.9999820139
  0
CIRCLE
  8
Layer1$C$L1
 62
     3
 10
-138.4556596006
 20
110.0491233623
 40
1.5499982834
  0
CIRCLE
  8
Layer1$C$L1
 62
     3
 10
-138.4556596006
 20
110.0491233623
 40
3.1499967575
  0
ARC
  8
Layer1$C$L1
 62
     3
 10
-152.5556351865
 20
107.2490745341
 40
0.1999998093
 50
179.9999820139
 51
269.9999640278
  0
ARC
  8
Layer1$C$L1
 62
     3
 10
-122.4557816709
 20
73.0491233623
 40
1.9999990463
 50
270.0000906137
 51
360.0000726276
  0
ARC
  8
Layer1$C$L1
 62
     3
 10
-124.3558060849
 20
70.8491721904
 40
0.1999998093
 50
7.2627602703E-05
 51
90.0000000000
  0
ARC
  8
Layer1$C$L1
 62
     3
 10
-122.4557816709
 20
105.0491233623
 40
1.9999990463
 50
7.2627602703E-05
 51
90.0000000000
  0
ARC
  8
Layer1$C$L1
 62
     3
 10
-124.3558060849
 20
107.2490745341
 40
0.1999998093
 50
270.0000906137
 51
360.0000726276
  0
CIRCLE
  8
Layer1$C$L1
 62
     3
 10
-138.4556596006
 20
78.0491233623
 40
1.5000000000
  0
ARC
  8
Layer1$C$L1
 62
     3
 10
-138.4556596006
 20
78.0491233623
 40
2.1999998093
 50
42.9858920747
 51
137.0141079253
  0
ARC
  8
Layer1$C$L1
 62
     3
 10
-138.4556596006
 20
78.0491233623
 40
2.1999998093
 50
222.9858595177
 51
317.0140685380
  0
CIRCLE
  8
Layer1$C$L1
 62
     3
 10
-138.4556596006
 20
100.0491233623
 40
1.5000000000
  0
ARC
  8
Layer1$C$L1
 62
     3
 10
-138.4556596006
 20
100.0491233623
 40
2.1999998093
 50
42.9858920747
 51
137.0141079253
  0
ARC
  8
Layer1$C$L1
 62
     3
 10
-138.4556596006
 20
100.0491233623
 40
2.1999998093
 50
222.9858595177
 51
317.0140685380
  0
INSERT
  8
Layer8$C$L8
 62
     5
 66
     1
  2
Cadra_attr_1
 10
0.000000
 20
0.000000
  0
ATTRIB
  8
Layer8$C$L8
 62
     5
 10
-46.747117
 20
18.500000
 40
0.156000
  1
  
  2
20
 70
    11
  0
SEQEND
  8
Layer8$C$L8
 62
     5
  0
LINE
  8
Layer1$C$L1
  6
PHANTOM
 62
     3
 10
-80.0403712559
 20
92.0491348064
 11
-80.0403712559
 21
86.0491309917
  0
LINE
  8
Layer1$C$L1
  6
PHANTOM
 62
     3
 10
-80.0403712559
 20
86.0491309917
 11
-74.0403483677
 21
86.0491309917
  0
LINE
  8
Layer1$C$L1
  6
PHANTOM
 62
     3
 10
-74.0403483677
 20
92.0491348064
 11
-80.0403712559
 21
92.0491348064
  0
ENDSEC
  0
EOF
