  0
SECTION
  2
HEADER
  9
$ACADVER
  1
AC1015
  9
$ACADMAINTVER
 70
    13
  9
$DWGCODEPAGE
  3
ANSI_932
  9
$INSBASE
 10
0.0
 20
0.0
 30
0.0
  9
$EXTMIN
 10
-0.0591770870169057
 20
-0.0346613928135184
 30
-0.0000000349181948
  9
$EXTMAX
 10
594.0812408724468
 20
420.0304006001271
 30
0.0000000814935747
  9
$LIMMIN
 10
-515.4436157226998
 20
-39.0744789124
  9
$LIMMAX
 10
3.174999999999998
 20
328.3152587890997
  9
$ORTHOMODE
 70
     1
  9
$REGENMODE
 70
     1
  9
$FILLMODE
 70
     1
  9
$QTEXTMODE
 70
     0
  9
$MIRRTEXT
 70
     0
  9
$LTSCALE
 40
1.0
  9
$ATTMODE
 70
     1
  9
$TEXTSIZE
 40
2.999994039499997
  9
$TRACEWID
 40
0.05
  9
$TEXTSTYLE
  7
STANDARD
  9
$CLAYER
  8
0
  9
$CELTYPE
  6
BYLAYER
  9
$CECOLOR
 62
   256
  9
$CELTSCALE
 40
1.0
  9
$DISPSILH
 70
     0
  9
$DIMSCALE
 40
1.0
  9
$DIMASZ
 40
1.9727878465
  9
$DIMEXO
 40
2.539999961899999
  9
$DIMDLI
 40
0.38
  9
$DIMRND
 40
0.0
  9
$DIMDLE
 40
0.0
  9
$DIMEXE
 40
3.809999942799997
  9
$DIMTP
 40
0.0
  9
$DIMTM
 40
0.0
  9
$DIMTXT
 40
2.999994039499997
  9
$DIMCEN
 40
0.09
  9
$DIMTSZ
 40
0.0
  9
$DIMTOL
 70
     0
  9
$DIMLIM
 70
     0
  9
$DIMTIH
 70
     0
  9
$DIMTOH
 70
     1
  9
$DIMSE1
 70
     0
  9
$DIMSE2
 70
     0
  9
$DIMTAD
 70
     0
  9
$DIMZIN
 70
     0
  9
$DIMBLK
  1

  9
$DIMASO
 70
     1
  9
$DIMSHO
 70
     0
  9
$DIMPOST
  1

  9
$DIMAPOST
  1

  9
$DIMALT
 70
     0
  9
$DIMALTD
 70
     2
  9
$DIMALTF
 40
25.4
  9
$DIMLFAC
 40
1.0
  9
$DIMTOFL
 70
     0
  9
$DIMTVP
 40
0.0
  9
$DIMTIX
 70
     0
  9
$DIMSOXD
 70
     0
  9
$DIMSAH
 70
     0
  9
$DIMBLK1
  1

  9
$DIMBLK2
  1

  9
$DIMSTYLE
  2
STANDARD
  9
$DIMCLRD
 70
     0
  9
$DIMCLRE
 70
     0
  9
$DIMCLRT
 70
     0
  9
$DIMTFAC
 40
1.0
  9
$DIMGAP
 40
0.09
  9
$DIMJUST
 70
     0
  9
$DIMSD1
 70
     0
  9
$DIMSD2
 70
     0
  9
$DIMTOLJ
 70
     1
  9
$DIMTZIN
 70
     0
  9
$DIMALTZ
 70
     0
  9
$DIMALTTZ
 70
     0
  9
$DIMUPT
 70
     0
  9
$DIMDEC
 70
     4
  9
$DIMTDEC
 70
     4
  9
$DIMALTU
 70
     2
  9
$DIMALTTD
 70
     2
  9
$DIMTXSTY
  7
STANDARD
  9
$DIMAUNIT
 70
     0
  9
$DIMADEC
 70
     0
  9
$DIMALTRND
 40
0.0
  9
$DIMAZIN
 70
     0
  9
$DIMDSEP
 70
    46
  9
$DIMATFIT
 70
     3
  9
$DIMFRAC
 70
     0
  9
$DIMLDRBLK
  1

  9
$DIMLUNIT
 70
     2
  9
$DIMLWD
 70
    -2
  9
$DIMLWE
 70
    -2
  9
$DIMTMOVE
 70
     0
  9
$LUNITS
 70
     2
  9
$LUPREC
 70
     3
  9
$SKETCHINC
 40
0.1
  9
$FILLETRAD
 40
0.0625
  9
$AUNITS
 70
     0
  9
$AUPREC
 70
     0
  9
$MENU
  1
ACAD
  9
$ELEVATION
 40
0.0
  9
$PELEVATION
 40
0.0
  9
$THICKNESS
 40
0.0
  9
$LIMCHECK
 70
     0
  9
$CHAMFERA
 40
0.0
  9
$CHAMFERB
 40
0.0
  9
$CHAMFERC
 40
0.0
  9
$CHAMFERD
 40
0.0
  9
$SKPOLY
 70
     0
  9
$TDCREATE
 40
2453377.948194444
  9
$TDUCREATE
 40
2453377.573194444
  9
$TDUPDATE
 40
2453390.658418507
  9
$TDUUPDATE
 40
2453390.283418507
  9
$TDINDWG
 40
0.0026041667
  9
$TDUSRTIMER
 40
0.0026014468
  9
$USRTIMER
 70
     1
  9
$ANGBASE
 50
0.0
  9
$ANGDIR
 70
     0
  9
$PDMODE
 70
     0
  9
$PDSIZE
 40
0.0
  9
$PLINEWID
 40
0.0
  9
$SPLFRAME
 70
     0
  9
$SPLINETYPE
 70
     6
  9
$SPLINESEGS
 70
     8
  9
$HANDSEED
  5
374
  9
$SURFTAB1
 70
     6
  9
$SURFTAB2
 70
     6
  9
$SURFTYPE
 70
     6
  9
$SURFU
 70
     6
  9
$SURFV
 70
     6
  9
$UCSBASE
  2

  9
$UCSNAME
  2

  9
$UCSORG
 10
0.0
 20
0.0
 30
0.0
  9
$UCSXDIR
 10
1.0
 20
0.0
 30
0.0
  9
$UCSYDIR
 10
0.0
 20
1.0
 30
0.0
  9
$UCSORTHOREF
  2

  9
$UCSORTHOVIEW
 70
     0
  9
$UCSORGTOP
 10
0.0
 20
0.0
 30
0.0
  9
$UCSORGBOTTOM
 10
0.0
 20
0.0
 30
0.0
  9
$UCSORGLEFT
 10
0.0
 20
0.0
 30
0.0
  9
$UCSORGRIGHT
 10
0.0
 20
0.0
 30
0.0
  9
$UCSORGFRONT
 10
0.0
 20
0.0
 30
0.0
  9
$UCSORGBACK
 10
0.0
 20
0.0
 30
0.0
  9
$PUCSBASE
  2

  9
$PUCSNAME
  2

  9
$PUCSORG
 10
0.0
 20
0.0
 30
0.0
  9
$PUCSXDIR
 10
1.0
 20
0.0
 30
0.0
  9
$PUCSYDIR
 10
0.0
 20
1.0
 30
0.0
  9
$PUCSORTHOREF
  2

  9
$PUCSORTHOVIEW
 70
     0
  9
$PUCSORGTOP
 10
0.0
 20
0.0
 30
0.0
  9
$PUCSORGBOTTOM
 10
0.0
 20
0.0
 30
0.0
  9
$PUCSORGLEFT
 10
0.0
 20
0.0
 30
0.0
  9
$PUCSORGRIGHT
 10
0.0
 20
0.0
 30
0.0
  9
$PUCSORGFRONT
 10
0.0
 20
0.0
 30
0.0
  9
$PUCSORGBACK
 10
0.0
 20
0.0
 30
0.0
  9
$USERI1
 70
    24
  9
$USERI2
 70
     0
  9
$USERI3
 70
     0
  9
$USERI4
 70
     0
  9
$USERI5
 70
     0
  9
$USERR1
 40
0.0
  9
$USERR2
 40
0.0
  9
$USERR3
 40
0.0
  9
$USERR4
 40
0.0
  9
$USERR5
 40
0.0
  9
$WORLDVIEW
 70
     1
  9
$SHADEDGE
 70
     3
  9
$SHADEDIF
 70
    70
  9
$TILEMODE
 70
     1
  9
$MAXACTVP
 70
    64
  9
$PINSBASE
 10
0.0
 20
0.0
 30
0.0
  9
$PLIMCHECK
 70
     0
  9
$PEXTMIN
 10
1.000000000000000E+20
 20
1.000000000000000E+20
 30
1.000000000000000E+20
  9
$PEXTMAX
 10
-1.000000000000000E+20
 20
-1.000000000000000E+20
 30
-1.000000000000000E+20
  9
$PLIMMIN
 10
0.0
 20
0.0
  9
$PLIMMAX
 10
12.0
 20
9.0
  9
$UNITMODE
 70
     0
  9
$VISRETAIN
 70
     1
  9
$PLINEGEN
 70
     0
  9
$PSLTSCALE
 70
     1
  9
$TREEDEPTH
 70
  3020
  9
$CMLSTYLE
  2
STANDARD
  9
$CMLJUST
 70
     0
  9
$CMLSCALE
 40
1.0
  9
$PROXYGRAPHICS
 70
     1
  9
$MEASUREMENT
 70
     0
  9
$CELWEIGHT
370
    -1
  9
$ENDCAPS
280
     0
  9
$JOINSTYLE
280
     0
  9
$LWDISPLAY
290
     0
  9
$INSUNITS
 70
     0
  9
$HYPERLINKBASE
  1

  9
$STYLESHEET
  1

  9
$XEDIT
290
     1
  9
$CEPSNTYPE
380
     0
  9
$PSTYLEMODE
290
     1
  9
$FINGERPRINTGUID
  2
{3F7AF244-F2CF-4BF1-A966-F231DB576F5F}
  9
$VERSIONGUID
  2
{F2D2609E-0EA3-41C3-BF94-0FDDA6F6BD8E}
  9
$EXTNAMES
290
     1
  9
$PSVPSCALE
 40
0.0
  9
$OLESTARTUP
290
     0
  0
ENDSEC
  0
SECTION
  2
CLASSES
  0
CLASS
  1
ACDBDICTIONARYWDFLT
  2
AcDbDictionaryWithDefault
  3
AutoCAD 2000
 90
        0
280
     0
281
     0
  0
CLASS
  1
ACDBPLACEHOLDER
  2
AcDbPlaceHolder
  3
AutoCAD 2000
 90
        0
280
     0
281
     0
  0
CLASS
  1
LAYOUT
  2
AcDbLayout
  3
AutoCAD 2000
 90
        0
280
     0
281
     0
  0
CLASS
  1
LONG_TRANSACTION
  2
AcDbLongTransaction
  3
AutoCAD 2000
 90
    32768
280
     0
281
     0
  0
CLASS
  1
LWPOLYLINE
  2
AcDbPolyline
  3
AutoCAD 2000
 90
    32768
280
     0
281
     1
  0
CLASS
  1
HATCH
  2
AcDbHatch
  3
AutoCAD 2000
 90
    32768
280
     0
281
     1
  0
CLASS
  1
XRECORD
  2
AcDbXrecord
  3
AutoCAD 2000
 90
    32768
280
     0
281
     0
  0
CLASS
  1
DICTIONARYVAR
  2
AcDbDictionaryVar
  3
AutoCAD 2000
 90
        0
280
     0
281
     0
  0
ENDSEC
  0
SECTION
  2
TABLES
  0
TABLE
  2
VPORT
  5
19
330
0
100
AcDbSymbolTable
 70
     2
  0
VPORT
  5
373
330
19
100
AcDbSymbolTableRecord
100
AcDbViewportTableRecord
  2
*Active
 70
     0
 10
0.0
 20
0.0
 11
1.0
 21
1.0
 12
297.011031892715
 22
209.9978696036568
 13
0.0
 23
0.0
 14
1.0
 24
1.0
 15
0.0
 25
0.0
 16
0.0
 26
0.0
 36
1.0
 17
0.0
 27
0.0
 37
0.0
 40
426.1973986643704
 41
2.407317073170732
 42
50.0
 43
0.0
 44
0.0
 50
0.0
 51
0.0
 71
     0
 72
   100
 73
     1
 74
     1
 75
     0
 76
     0
 77
     0
 78
     0
281
     0
 65
     1
110
0.0
120
0.0
130
0.0
111
1.0
121
0.0
131
0.0
112
0.0
122
1.0
132
0.0
 79
     0
146
0.0
  0
ENDTAB
  0
TABLE
  2
LTYPE
  5
14
330
0
100
AcDbSymbolTable
 70
     3
  0
LTYPE
  5
15
330
14
100
AcDbSymbolTableRecord
100
AcDbLinetypeTableRecord
  2
BYBLOCK
 70
     0
  3

 72
    65
 73
     0
 40
0.0
  0
LTYPE
  5
16
330
14
100
AcDbSymbolTableRecord
100
AcDbLinetypeTableRecord
  2
BYLAYER
 70
     0
  3

 72
    65
 73
     0
 40
0.0
  0
LTYPE
  5
8
330
14
100
AcDbSymbolTableRecord
100
AcDbLinetypeTableRecord
  2
CONTINUOUS
 70
     0
  3
Solid line
 72
    65
 73
     0
 40
0.0
  0
LTYPE
  5
33
330
14
100
AcDbSymbolTableRecord
100
AcDbLinetypeTableRecord
  2
CENTER
 70
     0
  3
Center
 72
    65
 73
     4
 40
9.100006759199999
 49
6.5000119209
 74
     0
 49
-0.7999984026000001
 74
     0
 49
0.9999980329999999
 74
     0
 49
-0.7999984026000001
 74
     0
  0
LTYPE
  5
137
330
14
100
AcDbSymbolTableRecord
100
AcDbLinetypeTableRecord
  2
PHANTOM
 70
     0
  3
Phantom
 72
    65
 73
     6
 40
9.499981462999999
 49
4.799990654
 74
     0
 49
-0.8999982475999999
 74
     0
 49
0.9999980329999999
 74
     0
 49
-0.8999982475999999
 74
     0
 49
0.9999980329999999
 74
     0
 49
-0.8999982475999999
 74
     0
  0
ENDTAB
  0
TABLE
  2
LAYER
  5
10
330
0
100
AcDbSymbolTable
 70
     1
  0
LAYER
  5
4
330
10
100
AcDbSymbolTableRecord
100
AcDbLayerTableRecord
  2
0
 70
     0
 62
     7
  6
CONTINUOUS
370
    -3
390
367
  0
ENDTAB
  0
TABLE
  2
STYLE
  5
11
330
0
100
AcDbSymbolTable
 70
     1
  0
STYLE
  5
12
330
11
100
AcDbSymbolTableRecord
100
AcDbTextStyleTableRecord
  2
STANDARD
 70
     0
 40
0.0
 41
1.0
 50
0.0
 71
     0
 42
2.999994039499997
  3
romans.shx
  4
bigfont.shx
  0
ENDTAB
  0
TABLE
  2
VIEW
  5
17
330
0
100
AcDbSymbolTable
 70
     0
  0
ENDTAB
  0
TABLE
  2
UCS
  5
18
330
0
100
AcDbSymbolTable
 70
     0
  0
ENDTAB
  0
TABLE
  2
APPID
  5
1B
330
0
100
AcDbSymbolTable
 70
     1
  0
APPID
  5
1C
330
1B
100
AcDbSymbolTableRecord
100
AcDbRegAppTableRecord
  2
ACAD
 70
     0
  0
ENDTAB
  0
TABLE
  2
DIMSTYLE
  5
1D
330
0
100
AcDbSymbolTable
 70
     1
100
AcDbDimStyleTable
 71
     0
  0
DIMSTYLE
105
23
330
1D
100
AcDbSymbolTableRecord
100
AcDbDimStyleTableRecord
  2
STANDARD
 70
     0
340
12
  0
ENDTAB
  0
TABLE
  2
BLOCK_RECORD
  5
1
330
0
100
AcDbSymbolTable
 70
     1
  0
BLOCK_RECORD
  5
2
102
{ACAD_XDICTIONARY
360
35E
102
}
330
1
100
AcDbSymbolTableRecord
100
AcDbBlockTableRecord
  2
*MODEL_SPACE
340
368
  0
BLOCK_RECORD
  5
C
102
{ACAD_XDICTIONARY
360
360
102
}
330
1
100
AcDbSymbolTableRecord
100
AcDbBlockTableRecord
  2
*PAPER_SPACE
340
369
  0
ENDTAB
  0
ENDSEC
  0
SECTION
  2
BLOCKS
  0
BLOCK
  5
3
330
2
100
AcDbEntity
  8
0
100
AcDbBlockBegin
  2
*MODEL_SPACE
 70
     0
 10
0.0
 20
0.0
 30
0.0
  3
*MODEL_SPACE
  1

  0
ENDBLK
  5
9
330
2
100
AcDbEntity
  8
0
100
AcDbBlockEnd
  0
BLOCK
  5
D
330
C
100
AcDbEntity
 67
     1
  8
0
100
AcDbBlockBegin
  2
*PAPER_SPACE
 70
     0
 10
0.0
 20
0.0
 30
0.0
  3
*PAPER_SPACE
  1

  0
ENDBLK
  5
E
330
C
100
AcDbEntity
 67
     1
  8
0
100
AcDbBlockEnd
  0
ENDSEC
  0
SECTION
  2
ENTITIES
  0
LINE
  5
24
330
2
100
AcDbEntity
  8
0
100
AcDbLine
 10
594.0
 20
0.0
 30
0.0
 11
594.0
 21
420.0
 31
0.0
  0
LINE
  5
25
330
2
100
AcDbEntity
  8
0
 62
     3
100
AcDbLine
 10
274.8012156009365
 20
145.2090636562328
 30
0.0
 11
274.8012156009365
 21
143.2090723755328
 31
0.0
  0
LINE
  5
26
330
2
100
AcDbEntity
  8
0
 62
     3
100
AcDbLine
 10
255.8009770241365
 20
145.7091076788328
 30
0.0
 11
257.8009668163366
 21
143.7091177180328
 31
0.0
  0
LINE
  5
27
330
2
100
AcDbEntity
  8
0
 62
     3
100
AcDbLine
 10
241.8009938563365
 20
143.7091260992328
 30
0.0
 11
243.8009838171367
 21
145.7091158914328
 31
0.0
  0
LINE
  5
28
330
2
100
AcDbEntity
  8
0
 62
     3
100
AcDbLine
 10
242.8010063375367
 20
131.7090462176327
 30
0.0
 11
242.8010063375367
 21
144.7090985334328
 31
0.0
  0
LINE
  5
29
330
2
100
AcDbEntity
  8
0
 62
     3
100
AcDbLine
 10
256.8010324955365
 20
131.7090462176327
 30
0.0
 11
256.8010324955365
 21
144.7090985334328
 31
0.0
  0
LINE
  5
2A
330
2
100
AcDbEntity
  8
0
 62
     3
100
AcDbLine
 10
224.8011720044366
 20
145.2090636562328
 30
0.0
 11
224.8011720044366
 21
143.2090723755328
 31
0.0
  0
LINE
  5
2B
330
2
100
AcDbEntity
  8
0
 62
     3
100
AcDbLine
 10
217.8012243202366
 20
145.2090636562328
 30
0.0
 11
217.8012243202366
 21
143.2090723755328
 31
0.0
  0
LINE
  5
2C
330
2
100
AcDbEntity
  8
0
 62
     3
100
AcDbLine
 10
198.8010293400367
 20
145.7091076788328
 30
0.0
 11
200.8010191322366
 21
143.7091177180328
 31
0.0
  0
LINE
  5
2D
330
2
100
AcDbEntity
  8
0
 62
     3
100
AcDbLine
 10
199.8010848113365
 20
131.7090462176327
 30
0.0
 11
199.8010848113365
 21
144.7090985334328
 31
0.0
  0
LINE
  5
2E
330
2
100
AcDbEntity
  8
0
 62
     3
100
AcDbLine
 10
184.8010461721367
 20
143.7091260992328
 30
0.0
 11
186.8010361329367
 21
145.7091158914328
 31
0.0
  0
LINE
  5
2F
330
2
100
AcDbEntity
  8
0
 62
     3
100
AcDbLine
 10
185.8010586534367
 20
131.7090462176327
 30
0.0
 11
185.8010586534367
 21
144.7090985334328
 31
0.0
  0
LINE
  5
30
330
2
100
AcDbEntity
  8
0
 62
     3
100
AcDbLine
 10
218.8012417589367
 20
158.2090723755328
 30
0.0
 11
218.8012417589367
 21
107.7090636562328
 31
0.0
  0
LINE
  5
31
330
2
100
AcDbEntity
  8
0
 62
     3
100
AcDbLine
 10
280.8012330396367
 20
68.20907237553284
 30
0.0
 11
280.8012330396367
 21
158.2090723755328
 31
0.0
  0
LINE
  5
32
330
2
100
AcDbEntity
  8
0
  6
CENTER
 62
     3
100
AcDbLine
 10
192.8013115133366
 20
166.6856348755328
 30
0.0
 11
192.8013115133366
 21
60.26948846093286
 31
0.0
  0
LINE
  5
34
330
2
100
AcDbEntity
  8
0
 62
     3
100
AcDbLine
 10
275.8012330396367
 20
158.2090723755328
 30
0.0
 11
275.8012330396367
 21
107.7090636562328
 31
0.0
  0
LINE
  5
35
330
2
100
AcDbEntity
  8
0
 62
     3
100
AcDbLine
 10
223.8011981623367
 20
158.2090723755328
 30
0.0
 11
223.8011981623367
 21
107.7090636562328
 31
0.0
  0
LINE
  5
36
330
2
100
AcDbEntity
  8
0
  6
CENTER
 62
     3
100
AcDbLine
 10
249.8012591975367
 20
166.6856348755328
 30
0.0
 11
249.8012591975367
 21
60.26948846093286
 31
0.0
  0
LINE
  5
37
330
2
100
AcDbEntity
  8
0
 62
     3
100
AcDbLine
 10
167.8013987064366
 20
145.2090636562328
 30
0.0
 11
167.8013987064366
 21
143.2090723755328
 31
0.0
  0
LINE
  5
38
330
2
100
AcDbEntity
  8
0
 62
     3
100
AcDbLine
 10
160.8014510223366
 20
145.2090636562328
 30
0.0
 11
160.8014510223366
 21
143.2090723755328
 31
0.0
  0
LINE
  5
39
330
2
100
AcDbEntity
  8
0
 62
     3
100
AcDbLine
 10
141.8010327059366
 20
145.7091177880328
 30
0.0
 11
143.8010224981366
 21
143.7091278272328
 31
0.0
  0
LINE
  5
3A
330
2
100
AcDbEntity
  8
0
 62
     3
100
AcDbLine
 10
142.8010935306367
 20
131.7090462176327
 30
0.0
 11
142.8010935306367
 21
144.7090985334328
 31
0.0
  0
LINE
  5
3B
330
2
100
AcDbEntity
  8
0
 62
     3
100
AcDbLine
 10
127.8010418312367
 20
143.7091285016328
 30
0.0
 11
129.8010317920367
 21
145.7091182938328
 31
0.0
  0
LINE
  5
3C
330
2
100
AcDbEntity
  8
0
 62
     3
100
AcDbLine
 10
128.8010673727365
 20
131.7090462176327
 30
0.0
 11
128.8010673727365
 21
144.7090985334328
 31
0.0
  0
LINE
  5
3D
330
2
100
AcDbEntity
  8
0
 62
     3
100
AcDbLine
 10
110.8011458465367
 20
145.2090636562328
 30
0.0
 11
110.8011458465367
 21
143.2090723755328
 31
0.0
  0
LINE
  5
3E
330
2
100
AcDbEntity
  8
0
 62
     3
100
AcDbLine
 10
109.8011284079365
 20
158.2090723755328
 30
0.0
 11
109.8011284079365
 21
107.7090636562328
 31
0.0
  0
LINE
  5
3F
330
2
100
AcDbEntity
  8
0
 62
     3
100
AcDbLine
 10
104.8011284079365
 20
68.20907237553284
 30
0.0
 11
104.8011284079365
 21
158.2090723755328
 31
0.0
  0
LINE
  5
40
330
2
100
AcDbEntity
  8
0
  6
CENTER
 62
     3
100
AcDbLine
 10
135.8013202326365
 20
166.6856348755328
 30
0.0
 11
135.8013202326365
 21
60.26948846093286
 31
0.0
  0
LINE
  5
41
330
2
100
AcDbEntity
  8
0
 62
     3
100
AcDbLine
 10
161.8012068816366
 20
158.2090723755328
 30
0.0
 11
161.8012068816366
 21
107.7090636562328
 31
0.0
  0
LINE
  5
42
330
2
100
AcDbEntity
  8
0
 62
     3
100
AcDbLine
 10
166.8012068816365
 20
158.2090723755328
 30
0.0
 11
166.8012068816365
 21
107.7090636562328
 31
0.0
  0
LINE
  5
43
330
2
100
AcDbEntity
  8
0
100
AcDbLine
 10
0.0
 20
420.0
 30
0.0
 11
0.0
 21
0.0
 31
0.0
  0
LINE
  5
44
330
2
100
AcDbEntity
  8
0
100
AcDbLine
 10
0.0
 20
0.0
 30
0.0
 11
594.0
 21
0.0
 31
0.0
  0
LINE
  5
45
330
2
100
AcDbEntity
  8
0
 62
     3
100
AcDbLine
 10
241.8010760920366
 20
143.2090723755328
 30
0.0
 11
200.8010586534367
 21
143.2090723755328
 31
0.0
  0
LINE
  5
46
330
2
100
AcDbEntity
  8
0
 62
     3
100
AcDbLine
 10
275.8011894430365
 20
111.7090898141328
 30
0.0
 11
223.8011545658366
 21
111.7090898141328
 31
0.0
  0
LINE
  5
47
330
2
100
AcDbEntity
  8
0
 62
     3
100
AcDbLine
 10
225.8011894430365
 20
76.20908109483284
 30
0.0
 11
273.8012417589365
 21
76.20908109483284
 31
0.0
  0
LINE
  5
48
330
2
100
AcDbEntity
  8
0
 62
     3
100
AcDbLine
 10
273.8011981623365
 20
104.7090985334327
 30
0.0
 11
225.8011458465365
 21
104.7090985334327
 31
0.0
  0
LINE
  5
49
330
2
100
AcDbEntity
  8
0
 62
     3
100
AcDbLine
 10
225.8011458465365
 20
105.7090723755327
 30
0.0
 11
273.8011981623365
 21
105.7090723755327
 31
0.0
  0
LINE
  5
4A
330
2
100
AcDbEntity
  8
0
 62
     3
100
AcDbLine
 10
225.8011458465365
 20
103.7090810948327
 30
0.0
 11
273.8011981623365
 21
103.7090810948327
 31
0.0
  0
LINE
  5
4B
330
2
100
AcDbEntity
  8
0
 62
     3
100
AcDbLine
 10
271.0520439352367
 20
84.70909853343284
 30
0.0
 11
228.9926741668367
 21
84.70909853343284
 31
0.0
  0
LINE
  5
4C
330
2
100
AcDbEntity
  8
0
 62
     3
100
AcDbLine
 10
104.8011284079365
 20
68.20907237553284
 30
0.0
 11
280.8012330396367
 21
68.20907237553284
 31
0.0
  0
LINE
  5
4D
330
2
100
AcDbEntity
  8
0
 62
     3
100
AcDbLine
 10
147.3010792322367
 20
131.7090807911328
 30
0.0
 11
149.6510701735366
 21
130.3523128643327
 31
0.0
  0
LINE
  5
4E
330
2
100
AcDbEntity
  8
0
 62
     3
100
AcDbLine
 10
109.8012156009364
 20
111.7090898141328
 30
0.0
 11
161.8012068816366
 21
111.7090898141328
 31
0.0
  0
LINE
  5
4F
330
2
100
AcDbEntity
  8
0
 62
     3
100
AcDbLine
 10
150.8010586534366
 20
114.7090549369327
 30
0.0
 11
120.8010586534367
 21
114.7090549369327
 31
0.0
  0
LINE
  5
50
330
2
100
AcDbEntity
  8
0
 62
     3
100
AcDbLine
 10
111.8011632851365
 20
103.7090810948327
 30
0.0
 11
159.8011720044365
 21
103.7090810948327
 31
0.0
  0
LINE
  5
51
330
2
100
AcDbEntity
  8
0
 62
     3
100
AcDbLine
 10
159.8011720044365
 20
104.7090985334327
 30
0.0
 11
111.8011632851365
 21
104.7090985334327
 31
0.0
  0
LINE
  5
52
330
2
100
AcDbEntity
  8
0
 62
     3
100
AcDbLine
 10
159.8011720044365
 20
105.7090723755327
 30
0.0
 11
111.8011632851365
 21
105.7090723755327
 31
0.0
  0
LINE
  5
53
330
2
100
AcDbEntity
  8
0
 62
     3
100
AcDbLine
 10
121.8010760920366
 20
118.7090810948328
 30
0.0
 11
149.8010412148365
 21
118.7090810948328
 31
0.0
  0
LINE
  5
54
330
2
100
AcDbEntity
  8
0
 62
     3
100
AcDbLine
 10
111.8011632851365
 20
76.20908109483284
 30
0.0
 11
159.8011720044365
 21
76.20908109483284
 31
0.0
  0
LINE
  5
55
330
2
100
AcDbEntity
  8
0
 62
     3
100
AcDbLine
 10
156.8982527801365
 20
84.70909853343284
 30
0.0
 11
113.8130564212367
 21
84.70909853343284
 31
0.0
  0
LINE
  5
56
330
2
100
AcDbEntity
  8
0
 62
     3
100
AcDbLine
 10
184.8010848113365
 20
143.2090723755328
 30
0.0
 11
143.8010673727367
 21
143.2090723755328
 31
0.0
  0
LINE
  5
57
330
2
100
AcDbEntity
  8
0
 62
     3
100
AcDbLine
 10
102.5011493342365
 20
88.20907237553283
 30
0.0
 11
102.5011493342365
 21
68.20907237553284
 31
0.0
  0
LINE
  5
58
330
2
100
AcDbEntity
  8
0
 62
     3
100
AcDbLine
 10
111.8011632851365
 20
107.7090636562328
 30
0.0
 11
111.8011632851365
 21
76.20908109483284
 31
0.0
  0
LINE
  5
59
330
2
100
AcDbEntity
  8
0
 62
     3
100
AcDbLine
 10
135.8013202326365
 20
105.7090723755327
 30
0.0
 11
135.8013202326365
 21
68.20907237553284
 31
0.0
  0
LINE
  5
5A
330
2
100
AcDbEntity
  8
0
 62
     3
100
AcDbLine
 10
74.80112840793673
 20
68.20907237553284
 30
0.0
 11
104.8011284079365
 21
68.20907237553284
 31
0.0
  0
LINE
  5
5B
330
2
100
AcDbEntity
  8
0
 62
     3
100
AcDbLine
 10
74.80112840793673
 20
70.50909504573283
 30
0.0
 11
102.5011493342365
 21
70.50909504573283
 31
0.0
  0
LINE
  5
5C
330
2
100
AcDbEntity
  8
0
 62
     3
100
AcDbLine
 10
74.80112840793673
 20
70.50909504573283
 30
0.0
 11
74.80112840793673
 21
68.20907237553284
 31
0.0
  0
ARC
  5
5D
330
2
100
AcDbEntity
  8
0
 62
     3
100
AcDbCircle
 10
100.8510202884367
 20
73.20911597203284
 30
0.0
 40
2.2500002384
100
AcDbArc
 50
179.9999640277999
 51
270.0000006831999
  0
LINE
  5
5E
330
2
100
AcDbEntity
  8
0
 62
     3
100
AcDbLine
 10
100.8510202884367
 20
70.95909853343281
 30
0.0
 11
102.5011493342365
 21
70.95909853343281
 31
0.0
  0
ARC
  5
5F
330
2
100
AcDbEntity
  8
0
 62
     3
100
AcDbCircle
 10
100.8510202884367
 20
79.20908981413282
 30
0.0
 40
2.2500002384
100
AcDbArc
 50
89.99998201389999
 51
179.9999640277999
  0
LINE
  5
60
330
2
100
AcDbEntity
  8
0
 62
     3
100
AcDbLine
 10
98.60084944733671
 20
76.20912755993284
 30
0.0
 11
99.55912864823671
 21
77.86891579413285
 31
0.0
  0
LINE
  5
61
330
2
100
AcDbEntity
  8
0
 62
     3
100
AcDbLine
 10
98.60100284983669
 20
79.20908981413282
 30
0.0
 11
98.60100284983669
 21
73.20911597203284
 31
0.0
  0
LINE
  5
62
330
2
100
AcDbEntity
  8
0
 62
     3
100
AcDbLine
 10
98.60098905683674
 20
76.20904172823284
 30
0.0
 11
99.61423804543677
 21
74.45404303083285
 31
0.0
  0
LINE
  5
63
330
2
100
AcDbEntity
  8
0
 62
     3
100
AcDbLine
 10
100.8510202884367
 20
81.45910725276085
 30
0.0
 11
102.5011493342365
 21
81.45910725276085
 31
0.0
  0
LINE
  5
64
330
2
100
AcDbEntity
  8
0
 62
     3
100
AcDbLine
 10
127.8010935306367
 20
143.2090723755328
 30
0.0
 11
104.8011284079365
 21
143.2090723755328
 31
0.0
  0
LINE
  5
65
330
2
100
AcDbEntity
  8
0
 62
     3
100
AcDbLine
 10
104.8011284079365
 20
88.20907237553283
 30
0.0
 11
102.5011493342365
 21
88.20907237553283
 31
0.0
  0
LINE
  5
66
330
2
100
AcDbEntity
  8
0
 62
     3
100
AcDbLine
 10
135.2375613707367
 20
118.7090740216327
 30
0.0
 11
133.3857105062367
 21
114.7090763226328
 31
0.0
  0
LINE
  5
67
330
2
100
AcDbEntity
  8
0
 62
     3
100
AcDbLine
 10
121.8010760920366
 20
118.7090810948328
 30
0.0
 11
121.8010760920366
 21
114.7090549369327
 31
0.0
  0
LINE
  5
68
330
2
100
AcDbEntity
  8
0
 62
     3
100
AcDbLine
 10
137.4414810500365
 20
118.7090571357328
 30
0.0
 11
135.5896301856367
 21
114.7090594366328
 31
0.0
  0
LINE
  5
69
330
2
100
AcDbEntity
  8
0
 62
     3
100
AcDbLine
 10
110.4011911869365
 20
111.7090898141328
 30
0.0
 11
110.4011911869365
 21
107.7090636562328
 31
0.0
  0
LINE
  5
6A
330
2
100
AcDbEntity
  8
0
 62
     3
100
AcDbLine
 10
109.8011284079365
 20
107.7090636562328
 30
0.0
 11
111.8011632851365
 21
107.7090636562328
 31
0.0
  0
LINE
  5
6B
330
2
100
AcDbEntity
  8
0
 62
     3
100
AcDbLine
 10
120.8010586534367
 20
114.7090549369327
 30
0.0
 11
120.8010586534367
 21
111.7090898141328
 31
0.0
  0
LINE
  5
6C
330
2
100
AcDbEntity
  8
0
 62
     3
100
AcDbLine
 10
128.6030091580367
 20
130.5331904366328
 30
0.0
 11
128.8760534218367
 21
130.3522782907328
 31
0.0
  0
LINE
  5
6D
330
2
100
AcDbEntity
  8
0
 62
     3
100
AcDbLine
 10
147.3010412148366
 20
131.7090462176327
 30
0.0
 11
124.3010760920364
 21
131.7090462176327
 31
0.0
  0
LINE
  5
6E
330
2
100
AcDbEntity
  8
0
 62
     3
100
AcDbLine
 10
121.9510481902364
 20
118.7090810948328
 30
0.0
 11
121.9510481902364
 21
130.3522782907328
 31
0.0
  0
LINE
  5
6F
330
2
100
AcDbEntity
  8
0
 62
     3
100
AcDbLine
 10
127.8010935306367
 20
131.7090462176327
 30
0.0
 11
127.8010935306367
 21
143.7090810948328
 31
0.0
  0
LINE
  5
70
330
2
100
AcDbEntity
  8
0
 62
     3
100
AcDbLine
 10
124.3010954902367
 20
131.7091006248328
 30
0.0
 11
121.9511045490367
 21
130.3523326979328
 31
0.0
  0
LINE
  5
71
330
2
100
AcDbEntity
  8
0
 62
     3
100
AcDbLine
 10
126.8217572047367
 20
131.3699267867327
 30
0.0
 11
127.1329020689367
 21
131.2630319521328
 31
0.0
  0
LINE
  5
72
330
2
100
AcDbEntity
  8
0
 62
     3
100
AcDbLine
 10
127.1329020689367
 20
131.2630319521328
 30
0.0
 11
127.4390731572367
 21
131.1423260327326
 31
0.0
  0
LINE
  5
73
330
2
100
AcDbEntity
  8
0
 62
     3
100
AcDbLine
 10
127.4390731572367
 20
131.1423260327326
 30
0.0
 11
127.7397199399366
 21
131.0083989749328
 31
0.0
  0
LINE
  5
74
330
2
100
AcDbEntity
  8
0
 62
     3
100
AcDbLine
 10
127.7397199399366
 20
131.0083989749328
 30
0.0
 11
128.0342918874366
 21
130.8618407253328
 31
0.0
  0
LINE
  5
75
330
2
100
AcDbEntity
  8
0
 62
     3
100
AcDbLine
 10
128.0342918874366
 20
130.8618407253328
 30
0.0
 11
128.3222384700366
 21
130.7032412303327
 31
0.0
  0
LINE
  5
76
330
2
100
AcDbEntity
  8
0
 62
     3
100
AcDbLine
 10
128.3222384700366
 20
130.7032412303327
 30
0.0
 11
128.6030091580367
 21
130.5331904366328
 31
0.0
  0
LINE
  5
77
330
2
100
AcDbEntity
  8
0
 62
     3
100
AcDbLine
 10
124.3010760920364
 20
131.7090462176327
 30
0.0
 11
124.5786238992367
 21
131.7130055375328
 31
0.0
  0
LINE
  5
78
330
2
100
AcDbEntity
  8
0
 62
     3
100
AcDbLine
 10
124.5786238992367
 20
131.7130055375328
 30
0.0
 11
124.8565218371367
 21
131.7073609525328
 31
0.0
  0
LINE
  5
79
330
2
100
AcDbEntity
  8
0
 62
     3
100
AcDbLine
 10
124.8565218371367
 20
131.7073609525328
 30
0.0
 11
125.1343221717367
 21
131.6919447689328
 31
0.0
  0
LINE
  5
7A
330
2
100
AcDbEntity
  8
0
 62
     3
100
AcDbLine
 10
125.1343221717367
 20
131.6919447689328
 30
0.0
 11
125.4115771685367
 21
131.6665892930326
 31
0.0
  0
LINE
  5
7B
330
2
100
AcDbEntity
  8
0
 62
     3
100
AcDbLine
 10
125.4115771685367
 20
131.6665892930326
 30
0.0
 11
125.6878390934367
 21
131.6311268308328
 31
0.0
  0
LINE
  5
7C
330
2
100
AcDbEntity
  8
0
 62
     3
100
AcDbLine
 10
125.6878390934367
 20
131.6311268308328
 30
0.0
 11
125.9626602122367
 21
131.5853896888326
 31
0.0
  0
LINE
  5
7D
330
2
100
AcDbEntity
  8
0
 62
     3
100
AcDbLine
 10
125.9626602122367
 20
131.5853896888326
 30
0.0
 11
126.2355927905367
 21
131.5292101730328
 31
0.0
  0
LINE
  5
7E
330
2
100
AcDbEntity
  8
0
 62
     3
100
AcDbLine
 10
126.2355927905367
 20
131.5292101730328
 30
0.0
 11
126.5061890942366
 21
131.4624205898327
 31
0.0
  0
LINE
  5
7F
330
2
100
AcDbEntity
  8
0
 62
     3
100
AcDbLine
 10
126.5061890942366
 20
131.4624205898327
 30
0.0
 11
126.8217572047367
 21
131.3699267867327
 31
0.0
  0
LINE
  5
80
330
2
100
AcDbEntity
  8
0
 62
     3
100
AcDbLine
 10
142.7261074815367
 20
118.7090810948328
 30
0.0
 11
142.7261074815367
 21
130.3522782907328
 31
0.0
  0
LINE
  5
81
330
2
100
AcDbEntity
  8
0
 62
     3
100
AcDbLine
 10
128.8760534218367
 20
118.7090810948328
 30
0.0
 11
128.8760534218367
 21
130.3522782907328
 31
0.0
  0
ARC
  5
82
330
2
100
AcDbEntity
  8
0
 62
     3
100
AcDbCircle
 10
135.8010586534367
 20
113.3580417533327
 30
0.0
 40
18.35101536339998
100
AcDbArc
 50
67.8295158171
 51
112.1704482107
  0
LINE
  5
83
330
2
100
AcDbEntity
  8
0
 62
     3
100
AcDbLine
 10
143.8010673727367
 20
131.7090462176327
 30
0.0
 11
143.8010673727367
 21
143.7090810948328
 31
0.0
  0
LINE
  5
84
330
2
100
AcDbEntity
  8
0
 62
     3
100
AcDbLine
 10
144.1630579517365
 20
131.1423260284326
 30
0.0
 11
143.8624191774366
 21
131.0083989702326
 31
0.0
  0
LINE
  5
85
330
2
100
AcDbEntity
  8
0
 62
     3
100
AcDbLine
 10
143.8624191774366
 20
131.0083989702326
 30
0.0
 11
143.5678552368367
 21
130.8618407207328
 31
0.0
  0
LINE
  5
86
330
2
100
AcDbEntity
  8
0
 62
     3
100
AcDbLine
 10
143.5678552368367
 20
130.8618407207328
 30
0.0
 11
143.2799156364365
 21
130.7032412266327
 31
0.0
  0
LINE
  5
87
330
2
100
AcDbEntity
  8
0
 62
     3
100
AcDbLine
 10
143.2799156364365
 20
130.7032412266327
 30
0.0
 11
142.9991498825366
 21
130.5331904344326
 31
0.0
  0
LINE
  5
88
330
2
100
AcDbEntity
  8
0
 62
     3
100
AcDbLine
 10
142.9991498825366
 20
130.5331904344326
 30
0.0
 11
142.7261074815367
 21
130.3522782907328
 31
0.0
  0
LINE
  5
89
330
2
100
AcDbEntity
  8
0
 62
     3
100
AcDbLine
 10
147.3010412148366
 20
131.7090462176327
 30
0.0
 11
147.0234938524365
 21
131.7130056568327
 31
0.0
  0
LINE
  5
8A
330
2
100
AcDbEntity
  8
0
 62
     3
100
AcDbLine
 10
146.7455969947367
 20
131.7073613617327
 30
0.0
 11
146.4677979946365
 21
131.6919455361328
 31
0.0
  0
LINE
  5
8B
330
2
100
AcDbEntity
  8
0
 62
     3
100
AcDbLine
 10
146.4677979946365
 20
131.6919455361328
 30
0.0
 11
146.1905442051365
 21
131.6665903841327
 31
0.0
  0
LINE
  5
8C
330
2
100
AcDbEntity
  8
0
 62
     3
100
AcDbLine
 10
146.1905442051365
 20
131.6665903841327
 30
0.0
 11
145.9142829792365
 21
131.6311281095327
 31
0.0
  0
LINE
  5
8D
330
2
100
AcDbEntity
  8
0
 62
     3
100
AcDbLine
 10
145.9142829792365
 20
131.6311281095327
 30
0.0
 11
145.6394616698367
 21
131.5853909163327
 31
0.0
  0
LINE
  5
8E
330
2
100
AcDbEntity
  8
0
 62
     3
100
AcDbLine
 10
145.6394616698367
 20
131.5853909163327
 30
0.0
 11
145.3665276299366
 21
131.5292110084327
 31
0.0
  0
LINE
  5
8F
330
2
100
AcDbEntity
  8
0
 62
     3
100
AcDbLine
 10
145.3665276299366
 20
131.5292110084327
 30
0.0
 11
145.0959282125365
 21
131.4624205898327
 31
0.0
  0
LINE
  5
90
330
2
100
AcDbEntity
  8
0
 62
     3
100
AcDbLine
 10
145.0959282125365
 20
131.4624205898327
 30
0.0
 11
144.7803619757366
 21
131.3699267847328
 31
0.0
  0
LINE
  5
91
330
2
100
AcDbEntity
  8
0
 62
     3
100
AcDbLine
 10
144.7803619757366
 20
131.3699267847328
 30
0.0
 11
144.4692220532367
 21
131.2630319487327
 31
0.0
  0
LINE
  5
92
330
2
100
AcDbEntity
  8
0
 62
     3
100
AcDbLine
 10
144.4692220532367
 20
131.2630319487327
 30
0.0
 11
144.1630579517365
 21
131.1423260284326
 31
0.0
  0
LINE
  5
93
330
2
100
AcDbEntity
  8
0
 62
     3
100
AcDbLine
 10
147.0234938524365
 20
131.7130056568327
 30
0.0
 11
146.7455969947367
 21
131.7073613617327
 31
0.0
  0
LINE
  5
94
330
2
100
AcDbEntity
  8
0
 62
     3
100
AcDbLine
 10
216.8012504782367
 20
107.7090636562328
 30
0.0
 11
216.8012504782367
 21
76.20908109483284
 31
0.0
  0
LINE
  5
95
330
2
100
AcDbEntity
  8
0
 62
     3
100
AcDbLine
 10
192.8012679168367
 20
105.7090723755327
 30
0.0
 11
192.8012679168367
 21
68.20907237553284
 31
0.0
  0
LINE
  5
96
330
2
100
AcDbEntity
  8
0
 62
     3
100
AcDbLine
 10
225.8011894430365
 20
107.7090636562328
 30
0.0
 11
225.8011894430365
 21
76.20908109483284
 31
0.0
  0
LINE
  5
97
330
2
100
AcDbEntity
  8
0
 62
     3
100
AcDbLine
 10
159.8011720044365
 20
107.7090636562328
 30
0.0
 11
159.8011720044365
 21
76.20908109483284
 31
0.0
  0
LINE
  5
98
330
2
100
AcDbEntity
  8
0
 62
     3
100
AcDbLine
 10
168.8011981623365
 20
107.7090636562328
 30
0.0
 11
168.8011981623365
 21
76.20908109483284
 31
0.0
  0
LINE
  5
99
330
2
100
AcDbEntity
  8
0
 62
     3
100
AcDbLine
 10
168.8011981623365
 20
76.20908109483284
 30
0.0
 11
216.8012504782367
 21
76.20908109483284
 31
0.0
  0
LINE
  5
9A
330
2
100
AcDbEntity
  8
0
 62
     3
100
AcDbLine
 10
214.0520962510366
 20
84.70909853343284
 30
0.0
 11
171.9927264826366
 21
84.70909853343284
 31
0.0
  0
ARC
  5
9B
330
2
100
AcDbEntity
  8
0
 62
     3
100
AcDbCircle
 10
192.8010935306365
 20
113.3580417533327
 30
0.0
 40
18.35101536339998
100
AcDbArc
 50
67.8295158171
 51
112.1704482107
  0
LINE
  5
9C
330
2
100
AcDbEntity
  8
0
 62
     3
100
AcDbLine
 10
204.3010760920366
 20
131.7090462176327
 30
0.0
 11
181.3010673727367
 21
131.7090462176327
 31
0.0
  0
LINE
  5
9D
330
2
100
AcDbEntity
  8
0
 62
     3
100
AcDbLine
 10
178.8010673727367
 20
118.7090810948328
 30
0.0
 11
206.8010760920365
 21
118.7090810948328
 31
0.0
  0
LINE
  5
9E
330
2
100
AcDbEntity
  8
0
 62
     3
100
AcDbLine
 10
207.8010935306366
 20
114.7090549369327
 30
0.0
 11
177.8010935306365
 21
114.7090549369327
 31
0.0
  0
LINE
  5
9F
330
2
100
AcDbEntity
  8
0
 62
     3
100
AcDbLine
 10
218.8012417589367
 20
111.7090898141328
 30
0.0
 11
166.8012068816365
 21
111.7090898141328
 31
0.0
  0
LINE
  5
A0
330
2
100
AcDbEntity
  8
0
 62
     3
100
AcDbLine
 10
168.8011981623365
 20
103.7090810948327
 30
0.0
 11
216.8012504782367
 21
103.7090810948327
 31
0.0
  0
LINE
  5
A1
330
2
100
AcDbEntity
  8
0
 62
     3
100
AcDbLine
 10
168.8011981623365
 20
105.7090723755327
 30
0.0
 11
216.8012504782367
 21
105.7090723755327
 31
0.0
  0
LINE
  5
A2
330
2
100
AcDbEntity
  8
0
 62
     3
100
AcDbLine
 10
216.8012504782367
 20
104.7090985334327
 30
0.0
 11
168.8011981623365
 21
104.7090985334327
 31
0.0
  0
LINE
  5
A3
330
2
100
AcDbEntity
  8
0
 62
     3
100
AcDbLine
 10
178.8010673727367
 20
118.7090810948328
 30
0.0
 11
178.8010673727367
 21
114.7090549369327
 31
0.0
  0
LINE
  5
A4
330
2
100
AcDbEntity
  8
0
 62
     3
100
AcDbLine
 10
149.8010412148365
 20
118.7090810948328
 30
0.0
 11
149.8010412148365
 21
114.7090549369327
 31
0.0
  0
LINE
  5
A5
330
2
100
AcDbEntity
  8
0
 62
     3
100
AcDbLine
 10
150.8010586534366
 20
114.7090549369327
 30
0.0
 11
150.8010586534366
 21
111.7090898141328
 31
0.0
  0
LINE
  5
A6
330
2
100
AcDbEntity
  8
0
 62
     3
100
AcDbLine
 10
167.4011824676365
 20
111.7090898141328
 30
0.0
 11
167.4011824676365
 21
107.7090636562328
 31
0.0
  0
LINE
  5
A7
330
2
100
AcDbEntity
  8
0
 62
     3
100
AcDbLine
 10
161.2011876991366
 20
111.7090898141328
 30
0.0
 11
161.2011876991366
 21
107.7090636562328
 31
0.0
  0
LINE
  5
A8
330
2
100
AcDbEntity
  8
0
 62
     3
100
AcDbLine
 10
161.8012068816366
 20
107.7090636562328
 30
0.0
 11
159.8011720044365
 21
107.7090636562328
 31
0.0
  0
LINE
  5
A9
330
2
100
AcDbEntity
  8
0
 62
     3
100
AcDbLine
 10
166.8012068816365
 20
107.7090636562328
 30
0.0
 11
168.8011981623365
 21
107.7090636562328
 31
0.0
  0
LINE
  5
AA
330
2
100
AcDbEntity
  8
0
 62
     3
100
AcDbLine
 10
177.8010935306365
 20
114.7090549369327
 30
0.0
 11
177.8010935306365
 21
111.7090898141328
 31
0.0
  0
LINE
  5
AB
330
2
100
AcDbEntity
  8
0
 62
     3
100
AcDbLine
 10
149.6510691166364
 20
118.7090810948328
 30
0.0
 11
149.6510691166364
 21
130.3523218872328
 31
0.0
  0
LINE
  5
AC
330
2
100
AcDbEntity
  8
0
 62
     3
100
AcDbLine
 10
185.8760447025365
 20
118.7090810948328
 30
0.0
 11
185.8760447025365
 21
130.3522782907328
 31
0.0
  0
LINE
  5
AD
330
2
100
AcDbEntity
  8
0
 62
     3
100
AcDbLine
 10
178.9510830675367
 20
118.7090810948328
 30
0.0
 11
178.9510830675367
 21
130.3522782907328
 31
0.0
  0
LINE
  5
AE
330
2
100
AcDbEntity
  8
0
 62
     3
100
AcDbLine
 10
181.3010806923365
 20
131.7091231718328
 30
0.0
 11
178.9510897511365
 21
130.3523552449328
 31
0.0
  0
LINE
  5
AF
330
2
100
AcDbEntity
  8
0
 62
     3
100
AcDbLine
 10
184.8010848113365
 20
131.7090462176327
 30
0.0
 11
184.8010848113365
 21
143.7090810948328
 31
0.0
  0
LINE
  5
B0
330
2
100
AcDbEntity
  8
0
 62
     3
100
AcDbLine
 10
184.4390942323365
 20
131.1423260284326
 30
0.0
 11
184.7397330066367
 21
131.0083989702326
 31
0.0
  0
LINE
  5
B1
330
2
100
AcDbEntity
  8
0
 62
     3
100
AcDbLine
 10
182.6878492484365
 20
131.6311297642327
 30
0.0
 11
182.9626777806366
 21
131.5853925049327
 31
0.0
  0
LINE
  5
B2
330
2
100
AcDbEntity
  8
0
 62
     3
100
AcDbLine
 10
182.4115809301367
 20
131.6665917961328
 30
0.0
 11
182.6878492484365
 21
131.6311297642327
 31
0.0
  0
LINE
  5
B3
330
2
100
AcDbEntity
  8
0
 62
     3
100
AcDbLine
 10
182.9626777806366
 20
131.5853925049327
 30
0.0
 11
183.2356186479367
 21
131.5292120895326
 31
0.0
  0
LINE
  5
B4
330
2
100
AcDbEntity
  8
0
 62
     3
100
AcDbLine
 10
183.2356186479367
 20
131.5292120895326
 30
0.0
 11
183.5062239715366
 21
131.4624205898327
 31
0.0
  0
LINE
  5
B5
330
2
100
AcDbEntity
  8
0
 62
     3
100
AcDbLine
 10
183.5062239715366
 20
131.4624205898327
 30
0.0
 11
183.8217902084367
 21
131.3699267847328
 31
0.0
  0
LINE
  5
B6
330
2
100
AcDbEntity
  8
0
 62
     3
100
AcDbLine
 10
183.8217902084367
 20
131.3699267847328
 30
0.0
 11
184.1329301308365
 21
131.2630319487327
 31
0.0
  0
LINE
  5
B7
330
2
100
AcDbEntity
  8
0
 62
     3
100
AcDbLine
 10
184.1329301308365
 20
131.2630319487327
 30
0.0
 11
184.4390942323365
 21
131.1423260284326
 31
0.0
  0
LINE
  5
B8
330
2
100
AcDbEntity
  8
0
 62
     3
100
AcDbLine
 10
181.3010673727367
 20
131.7090462176327
 30
0.0
 11
181.5786160470366
 21
131.7130058112327
 31
0.0
  0
LINE
  5
B9
330
2
100
AcDbEntity
  8
0
 62
     3
100
AcDbLine
 10
181.5786160470366
 20
131.7130058112327
 30
0.0
 11
181.8565164505367
 21
131.7073618911327
 31
0.0
  0
LINE
  5
BA
330
2
100
AcDbEntity
  8
0
 62
     3
100
AcDbLine
 10
181.8565164505367
 20
131.7073618911327
 30
0.0
 11
182.1343207045367
 21
131.6919465289327
 31
0.0
  0
LINE
  5
BB
330
2
100
AcDbEntity
  8
0
 62
     3
100
AcDbLine
 10
182.1343207045367
 20
131.6919465289327
 30
0.0
 11
182.4115809301367
 21
131.6665917961328
 31
0.0
  0
LINE
  5
BC
330
2
100
AcDbEntity
  8
0
 62
     3
100
AcDbLine
 10
184.7397330066367
 20
131.0083989702326
 30
0.0
 11
185.0342969472365
 21
130.8618407207328
 31
0.0
  0
LINE
  5
BD
330
2
100
AcDbEntity
  8
0
 62
     3
100
AcDbLine
 10
185.0342969472365
 20
130.8618407207328
 30
0.0
 11
185.3222365476366
 21
130.7032412266327
 31
0.0
  0
LINE
  5
BE
330
2
100
AcDbEntity
  8
0
 62
     3
100
AcDbLine
 10
185.3222365476366
 20
130.7032412266327
 30
0.0
 11
185.6030023015366
 21
130.5331904344326
 31
0.0
  0
LINE
  5
BF
330
2
100
AcDbEntity
  8
0
 62
     3
100
AcDbLine
 10
185.6030023015366
 20
130.5331904344326
 30
0.0
 11
185.8760447025365
 21
130.3522782907328
 31
0.0
  0
LINE
  5
C0
330
2
100
AcDbEntity
  8
0
 62
     3
100
AcDbLine
 10
206.8010760920365
 20
118.7090810948328
 30
0.0
 11
206.8010760920365
 21
114.7090549369327
 31
0.0
  0
LINE
  5
C1
330
2
100
AcDbEntity
  8
0
 62
     3
100
AcDbLine
 10
194.4414684654367
 20
118.7090760034327
 30
0.0
 11
192.5896176010365
 21
114.7090783043327
 31
0.0
  0
LINE
  5
C2
330
2
100
AcDbEntity
  8
0
 62
     3
100
AcDbLine
 10
192.2375487860366
 20
118.7090928893328
 30
0.0
 11
190.3856796057365
 21
114.7090556279328
 31
0.0
  0
LINE
  5
C3
330
2
100
AcDbEntity
  8
0
 62
     3
100
AcDbLine
 10
207.8010935306366
 20
114.7090549369327
 30
0.0
 11
207.8010935306366
 21
111.7090898141328
 31
0.0
  0
LINE
  5
C4
330
2
100
AcDbEntity
  8
0
 62
     3
100
AcDbLine
 10
218.2012225764367
 20
111.7090898141328
 30
0.0
 11
218.2012225764367
 21
107.7090636562328
 31
0.0
  0
LINE
  5
C5
330
2
100
AcDbEntity
  8
0
 62
     3
100
AcDbLine
 10
218.8012417589367
 20
107.7090636562328
 30
0.0
 11
216.8012504782367
 21
107.7090636562328
 31
0.0
  0
LINE
  5
C6
330
2
100
AcDbEntity
  8
0
 62
     3
100
AcDbLine
 10
224.4012173448365
 20
111.7090898141328
 30
0.0
 11
224.4012173448365
 21
107.7090636562328
 31
0.0
  0
LINE
  5
C7
330
2
100
AcDbEntity
  8
0
 62
     3
100
AcDbLine
 10
223.8011981623367
 20
107.7090636562328
 30
0.0
 11
225.8011894430365
 21
107.7090636562328
 31
0.0
  0
LINE
  5
C8
330
2
100
AcDbEntity
  8
0
 62
     3
100
AcDbLine
 10
206.6510603973365
 20
118.7090810948328
 30
0.0
 11
206.6510603973365
 21
130.3523218872328
 31
0.0
  0
LINE
  5
C9
330
2
100
AcDbEntity
  8
0
 62
     3
100
AcDbLine
 10
199.7260987622366
 20
118.7090810948328
 30
0.0
 11
199.7260987622366
 21
130.3522782907328
 31
0.0
  0
LINE
  5
CA
330
2
100
AcDbEntity
  8
0
 62
     3
100
AcDbLine
 10
200.8010586534367
 20
131.7090462176327
 30
0.0
 11
200.8010586534367
 21
143.7090810948328
 31
0.0
  0
LINE
  5
CB
330
2
100
AcDbEntity
  8
0
 62
     3
100
AcDbLine
 10
204.3010644343365
 20
131.7090582442327
 30
0.0
 11
206.6510553756365
 21
130.3522903173327
 31
0.0
  0
LINE
  5
CC
330
2
100
AcDbEntity
  8
0
 62
     3
100
AcDbLine
 10
203.1905578845367
 20
131.6665905419328
 30
0.0
 11
202.9142887534367
 21
131.6311282944327
 31
0.0
  0
LINE
  5
CD
330
2
100
AcDbEntity
  8
0
 62
     3
100
AcDbLine
 10
202.9142887534367
 20
131.6311282944327
 30
0.0
 11
202.6394604311366
 21
131.5853910938328
 31
0.0
  0
LINE
  5
CE
330
2
100
AcDbEntity
  8
0
 62
     3
100
AcDbLine
 10
204.3010760920366
 20
131.7090462176327
 30
0.0
 11
204.0235269280365
 21
131.7130056741327
 31
0.0
  0
LINE
  5
CF
330
2
100
AcDbEntity
  8
0
 62
     3
100
AcDbLine
 10
204.0235269280365
 20
131.7130056741327
 30
0.0
 11
203.7456252919366
 21
131.7073614210328
 31
0.0
  0
LINE
  5
D0
330
2
100
AcDbEntity
  8
0
 62
     3
100
AcDbLine
 10
203.7456252919366
 20
131.7073614210328
 30
0.0
 11
203.4678195040366
 21
131.6919456472328
 31
0.0
  0
LINE
  5
D1
330
2
100
AcDbEntity
  8
0
 62
     3
100
AcDbLine
 10
203.4678195040366
 20
131.6919456472328
 30
0.0
 11
203.1905578845367
 21
131.6665905419328
 31
0.0
  0
LINE
  5
D2
330
2
100
AcDbEntity
  8
0
 62
     3
100
AcDbLine
 10
202.3665212376366
 20
131.5292111292327
 30
0.0
 11
202.0959194932367
 21
131.4624205898327
 31
0.0
  0
LINE
  5
D3
330
2
100
AcDbEntity
  8
0
 62
     3
100
AcDbLine
 10
202.0959194932367
 20
131.4624205898327
 30
0.0
 11
201.7803532573365
 21
131.3699267857328
 31
0.0
  0
LINE
  5
D4
330
2
100
AcDbEntity
  8
0
 62
     3
100
AcDbLine
 10
201.7803532573365
 20
131.3699267857328
 30
0.0
 11
201.4692133359365
 21
131.2630319504328
 31
0.0
  0
LINE
  5
D5
330
2
100
AcDbEntity
  8
0
 62
     3
100
AcDbLine
 10
201.4692133359365
 20
131.2630319504328
 30
0.0
 11
201.1630492353366
 21
131.1423260305327
 31
0.0
  0
LINE
  5
D6
330
2
100
AcDbEntity
  8
0
 62
     3
100
AcDbLine
 10
201.1630492353366
 20
131.1423260305327
 30
0.0
 11
200.8624104617366
 21
131.0083989725328
 31
0.0
  0
LINE
  5
D7
330
2
100
AcDbEntity
  8
0
 62
     3
100
AcDbLine
 10
200.8624104617366
 20
131.0083989725328
 30
0.0
 11
200.5678465214365
 21
130.8618407230327
 31
0.0
  0
LINE
  5
D8
330
2
100
AcDbEntity
  8
0
 62
     3
100
AcDbLine
 10
200.5678465214365
 20
130.8618407230327
 30
0.0
 11
200.2799069205365
 21
130.7032412285326
 31
0.0
  0
LINE
  5
D9
330
2
100
AcDbEntity
  8
0
 62
     3
100
AcDbLine
 10
200.2799069205365
 20
130.7032412285326
 30
0.0
 11
199.9991411654367
 21
130.5331904355327
 31
0.0
  0
LINE
  5
DA
330
2
100
AcDbEntity
  8
0
 62
     3
100
AcDbLine
 10
199.9991411654367
 20
130.5331904355327
 30
0.0
 11
199.7260987622366
 21
130.3522782907328
 31
0.0
  0
LINE
  5
DB
330
2
100
AcDbEntity
  8
0
 62
     3
100
AcDbLine
 10
202.6394604311366
 20
131.5853910938328
 30
0.0
 11
202.3665212376366
 21
131.5292111292327
 31
0.0
  0
LINE
  5
DC
330
2
100
AcDbEntity
  8
0
 62
     3
100
AcDbLine
 10
283.1012557098367
 20
88.20907237553283
 30
0.0
 11
283.1012557098367
 21
68.20907237553284
 31
0.0
  0
LINE
  5
DD
330
2
100
AcDbEntity
  8
0
 62
     3
100
AcDbLine
 10
273.8012417589365
 20
107.7090636562328
 30
0.0
 11
273.8012417589365
 21
76.20908109483284
 31
0.0
  0
LINE
  5
DE
330
2
100
AcDbEntity
  8
0
 62
     3
100
AcDbLine
 10
249.8012156009365
 20
105.7090723755327
 30
0.0
 11
249.8012156009365
 21
68.20907237553284
 31
0.0
  0
LINE
  5
DF
330
2
100
AcDbEntity
  8
0
 62
     3
100
AcDbLine
 10
310.8012330396367
 20
68.20907237553284
 30
0.0
 11
280.8012330396367
 21
68.20907237553284
 31
0.0
  0
LINE
  5
E0
330
2
100
AcDbEntity
  8
0
 62
     3
100
AcDbLine
 10
310.8012330396367
 20
70.50909504573283
 30
0.0
 11
283.1012557098367
 21
70.50909504573283
 31
0.0
  0
LINE
  5
E1
330
2
100
AcDbEntity
  8
0
 62
     3
100
AcDbLine
 10
286.8512557098367
 20
70.45908981413282
 30
0.0
 11
286.8512557098367
 21
81.95907237553283
 31
0.0
  0
LINE
  5
E2
330
2
100
AcDbEntity
  8
0
 62
     3
100
AcDbLine
 10
284.6012382711368
 20
70.45908981413282
 30
0.0
 11
284.6012382711368
 21
81.95907237553283
 31
0.0
  0
LINE
  5
E3
330
2
100
AcDbEntity
  8
0
 62
     3
100
AcDbLine
 10
286.8512557098367
 20
70.45908981413282
 30
0.0
 11
284.6012382711368
 21
70.45908981413282
 31
0.0
  0
LINE
  5
E4
330
2
100
AcDbEntity
  8
0
 62
     3
100
AcDbLine
 10
284.6012382711368
 20
71.70908981413282
 30
0.0
 11
283.1012557098367
 21
71.70908981413282
 31
0.0
  0
LINE
  5
E5
330
2
100
AcDbEntity
  8
0
 62
     3
100
AcDbLine
 10
286.8512557098367
 20
79.10907935093284
 30
0.0
 11
284.6012382711368
 21
79.10907935093284
 31
0.0
  0
LINE
  5
E6
330
2
100
AcDbEntity
  8
0
 62
     3
100
AcDbLine
 10
286.8512557098367
 20
73.30908283873284
 30
0.0
 11
284.6012382711368
 21
73.30908283873284
 31
0.0
  0
LINE
  5
E7
330
2
100
AcDbEntity
  8
0
 62
     3
100
AcDbLine
 10
289.5011855264367
 20
79.20907824013283
 30
0.0
 11
290.5011650088366
 21
78.20909867343285
 31
0.0
  0
LINE
  5
E8
330
2
100
AcDbEntity
  8
0
 62
     3
100
AcDbLine
 10
286.8512557098367
 20
79.20908981413282
 30
0.0
 11
289.5011842114366
 21
79.20908981413282
 31
0.0
  0
LINE
  5
E9
330
2
100
AcDbEntity
  8
0
 62
     3
100
AcDbLine
 10
286.8512557098367
 20
78.70908109483284
 30
0.0
 11
290.0011929307367
 21
78.70908109483284
 31
0.0
  0
LINE
  5
EA
330
2
100
AcDbEntity
  8
0
 62
     3
100
AcDbLine
 10
289.5011926658367
 20
73.20908160833281
 30
0.0
 11
290.5011952687366
 21
74.20908429563283
 31
0.0
  0
LINE
  5
EB
330
2
100
AcDbEntity
  8
0
 62
     3
100
AcDbLine
 10
286.8512557098367
 20
73.20907237553284
 30
0.0
 11
289.5011842114366
 21
73.20907237553284
 31
0.0
  0
LINE
  5
EC
330
2
100
AcDbEntity
  8
0
 62
     3
100
AcDbLine
 10
286.8512557098367
 20
73.70908109483284
 30
0.0
 11
290.0011929307367
 21
73.70908109483284
 31
0.0
  0
LINE
  5
ED
330
2
100
AcDbEntity
  8
0
 62
     3
100
AcDbLine
 10
290.5012016500366
 20
78.20907237553284
 30
0.0
 11
290.5012016500366
 21
74.20908981413282
 31
0.0
  0
LINE
  5
EE
330
2
100
AcDbEntity
  8
0
 62
     3
100
AcDbLine
 10
290.0011929307367
 20
73.70908109483284
 30
0.0
 11
290.0011929307367
 21
78.70908109483284
 31
0.0
  0
LINE
  5
EF
330
2
100
AcDbEntity
  8
0
 62
     3
100
AcDbLine
 10
286.8512557098367
 20
81.95907237553283
 30
0.0
 11
284.6012382711368
 21
81.95907237553283
 31
0.0
  0
LINE
  5
F0
330
2
100
AcDbEntity
  8
0
 62
     3
100
AcDbLine
 10
284.6012382711368
 20
80.70907237553283
 30
0.0
 11
283.1012557098367
 21
80.70907237553283
 31
0.0
  0
LINE
  5
F1
330
2
100
AcDbEntity
  8
0
 62
     3
100
AcDbLine
 10
310.8012330396367
 20
70.50909504573283
 30
0.0
 11
310.8012330396367
 21
68.20907237553284
 31
0.0
  0
LINE
  5
F2
330
2
100
AcDbEntity
  8
0
 62
     3
100
AcDbLine
 10
280.8012330396367
 20
143.2090723755328
 30
0.0
 11
257.8010063375367
 21
143.2090723755328
 31
0.0
  0
LINE
  5
F3
330
2
100
AcDbEntity
  8
0
 62
     3
100
AcDbLine
 10
263.8010237762366
 20
118.7090810948328
 30
0.0
 11
263.8010237762366
 21
114.7090549369327
 31
0.0
  0
LINE
  5
F4
330
2
100
AcDbEntity
  8
0
 62
     3
100
AcDbLine
 10
251.4414161495367
 20
118.7090760034327
 30
0.0
 11
249.5895652851366
 21
114.7090783043327
 31
0.0
  0
LINE
  5
F5
330
2
100
AcDbEntity
  8
0
 62
     3
100
AcDbLine
 10
235.8010150569366
 20
118.7090810948328
 30
0.0
 11
235.8010150569366
 21
114.7090549369327
 31
0.0
  0
LINE
  5
F6
330
2
100
AcDbEntity
  8
0
 62
     3
100
AcDbLine
 10
249.2374964702367
 20
118.7090928893328
 30
0.0
 11
247.3856272898367
 21
114.7090556279328
 31
0.0
  0
LINE
  5
F7
330
2
100
AcDbEntity
  8
0
 62
     3
100
AcDbLine
 10
264.8010412148365
 20
114.7090549369327
 30
0.0
 11
234.8010412148365
 21
114.7090549369327
 31
0.0
  0
LINE
  5
F8
330
2
100
AcDbEntity
  8
0
 62
     3
100
AcDbLine
 10
234.8010412148365
 20
114.7090549369327
 30
0.0
 11
234.8010412148365
 21
111.7090898141328
 31
0.0
  0
LINE
  5
F9
330
2
100
AcDbEntity
  8
0
 62
     3
100
AcDbLine
 10
264.8010412148365
 20
114.7090549369327
 30
0.0
 11
264.8010412148365
 21
111.7090898141328
 31
0.0
  0
ARC
  5
FA
330
2
100
AcDbEntity
  8
0
 62
     3
100
AcDbCircle
 10
249.8010412148365
 20
113.3580417533327
 30
0.0
 40
18.35101536339998
100
AcDbArc
 50
67.8295158171
 51
112.1704482107
  0
LINE
  5
FB
330
2
100
AcDbEntity
  8
0
 62
     3
100
AcDbLine
 10
235.8010150569366
 20
118.7090810948328
 30
0.0
 11
263.8010237762366
 21
118.7090810948328
 31
0.0
  0
LINE
  5
FC
330
2
100
AcDbEntity
  8
0
 62
     3
100
AcDbLine
 10
261.3010237762366
 20
131.7090462176327
 30
0.0
 11
238.3010150569366
 21
131.7090462176327
 31
0.0
  0
LINE
  5
FD
330
2
100
AcDbEntity
  8
0
 62
     3
100
AcDbLine
 10
242.8759923866365
 20
118.7090810948328
 30
0.0
 11
242.8759923866365
 21
130.3522782907328
 31
0.0
  0
LINE
  5
FE
330
2
100
AcDbEntity
  8
0
 62
     3
100
AcDbLine
 10
235.9510307516365
 20
118.7090810948328
 30
0.0
 11
235.9510307516365
 21
130.3522782907328
 31
0.0
  0
LINE
  5
FF
330
2
100
AcDbEntity
  8
0
 62
     3
100
AcDbLine
 10
239.9626254648365
 20
131.5853925049327
 30
0.0
 11
240.2355663321367
 21
131.5292120895326
 31
0.0
  0
LINE
  5
100
330
2
100
AcDbEntity
  8
0
 62
     3
100
AcDbLine
 10
238.3010150569366
 20
131.7090462176327
 30
0.0
 11
238.5785637311367
 21
131.7130058112327
 31
0.0
  0
LINE
  5
101
330
2
100
AcDbEntity
  8
0
 62
     3
100
AcDbLine
 10
238.5785637311367
 20
131.7130058112327
 30
0.0
 11
238.8564641346366
 21
131.7073618911327
 31
0.0
  0
LINE
  5
102
330
2
100
AcDbEntity
  8
0
 62
     3
100
AcDbLine
 10
238.8564641346366
 20
131.7073618911327
 30
0.0
 11
239.1342683886367
 21
131.6919465289327
 31
0.0
  0
LINE
  5
103
330
2
100
AcDbEntity
  8
0
 62
     3
100
AcDbLine
 10
239.1342683886367
 20
131.6919465289327
 30
0.0
 11
239.4115286142366
 21
131.6665917961328
 31
0.0
  0
LINE
  5
104
330
2
100
AcDbEntity
  8
0
 62
     3
100
AcDbLine
 10
239.4115286142366
 20
131.6665917961328
 30
0.0
 11
239.6877969325367
 21
131.6311297642327
 31
0.0
  0
LINE
  5
105
330
2
100
AcDbEntity
  8
0
 62
     3
100
AcDbLine
 10
239.6877969325367
 20
131.6311297642327
 30
0.0
 11
239.9626254648365
 21
131.5853925049327
 31
0.0
  0
LINE
  5
106
330
2
100
AcDbEntity
  8
0
 62
     3
100
AcDbLine
 10
238.3010283765365
 20
131.7091231718328
 30
0.0
 11
235.9510374352367
 21
130.3523552449328
 31
0.0
  0
LINE
  5
107
330
2
100
AcDbEntity
  8
0
 62
     3
100
AcDbLine
 10
241.8010324955367
 20
131.7090462176327
 30
0.0
 11
241.8010324955367
 21
143.7090810948328
 31
0.0
  0
LINE
  5
108
330
2
100
AcDbEntity
  8
0
 62
     3
100
AcDbLine
 10
240.2355663321367
 20
131.5292120895326
 30
0.0
 11
240.5061716556367
 21
131.4624205898327
 31
0.0
  0
LINE
  5
109
330
2
100
AcDbEntity
  8
0
 62
     3
100
AcDbLine
 10
240.5061716556367
 20
131.4624205898327
 30
0.0
 11
240.8217378925367
 21
131.3699267847328
 31
0.0
  0
LINE
  5
10A
330
2
100
AcDbEntity
  8
0
 62
     3
100
AcDbLine
 10
240.8217378925367
 20
131.3699267847328
 30
0.0
 11
241.1328778149365
 21
131.2630319487327
 31
0.0
  0
LINE
  5
10B
330
2
100
AcDbEntity
  8
0
 62
     3
100
AcDbLine
 10
241.1328778149365
 20
131.2630319487327
 30
0.0
 11
241.4390419165366
 21
131.1423260284326
 31
0.0
  0
LINE
  5
10C
330
2
100
AcDbEntity
  8
0
 62
     3
100
AcDbLine
 10
241.4390419165366
 20
131.1423260284326
 30
0.0
 11
241.7396806908366
 21
131.0083989702326
 31
0.0
  0
LINE
  5
10D
330
2
100
AcDbEntity
  8
0
 62
     3
100
AcDbLine
 10
241.7396806908366
 20
131.0083989702326
 30
0.0
 11
242.0342446313366
 21
130.8618407207328
 31
0.0
  0
LINE
  5
10E
330
2
100
AcDbEntity
  8
0
 62
     3
100
AcDbLine
 10
242.0342446313366
 20
130.8618407207328
 30
0.0
 11
242.3221842318366
 21
130.7032412266327
 31
0.0
  0
LINE
  5
10F
330
2
100
AcDbEntity
  8
0
 62
     3
100
AcDbLine
 10
242.3221842318366
 20
130.7032412266327
 30
0.0
 11
242.6029499857367
 21
130.5331904344326
 31
0.0
  0
LINE
  5
110
330
2
100
AcDbEntity
  8
0
 62
     3
100
AcDbLine
 10
242.6029499857367
 20
130.5331904344326
 30
0.0
 11
242.8759923866365
 21
130.3522782907328
 31
0.0
  0
LINE
  5
111
330
2
100
AcDbEntity
  8
0
 62
     3
100
AcDbLine
 10
263.6510080814367
 20
118.7090810948328
 30
0.0
 11
263.6510080814367
 21
130.3523218872328
 31
0.0
  0
LINE
  5
112
330
2
100
AcDbEntity
  8
0
 62
     3
100
AcDbLine
 10
256.7260464464365
 20
118.7090810948328
 30
0.0
 11
256.7260464464365
 21
130.3522782907328
 31
0.0
  0
LINE
  5
113
330
2
100
AcDbEntity
  8
0
 62
     3
100
AcDbLine
 10
260.4677671882365
 20
131.6919456472328
 30
0.0
 11
260.1905055686365
 21
131.6665905419328
 31
0.0
  0
LINE
  5
114
330
2
100
AcDbEntity
  8
0
 62
     3
100
AcDbLine
 10
257.8010063375367
 20
131.7090462176327
 30
0.0
 11
257.8010063375367
 21
143.7090810948328
 31
0.0
  0
LINE
  5
115
330
2
100
AcDbEntity
  8
0
 62
     3
100
AcDbLine
 10
259.0958671774366
 20
131.4624205898327
 30
0.0
 11
258.7803009414365
 21
131.3699267857328
 31
0.0
  0
LINE
  5
116
330
2
100
AcDbEntity
  8
0
 62
     3
100
AcDbLine
 10
258.7803009414365
 20
131.3699267857328
 30
0.0
 11
258.4691610200367
 21
131.2630319504328
 31
0.0
  0
LINE
  5
117
330
2
100
AcDbEntity
  8
0
 62
     3
100
AcDbLine
 10
260.1905055686365
 20
131.6665905419328
 30
0.0
 11
259.9142364376366
 21
131.6311282944327
 31
0.0
  0
LINE
  5
118
330
2
100
AcDbEntity
  8
0
 62
     3
100
AcDbLine
 10
259.9142364376366
 20
131.6311282944327
 30
0.0
 11
259.6394081152365
 21
131.5853910938328
 31
0.0
  0
LINE
  5
119
330
2
100
AcDbEntity
  8
0
 62
     3
100
AcDbLine
 10
259.6394081152365
 20
131.5853910938328
 30
0.0
 11
259.3664689218367
 21
131.5292111292327
 31
0.0
  0
LINE
  5
11A
330
2
100
AcDbEntity
  8
0
 62
     3
100
AcDbLine
 10
259.3664689218367
 20
131.5292111292327
 30
0.0
 11
259.0958671774366
 21
131.4624205898327
 31
0.0
  0
LINE
  5
11B
330
2
100
AcDbEntity
  8
0
 62
     3
100
AcDbLine
 10
258.1629969194366
 20
131.1423260305327
 30
0.0
 11
257.8623581458365
 21
131.0083989725328
 31
0.0
  0
LINE
  5
11C
330
2
100
AcDbEntity
  8
0
 62
     3
100
AcDbLine
 10
257.8623581458365
 20
131.0083989725328
 30
0.0
 11
257.5677942055367
 21
130.8618407230327
 31
0.0
  0
LINE
  5
11D
330
2
100
AcDbEntity
  8
0
 62
     3
100
AcDbLine
 10
257.5677942055367
 20
130.8618407230327
 30
0.0
 11
257.2798546047366
 21
130.7032412285326
 31
0.0
  0
LINE
  5
11E
330
2
100
AcDbEntity
  8
0
 62
     3
100
AcDbLine
 10
257.2798546047366
 20
130.7032412285326
 30
0.0
 11
256.9990888495365
 21
130.5331904355327
 31
0.0
  0
LINE
  5
11F
330
2
100
AcDbEntity
  8
0
 62
     3
100
AcDbLine
 10
256.9990888495365
 20
130.5331904355327
 30
0.0
 11
256.7260464464365
 21
130.3522782907328
 31
0.0
  0
LINE
  5
120
330
2
100
AcDbEntity
  8
0
 62
     3
100
AcDbLine
 10
258.4691610200367
 20
131.2630319504328
 30
0.0
 11
258.1629969194366
 21
131.1423260305327
 31
0.0
  0
LINE
  5
121
330
2
100
AcDbEntity
  8
0
 62
     3
100
AcDbLine
 10
261.3010237762366
 20
131.7090462176327
 30
0.0
 11
261.0234746121367
 21
131.7130056741327
 31
0.0
  0
LINE
  5
122
330
2
100
AcDbEntity
  8
0
 62
     3
100
AcDbLine
 10
261.0234746121367
 20
131.7130056741327
 30
0.0
 11
260.7455729761367
 21
131.7073614210328
 31
0.0
  0
LINE
  5
123
330
2
100
AcDbEntity
  8
0
 62
     3
100
AcDbLine
 10
260.7455729761367
 20
131.7073614210328
 30
0.0
 11
260.4677671882365
 21
131.6919456472328
 31
0.0
  0
LINE
  5
124
330
2
100
AcDbEntity
  8
0
 62
     3
100
AcDbLine
 10
261.3010121185366
 20
131.7090582442327
 30
0.0
 11
263.6510030598365
 21
130.3522903173327
 31
0.0
  0
LINE
  5
125
330
2
100
AcDbEntity
  8
0
 62
     3
100
AcDbLine
 10
280.8012330396367
 20
88.20907237553283
 30
0.0
 11
283.1012557098367
 21
88.20907237553283
 31
0.0
  0
LINE
  5
126
330
2
100
AcDbEntity
  8
0
 62
     3
100
AcDbLine
 10
275.2012138571366
 20
111.7090898141328
 30
0.0
 11
275.2012138571366
 21
107.7090636562328
 31
0.0
  0
LINE
  5
127
330
2
100
AcDbEntity
  8
0
 62
     3
100
AcDbLine
 10
275.8012330396367
 20
107.7090636562328
 30
0.0
 11
273.8012417589365
 21
107.7090636562328
 31
0.0
  0
TEXT
  5
128
330
2
100
AcDbEntity
  8
0
 62
     5
100
AcDbText
 10
529.0
 20
10.0
 30
0.0
 40
5.0
  1
ＭＡ４－Ｂ００４８０Ｅ
 41
0.8488176999157028
 72
     5
 11
583.0413935612997
 21
10.0
 31
0.0
100
AcDbText
  0
LINE
  5
129
330
2
100
AcDbEntity
  8
0
 62
     3
100
AcDbLine
 10
370.1015085697367
 20
357.4661873309328
 30
0.0
 11
440.1015085697367
 21
357.4661873309328
 31
0.0
  0
LINE
  5
12A
330
2
100
AcDbEntity
  8
0
  6
CENTER
 62
     3
100
AcDbLine
 10
442.8950004782366
 20
281.4662134888328
 30
0.0
 11
344.2215124062367
 21
281.4662134888328
 31
0.0
  0
LINE
  5
12B
330
2
100
AcDbEntity
  8
0
 62
     3
100
AcDbLine
 10
440.1015085697367
 20
205.4662832432327
 30
0.0
 11
370.1015085697367
 21
205.4662832432327
 31
0.0
  0
LINE
  5
12C
330
2
100
AcDbEntity
  8
0
100
AcDbLine
 10
594.0
 20
420.0
 30
0.0
 11
0.0
 21
420.0
 31
0.0
  0
LINE
  5
12D
330
2
100
AcDbEntity
  8
0
  6
CENTER
 62
     3
100
AcDbLine
 10
66.07510650503673
 20
281.4662134888328
 30
0.0
 11
320.7242415496367
 21
281.4662134888328
 31
0.0
  0
LINE
  5
12E
330
2
100
AcDbEntity
  8
0
 62
     3
100
AcDbLine
 10
249.8012156009365
 20
330.4162780117327
 30
0.0
 11
225.8012330396367
 21
330.4162780117327
 31
0.0
  0
LINE
  5
12F
330
2
100
AcDbEntity
  8
0
 62
     3
100
AcDbLine
 10
249.8012156009365
 20
328.9162954503326
 30
0.0
 11
225.8012330396367
 21
328.9162954503326
 31
0.0
  0
LINE
  5
130
330
2
100
AcDbEntity
  8
0
 62
     3
100
AcDbLine
 10
245.9129709720367
 20
327.9154060809328
 30
0.0
 11
225.8012330396367
 21
327.9154060809328
 31
0.0
  0
LINE
  5
131
330
2
100
AcDbEntity
  8
0
 62
     3
100
AcDbLine
 10
223.3012330396366
 20
276.4662570853328
 30
0.0
 11
249.8012156009365
 21
276.4662570853328
 31
0.0
  0
LINE
  5
132
330
2
100
AcDbEntity
  8
0
 62
     3
100
AcDbLine
 10
223.3012330396366
 20
286.4662134888328
 30
0.0
 11
249.8012156009365
 21
286.4662134888328
 31
0.0
  0
LINE
  5
133
330
2
100
AcDbEntity
  8
0
 62
     3
100
AcDbLine
 10
224.4012972117365
 20
316.6212954011328
 30
0.0
 11
242.0847111977367
 21
326.1477657030328
 31
0.0
  0
LINE
  5
134
330
2
100
AcDbEntity
  8
0
 62
     3
100
AcDbLine
 10
271.8581439631364
 20
338.9662134888328
 30
0.0
 11
227.7442872388366
 21
338.9662134888328
 31
0.0
  0
LINE
  5
135
330
2
100
AcDbEntity
  8
0
  6
CENTER
 62
     3
100
AcDbLine
 10
228.9515626294366
 20
312.4661873309328
 30
0.0
 11
269.4089339324367
 21
312.4661873309328
 31
0.0
  0
LINE
  5
136
330
2
100
AcDbEntity
  8
0
  6
PHANTOM
 62
     3
100
AcDbLine
 10
104.8013463906366
 20
354.4660478219328
 30
0.0
 11
280.8012330396367
 21
354.4660478219328
 31
0.0
  0
LINE
  5
138
330
2
100
AcDbEntity
  8
0
 62
     3
100
AcDbLine
 10
135.8013202326365
 20
357.4661873309328
 30
0.0
 11
280.8012330396367
 21
357.4661873309328
 31
0.0
  0
LINE
  5
139
330
2
100
AcDbEntity
  8
0
 62
     3
100
AcDbLine
 10
224.4012500851366
 20
246.3111023009328
 30
0.0
 11
242.0846640711367
 21
236.7846319990328
 31
0.0
  0
LINE
  5
13A
330
2
100
AcDbEntity
  8
0
 62
     3
100
AcDbLine
 10
245.9127965859365
 20
235.0170644932326
 30
0.0
 11
225.8012330396367
 21
235.0170644932326
 31
0.0
  0
LINE
  5
13B
330
2
100
AcDbEntity
  8
0
 62
     3
100
AcDbLine
 10
249.8012156009365
 20
232.5161925624328
 30
0.0
 11
225.8012330396367
 21
232.5161925624328
 31
0.0
  0
LINE
  5
13C
330
2
100
AcDbEntity
  8
0
 62
     3
100
AcDbLine
 10
273.8011981623365
 20
234.0161751238328
 30
0.0
 11
225.8012330396367
 21
234.0161751238328
 31
0.0
  0
LINE
  5
13D
330
2
100
AcDbEntity
  8
0
 62
     3
100
AcDbLine
 10
271.8581439631364
 20
223.9662570853326
 30
0.0
 11
227.7442872388366
 21
223.9662570853326
 31
0.0
  0
LINE
  5
13E
330
2
100
AcDbEntity
  8
0
  6
CENTER
 62
     3
100
AcDbLine
 10
229.3937187399365
 20
250.4662396467328
 30
0.0
 11
269.4089339324367
 21
250.4662396467328
 31
0.0
  0
LINE
  5
13F
330
2
100
AcDbEntity
  8
0
  6
PHANTOM
 62
     3
100
AcDbLine
 10
280.8012330396367
 20
147.9600925345328
 30
0.0
 11
104.8011284079365
 21
147.9600925345328
 31
0.0
  0
LINE
  5
140
330
2
100
AcDbEntity
  8
0
  6
PHANTOM
 62
     3
100
AcDbLine
 10
280.8012330396367
 20
159.7090985334328
 30
0.0
 11
104.8011284079365
 21
159.7090985334328
 31
0.0
  0
LINE
  5
141
330
2
100
AcDbEntity
  8
0
  6
PHANTOM
 62
     3
100
AcDbLine
 10
104.8013463906366
 20
208.4662483660328
 30
0.0
 11
280.8012330396367
 21
208.4662483660328
 31
0.0
  0
LINE
  5
142
330
2
100
AcDbEntity
  8
0
 62
     3
100
AcDbLine
 10
104.8013463906366
 20
205.4661960502328
 30
0.0
 11
280.8012330396367
 21
205.4661960502328
 31
0.0
  0
LINE
  5
143
330
2
100
AcDbEntity
  8
0
 62
     3
100
AcDbLine
 10
199.7294964665366
 20
262.4661817216326
 30
0.0
 11
206.6577060438365
 21
250.4661709436328
 31
0.0
  0
LINE
  5
144
330
2
100
AcDbEntity
  8
0
 62
     3
100
AcDbLine
 10
224.4013481344365
 20
246.3110969988328
 30
0.0
 11
224.4013481344365
 21
275.2662732139326
 31
0.0
  0
LINE
  5
145
330
2
100
AcDbEntity
  8
0
 62
     3
100
AcDbLine
 10
218.2012225764367
 20
246.3110969988328
 30
0.0
 11
218.2012225764367
 21
275.2662623169328
 31
0.0
  0
LINE
  5
146
330
2
100
AcDbEntity
  8
0
 62
     3
100
AcDbLine
 10
185.8730750609365
 20
262.4661708851328
 30
0.0
 11
178.9448654836367
 21
250.4661601071326
 31
0.0
  0
LINE
  5
147
330
2
100
AcDbEntity
  8
0
 62
     3
100
AcDbLine
 10
161.2012312957367
 20
246.3110969988328
 30
0.0
 11
161.2012312957367
 21
275.2662623169328
 31
0.0
  0
LINE
  5
148
330
2
100
AcDbEntity
  8
0
 62
     3
100
AcDbLine
 10
167.4013132572367
 20
246.3110969988328
 30
0.0
 11
167.4013132572367
 21
275.2662623169328
 31
0.0
  0
CIRCLE
  5
149
330
2
100
AcDbEntity
  8
0
 62
     3
100
AcDbCircle
 10
192.8012679168367
 20
250.4661960502328
 30
0.0
 40
11.49999891009999
  0
CIRCLE
  5
14A
330
2
100
AcDbEntity
  8
0
 62
     3
100
AcDbCircle
 10
192.8012679168367
 20
250.4661960502328
 30
0.0
 40
13.9999989101
  0
CIRCLE
  5
14B
330
2
100
AcDbEntity
  8
0
 62
     3
100
AcDbCircle
 10
192.8012679168367
 20
250.4661960502328
 30
0.0
 40
15.0
  0
LINE
  5
14C
330
2
100
AcDbEntity
  8
0
 62
     3
100
AcDbLine
 10
128.8731273767367
 20
262.4661708851328
 30
0.0
 11
121.9449177994367
 21
250.4661601071326
 31
0.0
  0
CIRCLE
  5
14D
330
2
100
AcDbEntity
  8
0
 62
     3
100
AcDbCircle
 10
135.8013202326365
 20
250.4661960502328
 30
0.0
 40
11.49999891009999
  0
LINE
  5
14E
330
2
100
AcDbEntity
  8
0
 62
     3
100
AcDbLine
 10
110.4014091696365
 20
246.3110969988328
 30
0.0
 11
110.4014091696365
 21
271.4661698922328
 31
0.0
  0
LINE
  5
14F
330
2
100
AcDbEntity
  8
0
 62
     3
100
AcDbLine
 10
74.8014771802367
 20
318.4661611729328
 30
0.0
 11
74.8014771802367
 21
244.4662658046328
 31
0.0
  0
LINE
  5
150
330
2
100
AcDbEntity
  8
0
  6
CENTER
 62
     3
100
AcDbLine
 10
83.30127663613678
 20
324.8165640050328
 30
0.0
 11
83.30127663613678
 21
238.6200569598328
 31
0.0
  0
LINE
  5
151
330
2
100
AcDbEntity
  8
0
 62
     3
100
AcDbLine
 10
142.7295487824366
 20
262.4661817216326
 30
0.0
 11
149.6577583597367
 21
250.4661709436328
 31
0.0
  0
CIRCLE
  5
152
330
2
100
AcDbEntity
  8
0
 62
     3
100
AcDbCircle
 10
135.8013202326365
 20
250.4661960502328
 30
0.0
 40
15.0
  0
CIRCLE
  5
153
330
2
100
AcDbEntity
  8
0
 62
     3
100
AcDbCircle
 10
135.8013202326365
 20
250.4661960502328
 30
0.0
 40
13.9999989101
  0
LINE
  5
154
330
2
100
AcDbEntity
  8
0
 62
     3
100
AcDbLine
 10
161.8012940747366
 20
273.4662047695326
 30
0.0
 11
161.8012940747366
 21
205.4661960502328
 31
0.0
  0
LINE
  5
155
330
2
100
AcDbEntity
  8
0
 62
     3
100
AcDbLine
 10
166.8012940747366
 20
273.4662047695326
 30
0.0
 11
166.8012940747366
 21
205.4661960502328
 31
0.0
  0
LINE
  5
156
330
2
100
AcDbEntity
  8
0
 62
     3
100
AcDbLine
 10
163.3012766361365
 20
274.4663094012328
 30
0.0
 11
163.3012766361365
 21
216.4651235753328
 31
0.0
  0
LINE
  5
157
330
2
100
AcDbEntity
  8
0
 62
     3
100
AcDbLine
 10
165.3012679168365
 20
274.4663094012328
 30
0.0
 11
165.3012679168365
 21
216.4651235753328
 31
0.0
  0
LINE
  5
158
330
2
100
AcDbEntity
  8
0
 62
     3
100
AcDbLine
 10
107.8013551099366
 20
274.4661786115329
 30
0.0
 11
107.8013551099366
 21
216.4662134888327
 31
0.0
  0
LINE
  5
159
330
2
100
AcDbEntity
  8
0
 62
     3
100
AcDbLine
 10
109.8013463906367
 20
271.4661698922328
 30
0.0
 11
109.8013463906367
 21
205.4661960502328
 31
0.0
  0
LINE
  5
15A
330
2
100
AcDbEntity
  8
0
 62
     3
100
AcDbLine
 10
104.8013463906366
 20
357.4659693482328
 30
0.0
 11
104.8013463906366
 21
205.4661960502328
 31
0.0
  0
LINE
  5
15B
330
2
100
AcDbEntity
  8
0
 62
     3
100
AcDbLine
 10
102.5013237204365
 20
338.4661611729328
 30
0.0
 11
102.5013237204365
 21
224.4662658046328
 31
0.0
  0
LINE
  5
15C
330
2
100
AcDbEntity
  8
0
  6
CENTER
 62
     3
100
AcDbLine
 10
192.8012679168367
 20
364.9059805089328
 30
0.0
 11
192.8012679168367
 21
196.9656118565328
 31
0.0
  0
LINE
  5
15D
330
2
100
AcDbEntity
  8
0
  6
CENTER
 62
     3
100
AcDbLine
 10
135.8013202326365
 20
364.6459707432326
 30
0.0
 11
135.8013202326365
 21
197.0815786534328
 31
0.0
  0
LINE
  5
15E
330
2
100
AcDbEntity
  8
0
 62
     3
100
AcDbLine
 10
218.8012853554367
 20
273.4662047695326
 30
0.0
 11
218.8012853554367
 21
205.4661960502328
 31
0.0
  0
LINE
  5
15F
330
2
100
AcDbEntity
  8
0
 62
     3
100
AcDbLine
 10
223.8012853554367
 20
273.4662047695326
 30
0.0
 11
223.8012853554367
 21
205.4661960502328
 31
0.0
  0
LINE
  5
160
330
2
100
AcDbEntity
  8
0
 62
     3
100
AcDbLine
 10
220.3013115133365
 20
274.4663094012328
 30
0.0
 11
220.3013115133365
 21
216.4651235753328
 31
0.0
  0
LINE
  5
161
330
2
100
AcDbEntity
  8
0
 62
     3
100
AcDbLine
 10
222.3013027940365
 20
274.4663094012328
 30
0.0
 11
222.3013027940365
 21
216.4651235753328
 31
0.0
  0
LINE
  5
162
330
2
100
AcDbEntity
  8
0
 62
     3
100
AcDbLine
 10
149.6577593479367
 20
250.4661578061328
 30
0.0
 11
142.7295497706365
 21
238.4661470282328
 31
0.0
  0
LINE
  5
163
330
2
100
AcDbEntity
  8
0
 62
     3
100
AcDbLine
 10
139.6896956512367
 20
235.0170208967328
 30
0.0
 11
159.8013027940367
 21
235.0170208967328
 31
0.0
  0
LINE
  5
164
330
2
100
AcDbEntity
  8
0
 62
     3
100
AcDbLine
 10
161.2012945932367
 20
246.3110951628328
 30
0.0
 11
143.5178806072365
 21
236.7846248609328
 31
0.0
  0
LINE
  5
165
330
2
100
AcDbEntity
  8
0
 62
     3
100
AcDbLine
 10
135.8013202326365
 20
232.5161489659328
 30
0.0
 11
159.8013027940367
 21
232.5161489659328
 31
0.0
  0
LINE
  5
166
330
2
100
AcDbEntity
  8
0
 62
     3
100
AcDbLine
 10
159.8013027940367
 20
234.0161315273328
 30
0.0
 11
111.8013376712367
 21
234.0161315273328
 31
0.0
  0
LINE
  5
167
330
2
100
AcDbEntity
  8
0
  6
CENTER
 62
     3
100
AcDbLine
 10
115.5766236646367
 20
250.4661960502328
 30
0.0
 11
154.9285610948365
 21
250.4661960502328
 31
0.0
  0
LINE
  5
168
330
2
100
AcDbEntity
  8
0
 62
     3
100
AcDbLine
 10
157.8582485948365
 20
223.9661698922328
 30
0.0
 11
113.7443918705367
 21
223.9661698922328
 31
0.0
  0
LINE
  5
169
330
2
100
AcDbEntity
  8
0
 62
     3
100
AcDbLine
 10
104.8011284079365
 20
158.2090723755328
 30
0.0
 11
109.8011284079365
 21
158.2090723755328
 31
0.0
  0
LINE
  5
16A
330
2
100
AcDbEntity
  8
0
 62
     3
100
AcDbLine
 10
104.8011284079365
 20
149.2090898141326
 30
0.0
 11
109.8011284079365
 21
149.2090898141326
 31
0.0
  0
LINE
  5
16B
330
2
100
AcDbEntity
  8
0
 62
     3
100
AcDbLine
 10
104.8011284079365
 20
154.2090898141326
 30
0.0
 11
109.8011284079365
 21
154.2090898141326
 31
0.0
  0
LINE
  5
16C
330
2
100
AcDbEntity
  8
0
  6
PHANTOM
 62
     3
100
AcDbLine
 10
104.8011284079365
 20
158.2090723755328
 30
0.0
 11
104.8011284079365
 21
159.7090985334328
 31
0.0
  0
LINE
  5
16D
330
2
100
AcDbEntity
  8
0
 62
     3
100
AcDbLine
 10
109.8011284079365
 20
145.2090636562328
 30
0.0
 11
110.8011458465367
 21
145.2090636562328
 31
0.0
  0
LINE
  5
16E
330
2
100
AcDbEntity
  8
0
 62
     3
100
AcDbLine
 10
141.8010760920366
 20
145.7090723755328
 30
0.0
 11
129.8010412148365
 21
145.7090723755328
 31
0.0
  0
LINE
  5
16F
330
2
100
AcDbEntity
  8
0
 62
     3
100
AcDbLine
 10
142.8010935306367
 20
144.7090985334328
 30
0.0
 11
128.8010673727365
 21
144.7090985334328
 31
0.0
  0
LINE
  5
170
330
2
100
AcDbEntity
  8
0
 62
     3
100
AcDbLine
 10
104.8014335836367
 20
221.4661698922328
 30
0.0
 11
109.8014335836367
 21
221.4661698922328
 31
0.0
  0
LINE
  5
171
330
2
100
AcDbEntity
  8
0
 62
     3
100
AcDbLine
 10
104.8014335836367
 20
216.4662134888327
 30
0.0
 11
109.8014335836367
 21
216.4662134888327
 31
0.0
  0
LINE
  5
172
330
2
100
AcDbEntity
  8
0
 62
     3
100
AcDbLine
 10
104.8014335836367
 20
214.4662222081328
 30
0.0
 11
109.8014335836367
 21
214.4662222081328
 31
0.0
  0
LINE
  5
173
330
2
100
AcDbEntity
  8
0
 62
     3
100
AcDbLine
 10
104.8014335836367
 20
210.4661960502328
 30
0.0
 11
109.8014335836367
 21
210.4661960502328
 31
0.0
  0
LINE
  5
174
330
2
100
AcDbEntity
  8
0
 62
     3
100
AcDbLine
 10
98.60114075763675
 20
232.4660968136328
 30
0.0
 11
99.61438974623678
 21
230.7110981162328
 31
0.0
  0
LINE
  5
175
330
2
100
AcDbEntity
  8
0
 62
     3
100
AcDbLine
 10
98.60117723603671
 20
235.4661524536328
 30
0.0
 11
98.60117723603671
 21
229.4661786115328
 31
0.0
  0
ARC
  5
176
330
2
100
AcDbEntity
  8
0
 62
     3
100
AcDbCircle
 10
100.8512382711367
 20
229.4661786115328
 30
0.0
 40
2.2500002384
100
AcDbArc
 50
179.9999640277999
 51
270.0000006831999
  0
LINE
  5
177
330
2
100
AcDbEntity
  8
0
 62
     3
100
AcDbLine
 10
102.5013237204365
 20
224.4662658046328
 30
0.0
 11
104.8014771802367
 21
224.4662658046328
 31
0.0
  0
LINE
  5
178
330
2
100
AcDbEntity
  8
0
 62
     3
100
AcDbLine
 10
100.8512382711367
 20
227.2161611729328
 30
0.0
 11
102.5013237204365
 21
227.2161611729328
 31
0.0
  0
LINE
  5
179
330
2
100
AcDbEntity
  8
0
 62
     3
100
AcDbLine
 10
107.8014423029367
 20
224.9661437343327
 30
0.0
 11
104.8014335836367
 21
224.9661437343327
 31
0.0
  0
LINE
  5
17A
330
2
100
AcDbEntity
  8
0
  6
CENTER
 62
     3
100
AcDbLine
 10
91.33280565393672
 20
251.4662134888328
 30
0.0
 11
76.00862178123668
 21
251.4662134888328
 31
0.0
  0
LINE
  5
17B
330
2
100
AcDbEntity
  8
0
 62
     3
100
AcDbLine
 10
102.5013237204365
 20
241.4663006819328
 30
0.0
 11
77.80148589953672
 21
241.4663006819328
 31
0.0
  0
ARC
  5
17C
330
2
100
AcDbEntity
  8
0
 62
     3
100
AcDbCircle
 10
77.80148589953672
 20
244.4662658046328
 30
0.0
 40
2.999997820199998
100
AcDbArc
 50
179.9999640277999
 51
269.9999460416999
  0
CIRCLE
  5
17D
330
2
100
AcDbEntity
  8
0
 62
     3
100
AcDbCircle
 10
83.30136382923672
 20
251.4661698922328
 30
0.0
 40
4.499999455
  0
ARC
  5
17E
330
2
100
AcDbEntity
  8
0
 62
     3
100
AcDbCircle
 10
100.8512382711367
 20
235.4661524536328
 30
0.0
 40
2.2500002384
100
AcDbArc
 50
89.99998201389999
 51
179.9999640277999
  0
LINE
  5
17F
330
2
100
AcDbEntity
  8
0
 62
     3
100
AcDbLine
 10
100.8512382711367
 20
237.7161698922328
 30
0.0
 11
102.5013237204365
 21
237.7161698922328
 31
0.0
  0
LINE
  5
180
330
2
100
AcDbEntity
  8
0
 62
     3
100
AcDbLine
 10
98.60097877643671
 20
232.4661462450328
 30
0.0
 11
99.55927432603672
 21
234.1259627959328
 31
0.0
  0
LINE
  5
181
330
2
100
AcDbEntity
  8
0
 62
     3
100
AcDbLine
 10
107.8014423029367
 20
231.4661698922328
 30
0.0
 11
104.8014335836367
 21
231.4661698922328
 31
0.0
  0
LINE
  5
182
330
2
100
AcDbEntity
  8
0
 62
     3
100
AcDbLine
 10
135.8013202326365
 20
205.4661960502328
 30
0.0
 11
135.8013202326365
 21
234.4661786115328
 31
0.0
  0
LINE
  5
183
330
2
100
AcDbEntity
  8
0
 62
     3
100
AcDbLine
 10
111.8013376712367
 20
244.4660478219328
 30
0.0
 11
111.8013376712367
 21
205.4661960502328
 31
0.0
  0
LINE
  5
184
330
2
100
AcDbEntity
  8
0
 62
     3
100
AcDbLine
 10
121.9449328868365
 20
250.4661779239328
 30
0.0
 11
128.8731424641367
 21
238.4661671459328
 31
0.0
  0
LINE
  5
185
330
2
100
AcDbEntity
  8
0
 62
     3
100
AcDbLine
 10
131.9129884106367
 20
235.0169773002328
 30
0.0
 11
111.8013376712367
 21
235.0169773002328
 31
0.0
  0
LINE
  5
186
330
2
100
AcDbEntity
  8
0
 62
     3
100
AcDbLine
 10
135.8013202326365
 20
232.5161053694328
 30
0.0
 11
111.8013376712367
 21
232.5161053694328
 31
0.0
  0
CIRCLE
  5
187
330
2
100
AcDbEntity
  8
0
 62
     3
100
AcDbCircle
 10
135.8013202326365
 20
250.4661960502328
 30
0.0
 40
7.999997820199999
  0
ARC
  5
188
330
2
100
AcDbEntity
  8
0
 62
     3
100
AcDbCircle
 10
135.8013202326365
 20
248.4661611729328
 30
0.0
 40
13.9999989101
100
AcDbArc
 50
236.5518712809
 51
303.4480144271998
  0
LINE
  5
189
330
2
100
AcDbEntity
  8
0
 62
     3
100
AcDbLine
 10
109.8012747078367
 20
245.4659983650328
 30
0.0
 11
111.8012735366366
 21
244.4659991505328
 31
0.0
  0
LINE
  5
18A
330
2
100
AcDbEntity
  8
0
 62
     3
100
AcDbLine
 10
110.4013519451365
 20
246.3110485128328
 30
0.0
 11
128.0847659311367
 21
236.7845782109327
 31
0.0
  0
CIRCLE
  5
18B
330
2
100
AcDbEntity
  8
0
 62
     3
100
AcDbCircle
 10
135.8013202326365
 20
250.4661960502328
 30
0.0
 40
6.999999455
  0
LINE
  5
18C
330
2
100
AcDbEntity
  8
0
 62
     3
100
AcDbLine
 10
142.7295516082367
 20
238.4662047695328
 30
0.0
 11
128.8731324536367
 21
238.4662047695328
 31
0.0
  0
LINE
  5
18D
330
2
100
AcDbEntity
  8
0
 62
     3
100
AcDbLine
 10
198.8010673727367
 20
145.7090723755328
 30
0.0
 11
186.8010760920365
 21
145.7090723755328
 31
0.0
  0
LINE
  5
18E
330
2
100
AcDbEntity
  8
0
 62
     3
100
AcDbLine
 10
199.8010848113365
 20
144.7090985334328
 30
0.0
 11
185.8010586534367
 21
144.7090985334328
 31
0.0
  0
LINE
  5
18F
330
2
100
AcDbEntity
  8
0
 62
     3
100
AcDbLine
 10
166.8012068816365
 20
149.2090898141326
 30
0.0
 11
161.8012068816366
 21
149.2090898141326
 31
0.0
  0
LINE
  5
190
330
2
100
AcDbEntity
  8
0
 62
     3
100
AcDbLine
 10
161.8014684609367
 20
145.2090636562328
 30
0.0
 11
160.8014510223366
 21
145.2090636562328
 31
0.0
  0
LINE
  5
191
330
2
100
AcDbEntity
  8
0
 62
     3
100
AcDbLine
 10
166.8013812678367
 20
145.2090636562328
 30
0.0
 11
167.8013987064366
 21
145.2090636562328
 31
0.0
  0
LINE
  5
192
330
2
100
AcDbEntity
  8
0
 62
     3
100
AcDbLine
 10
166.8012068816365
 20
158.2090723755328
 30
0.0
 11
161.8012068816366
 21
158.2090723755328
 31
0.0
  0
LINE
  5
193
330
2
100
AcDbEntity
  8
0
 62
     3
100
AcDbLine
 10
166.8012068816365
 20
154.2090898141326
 30
0.0
 11
161.8012068816366
 21
154.2090898141326
 31
0.0
  0
LINE
  5
194
330
2
100
AcDbEntity
  8
0
 62
     3
100
AcDbLine
 10
223.8012417589366
 20
158.2090723755328
 30
0.0
 11
218.8012417589367
 21
158.2090723755328
 31
0.0
  0
LINE
  5
195
330
2
100
AcDbEntity
  8
0
 62
     3
100
AcDbLine
 10
223.8011981623367
 20
154.2090898141326
 30
0.0
 11
218.8011981623366
 21
154.2090898141326
 31
0.0
  0
LINE
  5
196
330
2
100
AcDbEntity
  8
0
 62
     3
100
AcDbLine
 10
223.8011981623367
 20
149.2090898141326
 30
0.0
 11
218.8011981623366
 21
149.2090898141326
 31
0.0
  0
LINE
  5
197
330
2
100
AcDbEntity
  8
0
 62
     3
100
AcDbLine
 10
218.8012417589367
 20
145.2090636562328
 30
0.0
 11
217.8012243202366
 21
145.2090636562328
 31
0.0
  0
LINE
  5
198
330
2
100
AcDbEntity
  8
0
 62
     3
100
AcDbLine
 10
223.8011545658366
 20
145.2090636562328
 30
0.0
 11
224.8011720044366
 21
145.2090636562328
 31
0.0
  0
CIRCLE
  5
199
330
2
100
AcDbEntity
  8
0
 62
     3
100
AcDbCircle
 10
192.8012679168367
 20
250.4661960502328
 30
0.0
 40
6.999999455
  0
CIRCLE
  5
19A
330
2
100
AcDbEntity
  8
0
 62
     3
100
AcDbCircle
 10
192.8012679168367
 20
250.4661960502328
 30
0.0
 40
7.999997820199999
  0
LINE
  5
19B
330
2
100
AcDbEntity
  8
0
 62
     3
100
AcDbLine
 10
199.7294992923364
 20
238.4662047695328
 30
0.0
 11
185.8730801378366
 21
238.4662047695328
 31
0.0
  0
ARC
  5
19C
330
2
100
AcDbEntity
  8
0
 62
     3
100
AcDbCircle
 10
192.8012679168367
 20
248.4661611729328
 30
0.0
 40
13.9999989101
100
AcDbArc
 50
236.5518712809
 51
303.4480144271998
  0
LINE
  5
19D
330
2
100
AcDbEntity
  8
0
 62
     3
100
AcDbLine
 10
216.8012504782367
 20
234.0161315273328
 30
0.0
 11
168.8012853554365
 21
234.0161315273328
 31
0.0
  0
LINE
  5
19E
330
2
100
AcDbEntity
  8
0
 62
     3
100
AcDbLine
 10
192.8012679168367
 20
232.5161489659328
 30
0.0
 11
168.8012853554365
 21
232.5161489659328
 31
0.0
  0
LINE
  5
19F
330
2
100
AcDbEntity
  8
0
  6
CENTER
 62
     3
100
AcDbLine
 10
172.3937710557365
 20
250.4661960502328
 30
0.0
 11
212.4089862483365
 21
250.4661960502328
 31
0.0
  0
LINE
  5
1A0
330
2
100
AcDbEntity
  8
0
 62
     3
100
AcDbLine
 10
214.8581962789366
 20
223.9662134888328
 30
0.0
 11
170.7443395546365
 21
223.9662134888328
 31
0.0
  0
LINE
  5
1A1
330
2
100
AcDbEntity
  8
0
 62
     3
100
AcDbLine
 10
159.8013027940367
 20
244.4660478219328
 30
0.0
 11
159.8013027940367
 21
205.4661960502328
 31
0.0
  0
LINE
  5
1A2
330
2
100
AcDbEntity
  8
0
 62
     3
100
AcDbLine
 10
168.8012853554365
 20
244.4660478219328
 30
0.0
 11
168.8012853554365
 21
205.4661960502328
 31
0.0
  0
LINE
  5
1A3
330
2
100
AcDbEntity
  8
0
 62
     3
100
AcDbLine
 10
161.8012940747366
 20
214.4650451015328
 30
0.0
 11
166.8012940747366
 21
214.4650451015328
 31
0.0
  0
LINE
  5
1A4
330
2
100
AcDbEntity
  8
0
 62
     3
100
AcDbLine
 10
161.8012940747366
 20
210.4661960502328
 30
0.0
 11
166.8012940747366
 21
210.4661960502328
 31
0.0
  0
LINE
  5
1A5
330
2
100
AcDbEntity
  8
0
 62
     3
100
AcDbLine
 10
163.3012766361365
 20
221.4649927857326
 30
0.0
 11
165.3012679168365
 21
221.4649927857326
 31
0.0
  0
LINE
  5
1A6
330
2
100
AcDbEntity
  8
0
 62
     3
100
AcDbLine
 10
161.8012940747366
 20
216.4651235753328
 30
0.0
 11
166.8012940747366
 21
216.4651235753328
 31
0.0
  0
LINE
  5
1A7
330
2
100
AcDbEntity
  8
0
 62
     3
100
AcDbLine
 10
161.8012940747366
 20
221.4651235753327
 30
0.0
 11
163.3012766361365
 21
221.4651235753327
 31
0.0
  0
LINE
  5
1A8
330
2
100
AcDbEntity
  8
0
 62
     3
100
AcDbLine
 10
165.3012679168365
 20
221.4651235753327
 30
0.0
 11
166.8012940747366
 21
221.4651235753327
 31
0.0
  0
LINE
  5
1A9
330
2
100
AcDbEntity
  8
0
 62
     3
100
AcDbLine
 10
163.3012766361365
 20
224.9649666277328
 30
0.0
 11
165.3012679168365
 21
224.9649666277328
 31
0.0
  0
LINE
  5
1AA
330
2
100
AcDbEntity
  8
0
 62
     3
100
AcDbLine
 10
188.9128489017366
 20
235.0170208967328
 30
0.0
 11
168.8012853554365
 21
235.0170208967328
 31
0.0
  0
LINE
  5
1AB
330
2
100
AcDbEntity
  8
0
 62
     3
100
AcDbLine
 10
167.4013024009365
 20
246.3110587044328
 30
0.0
 11
185.0847163869365
 21
236.7845884024328
 31
0.0
  0
LINE
  5
1AC
330
2
100
AcDbEntity
  8
0
 62
     3
100
AcDbLine
 10
161.8013197890365
 20
245.4660863660328
 30
0.0
 11
159.8013209603365
 21
244.4660871515328
 31
0.0
  0
LINE
  5
1AD
330
2
100
AcDbEntity
  8
0
 62
     3
100
AcDbLine
 10
166.8012195510367
 20
245.4660614141328
 30
0.0
 11
168.8012183797365
 21
244.4660621996328
 31
0.0
  0
LINE
  5
1AE
330
2
100
AcDbEntity
  8
0
 62
     3
100
AcDbLine
 10
163.3012766361365
 20
231.4650363822328
 30
0.0
 11
165.3012679168365
 21
231.4650363822328
 31
0.0
  0
LINE
  5
1AF
330
2
100
AcDbEntity
  8
0
 62
     3
100
AcDbLine
 10
178.9448805710367
 20
250.4661779239328
 30
0.0
 11
185.8730901483366
 21
238.4661671459328
 31
0.0
  0
LINE
  5
1B0
330
2
100
AcDbEntity
  8
0
 62
     3
100
AcDbLine
 10
225.8012766361367
 20
244.4660478219328
 30
0.0
 11
225.8012766361367
 21
205.4661960502328
 31
0.0
  0
LINE
  5
1B1
330
2
100
AcDbEntity
  8
0
 62
     3
100
AcDbLine
 10
216.8012504782367
 20
244.4660478219328
 30
0.0
 11
216.8012504782367
 21
205.4661960502328
 31
0.0
  0
LINE
  5
1B2
330
2
100
AcDbEntity
  8
0
 62
     3
100
AcDbLine
 10
192.8012679168367
 20
234.4661786115328
 30
0.0
 11
192.8012679168367
 21
205.4661524536327
 31
0.0
  0
LINE
  5
1B3
330
2
100
AcDbEntity
  8
0
 62
     3
100
AcDbLine
 10
218.8012853554367
 20
214.4650451015328
 30
0.0
 11
223.8012853554367
 21
214.4650451015328
 31
0.0
  0
LINE
  5
1B4
330
2
100
AcDbEntity
  8
0
 62
     3
100
AcDbLine
 10
218.8012853554367
 20
210.4661960502328
 30
0.0
 11
223.8012853554367
 21
210.4661960502328
 31
0.0
  0
LINE
  5
1B5
330
2
100
AcDbEntity
  8
0
 62
     3
100
AcDbLine
 10
218.8012853554367
 20
221.4651235753327
 30
0.0
 11
220.3013115133365
 21
221.4651235753327
 31
0.0
  0
LINE
  5
1B6
330
2
100
AcDbEntity
  8
0
 62
     3
100
AcDbLine
 10
218.8012853554367
 20
216.4651235753328
 30
0.0
 11
223.8012853554367
 21
216.4651235753328
 31
0.0
  0
LINE
  5
1B7
330
2
100
AcDbEntity
  8
0
 62
     3
100
AcDbLine
 10
220.3013115133365
 20
221.4649927857326
 30
0.0
 11
222.3013027940365
 21
221.4649927857326
 31
0.0
  0
LINE
  5
1B8
330
2
100
AcDbEntity
  8
0
 62
     3
100
AcDbLine
 10
222.3013027940365
 20
221.4651235753327
 30
0.0
 11
223.8012853554367
 21
221.4651235753327
 31
0.0
  0
LINE
  5
1B9
330
2
100
AcDbEntity
  8
0
 62
     3
100
AcDbLine
 10
220.3013115133365
 20
224.9649666277328
 30
0.0
 11
222.3013027940365
 21
224.9649666277328
 31
0.0
  0
LINE
  5
1BA
330
2
100
AcDbEntity
  8
0
 62
     3
100
AcDbLine
 10
196.6895561422365
 20
235.0169773002328
 30
0.0
 11
216.8012504782367
 21
235.0169773002328
 31
0.0
  0
LINE
  5
1BB
330
2
100
AcDbEntity
  8
0
 62
     3
100
AcDbLine
 10
192.8012679168367
 20
232.5161053694328
 30
0.0
 11
216.8012504782367
 21
232.5161053694328
 31
0.0
  0
LINE
  5
1BC
330
2
100
AcDbEntity
  8
0
 62
     3
100
AcDbLine
 10
218.2012243722367
 20
246.3111233525328
 30
0.0
 11
200.5178103861367
 21
236.7846530506328
 31
0.0
  0
LINE
  5
1BD
330
2
100
AcDbEntity
  8
0
 62
     3
100
AcDbLine
 10
206.6577070321367
 20
250.4661578061328
 30
0.0
 11
199.7294974548367
 21
238.4661470282328
 31
0.0
  0
LINE
  5
1BE
330
2
100
AcDbEntity
  8
0
 62
     3
100
AcDbLine
 10
223.8012228850366
 20
245.4660464753326
 30
0.0
 11
225.8012217138365
 21
244.4660472608328
 31
0.0
  0
LINE
  5
1BF
330
2
100
AcDbEntity
  8
0
 62
     3
100
AcDbLine
 10
218.8012451352367
 20
245.4660623108328
 30
0.0
 11
216.8012463065366
 21
244.4660630964328
 31
0.0
  0
LINE
  5
1C0
330
2
100
AcDbEntity
  8
0
 62
     3
100
AcDbLine
 10
220.3013115133365
 20
231.4650363822328
 30
0.0
 11
222.3013027940365
 21
231.4650363822328
 31
0.0
  0
LINE
  5
1C1
330
2
100
AcDbEntity
  8
0
 62
     3
100
AcDbLine
 10
139.6895212650365
 20
327.9153624843328
 30
0.0
 11
159.8013027940367
 21
327.9153624843328
 31
0.0
  0
LINE
  5
1C2
330
2
100
AcDbEntity
  8
0
 62
     3
100
AcDbLine
 10
135.8013202326365
 20
328.9162518537326
 30
0.0
 11
159.8013027940367
 21
328.9162518537326
 31
0.0
  0
LINE
  5
1C3
330
2
100
AcDbEntity
  8
0
 62
     3
100
AcDbLine
 10
135.8013202326365
 20
330.4162344151328
 30
0.0
 11
159.8013027940367
 21
330.4162344151328
 31
0.0
  0
LINE
  5
1C4
330
2
100
AcDbEntity
  8
0
 62
     3
100
AcDbLine
 10
157.8582485948365
 20
338.9661262957328
 30
0.0
 11
113.7443918705367
 21
338.9661262957328
 31
0.0
  0
LINE
  5
1C5
330
2
100
AcDbEntity
  8
0
 62
     3
100
AcDbLine
 10
149.6577593479367
 20
312.4661054903326
 30
0.0
 11
142.7295497706365
 21
300.4660947123328
 31
0.0
  0
LINE
  5
1C6
330
2
100
AcDbEntity
  8
0
 62
     3
100
AcDbLine
 10
162.3013027940365
 20
276.4662134888328
 30
0.0
 11
135.8013202326365
 21
276.4662134888328
 31
0.0
  0
LINE
  5
1C7
330
2
100
AcDbEntity
  8
0
 62
     3
100
AcDbLine
 10
162.3013027940365
 20
286.4661698922328
 30
0.0
 11
135.8013202326365
 21
286.4661698922328
 31
0.0
  0
LINE
  5
1C8
330
2
100
AcDbEntity
  8
0
  6
CENTER
 62
     3
100
AcDbLine
 10
114.4712333883367
 20
312.4661437343328
 30
0.0
 11
155.5917952605366
 21
312.4661437343328
 31
0.0
  0
LINE
  5
1C9
330
2
100
AcDbEntity
  8
0
 62
     3
100
AcDbLine
 10
161.2012267897366
 20
316.6211769648326
 30
0.0
 11
143.5178128036365
 21
326.1476472667327
 31
0.0
  0
CIRCLE
  5
1CA
330
2
100
AcDbEntity
  8
0
 62
     3
100
AcDbCircle
 10
135.8013202326365
 20
312.4661437343328
 30
0.0
 40
13.9999989101
  0
CIRCLE
  5
1CB
330
2
100
AcDbEntity
  8
0
 62
     3
100
AcDbCircle
 10
135.8013202326365
 20
312.4661437343328
 30
0.0
 40
15.0
  0
LINE
  5
1CC
330
2
100
AcDbEntity
  8
0
 62
     3
100
AcDbLine
 10
142.7295487824366
 20
324.4661294057328
 30
0.0
 11
149.6577583597367
 21
312.4661186277326
 31
0.0
  0
LINE
  5
1CD
330
2
100
AcDbEntity
  8
0
 62
     3
100
AcDbLine
 10
110.4014197487365
 20
316.6212236148326
 30
0.0
 11
128.0848337347367
 21
326.1476939167327
 31
0.0
  0
LINE
  5
1CE
330
2
100
AcDbEntity
  8
0
 62
     3
100
AcDbLine
 10
128.8731273767367
 20
324.4661185692328
 30
0.0
 11
121.9449177994367
 21
312.4661077913328
 31
0.0
  0
CIRCLE
  5
1CF
330
2
100
AcDbEntity
  8
0
 62
     3
100
AcDbCircle
 10
135.8013202326365
 20
312.4661437343328
 30
0.0
 40
6.999999455
  0
CIRCLE
  5
1D0
330
2
100
AcDbEntity
  8
0
 62
     3
100
AcDbCircle
 10
135.8013202326365
 20
312.4661437343328
 30
0.0
 40
7.999997820199999
  0
CIRCLE
  5
1D1
330
2
100
AcDbEntity
  8
0
 62
     3
100
AcDbCircle
 10
135.8013202326365
 20
312.4661437343328
 30
0.0
 40
11.49999891009999
  0
LINE
  5
1D2
330
2
100
AcDbEntity
  8
0
 62
     3
100
AcDbLine
 10
107.8013551099366
 20
288.4661611729328
 30
0.0
 11
107.8013551099366
 21
346.4660826992328
 31
0.0
  0
LINE
  5
1D3
330
2
100
AcDbEntity
  8
0
 62
     3
100
AcDbLine
 10
109.8013463906367
 20
291.4661262957327
 30
0.0
 11
109.8013463906367
 21
357.4661437343328
 31
0.0
  0
LINE
  5
1D4
330
2
100
AcDbEntity
  8
0
 62
     3
100
AcDbLine
 10
110.8013638292365
 20
291.4661262957327
 30
0.0
 11
107.8013987064367
 21
291.4661262957327
 31
0.0
  0
LINE
  5
1D5
330
2
100
AcDbEntity
  8
0
 62
     3
100
AcDbLine
 10
110.8013638292365
 20
285.6661733800328
 30
0.0
 11
107.8013551099366
 21
285.6661733800328
 31
0.0
  0
LINE
  5
1D6
330
2
100
AcDbEntity
  8
0
 62
     3
100
AcDbLine
 10
107.8013987064367
 20
288.4661611729328
 30
0.0
 11
110.8013638292365
 21
288.4661611729328
 31
0.0
  0
LINE
  5
1D7
330
2
100
AcDbEntity
  8
0
 62
     3
100
AcDbLine
 10
110.8013638292365
 20
277.2661664045328
 30
0.0
 11
107.8013551099366
 21
277.2661664045328
 31
0.0
  0
LINE
  5
1D8
330
2
100
AcDbEntity
  8
0
 62
     3
100
AcDbLine
 10
110.8013638292365
 20
271.4661698922328
 30
0.0
 11
107.8013987064367
 21
271.4661698922328
 31
0.0
  0
LINE
  5
1D9
330
2
100
AcDbEntity
  8
0
 62
     3
100
AcDbLine
 10
107.8013987064367
 20
274.4661786115329
 30
0.0
 11
110.8013638292365
 21
274.4661786115329
 31
0.0
  0
LINE
  5
1DA
330
2
100
AcDbEntity
  8
0
 62
     3
100
AcDbLine
 10
107.8013551099366
 20
285.6661733800328
 30
0.0
 11
107.8013551099366
 21
277.2661664045328
 31
0.0
  0
LINE
  5
1DB
330
2
100
AcDbEntity
  8
0
  6
CENTER
 62
     3
100
AcDbLine
 10
92.2237445490367
 20
311.4662134888328
 30
0.0
 11
76.00862178123668
 21
311.4662134888328
 31
0.0
  0
CIRCLE
  5
1DC
330
2
100
AcDbEntity
  8
0
 62
     3
100
AcDbCircle
 10
83.30136382923672
 20
311.4661698922328
 30
0.0
 40
4.499999455
  0
LINE
  5
1DD
330
2
100
AcDbEntity
  8
0
 62
     3
100
AcDbLine
 10
110.8013638292365
 20
285.6661733800328
 30
0.0
 11
110.8013638292365
 21
291.4661262957327
 31
0.0
  0
LINE
  5
1DE
330
2
100
AcDbEntity
  8
0
 62
     3
100
AcDbLine
 10
110.8013638292365
 20
286.4661262957328
 30
0.0
 11
135.8013202326365
 21
286.4661262957328
 31
0.0
  0
LINE
  5
1DF
330
2
100
AcDbEntity
  8
0
 62
     3
100
AcDbLine
 10
110.8013638292365
 20
276.4661698922328
 30
0.0
 11
135.8013202326365
 21
276.4661698922328
 31
0.0
  0
LINE
  5
1E0
330
2
100
AcDbEntity
  8
0
 62
     3
100
AcDbLine
 10
110.8013638292365
 20
277.2661664045328
 30
0.0
 11
110.8013638292365
 21
271.4661698922328
 31
0.0
  0
ARC
  5
1E1
330
2
100
AcDbEntity
  8
0
 62
     3
100
AcDbCircle
 10
112.8013551099366
 20
273.4661611729328
 30
0.0
 40
2.999997820199998
100
AcDbArc
 50
89.99998201389999
 51
131.8103019991999
  0
ARC
  5
1E2
330
2
100
AcDbEntity
  8
0
 62
     3
100
AcDbCircle
 10
112.8013551099366
 20
289.4661350150328
 30
0.0
 40
2.999997820199998
100
AcDbArc
 50
228.1896980007998
 51
270.0000179861
  0
LINE
  5
1E3
330
2
100
AcDbEntity
  8
0
 62
     3
100
AcDbLine
 10
142.7295516082367
 20
262.4661873309328
 30
0.0
 11
128.8731324536367
 21
262.4661873309328
 31
0.0
  0
LINE
  5
1E4
330
2
100
AcDbEntity
  8
0
 62
     3
100
AcDbLine
 10
121.9449328868365
 20
312.4661256080328
 30
0.0
 11
128.8731424641367
 21
300.4661148301328
 31
0.0
  0
LINE
  5
1E5
330
2
100
AcDbEntity
  8
0
 62
     3
100
AcDbLine
 10
110.4014091696365
 20
291.4661262957327
 30
0.0
 11
110.4014091696365
 21
316.6211991891328
 31
0.0
  0
LINE
  5
1E6
330
2
100
AcDbEntity
  8
0
 62
     3
100
AcDbLine
 10
142.7295516082367
 20
300.4661524536326
 30
0.0
 11
128.8731324536367
 21
300.4661524536326
 31
0.0
  0
LINE
  5
1E7
330
2
100
AcDbEntity
  8
0
 62
     3
100
AcDbLine
 10
104.8014335836367
 20
348.4661175764327
 30
0.0
 11
109.8014335836367
 21
348.4661175764327
 31
0.0
  0
LINE
  5
1E8
330
2
100
AcDbEntity
  8
0
 62
     3
100
AcDbLine
 10
104.8014335836367
 20
352.4661001378327
 30
0.0
 11
109.8014335836367
 21
352.4661001378327
 31
0.0
  0
LINE
  5
1E9
330
2
100
AcDbEntity
  8
0
 62
     3
100
AcDbLine
 10
135.8013202326365
 20
357.4661437343328
 30
0.0
 11
104.8013463906366
 21
357.4661437343328
 31
0.0
  0
LINE
  5
1EA
330
2
100
AcDbEntity
  8
0
 62
     3
100
AcDbLine
 10
104.8014335836367
 20
341.4661698922328
 30
0.0
 11
109.8014335836367
 21
341.4661698922328
 31
0.0
  0
LINE
  5
1EB
330
2
100
AcDbEntity
  8
0
 62
     3
100
AcDbLine
 10
104.8014335836367
 20
346.4660826992328
 30
0.0
 11
109.8014335836367
 21
346.4660826992328
 31
0.0
  0
LINE
  5
1EC
330
2
100
AcDbEntity
  8
0
 62
     3
100
AcDbLine
 10
102.5013673169367
 20
321.4661698922328
 30
0.0
 11
77.80148589953672
 21
321.4661698922328
 31
0.0
  0
ARC
  5
1ED
330
2
100
AcDbEntity
  8
0
 62
     3
100
AcDbCircle
 10
77.80148589953672
 20
318.4661611729328
 30
0.0
 40
2.999997820199998
100
AcDbArc
 50
89.99998201389999
 51
179.9999640277999
  0
LINE
  5
1EE
330
2
100
AcDbEntity
  8
0
 62
     3
100
AcDbLine
 10
98.60098719443676
 20
330.4661233098328
 30
0.0
 11
99.55926094583674
 21
332.1259021050328
 31
0.0
  0
LINE
  5
1EF
330
2
100
AcDbEntity
  8
0
 62
     3
100
AcDbLine
 10
98.60117723603671
 20
333.4661611729328
 30
0.0
 11
98.60117723603671
 21
327.4661437343328
 31
0.0
  0
ARC
  5
1F0
330
2
100
AcDbEntity
  8
0
 62
     3
100
AcDbCircle
 10
100.8512382711367
 20
327.4661437343328
 30
0.0
 40
2.2500002384
100
AcDbArc
 50
179.9999640277999
 51
270.0000006831999
  0
LINE
  5
1F1
330
2
100
AcDbEntity
  8
0
 62
     3
100
AcDbLine
 10
98.60113233963673
 20
330.4660738785328
 30
0.0
 11
99.61435952993674
 21
328.7111129368328
 31
0.0
  0
LINE
  5
1F2
330
2
100
AcDbEntity
  8
0
 62
     3
100
AcDbLine
 10
100.8512382711367
 20
325.2161262957327
 30
0.0
 11
102.5013237204365
 21
325.2161262957327
 31
0.0
  0
ARC
  5
1F3
330
2
100
AcDbEntity
  8
0
 62
     3
100
AcDbCircle
 10
100.8512382711367
 20
333.4661611729328
 30
0.0
 40
2.2500002384
100
AcDbArc
 50
89.99998201389999
 51
179.9999640277999
  0
LINE
  5
1F4
330
2
100
AcDbEntity
  8
0
 62
     3
100
AcDbLine
 10
100.8512382711367
 20
335.7161350150328
 30
0.0
 11
102.5013237204365
 21
335.7161350150328
 31
0.0
  0
LINE
  5
1F5
330
2
100
AcDbEntity
  8
0
 62
     3
100
AcDbLine
 10
107.8014423029367
 20
337.9661524536326
 30
0.0
 11
104.8014335836367
 21
337.9661524536326
 31
0.0
  0
LINE
  5
1F6
330
2
100
AcDbEntity
  8
0
 62
     3
100
AcDbLine
 10
107.8014423029367
 20
331.4661698922328
 30
0.0
 11
104.8014335836367
 21
331.4661698922328
 31
0.0
  0
LINE
  5
1F7
330
2
100
AcDbEntity
  8
0
 62
     3
100
AcDbLine
 10
104.8014771802367
 20
338.4661611729328
 30
0.0
 11
102.5013673169367
 21
338.4661611729328
 31
0.0
  0
LINE
  5
1F8
330
2
100
AcDbEntity
  8
0
 62
     3
100
AcDbLine
 10
135.8013202326365
 20
328.4661611729327
 30
0.0
 11
135.8013202326365
 21
357.4661873309328
 31
0.0
  0
LINE
  5
1F9
330
2
100
AcDbEntity
  8
0
 62
     3
100
AcDbLine
 10
111.8013376712367
 20
318.4662919625328
 30
0.0
 11
111.8013376712367
 21
357.4661437343328
 31
0.0
  0
LINE
  5
1FA
330
2
100
AcDbEntity
  8
0
 62
     3
100
AcDbLine
 10
131.9129884106367
 20
327.9153624843328
 30
0.0
 11
111.8013376712367
 21
327.9153624843328
 31
0.0
  0
LINE
  5
1FB
330
2
100
AcDbEntity
  8
0
 62
     3
100
AcDbLine
 10
135.8013202326365
 20
328.9162082572328
 30
0.0
 11
111.8013376712367
 21
328.9162082572328
 31
0.0
  0
LINE
  5
1FC
330
2
100
AcDbEntity
  8
0
 62
     3
100
AcDbLine
 10
135.8013202326365
 20
330.4161908186328
 30
0.0
 11
111.8013376712367
 21
330.4161908186328
 31
0.0
  0
ARC
  5
1FD
330
2
100
AcDbEntity
  8
0
 62
     3
100
AcDbCircle
 10
135.8013202326365
 20
314.4661350150328
 30
0.0
 40
13.9999989101
100
AcDbArc
 50
56.55197874269999
 51
123.4481287191
  0
LINE
  5
1FE
330
2
100
AcDbEntity
  8
0
 62
     3
100
AcDbLine
 10
109.8013385816366
 20
317.4662794438328
 30
0.0
 11
111.8013374103367
 21
318.4662786583328
 31
0.0
  0
LINE
  5
1FF
330
2
100
AcDbEntity
  8
0
 62
     3
100
AcDbLine
 10
142.7295516082367
 20
324.4661350150328
 30
0.0
 11
128.8731324536367
 21
324.4661350150328
 31
0.0
  0
LINE
  5
200
330
2
100
AcDbEntity
  8
0
 62
     3
100
AcDbLine
 10
199.7294964665366
 20
324.4661294057328
 30
0.0
 11
206.6577060438365
 21
312.4661186277326
 31
0.0
  0
LINE
  5
201
330
2
100
AcDbEntity
  8
0
 62
     3
100
AcDbLine
 10
218.2011565686365
 20
316.6211487751328
 30
0.0
 11
200.5177042013365
 21
326.1476397539328
 31
0.0
  0
LINE
  5
202
330
2
100
AcDbEntity
  8
0
 62
     3
100
AcDbLine
 10
185.8730750609365
 20
324.4661185692328
 30
0.0
 11
178.9448654836367
 21
312.4661077913328
 31
0.0
  0
CIRCLE
  5
203
330
2
100
AcDbEntity
  8
0
 62
     3
100
AcDbCircle
 10
192.8012679168367
 20
312.4661437343328
 30
0.0
 40
15.0
  0
CIRCLE
  5
204
330
2
100
AcDbEntity
  8
0
 62
     3
100
AcDbCircle
 10
192.8012679168367
 20
312.4661437343328
 30
0.0
 40
13.9999989101
  0
CIRCLE
  5
205
330
2
100
AcDbEntity
  8
0
 62
     3
100
AcDbCircle
 10
192.8012679168367
 20
312.4661437343328
 30
0.0
 40
11.49999891009999
  0
CIRCLE
  5
206
330
2
100
AcDbEntity
  8
0
 62
     3
100
AcDbCircle
 10
192.8012679168367
 20
312.4661437343328
 30
0.0
 40
7.999997820199999
  0
CIRCLE
  5
207
330
2
100
AcDbEntity
  8
0
 62
     3
100
AcDbCircle
 10
192.8012679168367
 20
312.4661437343328
 30
0.0
 40
6.999999455
  0
LINE
  5
208
330
2
100
AcDbEntity
  8
0
 62
     3
100
AcDbLine
 10
218.8012853554367
 20
289.4661786115328
 30
0.0
 11
218.8012853554367
 21
357.4661437343328
 31
0.0
  0
LINE
  5
209
330
2
100
AcDbEntity
  8
0
 62
     3
100
AcDbLine
 10
223.8012853554367
 20
289.4661786115328
 30
0.0
 11
223.8012853554367
 21
357.4661437343328
 31
0.0
  0
LINE
  5
20A
330
2
100
AcDbEntity
  8
0
 62
     3
100
AcDbLine
 10
222.3013027940365
 20
346.4672598057326
 30
0.0
 11
222.3013027940365
 21
288.4661175764327
 31
0.0
  0
LINE
  5
20B
330
2
100
AcDbEntity
  8
0
 62
     3
100
AcDbLine
 10
220.3013115133365
 20
346.4672598057326
 30
0.0
 11
220.3013115133365
 21
288.4661175764327
 31
0.0
  0
LINE
  5
20C
330
2
100
AcDbEntity
  8
0
 62
     3
100
AcDbLine
 10
161.8012940747366
 20
289.4661786115328
 30
0.0
 11
161.8012940747366
 21
357.4661437343328
 31
0.0
  0
LINE
  5
20D
330
2
100
AcDbEntity
  8
0
 62
     3
100
AcDbLine
 10
166.8012940747366
 20
289.4661786115328
 30
0.0
 11
166.8012940747366
 21
357.4661437343328
 31
0.0
  0
LINE
  5
20E
330
2
100
AcDbEntity
  8
0
 62
     3
100
AcDbLine
 10
165.3012679168365
 20
346.4672598057326
 30
0.0
 11
165.3012679168365
 21
288.4661175764327
 31
0.0
  0
LINE
  5
20F
330
2
100
AcDbEntity
  8
0
 62
     3
100
AcDbLine
 10
163.3012766361365
 20
346.4672598057326
 30
0.0
 11
163.3012766361365
 21
288.4661175764327
 31
0.0
  0
LINE
  5
210
330
2
100
AcDbEntity
  8
0
 62
     3
100
AcDbLine
 10
167.4013495276366
 20
316.6212518045326
 30
0.0
 11
185.0847635136367
 21
326.1477221065328
 31
0.0
  0
LINE
  5
211
330
2
100
AcDbEntity
  8
0
 62
     3
100
AcDbLine
 10
199.7294992923364
 20
300.4661524536326
 30
0.0
 11
185.8730801378366
 21
300.4661524536326
 31
0.0
  0
LINE
  5
212
330
2
100
AcDbEntity
  8
0
 62
     3
100
AcDbLine
 10
199.7294992923364
 20
262.4661873309328
 30
0.0
 11
185.8730801378366
 21
262.4661873309328
 31
0.0
  0
LINE
  5
213
330
2
100
AcDbEntity
  8
0
 62
     3
100
AcDbLine
 10
166.3012853554366
 20
286.4661698922328
 30
0.0
 11
192.8012679168367
 21
286.4661698922328
 31
0.0
  0
LINE
  5
214
330
2
100
AcDbEntity
  8
0
  6
CENTER
 62
     3
100
AcDbLine
 10
171.9516149452367
 20
312.4661437343328
 30
0.0
 11
212.4089862483365
 21
312.4661437343328
 31
0.0
  0
LINE
  5
215
330
2
100
AcDbEntity
  8
0
 62
     3
100
AcDbLine
 10
166.3012853554366
 20
276.4662134888328
 30
0.0
 11
192.8012679168367
 21
276.4662134888328
 31
0.0
  0
ARC
  5
216
330
2
100
AcDbEntity
  8
0
 62
     3
100
AcDbCircle
 10
158.8012853554365
 20
289.4661786115328
 30
0.0
 40
2.999997820199998
100
AcDbArc
 50
270.0000179861
 51
0.0
  0
ARC
  5
217
330
2
100
AcDbEntity
  8
0
 62
     3
100
AcDbCircle
 10
169.8013027940367
 20
289.4661786115328
 30
0.0
 40
2.999997820199998
100
AcDbArc
 50
179.9999640277999
 51
270.0000006831999
  0
LINE
  5
218
330
2
100
AcDbEntity
  8
0
 62
     3
100
AcDbLine
 10
166.3012853554366
 20
291.4661262957327
 30
0.0
 11
166.3012853554366
 21
285.6662169765328
 31
0.0
  0
LINE
  5
219
330
2
100
AcDbEntity
  8
0
 62
     3
100
AcDbLine
 10
162.3013027940365
 20
291.4661262957327
 30
0.0
 11
162.3013027940365
 21
285.6662169765328
 31
0.0
  0
LINE
  5
21A
330
2
100
AcDbEntity
  8
0
 62
     3
100
AcDbLine
 10
167.4013132572367
 20
287.6661210641328
 30
0.0
 11
167.4013132572367
 21
316.6211991891328
 31
0.0
  0
LINE
  5
21B
330
2
100
AcDbEntity
  8
0
 62
     3
100
AcDbLine
 10
161.2012312957367
 20
287.6661210641328
 30
0.0
 11
161.2012312957367
 21
316.6211991891328
 31
0.0
  0
ARC
  5
21C
330
2
100
AcDbEntity
  8
0
 62
     3
100
AcDbCircle
 10
169.8013027940367
 20
273.4662047695326
 30
0.0
 40
2.999997820199998
100
AcDbArc
 50
89.99998201389999
 51
179.9999640277999
  0
ARC
  5
21D
330
2
100
AcDbEntity
  8
0
 62
     3
100
AcDbCircle
 10
158.8012853554365
 20
273.4662047695326
 30
0.0
 40
2.999997820199998
100
AcDbArc
 50
0.0
 51
89.99998201389999
  0
LINE
  5
21E
330
2
100
AcDbEntity
  8
0
 62
     3
100
AcDbLine
 10
162.3013027940365
 20
277.2661664045328
 30
0.0
 11
162.3013027940365
 21
271.4663006819328
 31
0.0
  0
LINE
  5
21F
330
2
100
AcDbEntity
  8
0
 62
     3
100
AcDbLine
 10
166.3012853554366
 20
277.2661664045328
 30
0.0
 11
166.3012853554366
 21
271.4663006819328
 31
0.0
  0
LINE
  5
220
330
2
100
AcDbEntity
  8
0
 62
     3
100
AcDbLine
 10
162.3013027940365
 20
271.4663006819328
 30
0.0
 11
163.3012766361365
 21
271.4663006819328
 31
0.0
  0
LINE
  5
221
330
2
100
AcDbEntity
  8
0
 62
     3
100
AcDbLine
 10
165.3012679168365
 20
271.4663006819328
 30
0.0
 11
166.3012853554366
 21
271.4663006819328
 31
0.0
  0
LINE
  5
222
330
2
100
AcDbEntity
  8
0
 62
     3
100
AcDbLine
 10
162.3013027940365
 20
277.2661664045328
 30
0.0
 11
166.3012853554366
 21
277.2661664045328
 31
0.0
  0
LINE
  5
223
330
2
100
AcDbEntity
  8
0
 62
     3
100
AcDbLine
 10
162.3013027940365
 20
274.4663094012328
 30
0.0
 11
163.3012766361365
 21
274.4663094012328
 31
0.0
  0
LINE
  5
224
330
2
100
AcDbEntity
  8
0
 62
     3
100
AcDbLine
 10
165.3012679168365
 20
274.4663094012328
 30
0.0
 11
166.3012853554366
 21
274.4663094012328
 31
0.0
  0
LINE
  5
225
330
2
100
AcDbEntity
  8
0
 62
     3
100
AcDbLine
 10
162.3013027940365
 20
285.6662169765328
 30
0.0
 11
166.3012853554366
 21
285.6662169765328
 31
0.0
  0
LINE
  5
226
330
2
100
AcDbEntity
  8
0
 62
     3
100
AcDbLine
 10
162.3013027940365
 20
291.4661262957327
 30
0.0
 11
163.3012766361365
 21
291.4661262957327
 31
0.0
  0
LINE
  5
227
330
2
100
AcDbEntity
  8
0
 62
     3
100
AcDbLine
 10
162.3013027940365
 20
288.4661175764327
 30
0.0
 11
163.3012766361365
 21
288.4661175764327
 31
0.0
  0
LINE
  5
228
330
2
100
AcDbEntity
  8
0
 62
     3
100
AcDbLine
 10
165.3012679168365
 20
291.4661262957327
 30
0.0
 11
166.3012853554366
 21
291.4661262957327
 31
0.0
  0
LINE
  5
229
330
2
100
AcDbEntity
  8
0
 62
     3
100
AcDbLine
 10
165.3012679168365
 20
288.4661175764327
 30
0.0
 11
166.3012853554366
 21
288.4661175764327
 31
0.0
  0
LINE
  5
22A
330
2
100
AcDbEntity
  8
0
 62
     3
100
AcDbLine
 10
178.9448805710367
 20
312.4661256080328
 30
0.0
 11
185.8730901483366
 21
300.4661148301328
 31
0.0
  0
ARC
  5
22B
330
2
100
AcDbEntity
  8
0
 62
     3
100
AcDbCircle
 10
226.8012940747365
 20
289.4661786115328
 30
0.0
 40
2.999997820199998
100
AcDbArc
 50
179.9999640277999
 51
270.0000006831999
  0
LINE
  5
22C
330
2
100
AcDbEntity
  8
0
 62
     3
100
AcDbLine
 10
223.3012766361365
 20
291.4661262957327
 30
0.0
 11
223.3012766361365
 21
285.6662169765328
 31
0.0
  0
LINE
  5
22D
330
2
100
AcDbEntity
  8
0
 62
     3
100
AcDbLine
 10
219.3012940747366
 20
291.4661262957327
 30
0.0
 11
219.3012940747366
 21
285.6662169765328
 31
0.0
  0
LINE
  5
22E
330
2
100
AcDbEntity
  8
0
 62
     3
100
AcDbLine
 10
224.4013481344365
 20
287.6661210641328
 30
0.0
 11
224.4013481344365
 21
316.6211991891328
 31
0.0
  0
LINE
  5
22F
330
2
100
AcDbEntity
  8
0
 62
     3
100
AcDbLine
 10
218.2012225764367
 20
287.6661210641328
 30
0.0
 11
218.2012225764367
 21
316.6211991891328
 31
0.0
  0
ARC
  5
230
330
2
100
AcDbEntity
  8
0
 62
     3
100
AcDbCircle
 10
215.8012766361367
 20
289.4661786115328
 30
0.0
 40
2.999997820199998
100
AcDbArc
 50
270.0000179861
 51
0.0
  0
LINE
  5
231
330
2
100
AcDbEntity
  8
0
 62
     3
100
AcDbLine
 10
219.3012940747366
 20
286.4661262957328
 30
0.0
 11
192.8012679168367
 21
286.4661262957328
 31
0.0
  0
LINE
  5
232
330
2
100
AcDbEntity
  8
0
 62
     3
100
AcDbLine
 10
219.3012940747366
 20
276.4661698922328
 30
0.0
 11
192.8012679168367
 21
276.4661698922328
 31
0.0
  0
ARC
  5
233
330
2
100
AcDbEntity
  8
0
 62
     3
100
AcDbCircle
 10
226.8012940747365
 20
273.4662047695326
 30
0.0
 40
2.999997820199998
100
AcDbArc
 50
89.99998201389999
 51
179.9999640277999
  0
LINE
  5
234
330
2
100
AcDbEntity
  8
0
 62
     3
100
AcDbLine
 10
219.3012940747366
 20
277.2661664045328
 30
0.0
 11
219.3012940747366
 21
271.4663006819328
 31
0.0
  0
LINE
  5
235
330
2
100
AcDbEntity
  8
0
 62
     3
100
AcDbLine
 10
223.3012766361365
 20
277.2661664045328
 30
0.0
 11
223.3012766361365
 21
271.4663006819328
 31
0.0
  0
ARC
  5
236
330
2
100
AcDbEntity
  8
0
 62
     3
100
AcDbCircle
 10
215.8012766361367
 20
273.4662047695326
 30
0.0
 40
2.999997820199998
100
AcDbArc
 50
0.0
 51
89.99998201389999
  0
LINE
  5
237
330
2
100
AcDbEntity
  8
0
 62
     3
100
AcDbLine
 10
219.3012940747366
 20
271.4663006819328
 30
0.0
 11
220.3013115133365
 21
271.4663006819328
 31
0.0
  0
LINE
  5
238
330
2
100
AcDbEntity
  8
0
 62
     3
100
AcDbLine
 10
222.3013027940365
 20
271.4663006819328
 30
0.0
 11
223.3012766361365
 21
271.4663006819328
 31
0.0
  0
LINE
  5
239
330
2
100
AcDbEntity
  8
0
 62
     3
100
AcDbLine
 10
219.3012940747366
 20
285.6662169765328
 30
0.0
 11
223.3012766361365
 21
285.6662169765328
 31
0.0
  0
LINE
  5
23A
330
2
100
AcDbEntity
  8
0
 62
     3
100
AcDbLine
 10
219.3012940747366
 20
277.2661664045328
 30
0.0
 11
223.3012766361365
 21
277.2661664045328
 31
0.0
  0
LINE
  5
23B
330
2
100
AcDbEntity
  8
0
 62
     3
100
AcDbLine
 10
219.3012940747366
 20
274.4663094012328
 30
0.0
 11
220.3013115133365
 21
274.4663094012328
 31
0.0
  0
ARC
  5
23C
330
2
100
AcDbEntity
  8
0
 62
     3
100
AcDbCircle
 10
215.8012330396366
 20
273.4661611729328
 30
0.0
 40
2.999997820199998
100
AcDbArc
 50
48.1896859343
 51
89.99998201389999
  0
ARC
  5
23D
330
2
100
AcDbEntity
  8
0
 62
     3
100
AcDbCircle
 10
215.8012330396366
 20
289.4661350150328
 30
0.0
 40
2.999997820199998
100
AcDbArc
 50
270.0000179861
 51
311.8103140656998
  0
LINE
  5
23E
330
2
100
AcDbEntity
  8
0
 62
     3
100
AcDbLine
 10
222.3013027940365
 20
274.4663094012328
 30
0.0
 11
223.3012766361365
 21
274.4663094012328
 31
0.0
  0
LINE
  5
23F
330
2
100
AcDbEntity
  8
0
 62
     3
100
AcDbLine
 10
206.6577070321367
 20
312.4661054903326
 30
0.0
 11
199.7294974548367
 21
300.4660947123328
 31
0.0
  0
LINE
  5
240
330
2
100
AcDbEntity
  8
0
 62
     3
100
AcDbLine
 10
219.3012940747366
 20
291.4661262957327
 30
0.0
 11
220.3013115133365
 21
291.4661262957327
 31
0.0
  0
LINE
  5
241
330
2
100
AcDbEntity
  8
0
 62
     3
100
AcDbLine
 10
219.3012940747366
 20
288.4661175764327
 30
0.0
 11
220.3013115133365
 21
288.4661175764327
 31
0.0
  0
LINE
  5
242
330
2
100
AcDbEntity
  8
0
 62
     3
100
AcDbLine
 10
222.3013027940365
 20
291.4661262957327
 30
0.0
 11
223.3012766361365
 21
291.4661262957327
 31
0.0
  0
LINE
  5
243
330
2
100
AcDbEntity
  8
0
 62
     3
100
AcDbLine
 10
222.3013027940365
 20
288.4661175764327
 30
0.0
 11
223.3012766361365
 21
288.4661175764327
 31
0.0
  0
LINE
  5
244
330
2
100
AcDbEntity
  8
0
 62
     3
100
AcDbLine
 10
199.7294992923364
 20
324.4661350150328
 30
0.0
 11
185.8730801378366
 21
324.4661350150328
 31
0.0
  0
ARC
  5
245
330
2
100
AcDbEntity
  8
0
 62
     3
100
AcDbCircle
 10
192.8012679168367
 20
314.4661350150328
 30
0.0
 40
13.9999989101
100
AcDbArc
 50
56.55197874269999
 51
123.4481287191
  0
LINE
  5
246
330
2
100
AcDbEntity
  8
0
 62
     3
100
AcDbLine
 10
192.8012679168367
 20
328.9162518537326
 30
0.0
 11
168.8012853554365
 21
328.9162518537326
 31
0.0
  0
LINE
  5
247
330
2
100
AcDbEntity
  8
0
 62
     3
100
AcDbLine
 10
192.8012679168367
 20
330.4162344151328
 30
0.0
 11
168.8012853554365
 21
330.4162344151328
 31
0.0
  0
LINE
  5
248
330
2
100
AcDbEntity
  8
0
 62
     3
100
AcDbLine
 10
214.8581962789366
 20
338.9661698922328
 30
0.0
 11
170.7443395546365
 21
338.9661698922328
 31
0.0
  0
LINE
  5
249
330
2
100
AcDbEntity
  8
0
 62
     3
100
AcDbLine
 10
159.8013027940367
 20
318.4662919625328
 30
0.0
 11
159.8013027940367
 21
357.4661437343328
 31
0.0
  0
LINE
  5
24A
330
2
100
AcDbEntity
  8
0
 62
     3
100
AcDbLine
 10
168.8012853554365
 20
318.4662919625328
 30
0.0
 11
168.8012853554365
 21
357.4661437343328
 31
0.0
  0
LINE
  5
24B
330
2
100
AcDbEntity
  8
0
 62
     3
100
AcDbLine
 10
188.9130232879367
 20
327.9153624843328
 30
0.0
 11
168.8012853554365
 21
327.9153624843328
 31
0.0
  0
LINE
  5
24C
330
2
100
AcDbEntity
  8
0
 62
     3
100
AcDbLine
 10
161.8012559153364
 20
317.4662889277328
 30
0.0
 11
159.8012570865366
 21
318.4662881422328
 31
0.0
  0
LINE
  5
24D
330
2
100
AcDbEntity
  8
0
 62
     3
100
AcDbLine
 10
166.8012834248367
 20
317.4663138796328
 30
0.0
 11
168.8012822535365
 21
318.4663130940328
 31
0.0
  0
LINE
  5
24E
330
2
100
AcDbEntity
  8
0
 62
     3
100
AcDbLine
 10
163.3012766361365
 20
337.9671551740329
 30
0.0
 11
165.3012679168365
 21
337.9671551740329
 31
0.0
  0
LINE
  5
24F
330
2
100
AcDbEntity
  8
0
 62
     3
100
AcDbLine
 10
163.3012766361365
 20
331.4666058576328
 30
0.0
 11
165.3012679168365
 21
331.4666058576328
 31
0.0
  0
LINE
  5
250
330
2
100
AcDbEntity
  8
0
 62
     3
100
AcDbLine
 10
163.3012766361365
 20
341.4671726127328
 30
0.0
 11
165.3012679168365
 21
341.4671726127328
 31
0.0
  0
LINE
  5
251
330
2
100
AcDbEntity
  8
0
 62
     3
100
AcDbLine
 10
161.8012940747366
 20
341.4672598057328
 30
0.0
 11
163.3012766361365
 21
341.4672598057328
 31
0.0
  0
LINE
  5
252
330
2
100
AcDbEntity
  8
0
 62
     3
100
AcDbLine
 10
165.3012679168365
 20
341.4672598057328
 30
0.0
 11
166.8012940747366
 21
341.4672598057328
 31
0.0
  0
LINE
  5
253
330
2
100
AcDbEntity
  8
0
 62
     3
100
AcDbLine
 10
161.8012940747366
 20
352.4661437343328
 30
0.0
 11
166.8012940747366
 21
352.4661437343328
 31
0.0
  0
LINE
  5
254
330
2
100
AcDbEntity
  8
0
 62
     3
100
AcDbLine
 10
161.8012940747366
 20
348.4673382795327
 30
0.0
 11
166.8012940747366
 21
348.4673382795327
 31
0.0
  0
LINE
  5
255
330
2
100
AcDbEntity
  8
0
 62
     3
100
AcDbLine
 10
161.8012940747366
 20
346.4672598057326
 30
0.0
 11
166.8012940747366
 21
346.4672598057326
 31
0.0
  0
LINE
  5
256
330
2
100
AcDbEntity
  8
0
 62
     3
100
AcDbLine
 10
192.8012679168367
 20
357.4661437343328
 30
0.0
 11
192.8012679168367
 21
328.4661611729327
 31
0.0
  0
LINE
  5
257
330
2
100
AcDbEntity
  8
0
 62
     3
100
AcDbLine
 10
216.8012504782367
 20
318.4662919625328
 30
0.0
 11
216.8012504782367
 21
357.4661437343328
 31
0.0
  0
LINE
  5
258
330
2
100
AcDbEntity
  8
0
 62
     3
100
AcDbLine
 10
225.8012766361367
 20
318.4662919625328
 30
0.0
 11
225.8012766361367
 21
357.4661437343328
 31
0.0
  0
LINE
  5
259
330
2
100
AcDbEntity
  8
0
 62
     3
100
AcDbLine
 10
196.6895561422365
 20
327.9153624843328
 30
0.0
 11
216.8012504782367
 21
327.9153624843328
 31
0.0
  0
LINE
  5
25A
330
2
100
AcDbEntity
  8
0
 62
     3
100
AcDbLine
 10
192.8012679168367
 20
328.9162082572328
 30
0.0
 11
216.8012504782367
 21
328.9162082572328
 31
0.0
  0
LINE
  5
25B
330
2
100
AcDbEntity
  8
0
 62
     3
100
AcDbLine
 10
192.8012679168367
 20
330.4161908186328
 30
0.0
 11
216.8012504782367
 21
330.4161908186328
 31
0.0
  0
LINE
  5
25C
330
2
100
AcDbEntity
  8
0
 62
     3
100
AcDbLine
 10
218.8012007584365
 20
317.4662544919328
 30
0.0
 11
216.8012019297365
 21
318.4662537064328
 31
0.0
  0
LINE
  5
25D
330
2
100
AcDbEntity
  8
0
 62
     3
100
AcDbLine
 10
223.8012867588365
 20
317.4663288184329
 30
0.0
 11
225.8012855876366
 21
318.4663280328328
 31
0.0
  0
LINE
  5
25E
330
2
100
AcDbEntity
  8
0
 62
     3
100
AcDbLine
 10
218.8012853554367
 20
341.4672598057328
 30
0.0
 11
220.3013115133365
 21
341.4672598057328
 31
0.0
  0
LINE
  5
25F
330
2
100
AcDbEntity
  8
0
 62
     3
100
AcDbLine
 10
220.3013115133365
 20
337.9671551740329
 30
0.0
 11
222.3013027940365
 21
337.9671551740329
 31
0.0
  0
LINE
  5
260
330
2
100
AcDbEntity
  8
0
 62
     3
100
AcDbLine
 10
220.3013115133365
 20
331.4666058576328
 30
0.0
 11
222.3013027940365
 21
331.4666058576328
 31
0.0
  0
LINE
  5
261
330
2
100
AcDbEntity
  8
0
 62
     3
100
AcDbLine
 10
220.3013115133365
 20
341.4671726127328
 30
0.0
 11
222.3013027940365
 21
341.4671726127328
 31
0.0
  0
LINE
  5
262
330
2
100
AcDbEntity
  8
0
 62
     3
100
AcDbLine
 10
222.3013027940365
 20
341.4672598057328
 30
0.0
 11
223.8012853554367
 21
341.4672598057328
 31
0.0
  0
LINE
  5
263
330
2
100
AcDbEntity
  8
0
 62
     3
100
AcDbLine
 10
218.8012853554367
 20
352.4661437343328
 30
0.0
 11
223.8012853554367
 21
352.4661437343328
 31
0.0
  0
LINE
  5
264
330
2
100
AcDbEntity
  8
0
 62
     3
100
AcDbLine
 10
218.8012853554367
 20
348.4673382795327
 30
0.0
 11
223.8012853554367
 21
348.4673382795327
 31
0.0
  0
LINE
  5
265
330
2
100
AcDbEntity
  8
0
 62
     3
100
AcDbLine
 10
218.8012853554367
 20
346.4672598057326
 30
0.0
 11
223.8012853554367
 21
346.4672598057326
 31
0.0
  0
LINE
  5
266
330
2
100
AcDbEntity
  8
0
 62
     3
100
AcDbLine
 10
363.1015172890367
 20
331.4662134888328
 30
0.0
 11
363.1015172890367
 21
231.4662570853326
 31
0.0
  0
LINE
  5
267
330
2
100
AcDbEntity
  8
0
  6
PHANTOM
 62
     3
100
AcDbLine
 10
352.8015294960366
 20
222.5590479614328
 30
0.0
 11
352.8015294960366
 21
340.3732482265328
 31
0.0
  0
LINE
  5
268
330
2
100
AcDbEntity
  8
0
  6
PHANTOM
 62
     3
100
AcDbLine
 10
354.3015556539367
 20
222.4662745239327
 30
0.0
 11
354.3015556539367
 21
340.3732482265328
 31
0.0
  0
LINE
  5
269
330
2
100
AcDbEntity
  8
0
 62
     3
100
AcDbLine
 10
275.2012138571366
 20
246.3110969988328
 30
0.0
 11
275.2012138571366
 21
271.4661698922328
 31
0.0
  0
LINE
  5
26A
330
2
100
AcDbEntity
  8
0
 62
     3
100
AcDbLine
 10
242.8730227450367
 20
262.4662144816328
 30
0.0
 11
235.9448131677367
 21
250.4662037037328
 31
0.0
  0
LINE
  5
26B
330
2
100
AcDbEntity
  8
0
 62
     3
100
AcDbLine
 10
256.7294441507367
 20
262.4662253181328
 30
0.0
 11
263.6576537280365
 21
250.4662145401328
 31
0.0
  0
CIRCLE
  5
26C
330
2
100
AcDbEntity
  8
0
 62
     3
100
AcDbCircle
 10
249.8012156009365
 20
250.4662396467328
 30
0.0
 40
15.0
  0
CIRCLE
  5
26D
330
2
100
AcDbEntity
  8
0
 62
     3
100
AcDbCircle
 10
249.8012156009365
 20
250.4662396467328
 30
0.0
 40
13.9999989101
  0
CIRCLE
  5
26E
330
2
100
AcDbEntity
  8
0
 62
     3
100
AcDbCircle
 10
249.8012156009365
 20
250.4662396467328
 30
0.0
 40
11.49999891009999
  0
LINE
  5
26F
330
2
100
AcDbEntity
  8
0
  6
CENTER
 62
     3
100
AcDbLine
 10
302.3012156009367
 20
325.8016714268328
 30
0.0
 11
302.3012156009367
 21
237.1423958269328
 31
0.0
  0
LINE
  5
270
330
2
100
AcDbEntity
  8
0
  6
CENTER
 62
     3
100
AcDbLine
 10
249.8012156009365
 20
364.9060241054328
 30
0.0
 11
249.8012156009365
 21
196.9656554531328
 31
0.0
  0
LINE
  5
271
330
2
100
AcDbEntity
  8
0
 62
     3
100
AcDbLine
 10
280.8012330396367
 20
205.4661960502328
 30
0.0
 11
280.8012330396367
 21
357.4659693482328
 31
0.0
  0
LINE
  5
272
330
2
100
AcDbEntity
  8
0
 62
     3
100
AcDbLine
 10
277.8012243202367
 20
274.4661786115329
 30
0.0
 11
277.8012243202367
 21
216.4662134888327
 31
0.0
  0
LINE
  5
273
330
2
100
AcDbEntity
  8
0
 62
     3
100
AcDbLine
 10
275.8012330396367
 20
271.4661698922328
 30
0.0
 11
275.8012330396367
 21
205.4661960502328
 31
0.0
  0
LINE
  5
274
330
2
100
AcDbEntity
  8
0
 62
     3
100
AcDbLine
 10
283.1012557098367
 20
338.4661611729328
 30
0.0
 11
283.1012557098367
 21
224.4662658046328
 31
0.0
  0
LINE
  5
275
330
2
100
AcDbEntity
  8
0
 62
     3
100
AcDbLine
 10
310.8011022499366
 20
318.4661611729328
 30
0.0
 11
310.8011022499366
 21
244.4662658046328
 31
0.0
  0
ARC
  5
276
330
2
100
AcDbEntity
  8
0
 62
     3
100
AcDbCircle
 10
307.8010935306366
 20
244.4662658046328
 30
0.0
 40
2.999997820199998
100
AcDbArc
 50
270.0000179861
 51
0.0
  0
LINE
  5
277
330
2
100
AcDbEntity
  8
0
  6
CENTER
 62
     3
100
AcDbLine
 10
294.2696865831366
 20
251.4662134888328
 30
0.0
 11
312.5464461394366
 21
251.4662134888328
 31
0.0
  0
LINE
  5
278
330
2
100
AcDbEntity
  8
0
 62
     3
100
AcDbLine
 10
256.8010324955365
 20
144.7090985334328
 30
0.0
 11
242.8010063375367
 21
144.7090985334328
 31
0.0
  0
LINE
  5
279
330
2
100
AcDbEntity
  8
0
 62
     3
100
AcDbLine
 10
255.8010150569366
 20
145.7090723755328
 30
0.0
 11
243.8010237762366
 21
145.7090723755328
 31
0.0
  0
LINE
  5
27A
330
2
100
AcDbEntity
  8
0
  6
PHANTOM
 62
     3
100
AcDbLine
 10
280.8012330396367
 20
158.2090723755328
 30
0.0
 11
280.8012330396367
 21
159.7090985334328
 31
0.0
  0
LINE
  5
27B
330
2
100
AcDbEntity
  8
0
 62
     3
100
AcDbLine
 10
280.8012330396367
 20
158.2090723755328
 30
0.0
 11
275.8012330396367
 21
158.2090723755328
 31
0.0
  0
LINE
  5
27C
330
2
100
AcDbEntity
  8
0
 62
     3
100
AcDbLine
 10
280.8012330396367
 20
149.2090898141326
 30
0.0
 11
275.8012330396367
 21
149.2090898141326
 31
0.0
  0
LINE
  5
27D
330
2
100
AcDbEntity
  8
0
 62
     3
100
AcDbLine
 10
280.8012330396367
 20
154.2090898141326
 30
0.0
 11
275.8012330396367
 21
154.2090898141326
 31
0.0
  0
LINE
  5
27E
330
2
100
AcDbEntity
  8
0
 62
     3
100
AcDbLine
 10
275.8012330396367
 20
145.2090636562328
 30
0.0
 11
274.8012156009365
 21
145.2090636562328
 31
0.0
  0
LINE
  5
27F
330
2
100
AcDbEntity
  8
0
 62
     3
100
AcDbLine
 10
275.2011720563365
 20
246.3111669491328
 30
0.0
 11
257.5177580703367
 21
236.7846966472328
 31
0.0
  0
LINE
  5
280
330
2
100
AcDbEntity
  8
0
 62
     3
100
AcDbLine
 10
249.8012156009365
 20
232.5161489659328
 30
0.0
 11
273.8011981623365
 21
232.5161489659328
 31
0.0
  0
LINE
  5
281
330
2
100
AcDbEntity
  8
0
 62
     3
100
AcDbLine
 10
253.6895038264367
 20
235.0170208967328
 30
0.0
 11
273.8011981623365
 21
235.0170208967328
 31
0.0
  0
LINE
  5
282
330
2
100
AcDbEntity
  8
0
 62
     3
100
AcDbLine
 10
249.8012156009365
 20
234.4662222081328
 30
0.0
 11
249.8012156009365
 21
205.4661960502328
 31
0.0
  0
LINE
  5
283
330
2
100
AcDbEntity
  8
0
 62
     3
100
AcDbLine
 10
256.7294469765367
 20
238.4662483660328
 30
0.0
 11
242.8730278219366
 21
238.4662483660328
 31
0.0
  0
ARC
  5
284
330
2
100
AcDbEntity
  8
0
 62
     3
100
AcDbCircle
 10
249.8012156009365
 20
248.4662047695328
 30
0.0
 40
13.9999989101
100
AcDbArc
 50
236.5518712809
 51
303.4480144271998
  0
CIRCLE
  5
285
330
2
100
AcDbEntity
  8
0
 62
     3
100
AcDbCircle
 10
249.8012156009365
 20
250.4662396467328
 30
0.0
 40
7.999997820199999
  0
CIRCLE
  5
286
330
2
100
AcDbEntity
  8
0
 62
     3
100
AcDbCircle
 10
249.8012156009365
 20
250.4662396467328
 30
0.0
 40
6.999999455
  0
LINE
  5
287
330
2
100
AcDbEntity
  8
0
 62
     3
100
AcDbLine
 10
235.9448282551365
 20
250.4662215204328
 30
0.0
 11
242.8730378324366
 21
238.4662107425328
 31
0.0
  0
LINE
  5
288
330
2
100
AcDbEntity
  8
0
 62
     3
100
AcDbLine
 10
263.6576547162366
 20
250.4662014027328
 30
0.0
 11
256.7294451389365
 21
238.4661906247328
 31
0.0
  0
LINE
  5
289
330
2
100
AcDbEntity
  8
0
 62
     3
100
AcDbLine
 10
290.5012016500366
 20
234.4661350150328
 30
0.0
 11
290.5012016500366
 21
230.4661524536327
 31
0.0
  0
LINE
  5
28A
330
2
100
AcDbEntity
  8
0
 62
     3
100
AcDbLine
 10
290.0011929307367
 20
229.9661437343328
 30
0.0
 11
290.0011929307367
 21
234.9661437343327
 31
0.0
  0
LINE
  5
28B
330
2
100
AcDbEntity
  8
0
 62
     3
100
AcDbLine
 10
286.8512557098367
 20
227.2161611729328
 30
0.0
 11
286.8512557098367
 21
237.7161698922328
 31
0.0
  0
LINE
  5
28C
330
2
100
AcDbEntity
  8
0
 62
     3
100
AcDbLine
 10
284.6012382711368
 20
227.2161611729328
 30
0.0
 11
284.6012382711368
 21
237.7161698922328
 31
0.0
  0
LINE
  5
28D
330
2
100
AcDbEntity
  8
0
 62
     3
100
AcDbLine
 10
273.8012417589365
 20
244.4660478219328
 30
0.0
 11
273.8012417589365
 21
205.4661960502328
 31
0.0
  0
LINE
  5
28E
330
2
100
AcDbEntity
  8
0
 62
     3
100
AcDbLine
 10
280.8011458465366
 20
214.4662222081328
 30
0.0
 11
275.8011458465365
 21
214.4662222081328
 31
0.0
  0
LINE
  5
28F
330
2
100
AcDbEntity
  8
0
 62
     3
100
AcDbLine
 10
280.8011458465366
 20
210.4661960502328
 30
0.0
 11
275.8011458465365
 21
210.4661960502328
 31
0.0
  0
LINE
  5
290
330
2
100
AcDbEntity
  8
0
 62
     3
100
AcDbLine
 10
280.8011458465366
 20
216.4662134888327
 30
0.0
 11
275.8011458465365
 21
216.4662134888327
 31
0.0
  0
LINE
  5
291
330
2
100
AcDbEntity
  8
0
 62
     3
100
AcDbLine
 10
280.8011458465366
 20
221.4661698922328
 30
0.0
 11
275.8011458465365
 21
221.4661698922328
 31
0.0
  0
LINE
  5
292
330
2
100
AcDbEntity
  8
0
 62
     3
100
AcDbLine
 10
277.8011371272365
 20
224.9661437343327
 30
0.0
 11
280.8011458465366
 21
224.9661437343327
 31
0.0
  0
LINE
  5
293
330
2
100
AcDbEntity
  8
0
 62
     3
100
AcDbLine
 10
286.8512557098367
 20
227.2161611729328
 30
0.0
 11
284.6012382711368
 21
227.2161611729328
 31
0.0
  0
LINE
  5
294
330
2
100
AcDbEntity
  8
0
 62
     3
100
AcDbLine
 10
284.6012382711368
 20
227.9661524536328
 30
0.0
 11
283.1012557098367
 21
227.9661524536328
 31
0.0
  0
LINE
  5
295
330
2
100
AcDbEntity
  8
0
 62
     3
100
AcDbLine
 10
283.1012557098367
 20
224.4662658046328
 30
0.0
 11
280.8011022499366
 21
224.4662658046328
 31
0.0
  0
LINE
  5
296
330
2
100
AcDbEntity
  8
0
 62
     3
100
AcDbLine
 10
289.5011634110366
 20
229.4661251846326
 30
0.0
 11
290.5011737209367
 21
230.4661355787327
 31
0.0
  0
LINE
  5
297
330
2
100
AcDbEntity
  8
0
 62
     3
100
AcDbLine
 10
286.8512557098367
 20
229.4661350150328
 30
0.0
 11
289.5011842114366
 21
229.4661350150328
 31
0.0
  0
LINE
  5
298
330
2
100
AcDbEntity
  8
0
 62
     3
100
AcDbLine
 10
286.8512557098367
 20
229.9661437343328
 30
0.0
 11
290.0011929307367
 21
229.9661437343328
 31
0.0
  0
LINE
  5
299
330
2
100
AcDbEntity
  8
0
 62
     3
100
AcDbLine
 10
283.1012557098367
 20
241.4663006819328
 30
0.0
 11
307.8010935306366
 21
241.4663006819328
 31
0.0
  0
LINE
  5
29A
330
2
100
AcDbEntity
  8
0
 62
     3
100
AcDbLine
 10
275.8012216610365
 20
245.4660638454328
 30
0.0
 11
273.8012325807365
 21
244.4660695052327
 31
0.0
  0
LINE
  5
29B
330
2
100
AcDbEntity
  8
0
 62
     3
100
AcDbLine
 10
277.8011371272365
 20
231.4661698922328
 30
0.0
 11
280.8011458465366
 21
231.4661698922328
 31
0.0
  0
LINE
  5
29C
330
2
100
AcDbEntity
  8
0
 62
     3
100
AcDbLine
 10
286.8512557098367
 20
237.7161698922328
 30
0.0
 11
284.6012382711368
 21
237.7161698922328
 31
0.0
  0
LINE
  5
29D
330
2
100
AcDbEntity
  8
0
 62
     3
100
AcDbLine
 10
286.8512557098367
 20
232.4661437343328
 30
0.0
 11
284.6012382711368
 21
232.4661437343328
 31
0.0
  0
LINE
  5
29E
330
2
100
AcDbEntity
  8
0
 62
     3
100
AcDbLine
 10
284.6012382711368
 20
236.9661786115328
 30
0.0
 11
283.1012557098367
 21
236.9661786115328
 31
0.0
  0
LINE
  5
29F
330
2
100
AcDbEntity
  8
0
 62
     3
100
AcDbLine
 10
283.1011919649366
 20
231.2830107037326
 30
0.0
 11
284.6011886960366
 21
232.1490340728328
 31
0.0
  0
LINE
  5
2A0
330
2
100
AcDbEntity
  8
0
 62
     3
100
AcDbLine
 10
283.1011400820366
 20
232.7830384433328
 30
0.0
 11
284.6011116820367
 21
233.6490835143328
 31
0.0
  0
LINE
  5
2A1
330
2
100
AcDbEntity
  8
0
 62
     3
100
AcDbLine
 10
289.5011723935366
 20
235.4661179630328
 30
0.0
 11
290.5011518759366
 21
234.4661383963328
 31
0.0
  0
LINE
  5
2A2
330
2
100
AcDbEntity
  8
0
 62
     3
100
AcDbLine
 10
286.8512557098367
 20
235.4661524536328
 30
0.0
 11
289.5011842114366
 21
235.4661524536328
 31
0.0
  0
LINE
  5
2A3
330
2
100
AcDbEntity
  8
0
 62
     3
100
AcDbLine
 10
286.8512557098367
 20
234.9661437343327
 30
0.0
 11
290.0011929307367
 21
234.9661437343327
 31
0.0
  0
CIRCLE
  5
2A4
330
2
100
AcDbEntity
  8
0
 62
     3
100
AcDbCircle
 10
302.3012156009367
 20
251.4661698922328
 30
0.0
 40
4.499999455
  0
LINE
  5
2A5
330
2
100
AcDbEntity
  8
0
 62
     3
100
AcDbLine
 10
354.1013854971367
 20
210.4661368686328
 30
0.0
 11
350.1013707019367
 21
214.4661432344328
 31
0.0
  0
ARC
  5
2A6
330
2
100
AcDbEntity
  8
0
  6
PHANTOM
 62
     3
100
AcDbCircle
 10
354.6014562538366
 20
214.4663529977328
 30
0.0
 40
5.999998365099997
100
AcDbArc
 50
179.9999640277999
 51
290.4305171700998
  0
ARC
  5
2A7
330
2
100
AcDbEntity
  8
0
  6
PHANTOM
 62
     3
100
AcDbCircle
 10
354.6014562538366
 20
214.4663529977328
 30
0.0
 40
4.499996730299999
100
AcDbArc
 50
179.9999640277999
 51
291.7621854921998
  0
LINE
  5
2A8
330
2
100
AcDbEntity
  8
0
  6
PHANTOM
 62
     3
100
AcDbLine
 10
349.3043692387367
 20
217.8493041181328
 30
0.0
 11
352.4500311374366
 21
221.5941395867328
 31
0.0
  0
LINE
  5
2A9
330
2
100
AcDbEntity
  8
0
 62
     3
100
AcDbLine
 10
354.3011584702365
 20
221.4659069557328
 30
0.0
 11
350.1012689863366
 21
216.4660386893328
 31
0.0
  0
LINE
  5
2AA
330
2
100
AcDbEntity
  8
0
 62
     3
100
AcDbLine
 10
350.1015085697368
 20
216.4662570853328
 30
0.0
 11
350.1015085697368
 21
214.4662658046327
 31
0.0
  0
ARC
  5
2AB
330
2
100
AcDbEntity
  8
0
  6
PHANTOM
 62
     3
100
AcDbCircle
 10
351.6014911311367
 20
215.9199488403328
 30
0.0
 40
2.999997820199998
100
AcDbArc
 50
139.9696459817
 51
179.9999093863
  0
LINE
  5
2AC
330
2
100
AcDbEntity
  8
0
  6
PHANTOM
 62
     3
100
AcDbLine
 10
348.6015260083366
 20
214.4662658046327
 30
0.0
 11
348.6015260083366
 21
215.9198616473327
 31
0.0
  0
LINE
  5
2AD
330
2
100
AcDbEntity
  8
0
 62
     3
100
AcDbLine
 10
363.1012516284366
 20
231.4661308154328
 30
0.0
 11
354.3011477532367
 21
224.9660550380327
 31
0.0
  0
LINE
  5
2AE
330
2
100
AcDbEntity
  8
0
 62
     3
100
AcDbLine
 10
365.1015085697367
 20
212.4662745239328
 30
0.0
 11
359.1015347276367
 21
212.4662745239328
 31
0.0
  0
ARC
  5
2AF
330
2
100
AcDbEntity
  8
0
  6
PHANTOM
 62
     3
100
AcDbCircle
 10
355.5029019151366
 20
214.2128391166328
 30
0.0
 40
5.499997820199999
100
AcDbArc
 50
282.5278416787
 51
331.8043985401
  0
ARC
  5
2B0
330
2
100
AcDbEntity
  8
0
  6
PHANTOM
 62
     3
100
AcDbCircle
 10
355.5029019151366
 20
214.2128391166328
 30
0.0
 40
3.999996185299997
100
AcDbArc
 50
282.5278416787
 51
331.8043985401
  0
LINE
  5
2B1
330
2
100
AcDbEntity
  8
0
 62
     3
100
AcDbLine
 10
359.1011085545366
 20
212.4665642590328
 30
0.0
 11
355.8635531330366
 21
210.8770655220328
 31
0.0
  0
ARC
  5
2B2
330
2
100
AcDbEntity
  8
0
 62
     3
100
AcDbCircle
 10
354.1010115691366
 20
214.4673993147328
 30
0.0
 40
3.9999989101
100
AcDbArc
 50
269.9996354955
 51
296.9907399254
  0
LINE
  5
2B3
330
2
100
AcDbEntity
  8
0
  6
PHANTOM
 62
     3
100
AcDbLine
 10
359.0056877382366
 20
212.2810729807328
 30
0.0
 11
360.3503189723366
 21
211.6139489851328
 31
0.0
  0
ARC
  5
2B4
330
2
100
AcDbEntity
  8
0
 62
     3
100
AcDbCircle
 10
370.1015085697367
 20
210.4663268398326
 30
0.0
 40
4.9999972752
100
AcDbArc
 50
180.0000359722
 51
269.9999633446
  0
LINE
  5
2B5
330
2
100
AcDbEntity
  8
0
 62
     3
100
AcDbLine
 10
365.1015085697367
 20
212.4662309274328
 30
0.0
 11
365.1015085697367
 21
210.4663268398326
 31
0.0
  0
LINE
  5
2B6
330
2
100
AcDbEntity
  8
0
 62
     3
100
AcDbLine
 10
354.3012504782367
 20
224.9662745239328
 30
0.0
 11
354.3012504782367
 21
221.4662134888328
 31
0.0
  0
LINE
  5
2B7
330
2
100
AcDbEntity
  8
0
 62
     3
100
AcDbLine
 10
354.3014684609366
 20
224.9662745239328
 30
0.0
 11
354.3014684609366
 21
222.5590479614328
 31
0.0
  0
ARC
  5
2B8
330
2
100
AcDbEntity
  8
0
  6
PHANTOM
 62
     3
100
AcDbCircle
 10
351.3015033381365
 20
222.5591787511328
 30
0.0
 40
1.499998569499997
100
AcDbArc
 50
319.9701395766
 51
0.0005097597000514
  0
ARC
  5
2B9
330
2
100
AcDbEntity
  8
0
  6
PHANTOM
 62
     3
100
AcDbCircle
 10
351.3015033381365
 20
222.5591787511328
 30
0.0
 40
2.999997820199998
100
AcDbArc
 50
319.969975652
 51
0.0002365520999881
  0
LINE
  5
2BA
330
2
100
AcDbEntity
  8
0
  6
CENTER
 62
     3
100
AcDbLine
 10
293.3787476880366
 20
311.4662134888328
 30
0.0
 11
312.5464461394366
 21
311.4662134888328
 31
0.0
  0
ARC
  5
2BB
330
2
100
AcDbEntity
  8
0
 62
     3
100
AcDbCircle
 10
307.8010935306366
 20
318.4661611729328
 30
0.0
 40
2.999997820199998
100
AcDbArc
 50
0.0
 51
89.99992737239997
  0
LINE
  5
2BC
330
2
100
AcDbEntity
  8
0
 62
     3
100
AcDbLine
 10
277.8012243202367
 20
288.4661611729328
 30
0.0
 11
277.8012243202367
 21
346.4660826992328
 31
0.0
  0
LINE
  5
2BD
330
2
100
AcDbEntity
  8
0
 62
     3
100
AcDbLine
 10
275.8012330396367
 20
291.4661262957327
 30
0.0
 11
275.8012330396367
 21
357.4661437343328
 31
0.0
  0
LINE
  5
2BE
330
2
100
AcDbEntity
  8
0
 62
     3
100
AcDbLine
 10
242.8730227450367
 20
324.4661621658329
 30
0.0
 11
235.9448131677367
 21
312.4661513878328
 31
0.0
  0
CIRCLE
  5
2BF
330
2
100
AcDbEntity
  8
0
 62
     3
100
AcDbCircle
 10
249.8012156009365
 20
312.4661873309328
 30
0.0
 40
6.999999455
  0
CIRCLE
  5
2C0
330
2
100
AcDbEntity
  8
0
 62
     3
100
AcDbCircle
 10
249.8012156009365
 20
312.4661873309328
 30
0.0
 40
7.999997820199999
  0
LINE
  5
2C1
330
2
100
AcDbEntity
  8
0
 62
     3
100
AcDbLine
 10
256.7294441507367
 20
324.4661730022328
 30
0.0
 11
263.6576537280365
 21
312.4661622243328
 31
0.0
  0
CIRCLE
  5
2C2
330
2
100
AcDbEntity
  8
0
 62
     3
100
AcDbCircle
 10
249.8012156009365
 20
312.4661873309328
 30
0.0
 40
11.49999891009999
  0
CIRCLE
  5
2C3
330
2
100
AcDbEntity
  8
0
 62
     3
100
AcDbCircle
 10
249.8012156009365
 20
312.4661873309328
 30
0.0
 40
13.9999989101
  0
CIRCLE
  5
2C4
330
2
100
AcDbEntity
  8
0
 62
     3
100
AcDbCircle
 10
249.8012156009365
 20
312.4661873309328
 30
0.0
 40
15.0
  0
LINE
  5
2C5
330
2
100
AcDbEntity
  8
0
 62
     3
100
AcDbLine
 10
275.2011042527365
 20
316.6211923716326
 30
0.0
 11
257.5176518854366
 21
326.1476833504328
 31
0.0
  0
LINE
  5
2C6
330
2
100
AcDbEntity
  8
0
 62
     3
100
AcDbLine
 10
274.8012156009365
 20
286.4661698922328
 30
0.0
 11
249.8012156009365
 21
286.4661698922328
 31
0.0
  0
LINE
  5
2C7
330
2
100
AcDbEntity
  8
0
 62
     3
100
AcDbLine
 10
274.8012156009365
 20
276.4662134888328
 30
0.0
 11
249.8012156009365
 21
276.4662134888328
 31
0.0
  0
LINE
  5
2C8
330
2
100
AcDbEntity
  8
0
 62
     3
100
AcDbLine
 10
256.7294469765367
 20
262.4662309274329
 30
0.0
 11
242.8730278219366
 21
262.4662309274329
 31
0.0
  0
LINE
  5
2C9
330
2
100
AcDbEntity
  8
0
 62
     3
100
AcDbLine
 10
256.7294469765367
 20
300.4661960502328
 30
0.0
 11
242.8730278219366
 21
300.4661960502328
 31
0.0
  0
LINE
  5
2CA
330
2
100
AcDbEntity
  8
0
 62
     3
100
AcDbLine
 10
235.9448282551365
 20
312.4661692046328
 30
0.0
 11
242.8730378324366
 21
300.4661584266328
 31
0.0
  0
LINE
  5
2CB
330
2
100
AcDbEntity
  8
0
 62
     3
100
AcDbLine
 10
263.6576547162366
 20
312.4661490868327
 30
0.0
 11
256.7294451389365
 21
300.4661383089326
 31
0.0
  0
LINE
  5
2CC
330
2
100
AcDbEntity
  8
0
 62
     3
100
AcDbLine
 10
274.8012156009365
 20
285.6661733800328
 30
0.0
 11
274.8012156009365
 21
291.4661262957327
 31
0.0
  0
LINE
  5
2CD
330
2
100
AcDbEntity
  8
0
 62
     3
100
AcDbLine
 10
274.8012156009365
 20
277.2661664045328
 30
0.0
 11
274.8012156009365
 21
271.4661698922328
 31
0.0
  0
LINE
  5
2CE
330
2
100
AcDbEntity
  8
0
 62
     3
100
AcDbLine
 10
274.8012156009365
 20
271.4661698922328
 30
0.0
 11
277.8012243202367
 21
271.4661698922328
 31
0.0
  0
LINE
  5
2CF
330
2
100
AcDbEntity
  8
0
 62
     3
100
AcDbLine
 10
277.8012243202367
 20
285.6661733800328
 30
0.0
 11
277.8012243202367
 21
277.2661664045328
 31
0.0
  0
LINE
  5
2D0
330
2
100
AcDbEntity
  8
0
 62
     3
100
AcDbLine
 10
274.8012156009365
 20
277.2661664045328
 30
0.0
 11
277.8012243202367
 21
277.2661664045328
 31
0.0
  0
LINE
  5
2D1
330
2
100
AcDbEntity
  8
0
 62
     3
100
AcDbLine
 10
277.8012243202367
 20
274.4661786115329
 30
0.0
 11
274.8012156009365
 21
274.4661786115329
 31
0.0
  0
ARC
  5
2D2
330
2
100
AcDbEntity
  8
0
 62
     3
100
AcDbCircle
 10
272.8012243202367
 20
273.4661611729328
 30
0.0
 40
2.999997820199998
100
AcDbArc
 50
48.1896859343
 51
89.99998201389999
  0
LINE
  5
2D3
330
2
100
AcDbEntity
  8
0
 62
     3
100
AcDbLine
 10
274.8012156009365
 20
285.6661733800328
 30
0.0
 11
277.8012243202367
 21
285.6661733800328
 31
0.0
  0
ARC
  5
2D4
330
2
100
AcDbEntity
  8
0
 62
     3
100
AcDbCircle
 10
272.8012243202367
 20
289.4661350150328
 30
0.0
 40
2.999997820199998
100
AcDbArc
 50
270.0000179861
 51
311.8103140656998
  0
LINE
  5
2D5
330
2
100
AcDbEntity
  8
0
 62
     3
100
AcDbLine
 10
275.2012138571366
 20
291.4661262957327
 30
0.0
 11
275.2012138571366
 21
316.6211991891328
 31
0.0
  0
LINE
  5
2D6
330
2
100
AcDbEntity
  8
0
 62
     3
100
AcDbLine
 10
274.8012156009365
 20
291.4661262957327
 30
0.0
 11
277.8012243202367
 21
291.4661262957327
 31
0.0
  0
LINE
  5
2D7
330
2
100
AcDbEntity
  8
0
 62
     3
100
AcDbLine
 10
277.8012243202367
 20
288.4661611729328
 30
0.0
 11
274.8012156009365
 21
288.4661611729328
 31
0.0
  0
CIRCLE
  5
2D8
330
2
100
AcDbEntity
  8
0
 62
     3
100
AcDbCircle
 10
302.3012156009367
 20
311.4661698922328
 30
0.0
 40
4.499999455
  0
LINE
  5
2D9
330
2
100
AcDbEntity
  8
0
 62
     3
100
AcDbLine
 10
249.8012156009365
 20
330.4162344151328
 30
0.0
 11
273.8011981623365
 21
330.4162344151328
 31
0.0
  0
LINE
  5
2DA
330
2
100
AcDbEntity
  8
0
 62
     3
100
AcDbLine
 10
249.8012156009365
 20
328.9162518537326
 30
0.0
 11
273.8011981623365
 21
328.9162518537326
 31
0.0
  0
LINE
  5
2DB
330
2
100
AcDbEntity
  8
0
 62
     3
100
AcDbLine
 10
253.6895038264367
 20
327.9154060809328
 30
0.0
 11
273.8011981623365
 21
327.9154060809328
 31
0.0
  0
LINE
  5
2DC
330
2
100
AcDbEntity
  8
0
 62
     3
100
AcDbLine
 10
249.8012156009365
 20
357.4661873309328
 30
0.0
 11
249.8012156009365
 21
328.4662047695328
 31
0.0
  0
LINE
  5
2DD
330
2
100
AcDbEntity
  8
0
 62
     3
100
AcDbLine
 10
256.7294469765367
 20
324.4661786115329
 30
0.0
 11
242.8730278219366
 21
324.4661786115329
 31
0.0
  0
ARC
  5
2DE
330
2
100
AcDbEntity
  8
0
 62
     3
100
AcDbCircle
 10
249.8012156009365
 20
314.4661786115328
 30
0.0
 40
13.9999989101
100
AcDbArc
 50
56.55197874269999
 51
123.4481287191
  0
LINE
  5
2DF
330
2
100
AcDbEntity
  8
0
 62
     3
100
AcDbLine
 10
273.8012417589365
 20
318.4662919625328
 30
0.0
 11
273.8012417589365
 21
357.4661437343328
 31
0.0
  0
LINE
  5
2E0
330
2
100
AcDbEntity
  8
0
 62
     3
100
AcDbLine
 10
283.1012557098367
 20
321.4661698922328
 30
0.0
 11
307.8010935306366
 21
321.4661698922328
 31
0.0
  0
LINE
  5
2E1
330
2
100
AcDbEntity
  8
0
 62
     3
100
AcDbLine
 10
290.5012016500366
 20
332.4661001378326
 30
0.0
 11
290.5012016500366
 21
328.4661175764326
 31
0.0
  0
LINE
  5
2E2
330
2
100
AcDbEntity
  8
0
 62
     3
100
AcDbLine
 10
290.0011929307367
 20
327.9661088571326
 30
0.0
 11
290.0011929307367
 21
332.9661088571326
 31
0.0
  0
LINE
  5
2E3
330
2
100
AcDbEntity
  8
0
 62
     3
100
AcDbLine
 10
283.1011492101366
 20
330.7829896790329
 30
0.0
 11
284.6011208101367
 21
331.6490347500328
 31
0.0
  0
LINE
  5
2E4
330
2
100
AcDbEntity
  8
0
 62
     3
100
AcDbLine
 10
286.8512557098367
 20
325.2161262957327
 30
0.0
 11
286.8512557098367
 21
335.7161350150328
 31
0.0
  0
LINE
  5
2E5
330
2
100
AcDbEntity
  8
0
 62
     3
100
AcDbLine
 10
284.6012382711368
 20
325.2161262957327
 30
0.0
 11
284.6012382711368
 21
335.7161350150328
 31
0.0
  0
LINE
  5
2E6
330
2
100
AcDbEntity
  8
0
 62
     3
100
AcDbLine
 10
275.8012235895367
 20
317.4662785471328
 30
0.0
 11
273.8012247607367
 21
318.4662777615328
 31
0.0
  0
LINE
  5
2E7
330
2
100
AcDbEntity
  8
0
 62
     3
100
AcDbLine
 10
286.8512557098367
 20
330.4661088571326
 30
0.0
 11
284.6012382711368
 21
330.4661088571326
 31
0.0
  0
LINE
  5
2E8
330
2
100
AcDbEntity
  8
0
 62
     3
100
AcDbLine
 10
286.8512557098367
 20
325.2161262957327
 30
0.0
 11
284.6012382711368
 21
325.2161262957327
 31
0.0
  0
LINE
  5
2E9
330
2
100
AcDbEntity
  8
0
 62
     3
100
AcDbLine
 10
283.1011673682366
 20
329.2830262999328
 30
0.0
 11
284.6011593797366
 21
330.1490469443328
 31
0.0
  0
LINE
  5
2EA
330
2
100
AcDbEntity
  8
0
 62
     3
100
AcDbLine
 10
284.6012382711368
 20
325.9661175764327
 30
0.0
 11
283.1012557098367
 21
325.9661175764327
 31
0.0
  0
LINE
  5
2EB
330
2
100
AcDbEntity
  8
0
 62
     3
100
AcDbLine
 10
289.5011284532366
 20
327.4661223721328
 30
0.0
 11
290.5011387631367
 21
328.4661327662328
 31
0.0
  0
LINE
  5
2EC
330
2
100
AcDbEntity
  8
0
 62
     3
100
AcDbLine
 10
286.8512557098367
 20
327.4661001378326
 30
0.0
 11
289.5011842114366
 21
327.4661001378326
 31
0.0
  0
LINE
  5
2ED
330
2
100
AcDbEntity
  8
0
 62
     3
100
AcDbLine
 10
286.8512557098367
 20
327.9661088571326
 30
0.0
 11
290.0011929307367
 21
327.9661088571326
 31
0.0
  0
LINE
  5
2EE
330
2
100
AcDbEntity
  8
0
 62
     3
100
AcDbLine
 10
277.8011371272365
 20
331.4661698922328
 30
0.0
 11
280.8011458465366
 21
331.4661698922328
 31
0.0
  0
LINE
  5
2EF
330
2
100
AcDbEntity
  8
0
 62
     3
100
AcDbLine
 10
280.8011458465366
 20
341.4661698922328
 30
0.0
 11
275.8011458465365
 21
341.4661698922328
 31
0.0
  0
LINE
  5
2F0
330
2
100
AcDbEntity
  8
0
 62
     3
100
AcDbLine
 10
277.8011371272365
 20
337.9661524536326
 30
0.0
 11
280.8011458465366
 21
337.9661524536326
 31
0.0
  0
LINE
  5
2F1
330
2
100
AcDbEntity
  8
0
 62
     3
100
AcDbLine
 10
286.8512557098367
 20
335.7161350150328
 30
0.0
 11
284.6012382711368
 21
335.7161350150328
 31
0.0
  0
LINE
  5
2F2
330
2
100
AcDbEntity
  8
0
 62
     3
100
AcDbLine
 10
284.6012382711368
 20
334.9661437343328
 30
0.0
 11
283.1012557098367
 21
334.9661437343328
 31
0.0
  0
LINE
  5
2F3
330
2
100
AcDbEntity
  8
0
 62
     3
100
AcDbLine
 10
286.8512557098367
 20
333.4661175764328
 30
0.0
 11
289.5011842114366
 21
333.4661175764328
 31
0.0
  0
LINE
  5
2F4
330
2
100
AcDbEntity
  8
0
 62
     3
100
AcDbLine
 10
286.8512557098367
 20
332.9661088571326
 30
0.0
 11
290.0011929307367
 21
332.9661088571326
 31
0.0
  0
LINE
  5
2F5
330
2
100
AcDbEntity
  8
0
 62
     3
100
AcDbLine
 10
289.5011456965367
 20
333.4661151505327
 30
0.0
 11
290.5011560063366
 21
332.4661047563328
 31
0.0
  0
LINE
  5
2F6
330
2
100
AcDbEntity
  8
0
 62
     3
100
AcDbLine
 10
280.8011022499366
 20
338.4661611729328
 30
0.0
 11
283.1012557098367
 21
338.4661611729328
 31
0.0
  0
LINE
  5
2F7
330
2
100
AcDbEntity
  8
0
 62
     3
100
AcDbLine
 10
280.8011458465366
 20
348.4661175764327
 30
0.0
 11
275.8011458465365
 21
348.4661175764327
 31
0.0
  0
LINE
  5
2F8
330
2
100
AcDbEntity
  8
0
 62
     3
100
AcDbLine
 10
280.8011458465366
 20
352.4661001378327
 30
0.0
 11
275.8011458465365
 21
352.4661001378327
 31
0.0
  0
LINE
  5
2F9
330
2
100
AcDbEntity
  8
0
 62
     3
100
AcDbLine
 10
280.8011458465366
 20
346.4660826992328
 30
0.0
 11
275.8011458465365
 21
346.4660826992328
 31
0.0
  0
LINE
  5
2FA
330
2
100
AcDbEntity
  8
0
  6
CENTER
 62
     3
100
AcDbLine
 10
371.1015260083367
 20
288.8320233381328
 30
0.0
 11
371.1015260083367
 21
273.7021056484326
 31
0.0
  0
LINE
  5
2FB
330
2
100
AcDbEntity
  8
0
 62
     3
100
AcDbLine
 10
369.0519654614366
 20
285.0171516863328
 30
0.0
 11
373.1513917310365
 21
285.0171516863328
 31
0.0
  0
CIRCLE
  5
2FC
330
2
100
AcDbEntity
  8
0
 62
     3
100
AcDbCircle
 10
371.1015260083367
 20
281.4662134888328
 30
0.0
 40
1.649999959099998
  0
LINE
  5
2FD
330
2
100
AcDbEntity
  8
0
 62
     3
100
AcDbLine
 10
369.0519654614366
 20
277.9142725708328
 30
0.0
 11
373.1507813794367
 21
277.9142725708328
 31
0.0
  0
CIRCLE
  5
2FE
330
2
100
AcDbEntity
  8
0
 62
     3
100
AcDbCircle
 10
371.1015260083367
 20
281.4662134888328
 30
0.0
 40
1.9999999659
  0
LINE
  5
2FF
330
2
100
AcDbEntity
  8
0
 62
     3
100
AcDbLine
 10
367.0014889953366
 20
281.4657005741328
 30
0.0
 11
369.0519214730366
 21
277.9142474090328
 31
0.0
  0
LINE
  5
300
330
2
100
AcDbEntity
  8
0
 62
     3
100
AcDbLine
 10
367.0015123953366
 20
281.4656917794328
 30
0.0
 11
369.0519448729367
 21
285.0171449445328
 31
0.0
  0
LINE
  5
301
330
2
100
AcDbEntity
  8
0
 62
     3
100
AcDbLine
 10
373.1507744503367
 20
277.9142557711328
 30
0.0
 11
375.2014903055366
 21
281.4661997604328
 31
0.0
  0
LINE
  5
302
330
2
100
AcDbEntity
  8
0
 62
     3
100
AcDbLine
 10
373.1513567067366
 20
285.0171338717328
 30
0.0
 11
375.2014840086367
 21
281.4662092865328
 31
0.0
  0
LINE
  5
303
330
2
100
AcDbEntity
  8
0
 62
     3
100
AcDbLine
 10
350.1013786615367
 20
348.4647235594328
 30
0.0
 11
354.1013013115366
 21
352.4646371059328
 31
0.0
  0
ARC
  5
304
330
2
100
AcDbEntity
  8
0
  6
PHANTOM
 62
     3
100
AcDbCircle
 10
354.6014562538366
 20
348.4660739798328
 30
0.0
 40
4.499996730299999
100
AcDbArc
 50
68.23774256340001
 51
180.0000186692997
  0
ARC
  5
305
330
2
100
AcDbEntity
  8
0
  6
PHANTOM
 62
     3
100
AcDbCircle
 10
354.6014562538366
 20
348.4660739798328
 30
0.0
 40
5.999998365099997
100
AcDbArc
 50
69.56946552710002
 51
180.0000186692997
  0
LINE
  5
306
330
2
100
AcDbEntity
  8
0
 62
     3
100
AcDbLine
 10
350.1016812517367
 20
346.4655532742327
 30
0.0
 11
354.3018787968367
 21
341.4653174157328
 31
0.0
  0
LINE
  5
307
330
2
100
AcDbEntity
  8
0
  6
PHANTOM
 62
     3
100
AcDbLine
 10
349.3043997101366
 20
345.0830730311328
 30
0.0
 11
352.4500616088366
 21
341.3382375624328
 31
0.0
  0
ARC
  5
308
330
2
100
AcDbEntity
  8
0
  6
PHANTOM
 62
     3
100
AcDbCircle
 10
351.6014911311367
 20
347.0124345407326
 30
0.0
 40
2.999997820199998
100
AcDbArc
 50
180.0000906136999
 51
220.0303540183
  0
LINE
  5
309
330
2
100
AcDbEntity
  8
0
  6
PHANTOM
 62
     3
100
AcDbLine
 10
348.6015260083366
 20
348.4661611729328
 30
0.0
 11
348.6015260083366
 21
347.0125653303327
 31
0.0
  0
LINE
  5
30A
330
2
100
AcDbEntity
  8
0
 62
     3
100
AcDbLine
 10
350.1015085697368
 20
348.4661611729328
 30
0.0
 11
350.1015085697368
 21
346.4661698922328
 31
0.0
  0
LINE
  5
30B
330
2
100
AcDbEntity
  8
0
 62
     3
100
AcDbLine
 10
354.3010332073366
 20
337.9655398540328
 30
0.0
 11
363.1011370824365
 21
331.4654640766328
 31
0.0
  0
LINE
  5
30C
330
2
100
AcDbEntity
  8
0
 62
     3
100
AcDbLine
 10
354.3014684609366
 20
340.3733790161326
 30
0.0
 11
354.3014684609366
 21
337.9659780675328
 31
0.0
  0
LINE
  5
30D
330
2
100
AcDbEntity
  8
0
 62
     3
100
AcDbLine
 10
354.3016864436367
 20
341.4660826992327
 30
0.0
 11
354.3016864436367
 21
337.9660652605326
 31
0.0
  0
ARC
  5
30E
330
2
100
AcDbEntity
  8
0
  6
PHANTOM
 62
     3
100
AcDbCircle
 10
351.3015033381365
 20
340.3732482265328
 30
0.0
 40
1.499998569499997
100
AcDbArc
 50
359.9994902402999
 51
40.0298604234
  0
ARC
  5
30F
330
2
100
AcDbEntity
  8
0
  6
PHANTOM
 62
     3
100
AcDbCircle
 10
351.3015033381365
 20
340.3732482265328
 30
0.0
 40
2.999997820199998
100
AcDbArc
 50
359.9997634479
 51
40.03002434800007
  0
LINE
  5
310
330
2
100
AcDbEntity
  8
0
 62
     3
100
AcDbLine
 10
359.1015347276367
 20
350.4661524536326
 30
0.0
 11
365.1015085697367
 21
350.4661524536326
 31
0.0
  0
ARC
  5
311
330
2
100
AcDbEntity
  8
0
  6
PHANTOM
 62
     3
100
AcDbCircle
 10
355.5029019151366
 20
348.7195878610327
 30
0.0
 40
3.999996185299997
100
AcDbArc
 50
28.19560145989998
 51
77.4721583213
  0
ARC
  5
312
330
2
100
AcDbEntity
  8
0
  6
PHANTOM
 62
     3
100
AcDbCircle
 10
355.5029019151366
 20
348.7195878610327
 30
0.0
 40
5.499997820199999
100
AcDbArc
 50
28.19560145989998
 51
77.4721583213
  0
LINE
  5
313
330
2
100
AcDbEntity
  8
0
 62
     3
100
AcDbLine
 10
355.7928754119367
 20
352.0896802928327
 30
0.0
 11
359.1013033554367
 21
350.4653862336326
 31
0.0
  0
ARC
  5
314
330
2
100
AcDbEntity
  8
0
 62
     3
100
AcDbCircle
 10
354.1010115691366
 20
348.4651148560327
 30
0.0
 40
3.9999989101
100
AcDbArc
 50
63.0092600746
 51
90.00041914600002
  0
LINE
  5
315
330
2
100
AcDbEntity
  8
0
  6
PHANTOM
 62
     3
100
AcDbLine
 10
359.0056656125367
 20
350.6512870777328
 30
0.0
 11
360.3502968465367
 21
351.3184110733328
 31
0.0
  0
ARC
  5
316
330
2
100
AcDbEntity
  8
0
 62
     3
100
AcDbCircle
 10
370.1015085697367
 20
352.4662309274327
 30
0.0
 40
4.9999972752
100
AcDbArc
 50
90.00009129690003
 51
180.0000186692997
  0
LINE
  5
317
330
2
100
AcDbEntity
  8
0
 62
     3
100
AcDbLine
 10
365.1015085697367
 20
352.4661873309328
 30
0.0
 11
365.1015085697367
 21
350.4661524536326
 31
0.0
  0
LINE
  5
322
330
2
100
AcDbEntity
  8
0
 62
     3
100
AcDbLine
 10
437.8015294960365
 20
241.4663006819328
 30
0.0
 11
437.8015294960365
 21
321.4662570853328
 31
0.0
  0
LINE
  5
323
330
2
100
AcDbEntity
  8
0
 62
     3
100
AcDbLine
 10
420.1015085697367
 20
229.4662658046326
 30
0.0
 11
420.1015085697367
 21
333.4661611729328
 31
0.0
  0
LINE
  5
324
330
2
100
AcDbEntity
  8
0
 62
     3
100
AcDbLine
 10
440.1015521662367
 20
324.4662658046326
 30
0.0
 11
440.1015521662367
 21
238.4662919625327
 31
0.0
  0
LINE
  5
325
330
2
100
AcDbEntity
  8
0
 62
     3
100
AcDbLine
 10
435.0017160892368
 20
237.4890755144328
 30
0.0
 11
429.2017195769367
 21
237.4890755144328
 31
0.0
  0
LINE
  5
326
330
2
100
AcDbEntity
  8
0
 62
     3
100
AcDbLine
 10
429.2017195769367
 20
227.4432119542328
 30
0.0
 11
435.0017160892368
 21
227.4432119542328
 31
0.0
  0
LINE
  5
327
330
2
100
AcDbEntity
  8
0
  6
CENTER
 62
     3
100
AcDbLine
 10
423.8535576071367
 20
232.4662309274328
 30
0.0
 11
439.7816843509366
 21
232.4662309274328
 31
0.0
  0
LINE
  5
328
330
2
100
AcDbEntity
  8
0
 62
     3
100
AcDbLine
 10
440.1015521662367
 20
224.4662658046328
 30
0.0
 11
425.1015085697367
 21
224.4662658046328
 31
0.0
  0
CIRCLE
  5
329
330
2
100
AcDbEntity
  8
0
 62
     3
100
AcDbCircle
 10
432.1015434469367
 20
232.4662309274328
 30
0.0
 40
2.999997820199998
  0
CIRCLE
  5
32A
330
2
100
AcDbEntity
  8
0
 62
     3
100
AcDbCircle
 10
432.1015434469367
 20
232.4662309274328
 30
0.0
 40
2.5
  0
LINE
  5
32B
330
2
100
AcDbEntity
  8
0
 62
     3
100
AcDbLine
 10
426.3016265968365
 20
232.4661907443327
 30
0.0
 11
429.2016255443367
 21
227.4432468587328
 31
0.0
  0
LINE
  5
32C
330
2
100
AcDbEntity
  8
0
  6
CENTER
 62
     3
100
AcDbLine
 10
432.1015434469367
 20
240.1771509888328
 30
0.0
 11
432.1015434469367
 21
223.3762651071327
 31
0.0
  0
ARC
  5
32D
330
2
100
AcDbEntity
  8
0
 62
     3
100
AcDbCircle
 10
425.1015085697367
 20
229.4662658046326
 30
0.0
 40
5.0
100
AcDbArc
 50
180.0000359722
 51
270.0000179861
  0
LINE
  5
32E
330
2
100
AcDbEntity
  8
0
 62
     3
100
AcDbLine
 10
429.2016812938365
 20
237.4891373070328
 30
0.0
 11
426.3016885690366
 21
232.4661899643328
 31
0.0
  0
LINE
  5
32F
330
2
100
AcDbEntity
  8
0
 62
     3
100
AcDbLine
 10
435.0017233506366
 20
227.4432356418328
 30
0.0
 11
437.9017008456367
 21
232.4661414260328
 31
0.0
  0
LINE
  5
330
330
2
100
AcDbEntity
  8
0
 62
     3
100
AcDbLine
 10
440.1015085697367
 20
205.4662832432327
 30
0.0
 11
440.1015085697367
 21
238.4662919625327
 31
0.0
  0
LINE
  5
331
330
2
100
AcDbEntity
  8
0
 62
     3
100
AcDbLine
 10
440.1015521662367
 20
224.4662658046328
 30
0.0
 11
440.1015521662367
 21
238.4662919625327
 31
0.0
  0
LINE
  5
332
330
2
100
AcDbEntity
  8
0
 62
     3
100
AcDbLine
 10
437.9016128266366
 20
232.4662104118328
 30
0.0
 11
435.0016204475367
 21
237.4891581002327
 31
0.0
  0
LINE
  5
333
330
2
100
AcDbEntity
  8
0
 62
     3
100
AcDbLine
 10
435.2015190329367
 20
241.4663006819328
 30
0.0
 11
440.1015521662367
 21
241.4663006819328
 31
0.0
  0
LINE
  5
334
330
2
100
AcDbEntity
  8
0
 62
     3
100
AcDbLine
 10
435.2015190329367
 20
238.4662919625327
 30
0.0
 11
440.1015521662367
 21
238.4662919625327
 31
0.0
  0
LINE
  5
335
330
2
100
AcDbEntity
  8
0
 62
     3
100
AcDbLine
 10
435.2015190329367
 20
238.4662919625327
 30
0.0
 11
435.2015190329367
 21
241.4663006819328
 31
0.0
  0
LINE
  5
336
330
2
100
AcDbEntity
  8
0
  6
CENTER
 62
     3
100
AcDbLine
 10
414.1014911311367
 20
290.5798522304328
 30
0.0
 11
414.1014911311367
 21
272.0334044765328
 31
0.0
  0
LINE
  5
337
330
2
100
AcDbEntity
  8
0
 62
     3
100
AcDbLine
 10
417.0015765803366
 20
286.4891016724328
 30
0.0
 11
411.2015800680366
 21
286.4891016724328
 31
0.0
  0
LINE
  5
338
330
2
100
AcDbEntity
  8
0
 62
     3
100
AcDbLine
 10
411.2015800680366
 20
276.4432381121328
 30
0.0
 11
417.0015765803366
 21
276.4432381121328
 31
0.0
  0
CIRCLE
  5
339
330
2
100
AcDbEntity
  8
0
 62
     3
100
AcDbCircle
 10
414.1015347276367
 20
281.4661698922328
 30
0.0
 40
3.249999455
  0
LINE
  5
33A
330
2
100
AcDbEntity
  8
0
 62
     3
100
AcDbLine
 10
408.3015179596365
 20
281.4661365700326
 30
0.0
 11
411.2015113758367
 21
276.4431895730326
 31
0.0
  0
LINE
  5
33B
330
2
100
AcDbEntity
  8
0
 62
     3
100
AcDbLine
 10
411.2015024211366
 20
286.4891178360328
 30
0.0
 11
408.3015304574367
 21
281.4662085947328
 31
0.0
  0
LINE
  5
33C
330
2
100
AcDbEntity
  8
0
 62
     3
100
AcDbLine
 10
417.0015081376367
 20
276.4432845987328
 30
0.0
 11
419.9014801013364
 21
281.4661938400328
 31
0.0
  0
LINE
  5
33D
330
2
100
AcDbEntity
  8
0
 62
     3
100
AcDbLine
 10
419.9014672578366
 20
281.4661507259328
 30
0.0
 11
417.0014956398366
 21
286.4890599672328
 31
0.0
  0
CIRCLE
  5
33E
330
2
100
AcDbEntity
  8
0
 62
     3
100
AcDbCircle
 10
429.1015347276367
 20
281.4662570853328
 30
0.0
 40
3.0999973842
  0
LINE
  5
33F
330
2
100
AcDbEntity
  8
0
  6
CENTER
 62
     3
100
AcDbLine
 10
429.1015347276367
 20
287.7433305368326
 30
0.0
 11
429.1015347276367
 21
275.5244846244328
 31
0.0
  0
LINE
  5
340
330
2
100
AcDbEntity
  8
0
 62
     3
100
AcDbLine
 10
435.0014981065367
 20
335.4891278303326
 30
0.0
 11
429.2015015942366
 21
335.4891278303326
 31
0.0
  0
LINE
  5
341
330
2
100
AcDbEntity
  8
0
 62
     3
100
AcDbLine
 10
440.1015521662367
 20
338.4661611729328
 30
0.0
 11
425.1015085697367
 21
338.4661611729328
 31
0.0
  0
CIRCLE
  5
342
330
2
100
AcDbEntity
  8
0
 62
     3
100
AcDbCircle
 10
432.1015434469367
 20
330.4661960502328
 30
0.0
 40
2.5
  0
LINE
  5
343
330
2
100
AcDbEntity
  8
0
 62
     3
100
AcDbLine
 10
429.2015015942366
 20
325.4432642700328
 30
0.0
 11
435.0014981065367
 21
325.4432642700328
 31
0.0
  0
LINE
  5
344
330
2
100
AcDbEntity
  8
0
  6
CENTER
 62
     3
100
AcDbLine
 10
423.8535576071367
 20
330.4661960502328
 30
0.0
 11
439.7816843509366
 21
330.4661960502328
 31
0.0
  0
CIRCLE
  5
345
330
2
100
AcDbEntity
  8
0
 62
     3
100
AcDbCircle
 10
432.1015434469367
 20
330.4661960502328
 30
0.0
 40
2.999997820199998
  0
LINE
  5
346
330
2
100
AcDbEntity
  8
0
 62
     3
100
AcDbLine
 10
429.2015102560366
 20
335.4891437458328
 30
0.0
 11
426.3015109627366
 21
330.4662002059328
 31
0.0
  0
LINE
  5
347
330
2
100
AcDbEntity
  8
0
  6
CENTER
 62
     3
100
AcDbLine
 10
432.1015434469367
 20
338.1771161115328
 30
0.0
 11
432.1015434469367
 21
321.3762302298328
 31
0.0
  0
LINE
  5
348
330
2
100
AcDbEntity
  8
0
 62
     3
100
AcDbLine
 10
426.3014564263365
 20
330.4661969781328
 30
0.0
 11
429.2014706036367
 21
325.4432115340327
 31
0.0
  0
ARC
  5
349
330
2
100
AcDbEntity
  8
0
 62
     3
100
AcDbCircle
 10
425.1015085697367
 20
333.4661611729328
 30
0.0
 40
5.0
100
AcDbArc
 50
89.99998201389999
 51
179.9999640277999
  0
LINE
  5
34A
330
2
100
AcDbEntity
  8
0
 62
     3
100
AcDbLine
 10
440.1015085697367
 20
324.4662658046326
 30
0.0
 11
440.1015085697367
 21
357.4661873309328
 31
0.0
  0
LINE
  5
34B
330
2
100
AcDbEntity
  8
0
 62
     3
100
AcDbLine
 10
437.9014494814366
 20
330.4661331348326
 30
0.0
 11
435.0014353041366
 21
335.4891185790328
 31
0.0
  0
LINE
  5
34C
330
2
100
AcDbEntity
  8
0
 62
     3
100
AcDbLine
 10
440.1015521662367
 20
324.4662658046326
 30
0.0
 11
440.1015521662367
 21
338.4661611729328
 31
0.0
  0
LINE
  5
34D
330
2
100
AcDbEntity
  8
0
 62
     3
100
AcDbLine
 10
435.2015190329367
 20
321.4662570853328
 30
0.0
 11
435.2015190329367
 21
324.4662658046326
 31
0.0
  0
LINE
  5
34E
330
2
100
AcDbEntity
  8
0
 62
     3
100
AcDbLine
 10
435.2015190329367
 20
321.4662570853328
 30
0.0
 11
440.1015521662367
 21
321.4662570853328
 31
0.0
  0
LINE
  5
34F
330
2
100
AcDbEntity
  8
0
 62
     3
100
AcDbLine
 10
435.2015190329367
 20
324.4662658046326
 30
0.0
 11
440.1015521662367
 21
324.4662658046326
 31
0.0
  0
LINE
  5
350
330
2
100
AcDbEntity
  8
0
 62
     3
100
AcDbLine
 10
435.0015204109366
 20
325.4432448312328
 30
0.0
 11
437.9014979058367
 21
330.4661506154328
 31
0.0
  0
TEXT
  5
370
330
2
100
AcDbEntity
  8
0
 62
     7
100
AcDbText
 10
530.0
 20
85.00000295524989
 30
0.0
 40
2.999994089499998
  1
BN600NW3K
 11
530.0
 21
86.49999999999989
 31
0.0
100
AcDbText
 73
     2
  0
ENDSEC
  0
SECTION
  2
OBJECTS
  0
DICTIONARY
  5
7
330
0
100
AcDbDictionary
281
     1
  3
ACAD_GROUP
350
1F
  3
ACAD_LAYOUT
350
B
  3
ACAD_MLINESTYLE
350
20
  3
ACAD_PLOTSETTINGS
350
21
  3
ACAD_PLOTSTYLENAME
350
366
  3
AcDbVariableDictionary
350
371
1001
ACAD
1000
TREAT_AS_HARD
1070
     0
  0
DICTIONARY
  5
35E
330
2
100
AcDbDictionary
281
     1
  3
ACAD_LAYOUTSELFREF
350
35F
  0
DICTIONARY
  5
360
330
C
100
AcDbDictionary
281
     1
  3
ACAD_LAYOUTSELFREF
350
361
  0
DICTIONARY
  5
1F
102
{ACAD_REACTORS
330
7
102
}
330
7
100
AcDbDictionary
281
     1
1001
ACAD
1000
TREAT_AS_HARD
1070
     0
  0
DICTIONARY
  5
B
102
{ACAD_REACTORS
330
7
102
}
330
7
100
AcDbDictionary
281
     1
  3
Model
350
368
  3
ﾚｲｱｳﾄ1
350
369
1001
ACAD
1000
TREAT_AS_HARD
1070
     0
  0
DICTIONARY
  5
20
102
{ACAD_REACTORS
330
7
102
}
330
7
100
AcDbDictionary
281
     1
  3
STANDARD
350
22
1001
ACAD
1000
TREAT_AS_HARD
1070
     0
  0
DICTIONARY
  5
21
102
{ACAD_REACTORS
330
7
102
}
330
7
100
AcDbDictionary
281
     1
1001
ACAD
1000
TREAT_AS_HARD
1070
     0
  0
ACDBDICTIONARYWDFLT
  5
366
102
{ACAD_REACTORS
330
7
102
}
330
7
100
AcDbDictionary
281
     1
  3
Normal
350
367
100
AcDbDictionaryWithDefault
340
367
  0
DICTIONARY
  5
371
102
{ACAD_REACTORS
330
7
102
}
330
7
100
AcDbDictionary
281
     1
  3
DIMASSOC
350
372
  0
XRECORD
  5
35F
102
{ACAD_REACTORS
330
35E
102
}
330
35E
100
AcDbXrecord
280
     1
340
2
  0
XRECORD
  5
361
102
{ACAD_REACTORS
330
360
102
}
330
360
100
AcDbXrecord
280
     1
340
C
  0
LAYOUT
  5
368
102
{ACAD_REACTORS
330
B
102
}
330
B
100
AcDbPlotSettings
  1

  2
C:\Program Files\AutoCAD 2002\plotters\DWF ePlot (optimized for plotting).pc3
  4

  6

 40
0.0
 41
0.0
 42
0.0
 43
0.0
 44
0.0
 45
0.0
 46
0.0
 47
0.0
 48
0.0
 49
0.0
140
0.0
141
0.0
142
1.0
143
1.0
 70
  1712
 72
     0
 73
     0
 74
     0
  7

 75
     0
147
1.0
148
0.0
149
0.0
100
AcDbLayout
  1
Model
 70
     1
 71
     0
 10
0.0
 20
0.0
 11
12.0
 21
9.0
 12
0.0
 22
0.0
 32
0.0
 14
0.0
 24
0.0
 34
0.0
 15
0.0
 25
0.0
 35
0.0
146
0.0
 13
0.0
 23
0.0
 33
0.0
 16
1.0
 26
0.0
 36
0.0
 17
0.0
 27
1.0
 37
0.0
 76
     0
330
2
  0
LAYOUT
  5
369
102
{ACAD_REACTORS
330
B
102
}
330
B
100
AcDbPlotSettings
  1

  2
C:\Program Files\AutoCAD 2002\plotters\DWF ePlot (optimized for plotting).pc3
  4

  6

 40
0.0
 41
0.0
 42
0.0
 43
0.0
 44
0.0
 45
0.0
 46
0.0
 47
0.0
 48
0.0
 49
0.0
140
0.0
141
0.0
142
1.0
143
1.0
 70
   688
 72
     0
 73
     0
 74
     5
  7

 75
    16
147
1.0
148
0.0
149
0.0
100
AcDbLayout
  1
ﾚｲｱｳﾄ1
 70
     1
 71
     1
 10
0.0
 20
0.0
 11
12.0
 21
9.0
 12
0.0
 22
0.0
 32
0.0
 14
1.000000000000000E+20
 24
1.000000000000000E+20
 34
1.000000000000000E+20
 15
-1.000000000000000E+20
 25
-1.000000000000000E+20
 35
-1.000000000000000E+20
146
0.0
 13
0.0
 23
0.0
 33
0.0
 16
1.0
 26
0.0
 36
0.0
 17
0.0
 27
1.0
 37
0.0
 76
     0
330
C
  0
MLINESTYLE
  5
22
102
{ACAD_REACTORS
330
20
102
}
330
20
100
AcDbMlineStyle
  2
STANDARD
 70
     0
  3

 62
   256
 51
90.0
 52
90.0
 71
     2
 49
0.5
 62
   256
  6
BYLAYER
 49
-0.5
 62
   256
  6
BYLAYER
  0
ACDBPLACEHOLDER
  5
367
102
{ACAD_REACTORS
330
366
102
}
330
366
  0
DICTIONARYVAR
  5
372
102
{ACAD_REACTORS
330
371
102
}
330
371
100
DictionaryVariables
280
     0
  1
1
  0
ENDSEC
  0
EOF
