  0
SECTION
  2
HEADER
  9
$ACADVER
  1
AC1015
  9
$ACADMAINTVER
 70
    13
  9
$DWGCODEPAGE
  3
ANSI_932
  9
$INSBASE
 10
0.0
 20
0.0
 30
0.0
  9
$EXTMIN
 10
-0.02019287453777
 20
-0.0183518238145553
 30
-0.0000000349181948
  9
$EXTMAX
 10
420.0209080884751
 20
297.0095311824707
 30
0.0000000814935747
  9
$LIMMIN
 10
-508.3620117187999
 20
-10.1076004982
  9
$LIMMAX
 10
3.174999999999998
 20
339.1839721679998
  9
$ORTHOMODE
 70
     1
  9
$REGENMODE
 70
     1
  9
$FILLMODE
 70
     1
  9
$QTEXTMODE
 70
     0
  9
$MIRRTEXT
 70
     0
  9
$LTSCALE
 40
1.0
  9
$ATTMODE
 70
     1
  9
$TEXTSIZE
 40
2.999994039499997
  9
$TRACEWID
 40
0.05
  9
$TEXTSTYLE
  7
STANDARD
  9
$CLAYER
  8
0
  9
$CELTYPE
  6
ByLayer
  9
$CECOLOR
 62
   256
  9
$CELTSCALE
 40
1.0
  9
$DISPSILH
 70
     0
  9
$DIMSCALE
 40
1.0
  9
$DIMASZ
 40
1.9727878465
  9
$DIMEXO
 40
2.539999961899999
  9
$DIMDLI
 40
0.38
  9
$DIMRND
 40
0.0
  9
$DIMDLE
 40
0.0
  9
$DIMEXE
 40
3.809999942799997
  9
$DIMTP
 40
0.0
  9
$DIMTM
 40
0.0
  9
$DIMTXT
 40
2.999994039499997
  9
$DIMCEN
 40
0.09
  9
$DIMTSZ
 40
0.0
  9
$DIMTOL
 70
     0
  9
$DIMLIM
 70
     0
  9
$DIMTIH
 70
     0
  9
$DIMTOH
 70
     1
  9
$DIMSE1
 70
     0
  9
$DIMSE2
 70
     0
  9
$DIMTAD
 70
     0
  9
$DIMZIN
 70
     0
  9
$DIMBLK
  1

  9
$DIMASO
 70
     1
  9
$DIMSHO
 70
     0
  9
$DIMPOST
  1

  9
$DIMAPOST
  1

  9
$DIMALT
 70
     0
  9
$DIMALTD
 70
     2
  9
$DIMALTF
 40
25.4
  9
$DIMLFAC
 40
1.0
  9
$DIMTOFL
 70
     0
  9
$DIMTVP
 40
0.0
  9
$DIMTIX
 70
     0
  9
$DIMSOXD
 70
     0
  9
$DIMSAH
 70
     0
  9
$DIMBLK1
  1

  9
$DIMBLK2
  1

  9
$DIMSTYLE
  2
Standard
  9
$DIMCLRD
 70
     0
  9
$DIMCLRE
 70
     0
  9
$DIMCLRT
 70
     0
  9
$DIMTFAC
 40
1.0
  9
$DIMGAP
 40
0.09
  9
$DIMJUST
 70
     0
  9
$DIMSD1
 70
     0
  9
$DIMSD2
 70
     0
  9
$DIMTOLJ
 70
     1
  9
$DIMTZIN
 70
     0
  9
$DIMALTZ
 70
     0
  9
$DIMALTTZ
 70
     0
  9
$DIMUPT
 70
     0
  9
$DIMDEC
 70
     4
  9
$DIMTDEC
 70
     4
  9
$DIMALTU
 70
     2
  9
$DIMALTTD
 70
     2
  9
$DIMTXSTY
  7
STANDARD
  9
$DIMAUNIT
 70
     0
  9
$DIMADEC
 70
     0
  9
$DIMALTRND
 40
0.0
  9
$DIMAZIN
 70
     0
  9
$DIMDSEP
 70
    46
  9
$DIMATFIT
 70
     3
  9
$DIMFRAC
 70
     0
  9
$DIMLDRBLK
  1

  9
$DIMLUNIT
 70
     2
  9
$DIMLWD
 70
    -2
  9
$DIMLWE
 70
    -2
  9
$DIMTMOVE
 70
     0
  9
$LUNITS
 70
     2
  9
$LUPREC
 70
     3
  9
$SKETCHINC
 40
0.1
  9
$FILLETRAD
 40
0.0625
  9
$AUNITS
 70
     0
  9
$AUPREC
 70
     0
  9
$MENU
  1
ACAD
  9
$ELEVATION
 40
0.0
  9
$PELEVATION
 40
0.0
  9
$THICKNESS
 40
0.0
  9
$LIMCHECK
 70
     0
  9
$CHAMFERA
 40
0.0
  9
$CHAMFERB
 40
0.0
  9
$CHAMFERC
 40
0.0
  9
$CHAMFERD
 40
0.0
  9
$SKPOLY
 70
     0
  9
$TDCREATE
 40
2453377.952280092
  9
$TDUCREATE
 40
2453377.577280092
  9
$TDUPDATE
 40
2453390.670713067
  9
$TDUUPDATE
 40
2453390.295713067
  9
$TDINDWG
 40
0.0032664236
  9
$TDUSRTIMER
 40
0.0032660648
  9
$USRTIMER
 70
     1
  9
$ANGBASE
 50
0.0
  9
$ANGDIR
 70
     0
  9
$PDMODE
 70
     0
  9
$PDSIZE
 40
0.0
  9
$PLINEWID
 40
0.0
  9
$SPLFRAME
 70
     0
  9
$SPLINETYPE
 70
     6
  9
$SPLINESEGS
 70
     8
  9
$HANDSEED
  5
3AC
  9
$SURFTAB1
 70
     6
  9
$SURFTAB2
 70
     6
  9
$SURFTYPE
 70
     6
  9
$SURFU
 70
     6
  9
$SURFV
 70
     6
  9
$UCSBASE
  2

  9
$UCSNAME
  2

  9
$UCSORG
 10
0.0
 20
0.0
 30
0.0
  9
$UCSXDIR
 10
1.0
 20
0.0
 30
0.0
  9
$UCSYDIR
 10
0.0
 20
1.0
 30
0.0
  9
$UCSORTHOREF
  2

  9
$UCSORTHOVIEW
 70
     0
  9
$UCSORGTOP
 10
0.0
 20
0.0
 30
0.0
  9
$UCSORGBOTTOM
 10
0.0
 20
0.0
 30
0.0
  9
$UCSORGLEFT
 10
0.0
 20
0.0
 30
0.0
  9
$UCSORGRIGHT
 10
0.0
 20
0.0
 30
0.0
  9
$UCSORGFRONT
 10
0.0
 20
0.0
 30
0.0
  9
$UCSORGBACK
 10
0.0
 20
0.0
 30
0.0
  9
$PUCSBASE
  2

  9
$PUCSNAME
  2

  9
$PUCSORG
 10
0.0
 20
0.0
 30
0.0
  9
$PUCSXDIR
 10
1.0
 20
0.0
 30
0.0
  9
$PUCSYDIR
 10
0.0
 20
1.0
 30
0.0
  9
$PUCSORTHOREF
  2

  9
$PUCSORTHOVIEW
 70
     0
  9
$PUCSORGTOP
 10
0.0
 20
0.0
 30
0.0
  9
$PUCSORGBOTTOM
 10
0.0
 20
0.0
 30
0.0
  9
$PUCSORGLEFT
 10
0.0
 20
0.0
 30
0.0
  9
$PUCSORGRIGHT
 10
0.0
 20
0.0
 30
0.0
  9
$PUCSORGFRONT
 10
0.0
 20
0.0
 30
0.0
  9
$PUCSORGBACK
 10
0.0
 20
0.0
 30
0.0
  9
$USERI1
 70
    24
  9
$USERI2
 70
     0
  9
$USERI3
 70
     0
  9
$USERI4
 70
     0
  9
$USERI5
 70
     0
  9
$USERR1
 40
0.0
  9
$USERR2
 40
0.0
  9
$USERR3
 40
0.0
  9
$USERR4
 40
0.0
  9
$USERR5
 40
0.0
  9
$WORLDVIEW
 70
     1
  9
$SHADEDGE
 70
     3
  9
$SHADEDIF
 70
    70
  9
$TILEMODE
 70
     1
  9
$MAXACTVP
 70
    64
  9
$PINSBASE
 10
0.0
 20
0.0
 30
0.0
  9
$PLIMCHECK
 70
     0
  9
$PEXTMIN
 10
1.000000000000000E+20
 20
1.000000000000000E+20
 30
1.000000000000000E+20
  9
$PEXTMAX
 10
-1.000000000000000E+20
 20
-1.000000000000000E+20
 30
-1.000000000000000E+20
  9
$PLIMMIN
 10
0.0
 20
0.0
  9
$PLIMMAX
 10
12.0
 20
9.0
  9
$UNITMODE
 70
     0
  9
$VISRETAIN
 70
     1
  9
$PLINEGEN
 70
     0
  9
$PSLTSCALE
 70
     1
  9
$TREEDEPTH
 70
  3020
  9
$CMLSTYLE
  2
Standard
  9
$CMLJUST
 70
     0
  9
$CMLSCALE
 40
1.0
  9
$PROXYGRAPHICS
 70
     1
  9
$MEASUREMENT
 70
     0
  9
$CELWEIGHT
370
    -1
  9
$ENDCAPS
280
     0
  9
$JOINSTYLE
280
     0
  9
$LWDISPLAY
290
     0
  9
$INSUNITS
 70
     0
  9
$HYPERLINKBASE
  1

  9
$STYLESHEET
  1

  9
$XEDIT
290
     1
  9
$CEPSNTYPE
380
     0
  9
$PSTYLEMODE
290
     1
  9
$FINGERPRINTGUID
  2
{DD6C2066-B43B-49C6-99ED-0C749DC425C7}
  9
$VERSIONGUID
  2
{B15A887C-4A1E-4A81-B7F1-B87115FCAB7A}
  9
$EXTNAMES
290
     1
  9
$PSVPSCALE
 40
0.0
  9
$OLESTARTUP
290
     0
  0
ENDSEC
  0
SECTION
  2
CLASSES
  0
CLASS
  1
ACDBDICTIONARYWDFLT
  2
AcDbDictionaryWithDefault
  3
AutoCAD 2000
 90
        0
280
     0
281
     0
  0
CLASS
  1
ACDBPLACEHOLDER
  2
AcDbPlaceHolder
  3
AutoCAD 2000
 90
        0
280
     0
281
     0
  0
CLASS
  1
LAYOUT
  2
AcDbLayout
  3
AutoCAD 2000
 90
        0
280
     0
281
     0
  0
CLASS
  1
DICTIONARYVAR
  2
AcDbDictionaryVar
  3
AutoCAD 2000
 90
        0
280
     0
281
     0
  0
ENDSEC
  0
SECTION
  2
TABLES
  0
TABLE
  2
VPORT
  5
19
330
0
100
AcDbSymbolTable
 70
     2
  0
VPORT
  5
3AB
330
19
100
AcDbSymbolTableRecord
100
AcDbViewportTableRecord
  2
*Active
 70
     0
 10
0.0
 20
0.0
 11
1.0
 21
1.0
 12
210.0003576069687
 22
148.495589679328
 13
0.0
 23
0.0
 14
1.0
 24
1.0
 15
0.0
 25
0.0
 16
0.0
 26
0.0
 36
1.0
 17
0.0
 27
0.0
 37
0.0
 40
301.3640564808296
 41
2.407317073170731
 42
50.0
 43
0.0
 44
0.0
 50
0.0
 51
0.0
 71
     0
 72
   100
 73
     1
 74
     1
 75
     0
 76
     0
 77
     0
 78
     0
281
     0
 65
     1
110
0.0
120
0.0
130
0.0
111
1.0
121
0.0
131
0.0
112
0.0
122
1.0
132
0.0
 79
     0
146
0.0
  0
ENDTAB
  0
TABLE
  2
LTYPE
  5
14
330
0
100
AcDbSymbolTable
 70
     3
  0
LTYPE
  5
15
330
14
100
AcDbSymbolTableRecord
100
AcDbLinetypeTableRecord
  2
ByBlock
 70
     0
  3

 72
    65
 73
     0
 40
0.0
  0
LTYPE
  5
16
330
14
100
AcDbSymbolTableRecord
100
AcDbLinetypeTableRecord
  2
ByLayer
 70
     0
  3

 72
    65
 73
     0
 40
0.0
  0
LTYPE
  5
8
330
14
100
AcDbSymbolTableRecord
100
AcDbLinetypeTableRecord
  2
Continuous
 70
     0
  3
Solid line
 72
    65
 73
     0
 40
0.0
  0
LTYPE
  5
2E
330
14
100
AcDbSymbolTableRecord
100
AcDbLinetypeTableRecord
  2
CENTER
 70
     0
  3
Center
 72
    65
 73
     4
 40
9.100006759199999
 49
6.5000119209
 74
     0
 49
-0.7999984026000001
 74
     0
 49
0.9999980329999999
 74
     0
 49
-0.7999984026000001
 74
     0
  0
LTYPE
  5
26
330
14
100
AcDbSymbolTableRecord
100
AcDbLinetypeTableRecord
  2
PHANTOM
 70
     0
  3
Phantom
 72
    65
 73
     6
 40
9.499981462999999
 49
4.799990654
 74
     0
 49
-0.8999982475999999
 74
     0
 49
0.9999980329999999
 74
     0
 49
-0.8999982475999999
 74
     0
 49
0.9999980329999999
 74
     0
 49
-0.8999982475999999
 74
     0
  0
ENDTAB
  0
TABLE
  2
LAYER
  5
10
330
0
100
AcDbSymbolTable
 70
     1
  0
LAYER
  5
4
330
10
100
AcDbSymbolTableRecord
100
AcDbLayerTableRecord
  2
0
 70
     0
 62
     7
  6
Continuous
370
    -3
390
5
  0
ENDTAB
  0
TABLE
  2
STYLE
  5
11
330
0
100
AcDbSymbolTable
 70
     1
  0
STYLE
  5
12
330
11
100
AcDbSymbolTableRecord
100
AcDbTextStyleTableRecord
  2
STANDARD
 70
     0
 40
0.0
 41
1.0
 50
0.0
 71
     0
 42
2.999994039499997
  3
romans.shx
  4
bigfont.shx
  0
ENDTAB
  0
TABLE
  2
VIEW
  5
17
330
0
100
AcDbSymbolTable
 70
     0
  0
ENDTAB
  0
TABLE
  2
UCS
  5
18
330
0
100
AcDbSymbolTable
 70
     0
  0
ENDTAB
  0
TABLE
  2
APPID
  5
1B
330
0
100
AcDbSymbolTable
 70
     1
  0
APPID
  5
1C
330
1B
100
AcDbSymbolTableRecord
100
AcDbRegAppTableRecord
  2
ACAD
 70
     0
  0
ENDTAB
  0
TABLE
  2
DIMSTYLE
  5
1D
330
0
100
AcDbSymbolTable
 70
     1
100
AcDbDimStyleTable
 71
     0
  0
DIMSTYLE
105
23
330
1D
100
AcDbSymbolTableRecord
100
AcDbDimStyleTableRecord
  2
Standard
 70
     0
340
12
  0
ENDTAB
  0
TABLE
  2
BLOCK_RECORD
  5
1
330
0
100
AcDbSymbolTable
 70
     1
  0
BLOCK_RECORD
  5
2
330
1
100
AcDbSymbolTableRecord
100
AcDbBlockTableRecord
  2
*Model_Space
340
A
  0
BLOCK_RECORD
  5
C
330
1
100
AcDbSymbolTableRecord
100
AcDbBlockTableRecord
  2
*Paper_Space
340
F
  0
ENDTAB
  0
ENDSEC
  0
SECTION
  2
BLOCKS
  0
BLOCK
  5
3
330
2
100
AcDbEntity
  8
0
100
AcDbBlockBegin
  2
*Model_Space
 70
     0
 10
0.0
 20
0.0
 30
0.0
  3
*Model_Space
  1

  0
ENDBLK
  5
9
330
2
100
AcDbEntity
  8
0
100
AcDbBlockEnd
  0
BLOCK
  5
D
330
C
100
AcDbEntity
 67
     1
  8
0
100
AcDbBlockBegin
  2
*Paper_Space
 70
     0
 10
0.0
 20
0.0
 30
0.0
  3
*Paper_Space
  1

  0
ENDBLK
  5
E
330
C
100
AcDbEntity
 67
     1
  8
0
100
AcDbBlockEnd
  0
ENDSEC
  0
SECTION
  2
ENTITIES
  0
LINE
  5
24
330
2
100
AcDbEntity
  8
0
 62
     3
100
AcDbLine
 10
263.623114697041
 20
159.0776092641185
 30
0.0
 11
272.423170354241
 21
165.5776494260184
 31
0.0
  0
LINE
  5
25
330
2
100
AcDbEntity
  8
0
  6
PHANTOM
 62
     3
100
AcDbLine
 10
263.6231482815409
 20
159.0774068620184
 30
0.0
 11
263.6231482815409
 21
240.0782689836185
 31
0.0
  0
LINE
  5
27
330
2
100
AcDbEntity
  8
0
 62
     3
100
AcDbLine
 10
196.2196440335594
 20
163.1025681284185
 30
0.0
 11
196.2196440335594
 21
174.0526613977185
 31
0.0
  0
LINE
  5
28
330
2
100
AcDbEntity
  8
0
 62
     3
100
AcDbLine
 10
177.2537512417594
 20
174.0526613977185
 30
0.0
 11
177.2537512417594
 21
163.1025681284185
 31
0.0
  0
CIRCLE
  5
29
330
2
100
AcDbEntity
  8
0
 62
     3
100
AcDbCircle
 10
186.7365641232595
 20
168.5776052263185
 30
0.0
 40
6.000053882599997
  0
CIRCLE
  5
2A
330
2
100
AcDbEntity
  8
0
 62
     3
100
AcDbCircle
 10
186.7365641232595
 20
168.5776052263185
 30
0.0
 40
5.000042915299999
  0
LINE
  5
2B
330
2
100
AcDbEntity
  8
0
100
AcDbLine
 10
420.0
 20
0.0
 30
0.0
 11
420.0
 21
297.0
 31
0.0
  0
LINE
  5
2C
330
2
100
AcDbEntity
  8
0
 62
     3
100
AcDbLine
 10
337.4231971097408
 20
183.0779371050184
 30
0.0
 11
337.4231971097408
 21
139.5779332903184
 31
0.0
  0
LINE
  5
2D
330
2
100
AcDbEntity
  8
0
  6
CENTER
 62
     3
100
AcDbLine
 10
186.7365641232595
 20
264.5775899675185
 30
0.0
 11
186.7365641232595
 21
134.5772466448183
 31
0.0
  0
LINE
  5
2F
330
2
100
AcDbEntity
  8
0
 62
     3
100
AcDbLine
 10
212.1370910567593
 20
168.5765025114184
 30
0.0
 11
194.4535275607593
 21
156.8950386907185
 31
0.0
  0
CIRCLE
  5
30
330
2
100
AcDbEntity
  8
0
 62
     3
100
AcDbCircle
 10
186.7365641232595
 20
168.5776052263185
 30
0.0
 40
12.0001101494
  0
CIRCLE
  5
31
330
2
100
AcDbEntity
  8
0
 62
     3
100
AcDbCircle
 10
186.7365641232595
 20
168.5776052263185
 30
0.0
 40
10.95010042189999
  0
LINE
  5
32
330
2
100
AcDbEntity
  8
0
  6
PHANTOM
 62
     3
100
AcDbLine
 10
262.1230948758409
 20
156.6703710344185
 30
0.0
 11
262.1230948758409
 21
242.4854955461185
 31
0.0
  0
LINE
  5
33
330
2
100
AcDbEntity
  8
0
 62
     3
100
AcDbLine
 10
217.7367014523595
 20
139.5773229387184
 30
0.0
 11
217.7367014523595
 21
259.5770177629185
 31
0.0
  0
LINE
  5
34
330
2
100
AcDbEntity
  8
0
 62
     3
100
AcDbLine
 10
210.7366556760594
 20
166.5775213030185
 30
0.0
 11
210.7366556760594
 21
139.5773229387184
 31
0.0
  0
LINE
  5
35
330
2
100
AcDbEntity
  8
0
 62
     3
100
AcDbLine
 10
214.7366709347594
 20
192.5777349260184
 30
0.0
 11
214.7366709347594
 21
150.5774221208185
 31
0.0
  0
LINE
  5
36
330
2
100
AcDbEntity
  8
0
 62
     3
100
AcDbLine
 10
212.7366633053594
 20
184.5776662615185
 30
0.0
 11
212.7366633053594
 21
139.5773229387184
 31
0.0
  0
LINE
  5
37
330
2
100
AcDbEntity
  8
0
 62
     3
100
AcDbLine
 10
139.2196364041595
 20
163.1025681284185
 30
0.0
 11
139.2196364041595
 21
174.0526613977185
 31
0.0
  0
LINE
  5
38
330
2
100
AcDbEntity
  8
0
 62
     3
100
AcDbLine
 10
120.2537436124595
 20
174.0526613977185
 30
0.0
 11
120.2537436124595
 21
163.1025681284185
 31
0.0
  0
CIRCLE
  5
39
330
2
100
AcDbEntity
  8
0
 62
     3
100
AcDbCircle
 10
129.7365564938594
 20
168.5776052263185
 30
0.0
 40
5.000042915299999
  0
CIRCLE
  5
3A
330
2
100
AcDbEntity
  8
0
 62
     3
100
AcDbCircle
 10
129.7365564938594
 20
168.5776052263185
 30
0.0
 40
6.000053882599997
  0
LINE
  5
3B
330
2
100
AcDbEntity
  8
0
 62
     3
100
AcDbLine
 10
82.21962877475956
 20
163.1025299814185
 30
0.0
 11
82.21962877475956
 21
174.0526232507185
 31
0.0
  0
LINE
  5
3C
330
2
100
AcDbEntity
  8
0
 62
     3
100
AcDbLine
 10
63.25373598305953
 20
174.0526232507185
 30
0.0
 11
63.25373598305953
 21
163.1025299814185
 31
0.0
  0
CIRCLE
  5
3D
330
2
100
AcDbEntity
  8
0
 62
     3
100
AcDbCircle
 10
72.7365488644595
 20
168.5775670793185
 30
0.0
 40
5.000042915299999
  0
CIRCLE
  5
3E
330
2
100
AcDbEntity
  8
0
 62
     3
100
AcDbCircle
 10
72.7365488644595
 20
168.5775670793185
 30
0.0
 40
6.000053882599997
  0
LINE
  5
3F
330
2
100
AcDbEntity
  8
0
100
AcDbLine
 10
0.0
 20
297.0
 30
0.0
 11
0.0
 21
0.0
 31
0.0
  0
LINE
  5
40
330
2
100
AcDbEntity
  8
0
 62
     3
100
AcDbLine
 10
46.73686929905954
 20
139.5772847917185
 30
0.0
 11
46.73686929905954
 21
184.5776281145185
 31
0.0
  0
CIRCLE
  5
41
330
2
100
AcDbEntity
  8
0
 62
     3
100
AcDbCircle
 10
129.7365564938594
 20
168.5776052263185
 30
0.0
 40
10.95010042189999
  0
CIRCLE
  5
42
330
2
100
AcDbEntity
  8
0
 62
     3
100
AcDbCircle
 10
129.7365564938594
 20
168.5776052263185
 30
0.0
 40
12.0001101494
  0
CIRCLE
  5
43
330
2
100
AcDbEntity
  8
0
 62
     3
100
AcDbCircle
 10
72.7365488644595
 20
168.5775670793185
 30
0.0
 40
10.95010042189999
  0
CIRCLE
  5
44
330
2
100
AcDbEntity
  8
0
 62
     3
100
AcDbCircle
 10
72.7365488644595
 20
168.5775670793185
 30
0.0
 40
12.0001101494
  0
LINE
  5
45
330
2
100
AcDbEntity
  8
0
 62
     3
100
AcDbLine
 10
98.13709798385945
 20
168.5765002760184
 30
0.0
 11
80.45354244515953
 21
156.8950417117185
 31
0.0
  0
LINE
  5
46
330
2
100
AcDbEntity
  8
0
 62
     3
100
AcDbLine
 10
98.73653360565949
 20
184.5776281145185
 30
0.0
 11
98.73653360565949
 21
139.5772847917185
 31
0.0
  0
LINE
  5
47
330
2
100
AcDbEntity
  8
0
 62
     3
100
AcDbLine
 10
100.2364725705594
 20
150.5774602678185
 30
0.0
 11
100.2364725705594
 21
192.5777730730185
 31
0.0
  0
LINE
  5
48
330
2
100
AcDbEntity
  8
0
 62
     3
100
AcDbLine
 10
102.2363276120594
 20
150.5774602678185
 30
0.0
 11
102.2363276120594
 21
192.5777730730185
 31
0.0
  0
LINE
  5
49
330
2
100
AcDbEntity
  8
0
 62
     3
100
AcDbLine
 10
104.3378424469594
 20
168.5762223016183
 30
0.0
 11
122.0210784295594
 21
156.8949714699184
 31
0.0
  0
LINE
  5
4A
330
2
100
AcDbEntity
  8
0
 62
     3
100
AcDbLine
 10
160.7362742062595
 20
139.5773229387184
 30
0.0
 11
160.7362742062595
 21
184.5776662615185
 31
0.0
  0
LINE
  5
4B
330
2
100
AcDbEntity
  8
0
 62
     3
100
AcDbLine
 10
162.7363962765595
 20
139.5773229387184
 30
0.0
 11
162.7363962765595
 21
166.5775213030185
 31
0.0
  0
LINE
  5
4C
330
2
100
AcDbEntity
  8
0
 62
     3
100
AcDbLine
 10
47.33786007165946
 20
168.5762294511185
 30
0.0
 11
65.02109605435953
 21
156.8949786193184
 31
0.0
  0
LINE
  5
4D
330
2
100
AcDbEntity
  8
0
 62
     3
100
AcDbLine
 10
48.73672434055953
 20
139.5772847917185
 30
0.0
 11
48.73672434055953
 21
166.5775213030185
 31
0.0
  0
LINE
  5
4E
330
2
100
AcDbEntity
  8
0
 62
     3
100
AcDbLine
 10
159.2363352414595
 20
150.5774984148185
 30
0.0
 11
159.2363352414595
 21
192.5778112200185
 31
0.0
  0
LINE
  5
4F
330
2
100
AcDbEntity
  8
0
  6
CENTER
 62
     3
100
AcDbLine
 10
72.7365488644595
 20
264.5775899675185
 30
0.0
 11
72.7365488644595
 21
134.5772466448183
 31
0.0
  0
LINE
  5
50
330
2
100
AcDbEntity
  8
0
 62
     3
100
AcDbLine
 10
155.7365412350595
 20
184.5776662615185
 30
0.0
 11
155.7365412350595
 21
139.5772847917185
 31
0.0
  0
LINE
  5
51
330
2
100
AcDbEntity
  8
0
 62
     3
100
AcDbLine
 10
96.73637338845949
 20
166.5774831560185
 30
0.0
 11
96.73637338845949
 21
139.5772847917185
 31
0.0
  0
LINE
  5
52
330
2
100
AcDbEntity
  8
0
 62
     3
100
AcDbLine
 10
157.2364801999594
 20
150.5774984148185
 30
0.0
 11
157.2364801999594
 21
192.5778112200185
 31
0.0
  0
LINE
  5
53
330
2
100
AcDbEntity
  8
0
 62
     3
100
AcDbLine
 10
44.73674722875953
 20
150.5773839739185
 30
0.0
 11
44.73674722875953
 21
192.5776967790183
 31
0.0
  0
LINE
  5
54
330
2
100
AcDbEntity
  8
0
 62
     3
100
AcDbLine
 10
105.7366938229594
 20
139.5773229387184
 30
0.0
 11
105.7366938229594
 21
166.5775213030185
 31
0.0
  0
LINE
  5
55
330
2
100
AcDbEntity
  8
0
 62
     3
100
AcDbLine
 10
103.7368769284594
 20
139.5773229387184
 30
0.0
 11
103.7368769284594
 21
184.5776662615185
 31
0.0
  0
LINE
  5
56
330
2
100
AcDbEntity
  8
0
 62
     3
100
AcDbLine
 10
41.7371363278595
 20
259.5769796159185
 30
0.0
 11
41.7371363278595
 21
139.5772847917185
 31
0.0
  0
LINE
  5
57
330
2
100
AcDbEntity
  8
0
 62
     3
100
AcDbLine
 10
155.1370834273595
 20
168.5765025114184
 30
0.0
 11
137.4535199313595
 21
156.8950386907185
 31
0.0
  0
LINE
  5
58
330
2
100
AcDbEntity
  8
0
 62
     3
100
AcDbLine
 10
153.7363810177595
 20
166.5775213030185
 30
0.0
 11
153.7363810177595
 21
139.5772847917185
 31
0.0
  0
LINE
  5
59
330
2
100
AcDbEntity
  8
0
  6
CENTER
 62
     3
100
AcDbLine
 10
129.7365564938594
 20
264.5775899675185
 30
0.0
 11
129.7365564938594
 21
134.5772466448183
 31
0.0
  0
LINE
  5
5A
330
2
100
AcDbEntity
  8
0
 62
     3
100
AcDbLine
 10
161.3378500763595
 20
168.5762223016183
 30
0.0
 11
179.0210860589595
 21
156.8949714699184
 31
0.0
  0
TEXT
  5
5B
330
2
100
AcDbEntity
  8
0
 62
     5
100
AcDbText
 10
355.0
 20
10.0
 30
0.0
 40
5.0
  1
ＭＡ４－Ｂ００７１７Ｃ
 41
0.8443967743953111
 72
     5
 11
409.0413935612999
 21
10.0
 31
0.0
100
AcDbText
  0
LINE
  5
5C
330
2
100
AcDbEntity
  8
0
100
AcDbLine
 10
0.0
 20
0.0
 30
0.0
 11
420.0
 21
0.0
 31
0.0
  0
ARC
  5
5D
330
2
100
AcDbEntity
  8
0
 62
     3
100
AcDbCircle
 10
72.7365488644595
 20
168.5776052263185
 30
0.0
 40
14.0001177788
100
AcDbArc
 50
236.5519805638999
 51
303.4481271253
  0
LINE
  5
5E
330
2
100
AcDbEntity
  8
0
 62
     3
100
AcDbLine
 10
48.73702951635947
 20
155.5774221208185
 30
0.0
 11
67.54089304175947
 21
155.5774221208185
 31
0.0
  0
LINE
  5
5F
330
2
100
AcDbEntity
  8
0
 62
     3
100
AcDbLine
 10
66.73670627345945
 20
85.09901366768895
 30
0.0
 11
68.73671952335951
 21
87.09903652718892
 31
0.0
  0
ARC
  5
60
330
2
100
AcDbEntity
  8
0
 62
     3
100
AcDbCircle
 10
64.51168247425949
 20
75.87412813548894
 30
0.0
 40
3.225126266499998
100
AcDbArc
 50
32.3349693045
 51
147.6650288742999
  0
LINE
  5
61
330
2
100
AcDbEntity
  8
0
 62
     3
100
AcDbLine
 10
64.48665567605949
 20
79.09913996098897
 30
0.0
 11
80.93669601645951
 21
79.09913996098897
 31
0.0
  0
LINE
  5
62
330
2
100
AcDbEntity
  8
0
 62
     3
100
AcDbLine
 10
60.73662229745946
 20
68.29904058818893
 30
0.0
 11
84.73666616645948
 21
68.29904058818893
 31
0.0
  0
LINE
  5
63
330
2
100
AcDbEntity
  8
0
 62
     3
100
AcDbLine
 10
61.78674169745949
 20
71.09907368068896
 30
0.0
 11
83.68666120735946
 21
71.09907368068896
 31
0.0
  0
LINE
  5
64
330
2
100
AcDbEntity
  8
0
 62
     3
100
AcDbLine
 10
51.73751779755952
 20
153.0773839739183
 30
0.0
 11
93.73649545875952
 21
153.0773839739183
 31
0.0
  0
LINE
  5
65
330
2
100
AcDbEntity
  8
0
 62
     3
100
AcDbLine
 10
48.73672434055953
 20
154.5773610857185
 30
0.0
 11
96.73637338845949
 21
154.5773610857185
 31
0.0
  0
LINE
  5
66
330
2
100
AcDbEntity
  8
0
 62
     3
100
AcDbLine
 10
48.73611398895953
 20
61.79900158288893
 30
0.0
 11
96.73618265355951
 21
61.79900158288893
 31
0.0
  0
LINE
  5
67
330
2
100
AcDbEntity
  8
0
 62
     3
100
AcDbLine
 10
46.73625894745947
 20
65.79903820398893
 30
0.0
 11
98.73622842995951
 21
65.79903820398893
 31
0.0
  0
LINE
  5
68
330
2
100
AcDbEntity
  8
0
 62
     3
100
AcDbLine
 10
93.73619028295951
 20
35.79878795988895
 30
0.0
 11
51.73629709445953
 21
35.79878795988895
 31
0.0
  0
LINE
  5
69
330
2
100
AcDbEntity
  8
0
 62
     3
100
AcDbLine
 10
63.25363215435952
 20
163.1024390905183
 30
0.0
 11
72.73670744735949
 21
157.6273822664185
 31
0.0
  0
LINE
  5
6A
330
2
100
AcDbEntity
  8
0
 62
     3
100
AcDbLine
 10
41.7374415036595
 20
139.5772466448183
 30
0.0
 11
217.7367014523595
 21
139.5772466448183
 31
0.0
  0
LINE
  5
6B
330
2
100
AcDbEntity
  8
0
 62
     3
100
AcDbLine
 10
41.73622080055952
 20
27.79871929528894
 30
0.0
 11
217.7368158932595
 21
27.79871929528894
 31
0.0
  0
LINE
  5
6C
330
2
100
AcDbEntity
  8
0
 62
     3
100
AcDbLine
 10
46.73625894745947
 20
92.79929149988895
 30
0.0
 11
212.7367777463593
 21
92.79929149988895
 31
0.0
  0
LINE
  5
6D
330
2
100
AcDbEntity
  8
0
  6
PHANTOM
 62
     3
100
AcDbLine
 10
217.7368158932595
 20
97.92593944908894
 30
0.0
 11
41.73622080055952
 21
97.92593944908894
 31
0.0
  0
LINE
  5
6E
330
2
100
AcDbEntity
  8
0
  6
PHANTOM
 62
     3
100
AcDbLine
 10
41.7371363278595
 20
143.0778417375185
 30
0.0
 11
217.7367014523595
 21
143.0778417375185
 31
0.0
  0
LINE
  5
6F
330
2
100
AcDbEntity
  8
0
  6
PHANTOM
 62
     3
100
AcDbLine
 10
41.73622080055952
 20
109.2987345540888
 30
0.0
 11
217.7368158932595
 21
109.2987345540888
 31
0.0
  0
ARC
  5
70
330
2
100
AcDbEntity
  8
0
  6
PHANTOM
 62
     3
100
AcDbCircle
 10
31.13613840305953
 20
53.79881084798896
 30
0.0
 40
1.5999994278
100
AcDbArc
 50
90.0000179861
 51
180.0
  0
ARC
  5
71
330
2
100
AcDbEntity
  8
0
  6
PHANTOM
 62
     3
100
AcDbCircle
 10
37.93614145485946
 20
53.79881084798896
 30
0.0
 40
1.5999994278
100
AcDbArc
 50
0.000035972178686
 51
90.0000179861
  0
LINE
  5
72
330
2
100
AcDbEntity
  8
0
  6
PHANTOM
 62
     3
100
AcDbLine
 10
29.33613535125953
 20
60.29879558928894
 30
0.0
 11
29.33613535125953
 21
29.79879558928894
 31
0.0
  0
LINE
  5
73
330
2
100
AcDbEntity
  8
0
  6
PHANTOM
 62
     3
100
AcDbLine
 10
39.73614450655952
 20
60.29879558928894
 30
0.0
 11
39.73614450655952
 21
29.79879558928894
 31
0.0
  0
LINE
  5
74
330
2
100
AcDbEntity
  8
0
  6
PHANTOM
 62
     3
100
AcDbLine
 10
27.33613535125953
 20
60.29879558928894
 30
0.0
 11
27.33613535125953
 21
29.79879558928894
 31
0.0
  0
LINE
  5
75
330
2
100
AcDbEntity
  8
0
  6
PHANTOM
 62
     3
100
AcDbLine
 10
41.73614450655953
 20
60.29879558928894
 30
0.0
 11
41.73614450655953
 21
29.79879558928894
 31
0.0
  0
LINE
  5
76
330
2
100
AcDbEntity
  8
0
 62
     3
100
AcDbLine
 10
41.73622080055952
 20
107.7994059407888
 30
0.0
 11
41.73622080055952
 21
27.79871929528894
 31
0.0
  0
LINE
  5
77
330
2
100
AcDbEntity
  8
0
 62
     3
100
AcDbLine
 10
48.73611398895953
 20
38.79878033048895
 30
0.0
 11
48.73611398895953
 21
63.79900921228895
 31
0.0
  0
LINE
  5
78
330
2
100
AcDbEntity
  8
0
  6
PHANTOM
 62
     3
100
AcDbLine
 10
10.13600107395949
 20
42.79881084798893
 30
0.0
 11
27.33613535125953
 21
42.79881084798893
 31
0.0
  0
LINE
  5
79
330
2
100
AcDbEntity
  8
0
  6
PHANTOM
 62
     3
100
AcDbLine
 10
41.73625131805954
 20
27.79881084798896
 30
0.0
 11
10.13600107395949
 21
27.79881084798896
 31
0.0
  0
LINE
  5
7A
330
2
100
AcDbEntity
  8
0
  6
PHANTOM
 62
     3
100
AcDbLine
 10
10.13600107395949
 20
27.79881084798896
 30
0.0
 11
10.13600107395949
 21
42.79881084798893
 31
0.0
  0
LINE
  5
7B
330
2
100
AcDbEntity
  8
0
  6
PHANTOM
 62
     3
100
AcDbLine
 10
29.33614298065947
 20
29.79879558928894
 30
0.0
 11
27.33614298065947
 21
29.79879558928894
 31
0.0
  0
LINE
  5
7C
330
2
100
AcDbEntity
  8
0
  6
PHANTOM
 62
     3
100
AcDbLine
 10
41.73615213595947
 20
29.79879558928894
 30
0.0
 11
39.73615213595945
 21
29.79879558928894
 31
0.0
  0
ARC
  5
7D
330
2
100
AcDbEntity
  8
0
  6
PHANTOM
 62
     3
100
AcDbCircle
 10
37.13613840305953
 20
53.79881084798896
 30
0.0
 40
0.5
100
AcDbArc
 50
269.9999993168
 51
0.0000359722000187
  0
LINE
  5
7E
330
2
100
AcDbEntity
  8
0
  6
PHANTOM
 62
     3
100
AcDbLine
 10
37.93614145485946
 20
53.79881084798896
 30
0.0
 11
31.13613840305953
 21
53.79881084798896
 31
0.0
  0
LINE
  5
7F
330
2
100
AcDbEntity
  8
0
  6
PHANTOM
 62
     3
100
AcDbLine
 10
29.33613535125953
 20
42.79881084798893
 30
0.0
 11
39.73614450655952
 21
42.79881084798893
 31
0.0
  0
LINE
  5
80
330
2
100
AcDbEntity
  8
0
  6
PHANTOM
 62
     3
100
AcDbLine
 10
29.53614755835952
 20
53.79881084798896
 30
0.0
 11
29.53614755835952
 21
42.79881084798893
 31
0.0
  0
LINE
  5
81
330
2
100
AcDbEntity
  8
0
  6
PHANTOM
 62
     3
100
AcDbLine
 10
31.13613840305953
 20
53.79881084798896
 30
0.0
 11
31.13613840305953
 21
42.79881084798893
 31
0.0
  0
LINE
  5
82
330
2
100
AcDbEntity
  8
0
  6
PHANTOM
 62
     3
100
AcDbLine
 10
31.13613840305953
 20
42.79881084798893
 30
0.0
 11
29.53614755835952
 21
42.79881084798893
 31
0.0
  0
LINE
  5
83
330
2
100
AcDbEntity
  8
0
  6
PHANTOM
 62
     3
100
AcDbLine
 10
29.33613535125953
 20
43.29879558928894
 30
0.0
 11
27.33613535125953
 21
43.29879558928894
 31
0.0
  0
LINE
  5
84
330
2
100
AcDbEntity
  8
0
  6
PHANTOM
 62
     3
100
AcDbLine
 10
29.33613535125953
 20
45.79879558928894
 30
0.0
 11
27.33613535125953
 21
45.79879558928894
 31
0.0
  0
LINE
  5
85
330
2
100
AcDbEntity
  8
0
  6
PHANTOM
 62
     3
100
AcDbLine
 10
37.13613840305953
 20
53.29881084798896
 30
0.0
 11
31.93614145485947
 21
53.29881084798896
 31
0.0
  0
ARC
  5
86
330
2
100
AcDbEntity
  8
0
  6
PHANTOM
 62
     3
100
AcDbCircle
 10
31.93614145485947
 20
53.79881084798896
 30
0.0
 40
0.5
100
AcDbArc
 50
180.0
 51
269.9999820138998
  0
LINE
  5
87
330
2
100
AcDbEntity
  8
0
  6
PHANTOM
 62
     3
100
AcDbLine
 10
29.53613229955948
 20
53.79881084798896
 30
0.0
 11
29.33613535125953
 21
53.79881084798896
 31
0.0
  0
LINE
  5
88
330
2
100
AcDbEntity
  8
0
  6
PHANTOM
 62
     3
100
AcDbLine
 10
31.43614145485946
 20
53.79881084798896
 30
0.0
 11
31.43614145485946
 21
53.72146404628896
 31
0.0
  0
LINE
  5
89
330
2
100
AcDbEntity
  8
0
  6
PHANTOM
 62
     3
100
AcDbLine
 10
39.53613229955946
 20
53.79881084798896
 30
0.0
 11
39.53613229955946
 21
42.79881084798893
 31
0.0
  0
LINE
  5
8A
330
2
100
AcDbEntity
  8
0
  6
PHANTOM
 62
     3
100
AcDbLine
 10
37.93614145485946
 20
53.79881084798896
 30
0.0
 11
37.93614145485946
 21
42.79881084798893
 31
0.0
  0
LINE
  5
8B
330
2
100
AcDbEntity
  8
0
  6
PHANTOM
 62
     3
100
AcDbLine
 10
41.73614450655953
 20
43.29879558928894
 30
0.0
 11
39.73614450655952
 21
43.29879558928894
 31
0.0
  0
LINE
  5
8C
330
2
100
AcDbEntity
  8
0
  6
PHANTOM
 62
     3
100
AcDbLine
 10
41.73614450655953
 20
45.79879558928894
 30
0.0
 11
39.73614450655952
 21
45.79879558928894
 31
0.0
  0
LINE
  5
8D
330
2
100
AcDbEntity
  8
0
  6
PHANTOM
 62
     3
100
AcDbLine
 10
39.53613229955946
 20
42.79881084798893
 30
0.0
 11
37.93614145485946
 21
42.79881084798893
 31
0.0
  0
LINE
  5
8E
330
2
100
AcDbEntity
  8
0
  6
PHANTOM
 62
     3
100
AcDbLine
 10
39.53613229955946
 20
53.79881084798896
 30
0.0
 11
39.73614450655952
 21
53.79881084798896
 31
0.0
  0
LINE
  5
8F
330
2
100
AcDbEntity
  8
0
  6
PHANTOM
 62
     3
100
AcDbLine
 10
37.63613840305953
 20
53.79881084798896
 30
0.0
 11
37.63613840305953
 21
53.72146404628896
 31
0.0
  0
ARC
  5
90
330
2
100
AcDbEntity
  8
0
 62
     3
100
AcDbCircle
 10
51.73629709445953
 20
38.79878033048895
 30
0.0
 40
3.000023365
100
AcDbArc
 50
180.0000359722
 51
270.0000179861
  0
ARC
  5
91
330
2
100
AcDbEntity
  8
0
  6
PHANTOM
 62
     3
100
AcDbCircle
 10
29.33613535125953
 20
60.29879558928894
 30
0.0
 40
2.0
100
AcDbArc
 50
90.0000179861
 51
180.0
  0
LINE
  5
92
330
2
100
AcDbEntity
  8
0
 62
     3
100
AcDbLine
 10
66.73673816885946
 20
79.09913996098897
 30
0.0
 11
66.73673816885946
 21
85.09917953848896
 31
0.0
  0
LINE
  5
93
330
2
100
AcDbEntity
  8
0
 62
     3
100
AcDbLine
 10
46.73625894745947
 20
63.79900921228895
 30
0.0
 11
46.73625894745947
 21
107.7994059407888
 31
0.0
  0
LINE
  5
94
330
2
100
AcDbEntity
  8
0
 62
     3
100
AcDbLine
 10
48.73611398895953
 20
63.79900921228895
 30
0.0
 11
46.73625894745947
 21
63.79900921228895
 31
0.0
  0
LINE
  5
95
330
2
100
AcDbEntity
  8
0
  6
PHANTOM
 62
     3
100
AcDbLine
 10
36.53613229955947
 20
71.89880169278895
 30
0.0
 11
36.53613229955947
 21
62.29879558928894
 31
0.0
  0
LINE
  5
96
330
2
100
AcDbEntity
  8
0
  6
PHANTOM
 62
     3
100
AcDbLine
 10
36.03613229955946
 20
71.89881695158894
 30
0.0
 11
36.03613229955946
 21
62.29879558928894
 31
0.0
  0
LINE
  5
97
330
2
100
AcDbEntity
  8
0
  6
PHANTOM
 62
     3
100
AcDbLine
 10
33.03614755835951
 20
62.29879558928894
 30
0.0
 11
33.03614755835951
 21
71.89881695158894
 31
0.0
  0
LINE
  5
98
330
2
100
AcDbEntity
  8
0
  6
PHANTOM
 62
     3
100
AcDbLine
 10
32.53613229955947
 20
71.89880169278895
 30
0.0
 11
32.53613229955947
 21
62.29879558928894
 31
0.0
  0
LINE
  5
99
330
2
100
AcDbEntity
  8
0
  6
PHANTOM
 62
     3
100
AcDbLine
 10
39.73614450655952
 20
55.39880169278895
 30
0.0
 11
29.33613535125953
 21
55.39880169278895
 31
0.0
  0
LINE
  5
9A
330
2
100
AcDbEntity
  8
0
  6
PHANTOM
 62
     3
100
AcDbLine
 10
39.73614450655952
 20
60.29879558928894
 30
0.0
 11
29.33613535125953
 21
60.29879558928894
 31
0.0
  0
LINE
  5
9B
330
2
100
AcDbEntity
  8
0
  6
PHANTOM
 62
     3
100
AcDbLine
 10
39.73614450655952
 20
62.29879558928894
 30
0.0
 11
29.33613535125953
 21
62.29879558928894
 31
0.0
  0
LINE
  5
9C
330
2
100
AcDbEntity
  8
0
  6
PHANTOM
 62
     3
100
AcDbLine
 10
36.53613080275947
 20
55.89879384478895
 30
0.0
 11
36.0361300190595
 21
55.39879356678895
 31
0.0
  0
LINE
  5
9D
330
2
100
AcDbEntity
  8
0
  6
PHANTOM
 62
     3
100
AcDbLine
 10
33.03613762395952
 20
55.39880587368895
 30
0.0
 11
32.53613734605949
 21
55.89880665738895
 31
0.0
  0
LINE
  5
9E
330
2
100
AcDbEntity
  8
0
  6
PHANTOM
 62
     3
100
AcDbLine
 10
32.5361170407595
 20
55.89883221028896
 30
0.0
 11
36.53611704075951
 21
55.89883221028896
 31
0.0
  0
LINE
  5
9F
330
2
100
AcDbEntity
  8
0
  6
PHANTOM
 62
     3
100
AcDbLine
 10
36.53613229955947
 20
55.89881695158894
 30
0.0
 11
36.53613229955947
 21
60.29879558928894
 31
0.0
  0
LINE
  5
A0
330
2
100
AcDbEntity
  8
0
  6
PHANTOM
 62
     3
100
AcDbLine
 10
32.53612852965949
 20
60.29879835788896
 30
0.0
 11
32.53614378845947
 21
55.89881972018895
 31
0.0
  0
LINE
  5
A1
330
2
100
AcDbEntity
  8
0
  6
PHANTOM
 62
     3
100
AcDbLine
 10
33.03614755835951
 20
60.29879558928894
 30
0.0
 11
33.03614755835951
 21
55.39881695158893
 31
0.0
  0
LINE
  5
A2
330
2
100
AcDbEntity
  8
0
  6
PHANTOM
 62
     3
100
AcDbLine
 10
36.03613229955946
 20
60.29879558928894
 30
0.0
 11
36.03613229955946
 21
55.39881695158893
 31
0.0
  0
ARC
  5
A3
330
2
100
AcDbEntity
  8
0
  6
PHANTOM
 62
     3
100
AcDbCircle
 10
39.73614450655952
 20
60.29879558928894
 30
0.0
 40
2.0
100
AcDbArc
 50
0.000035972178686
 51
90.0000179861
  0
ARC
  5
A4
330
2
100
AcDbEntity
  8
0
  6
PHANTOM
 62
     3
100
AcDbCircle
 10
36.4560389157595
 20
72.74889934898893
 30
0.0
 40
1.5
100
AcDbArc
 50
5.000007652199998
 51
75.1680163166
  0
LINE
  5
A5
330
2
100
AcDbEntity
  8
0
  6
PHANTOM
 62
     3
100
AcDbLine
 10
38.03613229955947
 20
71.89880169278895
 30
0.0
 11
31.03613229955948
 21
71.89880169278895
 31
0.0
  0
ARC
  5
A6
330
2
100
AcDbEntity
  8
0
  6
PHANTOM
 62
     3
100
AcDbCircle
 10
32.61624094215949
 20
72.74889934898893
 30
0.0
 40
1.5
100
AcDbArc
 50
104.8320196555998
 51
175.0000044143
  0
LINE
  5
A7
330
2
100
AcDbEntity
  8
0
  6
PHANTOM
 62
     3
100
AcDbLine
 10
31.03614347615951
 20
71.89880557008895
 30
0.0
 11
31.12195598655949
 21
72.87964755798895
 31
0.0
  0
LINE
  5
A8
330
2
100
AcDbEntity
  8
0
  6
PHANTOM
 62
     3
100
AcDbLine
 10
37.13423092435954
 20
72.99881135128896
 30
0.0
 11
34.53615871035946
 21
74.49880878828896
 31
0.0
  0
ARC
  5
A9
330
2
100
AcDbEntity
  8
0
  6
PHANTOM
 62
     3
100
AcDbCircle
 10
34.53613229955946
 20
65.49880779628896
 30
0.0
 40
9.0
100
AcDbArc
 50
75.1680163166
 51
104.8320742970999
  0
LINE
  5
AA
330
2
100
AcDbEntity
  8
0
  6
PHANTOM
 62
     3
100
AcDbLine
 10
33.67011233085952
 20
73.99881853368896
 30
0.0
 11
34.53613777875955
 21
74.49881847408895
 31
0.0
  0
LINE
  5
AB
330
2
100
AcDbEntity
  8
0
  6
PHANTOM
 62
     3
100
AcDbLine
 10
38.03614391295951
 20
71.89880575128896
 30
0.0
 11
37.9503314026595
 21
72.87964773918895
 31
0.0
  0
LINE
  5
AC
330
2
100
AcDbEntity
  8
0
 62
     3
100
AcDbLine
 10
61.98663421835952
 20
68.29904058818893
 30
0.0
 11
61.98663421835952
 21
71.09907368068896
 31
0.0
  0
LINE
  5
AD
330
2
100
AcDbEntity
  8
0
 62
     3
100
AcDbLine
 10
60.73662229745946
 20
65.79903820398893
 30
0.0
 11
60.73662229745946
 21
68.29904058818893
 31
0.0
  0
LINE
  5
AE
330
2
100
AcDbEntity
  8
0
 62
     3
100
AcDbLine
 10
61.78674169745949
 20
71.09907368068896
 30
0.0
 11
61.78674169745949
 21
77.59912947058897
 31
0.0
  0
LINE
  5
AF
330
2
100
AcDbEntity
  8
0
 62
     3
100
AcDbLine
 10
47.73631998265955
 20
94.79926098228892
 30
0.0
 11
46.73625894745947
 21
94.79926098228892
 31
0.0
  0
LINE
  5
B0
330
2
100
AcDbEntity
  8
0
 62
     3
100
AcDbLine
 10
46.73625894745947
 20
98.79931438808895
 30
0.0
 11
41.73622080055952
 21
98.79931438808895
 31
0.0
  0
LINE
  5
B1
330
2
100
AcDbEntity
  8
0
 62
     3
100
AcDbLine
 10
46.73625894745947
 20
107.7994059407888
 30
0.0
 11
41.73622080055952
 21
107.7994059407888
 31
0.0
  0
LINE
  5
B2
330
2
100
AcDbEntity
  8
0
 62
     3
100
AcDbLine
 10
46.73625894745947
 20
103.7993525350888
 30
0.0
 11
41.73622080055952
 21
103.7993525350888
 31
0.0
  0
LINE
  5
B3
330
2
100
AcDbEntity
  8
0
  6
PHANTOM
 62
     3
100
AcDbLine
 10
41.73622080055952
 20
109.2987345540888
 30
0.0
 11
41.73622080055952
 21
107.7994059407888
 31
0.0
  0
LINE
  5
B4
330
2
100
AcDbEntity
  8
0
 62
     3
100
AcDbLine
 10
47.73631998265955
 20
92.79929149988895
 30
0.0
 11
47.73631998265955
 21
94.79926098228892
 31
0.0
  0
LINE
  5
B5
330
2
100
AcDbEntity
  8
0
 62
     3
100
AcDbLine
 10
46.73717447485944
 20
148.5774144914184
 30
0.0
 11
41.7371363278595
 21
148.5774144914184
 31
0.0
  0
LINE
  5
B6
330
2
100
AcDbEntity
  8
0
 62
     3
100
AcDbLine
 10
46.73717447485944
 20
150.5774221208185
 30
0.0
 11
41.7371363278595
 21
150.5774221208185
 31
0.0
  0
LINE
  5
B7
330
2
100
AcDbEntity
  8
0
 62
     3
100
AcDbLine
 10
46.73717447485944
 20
144.5773610857185
 30
0.0
 11
41.7371363278595
 21
144.5773610857185
 31
0.0
  0
LINE
  5
B8
330
2
100
AcDbEntity
  8
0
 62
     3
100
AcDbLine
 10
46.73717447485944
 20
155.5774602678185
 30
0.0
 11
41.7371363278595
 21
155.5774602678185
 31
0.0
  0
LINE
  5
B9
330
2
100
AcDbEntity
  8
0
 62
     3
100
AcDbLine
 10
41.7371363278595
 20
159.0774831560185
 30
0.0
 11
44.7370524045595
 21
159.0774831560185
 31
0.0
  0
ARC
  5
BA
330
2
100
AcDbEntity
  8
0
 62
     3
100
AcDbCircle
 10
51.73660227025948
 20
150.0774297502184
 30
0.0
 40
3.000023365
100
AcDbArc
 50
89.99992737239997
 51
179.9999093863
  0
LINE
  5
BB
330
2
100
AcDbEntity
  8
0
  6
PHANTOM
 62
     3
100
AcDbLine
 10
221.4368281003594
 20
71.89880169278895
 30
0.0
 11
228.4368281003594
 21
71.89880169278895
 31
0.0
  0
ARC
  5
BC
330
2
100
AcDbEntity
  8
0
  6
PHANTOM
 62
     3
100
AcDbCircle
 10
224.9368281003595
 20
65.49880779628896
 30
0.0
 40
9.0
100
AcDbArc
 50
75.16792570289998
 51
104.8319836834
  0
LINE
  5
BD
330
2
100
AcDbEntity
  8
0
  6
PHANTOM
 62
     3
100
AcDbLine
 10
221.5368189450594
 20
53.79881084798896
 30
0.0
 11
228.3368219968595
 21
53.79881084798896
 31
0.0
  0
LINE
  5
BE
330
2
100
AcDbEntity
  8
0
  6
PHANTOM
 62
     3
100
AcDbLine
 10
222.3368219968595
 20
53.29881084798896
 30
0.0
 11
227.5368189450595
 21
53.29881084798896
 31
0.0
  0
LINE
  5
BF
330
2
100
AcDbEntity
  8
0
  6
PHANTOM
 62
     3
100
AcDbLine
 10
219.7368158932595
 20
62.29879558928894
 30
0.0
 11
230.1368250485595
 21
62.29879558928894
 31
0.0
  0
LINE
  5
C0
330
2
100
AcDbEntity
  8
0
  6
PHANTOM
 62
     3
100
AcDbLine
 10
219.7368158932595
 20
60.29879558928894
 30
0.0
 11
230.1368250485595
 21
60.29879558928894
 31
0.0
  0
LINE
  5
C1
330
2
100
AcDbEntity
  8
0
  6
PHANTOM
 62
     3
100
AcDbLine
 10
219.7368158932595
 20
55.39880169278895
 30
0.0
 11
230.1368250485595
 21
55.39880169278895
 31
0.0
  0
LINE
  5
C2
330
2
100
AcDbEntity
  8
0
  6
PHANTOM
 62
     3
100
AcDbLine
 10
230.1368250485595
 20
42.79881084798893
 30
0.0
 11
219.7368158932595
 21
42.79881084798893
 31
0.0
  0
LINE
  5
C3
330
2
100
AcDbEntity
  8
0
  6
PHANTOM
 62
     3
100
AcDbLine
 10
217.7367090817595
 20
27.79881084798896
 30
0.0
 11
249.3369593259595
 21
27.79881084798896
 31
0.0
  0
ARC
  5
C4
330
2
100
AcDbEntity
  8
0
  6
PHANTOM
 62
     3
100
AcDbCircle
 10
221.5368189450594
 20
53.79881084798896
 30
0.0
 40
1.5999994278
100
AcDbArc
 50
89.99998201389999
 51
179.9999640277999
  0
LINE
  5
C5
330
2
100
AcDbEntity
  8
0
  6
CENTER
 62
     3
100
AcDbLine
 10
186.7364115353595
 20
22.69871929528894
 30
0.0
 11
186.7364115353595
 21
114.5744440877889
 31
0.0
  0
LINE
  5
C6
330
2
100
AcDbEntity
  8
0
  6
PHANTOM
 62
     3
100
AcDbLine
 10
217.7368158932595
 20
60.29879558928894
 30
0.0
 11
217.7368158932595
 21
29.79879558928894
 31
0.0
  0
LINE
  5
C7
330
2
100
AcDbEntity
  8
0
  6
PHANTOM
 62
     3
100
AcDbLine
 10
219.7368158932595
 20
60.29879558928894
 30
0.0
 11
219.7368158932595
 21
29.79879558928894
 31
0.0
  0
LINE
  5
C8
330
2
100
AcDbEntity
  8
0
 62
     3
100
AcDbLine
 10
210.7367701169593
 20
63.79900921228895
 30
0.0
 11
210.7367701169593
 21
38.79878033048895
 31
0.0
  0
LINE
  5
C9
330
2
100
AcDbEntity
  8
0
 62
     3
100
AcDbLine
 10
217.7368158932595
 20
27.79871929528894
 30
0.0
 11
217.7368158932595
 21
107.7994059407888
 31
0.0
  0
LINE
  5
CA
330
2
100
AcDbEntity
  8
0
  6
CENTER
 62
     3
100
AcDbLine
 10
72.7365488644595
 20
22.69871929528894
 30
0.0
 11
72.7365488644595
 21
115.4487345540889
 31
0.0
  0
LINE
  5
CB
330
2
100
AcDbEntity
  8
0
  6
CENTER
 62
     3
100
AcDbLine
 10
129.7364801999594
 20
22.69871929528894
 30
0.0
 11
129.7364801999594
 21
114.5744440877889
 31
0.0
  0
LINE
  5
CC
330
2
100
AcDbEntity
  8
0
 62
     3
100
AcDbLine
 10
153.7361139889595
 20
63.79900921228895
 30
0.0
 11
153.7361139889595
 21
38.79878033048895
 31
0.0
  0
LINE
  5
CD
330
2
100
AcDbEntity
  8
0
 62
     3
100
AcDbLine
 10
96.73618265355951
 20
63.79900921228895
 30
0.0
 11
96.73618265355951
 21
38.79878033048895
 31
0.0
  0
LINE
  5
CE
330
2
100
AcDbEntity
  8
0
 62
     3
100
AcDbLine
 10
105.7362742062595
 20
38.79878033048895
 30
0.0
 11
105.7362742062595
 21
63.79900921228895
 31
0.0
  0
LINE
  5
CF
330
2
100
AcDbEntity
  8
0
 62
     3
100
AcDbLine
 10
162.7362436886595
 20
38.79878033048895
 30
0.0
 11
162.7362436886595
 21
63.79900921228895
 31
0.0
  0
LINE
  5
D0
330
2
100
AcDbEntity
  8
0
 62
     3
100
AcDbLine
 10
150.7361216183594
 20
35.79878795988895
 30
0.0
 11
108.7362665768593
 21
35.79878795988895
 31
0.0
  0
ARC
  5
D1
330
2
100
AcDbEntity
  8
0
 62
     3
100
AcDbCircle
 10
108.7363047238594
 20
38.79878033048895
 30
0.0
 40
3.000023365
100
AcDbArc
 50
180.0000359722
 51
270.0000179861
  0
ARC
  5
D2
330
2
100
AcDbEntity
  8
0
 62
     3
100
AcDbCircle
 10
93.73619028295951
 20
38.79878033048895
 30
0.0
 40
3.000023365
100
AcDbArc
 50
270.0000179861
 51
0.0
  0
LINE
  5
D3
330
2
100
AcDbEntity
  8
0
 62
     3
100
AcDbLine
 10
207.7367395993594
 20
35.79878795988895
 30
0.0
 11
165.7363886471594
 21
35.79878795988895
 31
0.0
  0
ARC
  5
D4
330
2
100
AcDbEntity
  8
0
 62
     3
100
AcDbCircle
 10
150.7361216183594
 20
38.79878033048895
 30
0.0
 40
3.000023365
100
AcDbArc
 50
270.0000179861
 51
0.0
  0
ARC
  5
D5
330
2
100
AcDbEntity
  8
0
 62
     3
100
AcDbCircle
 10
165.7362742062595
 20
38.79878033048895
 30
0.0
 40
3.000023365
100
AcDbArc
 50
180.0000359722
 51
270.0000179861
  0
ARC
  5
D6
330
2
100
AcDbEntity
  8
0
 62
     3
100
AcDbCircle
 10
207.7367395993594
 20
38.79878033048895
 30
0.0
 40
3.000023365
100
AcDbArc
 50
270.0000179861
 51
0.0
  0
LINE
  5
D7
330
2
100
AcDbEntity
  8
0
  6
PHANTOM
 62
     3
100
AcDbLine
 10
217.7368082638594
 20
29.79879558928894
 30
0.0
 11
219.7368082638594
 21
29.79879558928894
 31
0.0
  0
LINE
  5
D8
330
2
100
AcDbEntity
  8
0
  6
PHANTOM
 62
     3
100
AcDbLine
 10
221.5368189450594
 20
53.79881084798896
 30
0.0
 11
221.5368189450594
 21
42.79881084798893
 31
0.0
  0
LINE
  5
D9
330
2
100
AcDbEntity
  8
0
  6
PHANTOM
 62
     3
100
AcDbLine
 10
219.9368281003594
 20
53.79881084798896
 30
0.0
 11
219.9368281003594
 21
42.79881084798893
 31
0.0
  0
LINE
  5
DA
330
2
100
AcDbEntity
  8
0
  6
PHANTOM
 62
     3
100
AcDbLine
 10
219.9368281003594
 20
42.79881084798893
 30
0.0
 11
221.5368189450594
 21
42.79881084798893
 31
0.0
  0
LINE
  5
DB
330
2
100
AcDbEntity
  8
0
  6
PHANTOM
 62
     3
100
AcDbLine
 10
217.7368158932595
 20
45.79879558928894
 30
0.0
 11
219.7368158932595
 21
45.79879558928894
 31
0.0
  0
LINE
  5
DC
330
2
100
AcDbEntity
  8
0
  6
PHANTOM
 62
     3
100
AcDbLine
 10
217.7368158932595
 20
43.29879558928894
 30
0.0
 11
219.7368158932595
 21
43.29879558928894
 31
0.0
  0
ARC
  5
DD
330
2
100
AcDbEntity
  8
0
  6
PHANTOM
 62
     3
100
AcDbCircle
 10
222.3368219968595
 20
53.79881084798896
 30
0.0
 40
0.5
100
AcDbArc
 50
179.9999640277999
 51
270.0000006831999
  0
LINE
  5
DE
330
2
100
AcDbEntity
  8
0
  6
PHANTOM
 62
     3
100
AcDbLine
 10
221.8368219968595
 20
53.79881084798896
 30
0.0
 11
221.8368219968595
 21
53.72146404628896
 31
0.0
  0
LINE
  5
DF
330
2
100
AcDbEntity
  8
0
  6
PHANTOM
 62
     3
100
AcDbLine
 10
219.9368281003594
 20
53.79881084798896
 30
0.0
 11
219.7368158932595
 21
53.79881084798896
 31
0.0
  0
LINE
  5
E0
330
2
100
AcDbEntity
  8
0
 62
     3
100
AcDbLine
 10
134.9325174924595
 20
155.5774221208185
 30
0.0
 11
153.7363810177595
 21
155.5774221208185
 31
0.0
  0
LINE
  5
E1
330
2
100
AcDbEntity
  8
0
 62
     3
100
AcDbLine
 10
105.7366938229594
 20
154.5773992326184
 30
0.0
 11
153.7363810177595
 21
154.5773992326184
 31
0.0
  0
LINE
  5
E2
330
2
100
AcDbEntity
  8
0
 62
     3
100
AcDbLine
 10
108.7375254269594
 20
153.0773839739183
 30
0.0
 11
150.7365030881595
 21
153.0773839739183
 31
0.0
  0
LINE
  5
E3
330
2
100
AcDbEntity
  8
0
 62
     3
100
AcDbLine
 10
103.7361902829595
 20
65.79903820398893
 30
0.0
 11
155.7361597653595
 21
65.79903820398893
 31
0.0
  0
LINE
  5
E4
330
2
100
AcDbEntity
  8
0
 62
     3
100
AcDbLine
 10
105.7360453244595
 20
61.79900158288893
 30
0.0
 11
153.7361139889595
 21
61.79900158288893
 31
0.0
  0
LINE
  5
E5
330
2
100
AcDbEntity
  8
0
 62
     3
100
AcDbLine
 10
98.73622842995951
 20
94.79926098228892
 30
0.0
 11
98.73622842995951
 21
63.79900921228895
 31
0.0
  0
LINE
  5
E6
330
2
100
AcDbEntity
  8
0
 62
     3
100
AcDbLine
 10
103.7362665768595
 20
63.79900921228895
 30
0.0
 11
103.7362665768595
 21
94.79926098228892
 31
0.0
  0
LINE
  5
E7
330
2
100
AcDbEntity
  8
0
 62
     3
100
AcDbLine
 10
77.73659416405951
 20
79.09913996098897
 30
0.0
 11
77.73659416405951
 21
86.09917620068896
 31
0.0
  0
LINE
  5
E8
330
2
100
AcDbEntity
  8
0
 62
     3
100
AcDbLine
 10
78.73660751545952
 20
79.09913996098897
 30
0.0
 11
78.73660751545952
 21
85.09917953848896
 31
0.0
  0
LINE
  5
E9
330
2
100
AcDbEntity
  8
0
 62
     3
100
AcDbLine
 10
67.73680874075949
 20
79.09913996098897
 30
0.0
 11
67.73680874075949
 21
86.09917620068896
 31
0.0
  0
LINE
  5
EA
330
2
100
AcDbEntity
  8
0
 62
     3
100
AcDbLine
 10
83.48665424545954
 20
71.09907368068896
 30
0.0
 11
83.48665424545954
 21
68.29904058818893
 31
0.0
  0
LINE
  5
EB
330
2
100
AcDbEntity
  8
0
 62
     3
100
AcDbLine
 10
69.9365482143595
 20
71.09908513008895
 30
0.0
 11
72.73658057995949
 21
68.29905276448895
 31
0.0
  0
LINE
  5
EC
330
2
100
AcDbEntity
  8
0
 62
     3
100
AcDbLine
 10
75.53659914255952
 20
68.29906530308895
 30
0.0
 11
72.73658089605948
 21
71.09908354958895
 31
0.0
  0
LINE
  5
ED
330
2
100
AcDbEntity
  8
0
 62
     3
100
AcDbLine
 10
84.73666616645948
 20
68.29904058818893
 30
0.0
 11
84.73666616645948
 21
65.79903820398893
 31
0.0
  0
ARC
  5
EE
330
2
100
AcDbEntity
  8
0
 62
     3
100
AcDbCircle
 10
72.7365488644595
 20
68.26572054868893
 30
0.0
 40
10.8334326744
100
AcDbArc
 50
59.4897455575
 51
120.5102184703
  0
LINE
  5
EF
330
2
100
AcDbEntity
  8
0
 62
     3
100
AcDbLine
 10
67.23662086685954
 20
77.59912947058897
 30
0.0
 11
67.23662086685954
 21
71.09907368068896
 31
0.0
  0
LINE
  5
F0
330
2
100
AcDbEntity
  8
0
 62
     3
100
AcDbLine
 10
83.68666120735946
 20
77.59912947058897
 30
0.0
 11
83.68666120735946
 21
71.09907368068896
 31
0.0
  0
LINE
  5
F1
330
2
100
AcDbEntity
  8
0
 62
     3
100
AcDbLine
 10
78.23661037645951
 20
71.09907368068896
 30
0.0
 11
78.23661037645951
 21
77.59912947058897
 31
0.0
  0
ARC
  5
F2
330
2
100
AcDbEntity
  8
0
 62
     3
100
AcDbCircle
 10
80.96162506305956
 20
75.87412813548894
 30
0.0
 40
3.225126266499998
100
AcDbArc
 50
32.3349693045
 51
147.6650288742999
  0
LINE
  5
F3
330
2
100
AcDbEntity
  8
0
 62
     3
100
AcDbLine
 10
98.73622842995951
 20
63.79900921228895
 30
0.0
 11
96.73618265355951
 21
63.79900921228895
 31
0.0
  0
LINE
  5
F4
330
2
100
AcDbEntity
  8
0
 62
     3
100
AcDbLine
 10
105.7362742062595
 20
63.79900921228895
 30
0.0
 11
103.7362665768595
 21
63.79900921228895
 31
0.0
  0
LINE
  5
F5
330
2
100
AcDbEntity
  8
0
 62
     3
100
AcDbLine
 10
78.73662916415947
 20
85.09917719688893
 30
0.0
 11
76.73660242735945
 21
87.09921354338893
 31
0.0
  0
LINE
  5
F6
330
2
100
AcDbEntity
  8
0
 62
     3
100
AcDbLine
 10
67.73680874075949
 20
86.09917620068896
 30
0.0
 11
77.73659416405951
 21
86.09917620068896
 31
0.0
  0
LINE
  5
F7
330
2
100
AcDbEntity
  8
0
 62
     3
100
AcDbLine
 10
77.7362818356595
 20
91.29923809408895
 30
0.0
 11
67.73651071755949
 21
91.29923809408895
 31
0.0
  0
LINE
  5
F8
330
2
100
AcDbEntity
  8
0
 62
     3
100
AcDbLine
 10
77.7362818356595
 20
89.29923046468895
 30
0.0
 11
67.73651071755949
 21
89.29923046468895
 31
0.0
  0
LINE
  5
F9
330
2
100
AcDbEntity
  8
0
 62
     3
100
AcDbLine
 10
67.73651071755949
 20
91.29923809408895
 30
0.0
 11
67.73651071755949
 21
89.29923046468895
 31
0.0
  0
LINE
  5
FA
330
2
100
AcDbEntity
  8
0
 62
     3
100
AcDbLine
 10
68.73657413685953
 20
87.09920624138895
 30
0.0
 11
76.73682876785949
 21
87.09920624138895
 31
0.0
  0
LINE
  5
FB
330
2
100
AcDbEntity
  8
0
 62
     3
100
AcDbLine
 10
77.7362818356595
 20
89.29923046468895
 30
0.0
 11
77.7362818356595
 21
91.29923809408895
 31
0.0
  0
LINE
  5
FC
330
2
100
AcDbEntity
  8
0
 62
     3
100
AcDbLine
 10
103.2362742062594
 20
92.79929149988895
 30
0.0
 11
103.2362742062594
 21
107.7994059407888
 31
0.0
  0
LINE
  5
FD
330
2
100
AcDbEntity
  8
0
 62
     3
100
AcDbLine
 10
99.23618265355951
 20
107.7994059407888
 30
0.0
 11
99.23618265355951
 21
92.79929149988895
 31
0.0
  0
LINE
  5
FE
330
2
100
AcDbEntity
  8
0
 62
     3
100
AcDbLine
 10
99.23618265355951
 20
94.79926098228892
 30
0.0
 11
98.73622842995951
 21
94.79926098228892
 31
0.0
  0
LINE
  5
FF
330
2
100
AcDbEntity
  8
0
 62
     3
100
AcDbLine
 10
103.2362742062594
 20
94.79926098228892
 30
0.0
 11
103.7362665768595
 21
94.79926098228892
 31
0.0
  0
LINE
  5
100
330
2
100
AcDbEntity
  8
0
 62
     3
100
AcDbLine
 10
103.2362742062594
 20
98.79931438808895
 30
0.0
 11
99.23618265355951
 21
98.79931438808895
 31
0.0
  0
LINE
  5
101
330
2
100
AcDbEntity
  8
0
 62
     3
100
AcDbLine
 10
103.2362742062594
 20
107.7994059407888
 30
0.0
 11
99.23618265355951
 21
107.7994059407888
 31
0.0
  0
LINE
  5
102
330
2
100
AcDbEntity
  8
0
 62
     3
100
AcDbLine
 10
103.2362742062594
 20
103.7993525350888
 30
0.0
 11
99.23618265355951
 21
103.7993525350888
 31
0.0
  0
LINE
  5
103
330
2
100
AcDbEntity
  8
0
 62
     3
100
AcDbLine
 10
135.7365388508595
 20
79.09913996098897
 30
0.0
 11
135.7365388508595
 21
85.09917953848896
 31
0.0
  0
LINE
  5
104
330
2
100
AcDbEntity
  8
0
 62
     3
100
AcDbLine
 10
134.7365254994595
 20
79.09913996098897
 30
0.0
 11
134.7365254994595
 21
86.09917620068896
 31
0.0
  0
LINE
  5
105
330
2
100
AcDbEntity
  8
0
 62
     3
100
AcDbLine
 10
123.7366695042594
 20
79.09913996098897
 30
0.0
 11
123.7366695042594
 21
85.09917953848896
 31
0.0
  0
LINE
  5
106
330
2
100
AcDbEntity
  8
0
 62
     3
100
AcDbLine
 10
124.7367400761594
 20
79.09913996098897
 30
0.0
 11
124.7367400761594
 21
86.09917620068896
 31
0.0
  0
LINE
  5
107
330
2
100
AcDbEntity
  8
0
 62
     3
100
AcDbLine
 10
121.4865870114595
 20
79.09913996098897
 30
0.0
 11
137.9366273518592
 21
79.09913996098897
 31
0.0
  0
LINE
  5
108
330
2
100
AcDbEntity
  8
0
 62
     3
100
AcDbLine
 10
118.7866730328593
 20
71.09907368068896
 30
0.0
 11
140.6865925427593
 21
71.09907368068896
 31
0.0
  0
LINE
  5
109
330
2
100
AcDbEntity
  8
0
 62
     3
100
AcDbLine
 10
117.7365536328595
 20
68.29904058818893
 30
0.0
 11
141.7365975018595
 21
68.29904058818893
 31
0.0
  0
LINE
  5
10A
330
2
100
AcDbEntity
  8
0
 62
     3
100
AcDbLine
 10
126.9364795497595
 20
71.09908513008895
 30
0.0
 11
129.7365119154594
 21
68.29905276448895
 31
0.0
  0
ARC
  5
10B
330
2
100
AcDbEntity
  8
0
 62
     3
100
AcDbCircle
 10
129.7364801999594
 20
68.26572054868893
 30
0.0
 40
10.8334326744
100
AcDbArc
 50
59.4897455575
 51
120.5102184703
  0
LINE
  5
10C
330
2
100
AcDbEntity
  8
0
 62
     3
100
AcDbLine
 10
118.9865655537595
 20
68.29904058818893
 30
0.0
 11
118.9865655537595
 21
71.09907368068896
 31
0.0
  0
LINE
  5
10D
330
2
100
AcDbEntity
  8
0
 62
     3
100
AcDbLine
 10
117.7365536328595
 20
65.79903820398893
 30
0.0
 11
117.7365536328595
 21
68.29904058818893
 31
0.0
  0
LINE
  5
10E
330
2
100
AcDbEntity
  8
0
 62
     3
100
AcDbLine
 10
124.2365522023594
 20
77.59912947058897
 30
0.0
 11
124.2365522023594
 21
71.09907368068896
 31
0.0
  0
LINE
  5
10F
330
2
100
AcDbEntity
  8
0
 62
     3
100
AcDbLine
 10
118.7866730328593
 20
71.09907368068896
 30
0.0
 11
118.7866730328593
 21
77.59912947058897
 31
0.0
  0
ARC
  5
110
330
2
100
AcDbEntity
  8
0
 62
     3
100
AcDbCircle
 10
121.5116138096594
 20
75.87412813548894
 30
0.0
 40
3.225126266499998
100
AcDbArc
 50
32.3349693045
 51
147.6650288742999
  0
LINE
  5
111
330
2
100
AcDbEntity
  8
0
 62
     3
100
AcDbLine
 10
140.4865855809594
 20
71.09907368068896
 30
0.0
 11
140.4865855809594
 21
68.29904058818893
 31
0.0
  0
LINE
  5
112
330
2
100
AcDbEntity
  8
0
 62
     3
100
AcDbLine
 10
132.5365304780594
 20
68.29906530308895
 30
0.0
 11
129.7365122315595
 21
71.09908354958895
 31
0.0
  0
LINE
  5
113
330
2
100
AcDbEntity
  8
0
 62
     3
100
AcDbLine
 10
141.7365975018595
 20
68.29904058818893
 30
0.0
 11
141.7365975018595
 21
65.79903820398893
 31
0.0
  0
ARC
  5
114
330
2
100
AcDbEntity
  8
0
 62
     3
100
AcDbCircle
 10
137.9615563985594
 20
75.87412813548894
 30
0.0
 40
3.225126266499998
100
AcDbArc
 50
32.3349693045
 51
147.6650288742999
  0
LINE
  5
115
330
2
100
AcDbEntity
  8
0
 62
     3
100
AcDbLine
 10
135.2365417119594
 20
71.09907368068896
 30
0.0
 11
135.2365417119594
 21
77.59912947058897
 31
0.0
  0
LINE
  5
116
330
2
100
AcDbEntity
  8
0
 62
     3
100
AcDbLine
 10
140.6865925427593
 20
77.59912947058897
 30
0.0
 11
140.6865925427593
 21
71.09907368068896
 31
0.0
  0
LINE
  5
117
330
2
100
AcDbEntity
  8
0
 62
     3
100
AcDbLine
 10
125.7365054722595
 20
87.09920624138895
 30
0.0
 11
133.7367601033595
 21
87.09920624138895
 31
0.0
  0
LINE
  5
118
330
2
100
AcDbEntity
  8
0
 62
     3
100
AcDbLine
 10
124.7367400761594
 20
86.09917620068896
 30
0.0
 11
134.7365254994595
 21
86.09917620068896
 31
0.0
  0
LINE
  5
119
330
2
100
AcDbEntity
  8
0
 62
     3
100
AcDbLine
 10
134.7362513180595
 20
91.29923809408895
 30
0.0
 11
124.7364420529595
 21
91.29923809408895
 31
0.0
  0
LINE
  5
11A
330
2
100
AcDbEntity
  8
0
 62
     3
100
AcDbLine
 10
134.7362513180595
 20
89.29923046468895
 30
0.0
 11
124.7364420529595
 21
89.29923046468895
 31
0.0
  0
LINE
  5
11B
330
2
100
AcDbEntity
  8
0
 62
     3
100
AcDbLine
 10
124.7364420529595
 20
91.29923809408895
 30
0.0
 11
124.7364420529595
 21
89.29923046468895
 31
0.0
  0
LINE
  5
11C
330
2
100
AcDbEntity
  8
0
 62
     3
100
AcDbLine
 10
123.7366376088594
 20
85.09901366768895
 30
0.0
 11
125.7366508587595
 21
87.09903652718892
 31
0.0
  0
LINE
  5
11D
330
2
100
AcDbEntity
  8
0
 62
     3
100
AcDbLine
 10
134.7362513180595
 20
89.29923046468895
 30
0.0
 11
134.7362513180595
 21
91.29923809408895
 31
0.0
  0
LINE
  5
11E
330
2
100
AcDbEntity
  8
0
 62
     3
100
AcDbLine
 10
135.7365604996594
 20
85.09917719688893
 30
0.0
 11
133.7365337627594
 21
87.09921354338893
 31
0.0
  0
ARC
  5
11F
330
2
100
AcDbEntity
  8
0
 62
     3
100
AcDbCircle
 10
108.7366098996594
 20
150.0774297502184
 30
0.0
 40
3.000023365
100
AcDbArc
 50
89.99992737239997
 51
179.9999093863
  0
LINE
  5
120
330
2
100
AcDbEntity
  8
0
 62
     3
100
AcDbLine
 10
105.7369989987595
 20
155.5774221208185
 30
0.0
 11
124.5409006711595
 21
155.5774221208185
 31
0.0
  0
LINE
  5
121
330
2
100
AcDbEntity
  8
0
 62
     3
100
AcDbLine
 10
77.93250986305951
 20
155.5773839739185
 30
0.0
 11
96.73637338845949
 21
155.5773839739185
 31
0.0
  0
LINE
  5
122
330
2
100
AcDbEntity
  8
0
 62
     3
100
AcDbLine
 10
72.73672933725953
 20
157.6272146215185
 30
0.0
 11
82.21978811215953
 21
163.1022619089183
 31
0.0
  0
ARC
  5
123
330
2
100
AcDbEntity
  8
0
 62
     3
100
AcDbCircle
 10
93.73619028295951
 20
150.0774297502184
 30
0.0
 40
3.000023365
100
AcDbArc
 50
0.0
 51
89.99992737239997
  0
LINE
  5
124
330
2
100
AcDbEntity
  8
0
 62
     3
100
AcDbLine
 10
99.23641153535948
 20
155.5774984148185
 30
0.0
 11
99.23641153535948
 21
144.5773992326184
 31
0.0
  0
LINE
  5
125
330
2
100
AcDbEntity
  8
0
 62
     3
100
AcDbLine
 10
103.2363886471594
 20
155.5774984148185
 30
0.0
 11
103.2363886471594
 21
144.5773992326184
 31
0.0
  0
LINE
  5
126
330
2
100
AcDbEntity
  8
0
 62
     3
100
AcDbLine
 10
103.2363886471594
 20
144.5773992326184
 30
0.0
 11
99.23641153535948
 21
144.5773992326184
 31
0.0
  0
LINE
  5
127
330
2
100
AcDbEntity
  8
0
 62
     3
100
AcDbLine
 10
99.23641153535948
 20
150.5774602678185
 30
0.0
 11
100.2364725705594
 21
150.5774602678185
 31
0.0
  0
LINE
  5
128
330
2
100
AcDbEntity
  8
0
 62
     3
100
AcDbLine
 10
103.2363886471594
 20
150.5774602678185
 30
0.0
 11
102.2363276120594
 21
150.5774602678185
 31
0.0
  0
LINE
  5
129
330
2
100
AcDbEntity
  8
0
 62
     3
100
AcDbLine
 10
103.2363886471594
 20
155.5774984148185
 30
0.0
 11
99.23641153535948
 21
155.5774984148185
 31
0.0
  0
LINE
  5
12A
330
2
100
AcDbEntity
  8
0
 62
     3
100
AcDbLine
 10
102.2363276120594
 20
159.0774831560185
 30
0.0
 11
100.2364725705594
 21
159.0774831560185
 31
0.0
  0
ARC
  5
12B
330
2
100
AcDbEntity
  8
0
 62
     3
100
AcDbCircle
 10
129.7365564938594
 20
168.5776052263185
 30
0.0
 40
14.0001177788
100
AcDbArc
 50
236.5519805638999
 51
303.4481271253
  0
LINE
  5
12C
330
2
100
AcDbEntity
  8
0
 62
     3
100
AcDbLine
 10
120.2536397837594
 20
163.1024772374185
 30
0.0
 11
129.7367150767594
 21
157.6274204133184
 31
0.0
  0
LINE
  5
12D
330
2
100
AcDbEntity
  8
0
 62
     3
100
AcDbLine
 10
129.7367369666594
 20
157.6272527685184
 30
0.0
 11
139.2197957415594
 21
163.1023000558184
 31
0.0
  0
LINE
  5
12E
330
2
100
AcDbEntity
  8
0
 62
     3
100
AcDbLine
 10
191.7361826535594
 20
89.29923046468895
 30
0.0
 11
181.7363733884593
 21
89.29923046468895
 31
0.0
  0
LINE
  5
12F
330
2
100
AcDbEntity
  8
0
 62
     3
100
AcDbLine
 10
191.7361826535594
 20
91.29923809408895
 30
0.0
 11
181.7363733884593
 21
91.29923809408895
 31
0.0
  0
ARC
  5
130
330
2
100
AcDbEntity
  8
0
 62
     3
100
AcDbCircle
 10
186.7364115353595
 20
68.26572054868893
 30
0.0
 40
10.8334326744
100
AcDbArc
 50
59.4897455575
 51
120.5102184703
  0
LINE
  5
131
330
2
100
AcDbEntity
  8
0
 62
     3
100
AcDbLine
 10
181.7366714116595
 20
86.09917620068896
 30
0.0
 11
191.7364568349594
 21
86.09917620068896
 31
0.0
  0
LINE
  5
132
330
2
100
AcDbEntity
  8
0
 62
     3
100
AcDbLine
 10
182.7364368077595
 20
87.09920624138895
 30
0.0
 11
190.7366914387594
 21
87.09920624138895
 31
0.0
  0
LINE
  5
133
330
2
100
AcDbEntity
  8
0
 62
     3
100
AcDbLine
 10
178.4865183469594
 20
79.09913996098897
 30
0.0
 11
194.9365586873593
 21
79.09913996098897
 31
0.0
  0
LINE
  5
134
330
2
100
AcDbEntity
  8
0
 62
     3
100
AcDbLine
 10
189.5364618134595
 20
68.29906530308895
 30
0.0
 11
186.7364435669595
 21
71.09908354958895
 31
0.0
  0
LINE
  5
135
330
2
100
AcDbEntity
  8
0
 62
     3
100
AcDbLine
 10
174.7364849682595
 20
68.29904058818893
 30
0.0
 11
198.7365288373595
 21
68.29904058818893
 31
0.0
  0
LINE
  5
136
330
2
100
AcDbEntity
  8
0
 62
     3
100
AcDbLine
 10
175.7866043683594
 20
71.09907368068896
 30
0.0
 11
197.6865238782593
 21
71.09907368068896
 31
0.0
  0
LINE
  5
137
330
2
100
AcDbEntity
  8
0
 62
     3
100
AcDbLine
 10
162.7359766598594
 20
61.79900158288893
 30
0.0
 11
210.7360453244595
 21
61.79900158288893
 31
0.0
  0
LINE
  5
138
330
2
100
AcDbEntity
  8
0
 62
     3
100
AcDbLine
 10
160.7361216183595
 20
65.79903820398893
 30
0.0
 11
212.7360911008594
 21
65.79903820398893
 31
0.0
  0
LINE
  5
139
330
2
100
AcDbEntity
  8
0
 62
     3
100
AcDbLine
 10
181.7366714116595
 20
79.09913996098897
 30
0.0
 11
181.7366714116595
 21
86.09917620068896
 31
0.0
  0
LINE
  5
13A
330
2
100
AcDbEntity
  8
0
 62
     3
100
AcDbLine
 10
180.7366008397593
 20
79.09913996098897
 30
0.0
 11
180.7366008397593
 21
85.09917953848896
 31
0.0
  0
LINE
  5
13B
330
2
100
AcDbEntity
  8
0
 62
     3
100
AcDbLine
 10
155.7361597653595
 20
94.79926098228892
 30
0.0
 11
155.7361597653595
 21
63.79900921228895
 31
0.0
  0
LINE
  5
13C
330
2
100
AcDbEntity
  8
0
 62
     3
100
AcDbLine
 10
160.7361979123595
 20
63.79900921228895
 30
0.0
 11
160.7361979123595
 21
94.79926098228892
 31
0.0
  0
LINE
  5
13D
330
2
100
AcDbEntity
  8
0
 62
     3
100
AcDbLine
 10
155.7361597653595
 20
63.79900921228895
 30
0.0
 11
153.7361139889595
 21
63.79900921228895
 31
0.0
  0
LINE
  5
13E
330
2
100
AcDbEntity
  8
0
 62
     3
100
AcDbLine
 10
162.7362436886595
 20
63.79900921228895
 30
0.0
 11
160.7361979123595
 21
63.79900921228895
 31
0.0
  0
LINE
  5
13F
330
2
100
AcDbEntity
  8
0
 62
     3
100
AcDbLine
 10
183.9364108852595
 20
71.09908513008895
 30
0.0
 11
186.7364432508594
 21
68.29905276448895
 31
0.0
  0
LINE
  5
140
330
2
100
AcDbEntity
  8
0
 62
     3
100
AcDbLine
 10
175.9864968892594
 20
68.29904058818893
 30
0.0
 11
175.9864968892594
 21
71.09907368068896
 31
0.0
  0
LINE
  5
141
330
2
100
AcDbEntity
  8
0
 62
     3
100
AcDbLine
 10
174.7364849682595
 20
65.79903820398893
 30
0.0
 11
174.7364849682595
 21
68.29904058818893
 31
0.0
  0
ARC
  5
142
330
2
100
AcDbEntity
  8
0
 62
     3
100
AcDbCircle
 10
178.5115451451595
 20
75.87412813548894
 30
0.0
 40
3.225126266499998
100
AcDbArc
 50
32.3349693045
 51
147.6650288742999
  0
LINE
  5
143
330
2
100
AcDbEntity
  8
0
 62
     3
100
AcDbLine
 10
175.7866043683594
 20
71.09907368068896
 30
0.0
 11
175.7866043683594
 21
77.59912947058897
 31
0.0
  0
LINE
  5
144
330
2
100
AcDbEntity
  8
0
 62
     3
100
AcDbLine
 10
181.2364835377595
 20
77.59912947058897
 30
0.0
 11
181.2364835377595
 21
71.09907368068896
 31
0.0
  0
LINE
  5
145
330
2
100
AcDbEntity
  8
0
 62
     3
100
AcDbLine
 10
160.2362055417595
 20
92.79929149988895
 30
0.0
 11
160.2362055417595
 21
107.7994059407888
 31
0.0
  0
LINE
  5
146
330
2
100
AcDbEntity
  8
0
 62
     3
100
AcDbLine
 10
156.2361521359594
 20
107.7994059407888
 30
0.0
 11
156.2361521359594
 21
92.79929149988895
 31
0.0
  0
LINE
  5
147
330
2
100
AcDbEntity
  8
0
 62
     3
100
AcDbLine
 10
156.2361521359594
 20
94.79926098228892
 30
0.0
 11
155.7361597653595
 21
94.79926098228892
 31
0.0
  0
LINE
  5
148
330
2
100
AcDbEntity
  8
0
 62
     3
100
AcDbLine
 10
160.2362055417595
 20
94.79926098228892
 30
0.0
 11
160.7361979123595
 21
94.79926098228892
 31
0.0
  0
LINE
  5
149
330
2
100
AcDbEntity
  8
0
 62
     3
100
AcDbLine
 10
160.2362055417595
 20
107.7994059407888
 30
0.0
 11
156.2361521359594
 21
107.7994059407888
 31
0.0
  0
LINE
  5
14A
330
2
100
AcDbEntity
  8
0
 62
     3
100
AcDbLine
 10
160.2362055417595
 20
103.7993525350888
 30
0.0
 11
156.2361521359594
 21
103.7993525350888
 31
0.0
  0
LINE
  5
14B
330
2
100
AcDbEntity
  8
0
 62
     3
100
AcDbLine
 10
160.2362055417595
 20
98.79931438808895
 30
0.0
 11
156.2361521359594
 21
98.79931438808895
 31
0.0
  0
LINE
  5
14C
330
2
100
AcDbEntity
  8
0
 62
     3
100
AcDbLine
 10
181.7363733884593
 20
91.29923809408895
 30
0.0
 11
181.7363733884593
 21
89.29923046468895
 31
0.0
  0
LINE
  5
14D
330
2
100
AcDbEntity
  8
0
 62
     3
100
AcDbLine
 10
180.7365689443593
 20
85.09901366768895
 30
0.0
 11
182.7365821942594
 21
87.09903652718892
 31
0.0
  0
LINE
  5
14E
330
2
100
AcDbEntity
  8
0
 62
     3
100
AcDbLine
 10
191.7364568349594
 20
79.09913996098897
 30
0.0
 11
191.7364568349594
 21
86.09917620068896
 31
0.0
  0
LINE
  5
14F
330
2
100
AcDbEntity
  8
0
 62
     3
100
AcDbLine
 10
192.7364701863594
 20
79.09913996098897
 30
0.0
 11
192.7364701863594
 21
85.09917953848896
 31
0.0
  0
LINE
  5
150
330
2
100
AcDbEntity
  8
0
 62
     3
100
AcDbLine
 10
212.7367777463593
 20
107.7994059407888
 30
0.0
 11
212.7367777463593
 21
63.79900921228895
 31
0.0
  0
LINE
  5
151
330
2
100
AcDbEntity
  8
0
 62
     3
100
AcDbLine
 10
197.4865169163593
 20
71.09907368068896
 30
0.0
 11
197.4865169163593
 21
68.29904058818893
 31
0.0
  0
LINE
  5
152
330
2
100
AcDbEntity
  8
0
 62
     3
100
AcDbLine
 10
198.7365288373595
 20
68.29904058818893
 30
0.0
 11
198.7365288373595
 21
65.79903820398893
 31
0.0
  0
ARC
  5
153
330
2
100
AcDbEntity
  8
0
 62
     3
100
AcDbCircle
 10
194.9614877339595
 20
75.87412813548894
 30
0.0
 40
3.225126266499998
100
AcDbArc
 50
32.3349693045
 51
147.6650288742999
  0
LINE
  5
154
330
2
100
AcDbEntity
  8
0
 62
     3
100
AcDbLine
 10
192.2364730473594
 20
71.09907368068896
 30
0.0
 11
192.2364730473594
 21
77.59912947058897
 31
0.0
  0
LINE
  5
155
330
2
100
AcDbEntity
  8
0
 62
     3
100
AcDbLine
 10
197.6865238782593
 20
77.59912947058897
 30
0.0
 11
197.6865238782593
 21
71.09907368068896
 31
0.0
  0
LINE
  5
156
330
2
100
AcDbEntity
  8
0
  6
PHANTOM
 62
     3
100
AcDbLine
 10
226.9368281003595
 20
71.89880169278895
 30
0.0
 11
226.9368281003595
 21
62.29879558928894
 31
0.0
  0
LINE
  5
157
330
2
100
AcDbEntity
  8
0
  6
PHANTOM
 62
     3
100
AcDbLine
 10
226.4368128415592
 20
62.29879558928894
 30
0.0
 11
226.4368128415592
 21
71.89881695158894
 31
0.0
  0
LINE
  5
158
330
2
100
AcDbEntity
  8
0
  6
PHANTOM
 62
     3
100
AcDbLine
 10
223.4368281003594
 20
71.89881695158894
 30
0.0
 11
223.4368281003594
 21
62.29879558928894
 31
0.0
  0
LINE
  5
159
330
2
100
AcDbEntity
  8
0
  6
PHANTOM
 62
     3
100
AcDbLine
 10
222.9368281003595
 20
71.89880169278895
 30
0.0
 11
222.9368281003595
 21
62.29879558928894
 31
0.0
  0
LINE
  5
15A
330
2
100
AcDbEntity
  8
0
 62
     3
100
AcDbLine
 10
212.7367777463593
 20
63.79900921228895
 30
0.0
 11
210.7367701169593
 21
63.79900921228895
 31
0.0
  0
ARC
  5
15B
330
2
100
AcDbEntity
  8
0
  6
PHANTOM
 62
     3
100
AcDbCircle
 10
219.7368158932595
 20
60.29879558928894
 30
0.0
 40
2.0
100
AcDbArc
 50
89.99998201389999
 51
179.9999640277999
  0
LINE
  5
15C
330
2
100
AcDbEntity
  8
0
  6
PHANTOM
 62
     3
100
AcDbLine
 10
226.4368227759595
 20
55.39880587368895
 30
0.0
 11
226.9368230538594
 21
55.89880665738895
 31
0.0
  0
LINE
  5
15D
330
2
100
AcDbEntity
  8
0
  6
PHANTOM
 62
     3
100
AcDbLine
 10
222.9368295970595
 20
55.89879384478895
 30
0.0
 11
223.4368303807594
 21
55.39879356678895
 31
0.0
  0
LINE
  5
15E
330
2
100
AcDbEntity
  8
0
  6
PHANTOM
 62
     3
100
AcDbLine
 10
226.9368433591595
 20
55.89883221028896
 30
0.0
 11
222.9368433591595
 21
55.89883221028896
 31
0.0
  0
LINE
  5
15F
330
2
100
AcDbEntity
  8
0
  6
PHANTOM
 62
     3
100
AcDbLine
 10
223.4368281003594
 20
60.29879558928894
 30
0.0
 11
223.4368281003594
 21
55.39881695158893
 31
0.0
  0
LINE
  5
160
330
2
100
AcDbEntity
  8
0
  6
PHANTOM
 62
     3
100
AcDbLine
 10
226.4368128415592
 20
60.29879558928894
 30
0.0
 11
226.4368128415592
 21
55.39881695158893
 31
0.0
  0
LINE
  5
161
330
2
100
AcDbEntity
  8
0
  6
PHANTOM
 62
     3
100
AcDbLine
 10
226.9368318701594
 20
60.29879835788896
 30
0.0
 11
226.9368166113594
 21
55.89881972018895
 31
0.0
  0
LINE
  5
162
330
2
100
AcDbEntity
  8
0
  6
PHANTOM
 62
     3
100
AcDbLine
 10
222.9368281003595
 20
55.89881695158894
 30
0.0
 11
222.9368281003595
 21
60.29879558928894
 31
0.0
  0
ARC
  5
163
330
2
100
AcDbEntity
  8
0
  6
PHANTOM
 62
     3
100
AcDbCircle
 10
223.0169214841593
 20
72.74889934898893
 30
0.0
 40
1.5
100
AcDbArc
 50
104.8319836834
 51
174.9999923478
  0
LINE
  5
164
330
2
100
AcDbEntity
  8
0
  6
PHANTOM
 62
     3
100
AcDbLine
 10
221.4368164868595
 20
71.89880575128896
 30
0.0
 11
221.5226289972594
 21
72.87964773918895
 31
0.0
  0
LINE
  5
165
330
2
100
AcDbEntity
  8
0
  6
PHANTOM
 62
     3
100
AcDbLine
 10
225.8028480689595
 20
73.99881853368896
 30
0.0
 11
224.9368226211595
 21
74.49881847408895
 31
0.0
  0
LINE
  5
166
330
2
100
AcDbEntity
  8
0
  6
PHANTOM
 62
     3
100
AcDbLine
 10
222.3387294754595
 20
72.99881135128896
 30
0.0
 11
224.9368016894595
 21
74.49880878828896
 31
0.0
  0
LINE
  5
167
330
2
100
AcDbEntity
  8
0
 62
     3
100
AcDbLine
 10
191.7361826535594
 20
89.29923046468895
 30
0.0
 11
191.7361826535594
 21
91.29923809408895
 31
0.0
  0
LINE
  5
168
330
2
100
AcDbEntity
  8
0
 62
     3
100
AcDbLine
 10
192.7364918350593
 20
85.09917719688893
 30
0.0
 11
190.7364650982595
 21
87.09921354338893
 31
0.0
  0
LINE
  5
169
330
2
100
AcDbEntity
  8
0
 62
     3
100
AcDbLine
 10
212.7367777463593
 20
94.79926098228892
 30
0.0
 11
211.7367548581595
 21
94.79926098228892
 31
0.0
  0
LINE
  5
16A
330
2
100
AcDbEntity
  8
0
 62
     3
100
AcDbLine
 10
211.7367548581595
 20
94.79926098228892
 30
0.0
 11
211.7367548581595
 21
92.79929149988895
 31
0.0
  0
LINE
  5
16B
330
2
100
AcDbEntity
  8
0
 62
     3
100
AcDbLine
 10
217.7368158932595
 20
107.7994059407888
 30
0.0
 11
212.7367777463593
 21
107.7994059407888
 31
0.0
  0
LINE
  5
16C
330
2
100
AcDbEntity
  8
0
 62
     3
100
AcDbLine
 10
217.7368158932595
 20
103.7993525350888
 30
0.0
 11
212.7367777463593
 21
103.7993525350888
 31
0.0
  0
LINE
  5
16D
330
2
100
AcDbEntity
  8
0
 62
     3
100
AcDbLine
 10
217.7368158932595
 20
98.79931438808895
 30
0.0
 11
212.7367777463593
 21
98.79931438808895
 31
0.0
  0
LINE
  5
16E
330
2
100
AcDbEntity
  8
0
  6
PHANTOM
 62
     3
100
AcDbLine
 10
217.7368158932595
 20
109.2987345540888
 30
0.0
 11
217.7368158932595
 21
107.7994059407888
 31
0.0
  0
ARC
  5
16F
330
2
100
AcDbEntity
  8
0
 62
     3
100
AcDbCircle
 10
186.7365641232595
 20
168.5776052263185
 30
0.0
 40
14.0001177788
100
AcDbArc
 50
236.5519805638999
 51
303.4481271253
  0
LINE
  5
170
330
2
100
AcDbEntity
  8
0
 62
     3
100
AcDbLine
 10
186.7367445960594
 20
157.6272527685184
 30
0.0
 11
196.2198033709595
 21
163.1023000558184
 31
0.0
  0
LINE
  5
171
330
2
100
AcDbEntity
  8
0
 62
     3
100
AcDbLine
 10
165.7375330563595
 20
153.0773839739183
 30
0.0
 11
207.7365107175594
 21
153.0773839739183
 31
0.0
  0
LINE
  5
172
330
2
100
AcDbEntity
  8
0
 62
     3
100
AcDbLine
 10
162.7367014523595
 20
154.5773992326184
 30
0.0
 11
210.7363886471595
 21
154.5773992326184
 31
0.0
  0
LINE
  5
173
330
2
100
AcDbEntity
  8
0
 62
     3
100
AcDbLine
 10
162.7370066281594
 20
155.5774221208185
 30
0.0
 11
181.5409083005593
 21
155.5774221208185
 31
0.0
  0
ARC
  5
174
330
2
100
AcDbEntity
  8
0
 62
     3
100
AcDbCircle
 10
165.7363123532595
 20
150.0774678972184
 30
0.0
 40
3.000023365
100
AcDbArc
 50
89.99992737239997
 51
179.9999093863
  0
ARC
  5
175
330
2
100
AcDbEntity
  8
0
 62
     3
100
AcDbCircle
 10
150.7361979123595
 20
150.0774297502184
 30
0.0
 40
3.000023365
100
AcDbArc
 50
0.0
 51
89.99992737239997
  0
LINE
  5
176
330
2
100
AcDbEntity
  8
0
 62
     3
100
AcDbLine
 10
160.2363962765594
 20
155.5775365617184
 30
0.0
 11
160.2363962765594
 21
144.5773992326184
 31
0.0
  0
LINE
  5
177
330
2
100
AcDbEntity
  8
0
 62
     3
100
AcDbLine
 10
156.2364191647595
 20
155.5775365617184
 30
0.0
 11
156.2364191647595
 21
144.5773992326184
 31
0.0
  0
LINE
  5
178
330
2
100
AcDbEntity
  8
0
 62
     3
100
AcDbLine
 10
156.2364191647595
 20
150.5774984148185
 30
0.0
 11
157.2364801999594
 21
150.5774984148185
 31
0.0
  0
LINE
  5
179
330
2
100
AcDbEntity
  8
0
 62
     3
100
AcDbLine
 10
160.2363962765594
 20
144.5773992326184
 30
0.0
 11
156.2364191647595
 21
144.5773992326184
 31
0.0
  0
LINE
  5
17A
330
2
100
AcDbEntity
  8
0
 62
     3
100
AcDbLine
 10
160.2363962765594
 20
150.5774984148185
 30
0.0
 11
159.2363352414595
 21
150.5774984148185
 31
0.0
  0
LINE
  5
17B
330
2
100
AcDbEntity
  8
0
 62
     3
100
AcDbLine
 10
160.2363962765594
 20
155.5775365617184
 30
0.0
 11
156.2364191647595
 21
155.5775365617184
 31
0.0
  0
LINE
  5
17C
330
2
100
AcDbEntity
  8
0
 62
     3
100
AcDbLine
 10
159.2363352414595
 20
159.0775213030185
 30
0.0
 11
157.2364801999594
 21
159.0775213030185
 31
0.0
  0
LINE
  5
17D
330
2
100
AcDbEntity
  8
0
 62
     3
100
AcDbLine
 10
177.2536474131594
 20
163.1024772374185
 30
0.0
 11
186.7367227060594
 21
157.6274204133184
 31
0.0
  0
LINE
  5
17E
330
2
100
AcDbEntity
  8
0
 62
     3
100
AcDbLine
 10
191.9325251218593
 20
155.5774221208185
 30
0.0
 11
210.7363886471595
 21
155.5774221208185
 31
0.0
  0
ARC
  5
17F
330
2
100
AcDbEntity
  8
0
 62
     3
100
AcDbCircle
 10
207.7365870114594
 20
150.0774678972184
 30
0.0
 40
3.000023365
100
AcDbArc
 50
0.0
 51
89.99992737239997
  0
LINE
  5
180
330
2
100
AcDbEntity
  8
0
 62
     3
100
AcDbLine
 10
217.7367014523595
 20
148.5774526384185
 30
0.0
 11
212.7366633053594
 21
148.5774526384185
 31
0.0
  0
LINE
  5
181
330
2
100
AcDbEntity
  8
0
 62
     3
100
AcDbLine
 10
217.7367014523595
 20
150.5774602678185
 30
0.0
 11
212.7366633053594
 21
150.5774602678185
 31
0.0
  0
LINE
  5
182
330
2
100
AcDbEntity
  8
0
 62
     3
100
AcDbLine
 10
217.7367014523595
 20
144.5773992326184
 30
0.0
 11
212.7366633053594
 21
144.5773992326184
 31
0.0
  0
LINE
  5
183
330
2
100
AcDbEntity
  8
0
 62
     3
100
AcDbLine
 10
214.7366709347594
 20
159.0775594499183
 30
0.0
 11
217.7366633053595
 21
159.0775594499183
 31
0.0
  0
LINE
  5
184
330
2
100
AcDbEntity
  8
0
 62
     3
100
AcDbLine
 10
217.7367014523595
 20
155.5774602678185
 30
0.0
 11
212.7366633053594
 21
155.5774602678185
 31
0.0
  0
ARC
  5
185
330
2
100
AcDbEntity
  8
0
  6
PHANTOM
 62
     3
100
AcDbCircle
 10
228.3368219968595
 20
53.79881084798896
 30
0.0
 40
1.5999994278
100
AcDbArc
 50
0.0
 51
89.99998201389999
  0
LINE
  5
186
330
2
100
AcDbEntity
  8
0
  6
PHANTOM
 62
     3
100
AcDbLine
 10
232.1368250485595
 20
60.29879558928894
 30
0.0
 11
232.1368250485595
 21
29.79879558928894
 31
0.0
  0
LINE
  5
187
330
2
100
AcDbEntity
  8
0
  6
PHANTOM
 62
     3
100
AcDbLine
 10
230.1368250485595
 20
60.29879558928894
 30
0.0
 11
230.1368250485595
 21
29.79879558928894
 31
0.0
  0
LINE
  5
188
330
2
100
AcDbEntity
  8
0
  6
PHANTOM
 62
     3
100
AcDbLine
 10
249.3369593259595
 20
27.79881084798896
 30
0.0
 11
249.3369593259595
 21
42.79881084798893
 31
0.0
  0
LINE
  5
189
330
2
100
AcDbEntity
  8
0
  6
PHANTOM
 62
     3
100
AcDbLine
 10
249.3369593259595
 20
42.79881084798893
 30
0.0
 11
232.1368250485595
 21
42.79881084798893
 31
0.0
  0
LINE
  5
18A
330
2
100
AcDbEntity
  8
0
  6
PHANTOM
 62
     3
100
AcDbLine
 10
230.1368174191595
 20
29.79879558928894
 30
0.0
 11
232.1368174191595
 21
29.79879558928894
 31
0.0
  0
LINE
  5
18B
330
2
100
AcDbEntity
  8
0
  6
PHANTOM
 62
     3
100
AcDbLine
 10
228.3368219968595
 20
53.79881084798896
 30
0.0
 11
228.3368219968595
 21
42.79881084798893
 31
0.0
  0
LINE
  5
18C
330
2
100
AcDbEntity
  8
0
  6
PHANTOM
 62
     3
100
AcDbLine
 10
229.9368128415594
 20
53.79881084798896
 30
0.0
 11
229.9368128415594
 21
42.79881084798893
 31
0.0
  0
LINE
  5
18D
330
2
100
AcDbEntity
  8
0
  6
PHANTOM
 62
     3
100
AcDbLine
 10
230.1368250485595
 20
45.79879558928894
 30
0.0
 11
232.1368250485595
 21
45.79879558928894
 31
0.0
  0
LINE
  5
18E
330
2
100
AcDbEntity
  8
0
  6
PHANTOM
 62
     3
100
AcDbLine
 10
230.1368250485595
 20
43.29879558928894
 30
0.0
 11
232.1368250485595
 21
43.29879558928894
 31
0.0
  0
LINE
  5
18F
330
2
100
AcDbEntity
  8
0
  6
PHANTOM
 62
     3
100
AcDbLine
 10
228.3368219968595
 20
42.79881084798893
 30
0.0
 11
229.9368128415594
 21
42.79881084798893
 31
0.0
  0
LINE
  5
190
330
2
100
AcDbEntity
  8
0
  6
PHANTOM
 62
     3
100
AcDbLine
 10
229.9368281003594
 20
53.79881084798896
 30
0.0
 11
230.1368250485595
 21
53.79881084798896
 31
0.0
  0
LINE
  5
191
330
2
100
AcDbEntity
  8
0
  6
PHANTOM
 62
     3
100
AcDbLine
 10
228.0368189450594
 20
53.79881084798896
 30
0.0
 11
228.0368189450594
 21
53.72146404628896
 31
0.0
  0
ARC
  5
192
330
2
100
AcDbEntity
  8
0
  6
PHANTOM
 62
     3
100
AcDbCircle
 10
227.5368189450595
 20
53.79881084798896
 30
0.0
 40
0.5
100
AcDbArc
 50
270.0000179861
 51
0.0
  0
LINE
  5
193
330
2
100
AcDbEntity
  8
0
 62
     3
100
AcDbLine
 10
279.423242886041
 20
139.5774373796184
 30
0.0
 11
337.4237311673411
 21
139.5774373796184
 31
0.0
  0
ARC
  5
194
330
2
100
AcDbEntity
  8
0
  6
PHANTOM
 62
     3
100
AcDbCircle
 10
230.1368250485595
 20
60.29879558928894
 30
0.0
 40
2.0
100
AcDbArc
 50
0.0
 51
89.99998201389999
  0
LINE
  5
195
330
2
100
AcDbEntity
  8
0
  6
PHANTOM
 62
     3
100
AcDbLine
 10
228.4368169236595
 20
71.89880557008895
 30
0.0
 11
228.3510044132595
 21
72.87964755798895
 31
0.0
  0
ARC
  5
196
330
2
100
AcDbEntity
  8
0
  6
PHANTOM
 62
     3
100
AcDbCircle
 10
226.8567194577595
 20
72.74889934898893
 30
0.0
 40
1.5
100
AcDbArc
 50
4.999995585699999
 51
75.16798034439999
  0
ARC
  5
197
330
2
100
AcDbEntity
  8
0
 62
     3
100
AcDbCircle
 10
264.8245490384411
 20
148.3240041521185
 30
0.0
 40
4.0000319481
100
AcDbArc
 50
249.4912548520999
 51
334.1116193663
  0
ARC
  5
198
330
2
100
AcDbEntity
  8
0
  6
PHANTOM
 62
     3
100
AcDbCircle
 10
264.8245490384411
 20
148.3240041521185
 30
0.0
 40
5.500044822699998
100
AcDbArc
 50
282.5278416787
 51
331.8043985401
  0
LINE
  5
199
330
2
100
AcDbEntity
  8
0
 62
     3
100
AcDbLine
 10
259.4230910616408
 20
150.5775377786186
 30
0.0
 11
263.6231347707411
 21
155.5775896464185
 31
0.0
  0
ARC
  5
19A
330
2
100
AcDbEntity
  8
0
  6
PHANTOM
 62
     3
100
AcDbCircle
 10
260.9231055569411
 20
150.0311193254185
 30
0.0
 40
3.000023365
100
AcDbArc
 50
139.9696459817
 51
179.9999093863
  0
ARC
  5
19B
330
2
100
AcDbEntity
  8
0
  6
PHANTOM
 62
     3
100
AcDbCircle
 10
263.923136074541
 20
148.5775289324184
 30
0.0
 40
6.000049114199999
100
AcDbArc
 50
179.9999640277999
 51
290.4305171700998
  0
ARC
  5
19C
330
2
100
AcDbEntity
  8
0
  6
PHANTOM
 62
     3
100
AcDbCircle
 10
263.923136074541
 20
148.5775289324184
 30
0.0
 40
4.500036239599999
100
AcDbArc
 50
179.9999640277999
 51
291.7611473034
  0
LINE
  5
19D
330
2
100
AcDbEntity
  8
0
 62
     3
100
AcDbLine
 10
259.4230722487409
 20
148.5775433125185
 30
0.0
 11
263.4231294316411
 21
144.5774945591185
 31
0.0
  0
LINE
  5
19E
330
2
100
AcDbEntity
  8
0
 62
     3
100
AcDbLine
 10
259.423090298141
 20
148.5775289324184
 30
0.0
 11
259.423090298141
 21
150.5775365617184
 31
0.0
  0
LINE
  5
19F
330
2
100
AcDbEntity
  8
0
  6
PHANTOM
 62
     3
100
AcDbLine
 10
257.923075039341
 20
148.5775289324184
 30
0.0
 11
257.923075039341
 21
150.0311193254185
 31
0.0
  0
LINE
  5
1A0
330
2
100
AcDbEntity
  8
0
 62
     3
100
AcDbLine
 10
263.6231286268411
 20
155.5775486546183
 30
0.0
 11
263.623132441641
 21
159.0776478368185
 31
0.0
  0
ARC
  5
1A1
330
2
100
AcDbEntity
  8
0
  6
PHANTOM
 62
     3
100
AcDbCircle
 10
260.623079617041
 20
156.6704091814185
 30
0.0
 40
1.500012576599998
100
AcDbArc
 50
319.9701395766
 51
0.0005097597000514
  0
LINE
  5
1A2
330
2
100
AcDbEntity
  8
0
  6
PHANTOM
 62
     3
100
AcDbLine
 10
258.6259733290408
 20
151.9607301006185
 30
0.0
 11
261.771663268641
 21
155.7055989514184
 31
0.0
  0
ARC
  5
1A3
330
2
100
AcDbEntity
  8
0
  6
PHANTOM
 62
     3
100
AcDbCircle
 10
260.623079617041
 20
156.6704091814185
 30
0.0
 40
3.0000495911
100
AcDbArc
 50
319.9701395766
 51
0.0005097597000514
  0
ARC
  5
1A4
330
2
100
AcDbEntity
  8
0
 62
     3
100
AcDbCircle
 10
279.423242886041
 20
144.5774755266185
 30
0.0
 40
5.000040531199998
100
AcDbArc
 50
179.9999640277999
 51
269.9999460416999
  0
LINE
  5
1A5
330
2
100
AcDbEntity
  8
0
 62
     3
100
AcDbLine
 10
268.423181850941
 20
146.5774831560185
 30
0.0
 11
274.423242886041
 21
146.5774831560185
 31
0.0
  0
LINE
  5
1A6
330
2
100
AcDbEntity
  8
0
  6
PHANTOM
 62
     3
100
AcDbLine
 10
268.327320977041
 20
146.3924174990185
 30
0.0
 11
269.671932684041
 21
145.7253031915184
 31
0.0
  0
LINE
  5
1A7
330
2
100
AcDbEntity
  8
0
 62
     3
100
AcDbLine
 10
274.423242886041
 20
144.5774755266185
 30
0.0
 11
274.423242886041
 21
146.5774831560185
 31
0.0
  0
LINE
  5
1B3
330
2
100
AcDbEntity
  8
0
100
AcDbLine
 10
420.0
 20
297.0
 30
0.0
 11
0.0
 21
297.0
 31
0.0
  0
ARC
  5
1B4
330
2
100
AcDbEntity
  8
0
 62
     3
100
AcDbCircle
 10
72.7365488644595
 20
230.5780706194183
 30
0.0
 40
14.0001177788
100
AcDbArc
 50
56.5518694596
 51
123.4480194361
  0
CIRCLE
  5
1B5
330
2
100
AcDbEntity
  8
0
 62
     3
100
AcDbCircle
 10
72.7365488644595
 20
230.5781469133183
 30
0.0
 40
6.000053882599997
  0
LINE
  5
1B6
330
2
100
AcDbEntity
  8
0
 62
     3
100
AcDbLine
 10
63.25363215435952
 20
225.1030189244184
 30
0.0
 11
72.73670744735949
 21
219.6279621003184
 31
0.0
  0
CIRCLE
  5
1B7
330
2
100
AcDbEntity
  8
0
 62
     3
100
AcDbCircle
 10
72.7365488644595
 20
230.5781469133183
 30
0.0
 40
12.0001101494
  0
CIRCLE
  5
1B8
330
2
100
AcDbEntity
  8
0
 62
     3
100
AcDbCircle
 10
72.7365488644595
 20
230.5781469133183
 30
0.0
 40
10.95010042189999
  0
LINE
  5
1B9
330
2
100
AcDbEntity
  8
0
 62
     3
100
AcDbLine
 10
72.73666892445953
 20
241.5280837374185
 30
0.0
 11
63.25361014955951
 21
236.0530364500184
 31
0.0
  0
LINE
  5
1BA
330
2
100
AcDbEntity
  8
0
 62
     3
100
AcDbLine
 10
67.54089304175947
 20
243.5779485491185
 30
0.0
 11
48.73672434055953
 21
243.5779485491185
 31
0.0
  0
LINE
  5
1BB
330
2
100
AcDbEntity
  8
0
 62
     3
100
AcDbLine
 10
72.73666892445953
 20
179.5275039034185
 30
0.0
 11
63.25361014955951
 21
174.0524566160184
 31
0.0
  0
LINE
  5
1BC
330
2
100
AcDbEntity
  8
0
 62
     3
100
AcDbLine
 10
99.23641153535948
 20
194.5777044084185
 30
0.0
 11
47.73723550995947
 21
194.5777044084185
 31
0.0
  0
LINE
  5
1BD
330
2
100
AcDbEntity
  8
0
 62
     3
100
AcDbLine
 10
96.73667856415949
 20
244.5779714372185
 30
0.0
 11
48.73702951635947
 21
244.5779714372185
 31
0.0
  0
LINE
  5
1BE
330
2
100
AcDbEntity
  8
0
 62
     3
100
AcDbLine
 10
93.73649545875952
 20
246.0779866960185
 30
0.0
 11
51.73721262185949
 21
246.0779866960185
 31
0.0
  0
LINE
  5
1BF
330
2
100
AcDbEntity
  8
0
 62
     3
100
AcDbLine
 10
47.73693033425951
 20
204.5778188493184
 30
0.0
 11
99.23671671115956
 21
204.5778188493184
 31
0.0
  0
LINE
  5
1C0
330
2
100
AcDbEntity
  8
0
 62
     3
100
AcDbLine
 10
217.7367014523595
 20
259.5775899675185
 30
0.0
 11
41.73652597625952
 21
259.5775899675185
 31
0.0
  0
LINE
  5
1C1
330
2
100
AcDbEntity
  8
0
  6
PHANTOM
 62
     3
100
AcDbLine
 10
41.7371363278595
 20
256.0778722551185
 30
0.0
 11
217.7367014523595
 21
256.0778722551185
 31
0.0
  0
LINE
  5
1C2
330
2
100
AcDbEntity
  8
0
  6
CENTER
 62
     3
100
AcDbLine
 10
6.86084201855948
 20
199.5778569963185
 30
0.0
 11
254.4566008760595
 21
199.5778569963185
 31
0.0
  0
LINE
  5
1C3
330
2
100
AcDbEntity
  8
0
 62
     3
100
AcDbLine
 10
46.73686929905954
 20
214.5778569963185
 30
0.0
 11
46.73686929905954
 21
259.5769796159185
 31
0.0
  0
LINE
  5
1C4
330
2
100
AcDbEntity
  8
0
  6
PHANTOM
 62
     3
100
AcDbLine
 10
41.73641153535948
 20
176.5778569963185
 30
0.0
 11
41.73641153535948
 21
222.5778569963186
 31
0.0
  0
LINE
  5
1C5
330
2
100
AcDbEntity
  8
0
  6
PHANTOM
 62
     3
100
AcDbLine
 10
27.33640238015954
 20
176.5778569963185
 30
0.0
 11
27.33640238015954
 21
222.5778569963186
 31
0.0
  0
LINE
  5
1C6
330
2
100
AcDbEntity
  8
0
 62
     3
100
AcDbLine
 10
44.73674722875953
 20
206.5777883318185
 30
0.0
 11
44.73674722875953
 21
248.5779866960184
 31
0.0
  0
LINE
  5
1C7
330
2
100
AcDbEntity
  8
0
 62
     3
100
AcDbLine
 10
47.33684488495947
 20
211.1661062029185
 30
0.0
 11
47.33684488495947
 21
230.5779943254185
 31
0.0
  0
LINE
  5
1C8
330
2
100
AcDbEntity
  8
0
  6
PHANTOM
 62
     3
100
AcDbLine
 10
27.33640238015954
 20
214.5778875139185
 30
0.0
 11
10.13719736305955
 21
214.5778875139185
 31
0.0
  0
LINE
  5
1C9
330
2
100
AcDbEntity
  8
0
  6
PHANTOM
 62
     3
100
AcDbLine
 10
10.13719736305955
 20
207.5778875139184
 30
0.0
 11
27.33640238015954
 21
207.5778875139184
 31
0.0
  0
LINE
  5
1CA
330
2
100
AcDbEntity
  8
0
  6
PHANTOM
 62
     3
100
AcDbLine
 10
10.13719736305955
 20
191.5779485491185
 30
0.0
 11
27.33640238015954
 21
191.5779485491185
 31
0.0
  0
LINE
  5
1CB
330
2
100
AcDbEntity
  8
0
  6
CENTER
 62
     3
100
AcDbLine
 10
25.43643423285948
 20
199.5778569963185
 30
0.0
 11
35.0365109082595
 21
199.5778569963185
 31
0.0
  0
LINE
  5
1CC
330
2
100
AcDbEntity
  8
0
  6
PHANTOM
 62
     3
100
AcDbLine
 10
27.33640238015954
 20
184.5779485491185
 30
0.0
 11
10.13719736305955
 21
184.5779485491185
 31
0.0
  0
LINE
  5
1CD
330
2
100
AcDbEntity
  8
0
  6
PHANTOM
 62
     3
100
AcDbLine
 10
10.13719736305955
 20
184.5779485491185
 30
0.0
 11
10.13719736305955
 21
214.5778875139185
 31
0.0
  0
ARC
  5
1CE
330
2
100
AcDbEntity
  8
0
  6
PHANTOM
 62
     3
100
AcDbCircle
 10
11.38719736305955
 20
199.5779180315185
 30
0.0
 40
2.75
100
AcDbArc
 50
271.43501341
 51
89.99998201389994
  0
LINE
  5
1CF
330
2
100
AcDbEntity
  8
0
  6
PHANTOM
 62
     3
100
AcDbLine
 10
11.45607553685948
 20
196.8288030412185
 30
0.0
 11
10.13719736305955
 21
196.8288030412185
 31
0.0
  0
LINE
  5
1D0
330
2
100
AcDbEntity
  8
0
  6
PHANTOM
 62
     3
100
AcDbLine
 10
11.31978403295953
 20
202.2687749651185
 30
0.0
 11
10.13719736305955
 21
202.2687749651185
 31
0.0
  0
ARC
  5
1D1
330
2
100
AcDbEntity
  8
0
  6
PHANTOM
 62
     3
100
AcDbCircle
 10
21.38719736305955
 20
199.5779180315185
 30
0.0
 40
2.75
100
AcDbArc
 50
89.99998201389999
 51
268.5970798276998
  0
ARC
  5
1D2
330
2
100
AcDbEntity
  8
0
  6
PHANTOM
 62
     3
100
AcDbCircle
 10
23.88719736305954
 20
199.5779180315185
 30
0.0
 40
2.75
100
AcDbArc
 50
271.4022831433999
 51
89.99998201389994
  0
LINE
  5
1D3
330
2
100
AcDbEntity
  8
0
  6
PHANTOM
 62
     3
100
AcDbLine
 10
23.95454965795953
 20
196.8287725237185
 30
0.0
 11
21.31993662085954
 21
196.8287725237185
 31
0.0
  0
LINE
  5
1D4
330
2
100
AcDbEntity
  8
0
  6
PHANTOM
 62
     3
100
AcDbLine
 10
21.32103525365953
 20
202.2687749651185
 30
0.0
 11
23.82134042945955
 21
202.2687749651185
 31
0.0
  0
LINE
  5
1D5
330
2
100
AcDbEntity
  8
0
 62
     3
100
AcDbLine
 10
47.73693033425951
 20
189.5776662615185
 30
0.0
 11
47.73693033425951
 21
195.3777227190185
 31
0.0
  0
ARC
  5
1D6
330
2
100
AcDbEntity
  8
0
 62
     3
100
AcDbCircle
 10
56.73664041725952
 20
184.5777425554185
 30
0.0
 40
10.0000834465
100
AcDbArc
 50
89.99992737239997
 51
179.9999093863
  0
LINE
  5
1D7
330
2
100
AcDbEntity
  8
0
 62
     3
100
AcDbLine
 10
44.7370524045595
 20
189.5776662615185
 30
0.0
 11
47.73693033425951
 21
189.5776662615185
 31
0.0
  0
LINE
  5
1D8
330
2
100
AcDbEntity
  8
0
 62
     3
100
AcDbLine
 10
48.73782219475953
 20
166.5764520848185
 30
0.0
 11
46.73755528275949
 21
167.5765852075184
 31
0.0
  0
LINE
  5
1D9
330
2
100
AcDbEntity
  8
0
  6
PHANTOM
 62
     3
100
AcDbLine
 10
39.73641153535948
 20
176.5778569963185
 30
0.0
 11
39.73641153535948
 21
179.0778569963185
 31
0.0
  0
LINE
  5
1DA
330
2
100
AcDbEntity
  8
0
  6
PHANTOM
 62
     3
100
AcDbLine
 10
29.33640238015954
 20
179.0778569963185
 30
0.0
 11
29.33640238015954
 21
176.5778569963185
 31
0.0
  0
LINE
  5
1DB
330
2
100
AcDbEntity
  8
0
  6
PHANTOM
 62
     3
100
AcDbLine
 10
29.33640238015954
 20
176.5778569963185
 30
0.0
 11
27.33640238015954
 21
176.5778569963185
 31
0.0
  0
LINE
  5
1DC
330
2
100
AcDbEntity
  8
0
 62
     3
100
AcDbLine
 10
41.7371363278595
 20
165.5775365617184
 30
0.0
 11
44.7370524045595
 21
165.5775365617184
 31
0.0
  0
LINE
  5
1DD
330
2
100
AcDbEntity
  8
0
  6
PHANTOM
 62
     3
100
AcDbLine
 10
41.73641153535948
 20
176.5778569963185
 30
0.0
 11
39.73641153535948
 21
176.5778569963185
 31
0.0
  0
LINE
  5
1DE
330
2
100
AcDbEntity
  8
0
  6
PHANTOM
 62
     3
100
AcDbLine
 10
41.73641153535948
 20
179.0778569963185
 30
0.0
 11
27.33640238015954
 21
179.0778569963185
 31
0.0
  0
CIRCLE
  5
1DF
330
2
100
AcDbEntity
  8
0
  6
PHANTOM
 62
     3
100
AcDbCircle
 10
34.53639932835955
 20
186.0778569963185
 30
0.0
 40
3.5
  0
LINE
  5
1E0
330
2
100
AcDbEntity
  8
0
  6
PHANTOM
 62
     3
100
AcDbLine
 10
32.41508249995951
 20
183.9563438684185
 30
0.0
 11
36.65772275675946
 21
188.1989851982185
 31
0.0
  0
LINE
  5
1E1
330
2
100
AcDbEntity
  8
0
  6
PHANTOM
 62
     3
100
AcDbLine
 10
35.24352769325952
 20
185.3705587625185
 30
0.0
 11
33.82931439345947
 21
186.7847726583184
 31
0.0
  0
LINE
  5
1E2
330
2
100
AcDbEntity
  8
0
 62
     3
100
AcDbLine
 10
47.33684488495947
 20
168.5775670793185
 30
0.0
 11
47.33684488495947
 21
187.9894170549185
 31
0.0
  0
LINE
  5
1E3
330
2
100
AcDbEntity
  8
0
 62
     3
100
AcDbLine
 10
44.73674722875953
 20
206.5777883318185
 30
0.0
 11
47.73693033425951
 21
206.5777883318185
 31
0.0
  0
LINE
  5
1E4
330
2
100
AcDbEntity
  8
0
 62
     3
100
AcDbLine
 10
47.73693033425951
 20
209.5778188493185
 30
0.0
 11
44.73674722875953
 21
209.5778188493185
 31
0.0
  0
LINE
  5
1E5
330
2
100
AcDbEntity
  8
0
 62
     3
100
AcDbLine
 10
47.73693033425951
 20
203.7777623918183
 30
0.0
 11
44.73674722875953
 21
203.7777623918183
 31
0.0
  0
LINE
  5
1E6
330
2
100
AcDbEntity
  8
0
 62
     3
100
AcDbLine
 10
44.7370524045595
 20
195.3777227190185
 30
0.0
 11
47.73693033425951
 21
195.3777227190185
 31
0.0
  0
LINE
  5
1E7
330
2
100
AcDbEntity
  8
0
 62
     3
100
AcDbLine
 10
47.73693033425951
 20
192.5776967790183
 30
0.0
 11
44.7370524045595
 21
192.5776967790183
 31
0.0
  0
ARC
  5
1E8
330
2
100
AcDbEntity
  8
0
 62
     3
100
AcDbCircle
 10
56.73664041725952
 20
214.5779714372185
 30
0.0
 40
10.0000834465
100
AcDbArc
 50
180.0000359722
 51
270.0000179861
  0
CIRCLE
  5
1E9
330
2
100
AcDbEntity
  8
0
  6
PHANTOM
 62
     3
100
AcDbCircle
 10
34.53639932835955
 20
199.5778569963185
 30
0.0
 40
2.0
  0
CIRCLE
  5
1EA
330
2
100
AcDbEntity
  8
0
  6
PHANTOM
 62
     3
100
AcDbCircle
 10
34.53639932835955
 20
199.5778569963185
 30
0.0
 40
1.75
  0
LINE
  5
1EB
330
2
100
AcDbEntity
  8
0
 62
     3
100
AcDbLine
 10
44.73674722875953
 20
195.3777227190185
 30
0.0
 11
44.73674722875953
 21
203.7777623918183
 31
0.0
  0
CIRCLE
  5
1EC
330
2
100
AcDbEntity
  8
0
  6
PHANTOM
 62
     3
100
AcDbCircle
 10
34.53639932835955
 20
213.0778569963184
 30
0.0
 40
3.5
  0
LINE
  5
1ED
330
2
100
AcDbEntity
  8
0
  6
PHANTOM
 62
     3
100
AcDbLine
 10
32.41508987565946
 20
210.9563413005183
 30
0.0
 11
36.6577301324595
 21
215.1989826303184
 31
0.0
  0
LINE
  5
1EE
330
2
100
AcDbEntity
  8
0
  6
PHANTOM
 62
     3
100
AcDbLine
 10
35.24353338305949
 20
212.3705454050185
 30
0.0
 11
33.82932008325951
 21
213.7847593008185
 31
0.0
  0
LINE
  5
1EF
330
2
100
AcDbEntity
  8
0
 62
     3
100
AcDbLine
 10
47.73693033425951
 20
203.7777623918183
 30
0.0
 11
47.73693033425951
 21
209.5778188493185
 31
0.0
  0
LINE
  5
1F0
330
2
100
AcDbEntity
  8
0
 62
     3
100
AcDbLine
 10
48.73672434055953
 20
232.5780019548184
 30
0.0
 11
48.73672434055953
 21
259.5769796159185
 31
0.0
  0
ARC
  5
1F1
330
2
100
AcDbEntity
  8
0
 62
     3
100
AcDbCircle
 10
51.73660227025948
 20
249.0780172136183
 30
0.0
 40
3.000023365
100
AcDbArc
 50
180.0000359722
 51
270.0000179861
  0
LINE
  5
1F2
330
2
100
AcDbEntity
  8
0
 62
     3
100
AcDbLine
 10
46.73712610625954
 20
231.5757528690185
 30
0.0
 11
48.73715418045953
 21
232.5757667062184
 31
0.0
  0
LINE
  5
1F3
330
2
100
AcDbEntity
  8
0
  6
PHANTOM
 62
     3
100
AcDbLine
 10
41.73641153535948
 20
220.0778569963186
 30
0.0
 11
27.33640238015954
 21
220.0778569963186
 31
0.0
  0
LINE
  5
1F4
330
2
100
AcDbEntity
  8
0
  6
PHANTOM
 62
     3
100
AcDbLine
 10
29.33640238015954
 20
222.5778569963186
 30
0.0
 11
29.33640238015954
 21
220.0778569963186
 31
0.0
  0
LINE
  5
1F5
330
2
100
AcDbEntity
  8
0
  6
PHANTOM
 62
     3
100
AcDbLine
 10
27.33640238015954
 20
222.5778569963186
 30
0.0
 11
29.33640238015954
 21
222.5778569963186
 31
0.0
  0
LINE
  5
1F6
330
2
100
AcDbEntity
  8
0
  6
PHANTOM
 62
     3
100
AcDbLine
 10
39.73641153535948
 20
222.5778569963186
 30
0.0
 11
41.73641153535948
 21
222.5778569963186
 31
0.0
  0
LINE
  5
1F7
330
2
100
AcDbEntity
  8
0
  6
PHANTOM
 62
     3
100
AcDbLine
 10
39.73641153535948
 20
220.0778569963186
 30
0.0
 11
39.73641153535948
 21
222.5778569963186
 31
0.0
  0
LINE
  5
1F8
330
2
100
AcDbEntity
  8
0
 62
     3
100
AcDbLine
 10
44.73644205295952
 20
233.5780629900185
 30
0.0
 11
41.73652597625952
 21
233.5780629900185
 31
0.0
  0
LINE
  5
1F9
330
2
100
AcDbEntity
  8
0
 62
     3
100
AcDbLine
 10
41.7371363278595
 20
243.5779485491185
 30
0.0
 11
46.73717447485944
 21
243.5779485491185
 31
0.0
  0
LINE
  5
1FA
330
2
100
AcDbEntity
  8
0
 62
     3
100
AcDbLine
 10
44.73644205295952
 20
240.0780019548184
 30
0.0
 11
41.73652597625952
 21
240.0780019548184
 31
0.0
  0
LINE
  5
1FB
330
2
100
AcDbEntity
  8
0
 62
     3
100
AcDbLine
 10
63.25373598305953
 20
236.0532030847185
 30
0.0
 11
63.25373598305953
 21
225.1031098154185
 31
0.0
  0
LINE
  5
1FC
330
2
100
AcDbEntity
  8
0
 62
     3
100
AcDbLine
 10
65.02056589855946
 20
242.2581238746185
 30
0.0
 11
47.33701162305954
 21
230.5766627839183
 31
0.0
  0
LINE
  5
1FD
330
2
100
AcDbEntity
  8
0
 62
     3
100
AcDbLine
 10
41.7371363278595
 20
250.5778035906185
 30
0.0
 11
46.73717447485944
 21
250.5778035906185
 31
0.0
  0
LINE
  5
1FE
330
2
100
AcDbEntity
  8
0
 62
     3
100
AcDbLine
 10
41.7371363278595
 20
248.5779866960184
 30
0.0
 11
46.73717447485944
 21
248.5779866960184
 31
0.0
  0
LINE
  5
1FF
330
2
100
AcDbEntity
  8
0
 62
     3
100
AcDbLine
 10
41.7371363278595
 20
254.5775136736185
 30
0.0
 11
46.73717447485944
 21
254.5775136736185
 31
0.0
  0
LINE
  5
200
330
2
100
AcDbEntity
  8
0
  6
PHANTOM
 62
     3
100
AcDbLine
 10
217.7367014523595
 20
220.0778569963186
 30
0.0
 11
232.1367106076595
 21
220.0778569963186
 31
0.0
  0
LINE
  5
201
330
2
100
AcDbEntity
  8
0
  6
CENTER
 62
     3
100
AcDbLine
 10
224.4367546673593
 20
199.5778951433184
 30
0.0
 11
234.0368313428594
 21
199.5778951433184
 31
0.0
  0
LINE
  5
202
330
2
100
AcDbEntity
  8
0
  6
PHANTOM
 62
     3
100
AcDbLine
 10
217.7367014523595
 20
179.0778569963185
 30
0.0
 11
232.1367106076595
 21
179.0778569963185
 31
0.0
  0
CIRCLE
  5
203
330
2
100
AcDbEntity
  8
0
  6
PHANTOM
 62
     3
100
AcDbCircle
 10
224.9367136594595
 20
186.0778569963185
 30
0.0
 40
3.5
  0
LINE
  5
204
330
2
100
AcDbEntity
  8
0
  6
PHANTOM
 62
     3
100
AcDbLine
 10
227.0580304878595
 20
183.9563438684185
 30
0.0
 11
222.8153902309595
 21
188.1989851982185
 31
0.0
  0
CIRCLE
  5
205
330
2
100
AcDbEntity
  8
0
  6
PHANTOM
 62
     3
100
AcDbCircle
 10
224.9367136594595
 20
213.0778569963184
 30
0.0
 40
3.5
  0
LINE
  5
206
330
2
100
AcDbEntity
  8
0
  6
PHANTOM
 62
     3
100
AcDbLine
 10
227.0580231121595
 20
210.9563413005183
 30
0.0
 11
222.8153828552595
 21
215.1989826303184
 31
0.0
  0
LINE
  5
207
330
2
100
AcDbEntity
  8
0
 62
     3
100
AcDbLine
 10
153.7366861935594
 20
243.5779866960185
 30
0.0
 11
134.9328226681594
 21
243.5779866960185
 31
0.0
  0
LINE
  5
208
330
2
100
AcDbEntity
  8
0
 62
     3
100
AcDbLine
 10
137.4546519755595
 20
242.2580748171184
 30
0.0
 11
155.1378904846593
 21
230.5768277749185
 31
0.0
  0
LINE
  5
209
330
2
100
AcDbEntity
  8
0
 62
     3
100
AcDbLine
 10
153.7366861935594
 20
244.5780095842184
 30
0.0
 11
105.7369989987595
 21
244.5780095842184
 31
0.0
  0
LINE
  5
20A
330
2
100
AcDbEntity
  8
0
 62
     3
100
AcDbLine
 10
150.7365030881595
 20
246.0779866960185
 30
0.0
 11
108.7372202511595
 21
246.0779866960185
 31
0.0
  0
ARC
  5
20B
330
2
100
AcDbEntity
  8
0
 62
     3
100
AcDbCircle
 10
145.7361597653592
 20
184.5777425554185
 30
0.0
 40
10.0000834465
100
AcDbArc
 50
0.0
 51
89.99992737239997
  0
LINE
  5
20C
330
2
100
AcDbEntity
  8
0
 62
     3
100
AcDbLine
 10
156.2364191647595
 20
194.5777425554185
 30
0.0
 11
103.2363886471594
 21
194.5777425554185
 31
0.0
  0
LINE
  5
20D
330
2
100
AcDbEntity
  8
0
 62
     3
100
AcDbLine
 10
103.2363886471594
 20
204.5778569963184
 30
0.0
 11
156.2367243405594
 21
204.5778569963184
 31
0.0
  0
ARC
  5
20E
330
2
100
AcDbEntity
  8
0
 62
     3
100
AcDbCircle
 10
145.7361597653592
 20
214.5779714372185
 30
0.0
 40
10.0000834465
100
AcDbArc
 50
270.0000179861
 51
0.0
  0
LINE
  5
20F
330
2
100
AcDbEntity
  8
0
 62
     3
100
AcDbLine
 10
103.7368769284594
 20
214.5778569963185
 30
0.0
 11
103.7368769284594
 21
259.5770177629185
 31
0.0
  0
LINE
  5
210
330
2
100
AcDbEntity
  8
0
 62
     3
100
AcDbLine
 10
98.73653360565949
 20
259.5766744402185
 30
0.0
 11
98.73653360565949
 21
214.5778951433184
 31
0.0
  0
CIRCLE
  5
211
330
2
100
AcDbEntity
  8
0
 62
     3
100
AcDbCircle
 10
129.7365564938594
 20
230.5781087663185
 30
0.0
 40
12.0001101494
  0
LINE
  5
212
330
2
100
AcDbEntity
  8
0
 62
     3
100
AcDbLine
 10
104.3368525143594
 20
211.1661443498185
 30
0.0
 11
104.3368525143594
 21
230.5779943254185
 31
0.0
  0
LINE
  5
213
330
2
100
AcDbEntity
  8
0
 62
     3
100
AcDbLine
 10
102.2363276120594
 20
206.5779027727185
 30
0.0
 11
102.2363276120594
 21
248.5780629900185
 31
0.0
  0
LINE
  5
214
330
2
100
AcDbEntity
  8
0
 62
     3
100
AcDbLine
 10
100.2364725705594
 20
206.5779027727185
 30
0.0
 11
100.2364725705594
 21
248.5780629900185
 31
0.0
  0
LINE
  5
215
330
2
100
AcDbEntity
  8
0
 62
     3
100
AcDbLine
 10
98.13655801975954
 20
211.1661062029185
 30
0.0
 11
98.13655801975954
 21
230.5779943254185
 31
0.0
  0
ARC
  5
216
330
2
100
AcDbEntity
  8
0
 62
     3
100
AcDbCircle
 10
113.7366480466594
 20
184.5777425554185
 30
0.0
 40
10.0000834465
100
AcDbArc
 50
89.99992737239997
 51
179.9999093863
  0
ARC
  5
217
330
2
100
AcDbEntity
  8
0
 62
     3
100
AcDbCircle
 10
113.7366480466594
 20
214.5779714372185
 30
0.0
 40
10.0000834465
100
AcDbArc
 50
180.0000359722
 51
270.0000179861
  0
LINE
  5
218
330
2
100
AcDbEntity
  8
0
 62
     3
100
AcDbLine
 10
99.23641153535948
 20
189.5777425554186
 30
0.0
 11
99.23641153535948
 21
195.4778203752185
 31
0.0
  0
LINE
  5
219
330
2
100
AcDbEntity
  8
0
 62
     3
100
AcDbLine
 10
103.2363886471594
 20
189.5777807024185
 30
0.0
 11
103.2363886471594
 21
195.4778203752185
 31
0.0
  0
ARC
  5
21A
330
2
100
AcDbEntity
  8
0
 62
     3
100
AcDbCircle
 10
88.73615213595945
 20
184.5777425554185
 30
0.0
 40
10.0000834465
100
AcDbArc
 50
0.0
 51
89.99992737239997
  0
LINE
  5
21B
330
2
100
AcDbEntity
  8
0
 62
     3
100
AcDbLine
 10
82.21976941455949
 20
174.0525251521185
 30
0.0
 11
72.73669412155953
 21
179.5275819762184
 31
0.0
  0
LINE
  5
21C
330
2
100
AcDbEntity
  8
0
 62
     3
100
AcDbLine
 10
98.13655801975954
 20
168.5775289324183
 30
0.0
 11
98.13655801975954
 21
187.9894170549185
 31
0.0
  0
LINE
  5
21D
330
2
100
AcDbEntity
  8
0
 62
     3
100
AcDbLine
 10
104.3368525143594
 20
168.5776052263185
 30
0.0
 11
104.3368525143594
 21
187.9894170549185
 31
0.0
  0
LINE
  5
21E
330
2
100
AcDbEntity
  8
0
 62
     3
100
AcDbLine
 10
98.73723468375956
 20
167.5758253066184
 30
0.0
 11
96.7372066095595
 21
166.5758114694185
 31
0.0
  0
LINE
  5
21F
330
2
100
AcDbEntity
  8
0
 62
     3
100
AcDbLine
 10
102.2363276120594
 20
165.5775747087185
 30
0.0
 11
100.2364725705594
 21
165.5775747087185
 31
0.0
  0
LINE
  5
220
330
2
100
AcDbEntity
  8
0
 62
     3
100
AcDbLine
 10
105.7377996382595
 20
166.5764767416185
 30
0.0
 11
103.7375668458595
 21
167.5765928045185
 31
0.0
  0
LINE
  5
221
330
2
100
AcDbEntity
  8
0
 62
     3
100
AcDbLine
 10
100.2364725705594
 20
189.5777425554186
 30
0.0
 11
99.23641153535948
 21
189.5777425554186
 31
0.0
  0
LINE
  5
222
330
2
100
AcDbEntity
  8
0
 62
     3
100
AcDbLine
 10
102.2363276120594
 20
189.5777807024185
 30
0.0
 11
103.2363886471594
 21
189.5777807024185
 31
0.0
  0
LINE
  5
223
330
2
100
AcDbEntity
  8
0
 62
     3
100
AcDbLine
 10
103.2363886471594
 20
203.6778936174185
 30
0.0
 11
103.2363886471594
 21
209.5779332903183
 31
0.0
  0
LINE
  5
224
330
2
100
AcDbEntity
  8
0
 62
     3
100
AcDbLine
 10
99.23641153535948
 20
203.6778936174185
 30
0.0
 11
99.23641153535948
 21
209.5779332903183
 31
0.0
  0
ARC
  5
225
330
2
100
AcDbEntity
  8
0
 62
     3
100
AcDbCircle
 10
88.73615213595945
 20
214.5779714372185
 30
0.0
 40
10.0000834465
100
AcDbArc
 50
270.0000179861
 51
0.0
  0
LINE
  5
226
330
2
100
AcDbEntity
  8
0
 62
     3
100
AcDbLine
 10
103.2363886471594
 20
195.4778203752185
 30
0.0
 11
99.23641153535948
 21
195.4778203752185
 31
0.0
  0
LINE
  5
227
330
2
100
AcDbEntity
  8
0
 62
     3
100
AcDbLine
 10
99.23641153535948
 20
192.5777730730185
 30
0.0
 11
100.2364725705594
 21
192.5777730730185
 31
0.0
  0
LINE
  5
228
330
2
100
AcDbEntity
  8
0
 62
     3
100
AcDbLine
 10
103.2363886471594
 20
192.5777730730185
 30
0.0
 11
102.2363276120594
 21
192.5777730730185
 31
0.0
  0
LINE
  5
229
330
2
100
AcDbEntity
  8
0
 62
     3
100
AcDbLine
 10
99.23641153535948
 20
203.6778936174185
 30
0.0
 11
103.2363886471594
 21
203.6778936174185
 31
0.0
  0
LINE
  5
22A
330
2
100
AcDbEntity
  8
0
 62
     3
100
AcDbLine
 10
100.2364725705594
 20
206.5779027727185
 30
0.0
 11
99.23641153535948
 21
206.5779027727185
 31
0.0
  0
LINE
  5
22B
330
2
100
AcDbEntity
  8
0
 62
     3
100
AcDbLine
 10
99.23641153535948
 20
209.5779332903183
 30
0.0
 11
100.2364725705594
 21
209.5779332903183
 31
0.0
  0
LINE
  5
22C
330
2
100
AcDbEntity
  8
0
 62
     3
100
AcDbLine
 10
102.2363276120594
 20
206.5779027727185
 30
0.0
 11
103.2363886471594
 21
206.5779027727185
 31
0.0
  0
LINE
  5
22D
330
2
100
AcDbEntity
  8
0
 62
     3
100
AcDbLine
 10
103.2363886471594
 20
209.5779332903183
 30
0.0
 11
102.2363276120594
 21
209.5779332903183
 31
0.0
  0
LINE
  5
22E
330
2
100
AcDbEntity
  8
0
 62
     3
100
AcDbLine
 10
129.7366765538594
 20
179.5275420504183
 30
0.0
 11
120.2536177789594
 21
174.0524947630184
 31
0.0
  0
LINE
  5
22F
330
2
100
AcDbEntity
  8
0
 62
     3
100
AcDbLine
 10
139.2197770439594
 20
174.0525632991185
 30
0.0
 11
129.7367017509594
 21
179.5276201232185
 31
0.0
  0
ARC
  5
230
330
2
100
AcDbEntity
  8
0
 62
     3
100
AcDbCircle
 10
108.7366098996594
 20
249.0780553606185
 30
0.0
 40
3.000023365
100
AcDbArc
 50
180.0000359722
 51
270.0000179861
  0
LINE
  5
231
330
2
100
AcDbEntity
  8
0
 62
     3
100
AcDbLine
 10
124.5409006711595
 20
243.5779866960185
 30
0.0
 11
105.7366938229594
 21
243.5779866960185
 31
0.0
  0
LINE
  5
232
330
2
100
AcDbEntity
  8
0
 62
     3
100
AcDbLine
 10
122.0205502631594
 20
242.2581323381185
 30
0.0
 11
104.3369880303594
 21
230.5766659910184
 31
0.0
  0
ARC
  5
233
330
2
100
AcDbEntity
  8
0
 62
     3
100
AcDbCircle
 10
93.73619028295951
 20
249.0780172136183
 30
0.0
 40
3.000023365
100
AcDbArc
 50
270.0000179861
 51
0.0
  0
LINE
  5
234
330
2
100
AcDbEntity
  8
0
 62
     3
100
AcDbLine
 10
103.2363886471594
 20
254.5775518205183
 30
0.0
 11
103.2363886471594
 21
243.5780248430184
 31
0.0
  0
LINE
  5
235
330
2
100
AcDbEntity
  8
0
 62
     3
100
AcDbLine
 10
99.23641153535948
 20
254.5775518205183
 30
0.0
 11
99.23641153535948
 21
243.5780248430184
 31
0.0
  0
LINE
  5
236
330
2
100
AcDbEntity
  8
0
 62
     3
100
AcDbLine
 10
105.7366938229594
 20
232.5780019548184
 30
0.0
 11
105.7366938229594
 21
259.5770177629185
 31
0.0
  0
LINE
  5
237
330
2
100
AcDbEntity
  8
0
 62
     3
100
AcDbLine
 10
96.73667856415949
 20
259.5766744402185
 30
0.0
 11
96.73667856415949
 21
232.5780401018185
 31
0.0
  0
LINE
  5
238
330
2
100
AcDbEntity
  8
0
 62
     3
100
AcDbLine
 10
80.4546485227595
 20
242.2580378876185
 30
0.0
 11
98.1378870317595
 21
230.5767908455186
 31
0.0
  0
LINE
  5
239
330
2
100
AcDbEntity
  8
0
 62
     3
100
AcDbLine
 10
96.73667856415949
 20
243.5779485491185
 30
0.0
 11
77.93281503875954
 21
243.5779485491185
 31
0.0
  0
LINE
  5
23A
330
2
100
AcDbEntity
  8
0
 62
     3
100
AcDbLine
 10
82.21962877475956
 20
225.1031098154185
 30
0.0
 11
82.21962877475956
 21
236.0532030847185
 31
0.0
  0
CIRCLE
  5
23B
330
2
100
AcDbEntity
  8
0
 62
     3
100
AcDbCircle
 10
72.7365488644595
 20
230.5781469133183
 30
0.0
 40
5.000042915299999
  0
LINE
  5
23C
330
2
100
AcDbEntity
  8
0
 62
     3
100
AcDbLine
 10
72.73672933725953
 20
219.6277944555184
 30
0.0
 11
82.21978811215953
 21
225.1028417428185
 31
0.0
  0
LINE
  5
23D
330
2
100
AcDbEntity
  8
0
 62
     3
100
AcDbLine
 10
82.21976941455949
 20
236.0531049861185
 30
0.0
 11
72.73669412155953
 21
241.5281618102186
 31
0.0
  0
LINE
  5
23E
330
2
100
AcDbEntity
  8
0
 62
     3
100
AcDbLine
 10
96.73763001875956
 20
232.5772074697185
 30
0.0
 11
98.73762397325954
 21
231.5772106923184
 31
0.0
  0
LINE
  5
23F
330
2
100
AcDbEntity
  8
0
 62
     3
100
AcDbLine
 10
103.7371221289594
 20
231.5757824305185
 30
0.0
 11
105.7371502031595
 21
232.5757962677185
 31
0.0
  0
LINE
  5
240
330
2
100
AcDbEntity
  8
0
 62
     3
100
AcDbLine
 10
100.2364725705594
 20
233.5781392839185
 30
0.0
 11
102.2363276120594
 21
233.5781392839185
 31
0.0
  0
LINE
  5
241
330
2
100
AcDbEntity
  8
0
 62
     3
100
AcDbLine
 10
99.23641153535948
 20
243.5780248430184
 30
0.0
 11
103.2363886471594
 21
243.5780248430184
 31
0.0
  0
LINE
  5
242
330
2
100
AcDbEntity
  8
0
 62
     3
100
AcDbLine
 10
101.2362284299595
 20
240.0781926897185
 30
0.0
 11
102.2363276120594
 21
240.0781926897185
 31
0.0
  0
LINE
  5
243
330
2
100
AcDbEntity
  8
0
 62
     3
100
AcDbLine
 10
100.2364725705594
 20
240.0780019548184
 30
0.0
 11
101.2362284299595
 21
240.0780019548184
 31
0.0
  0
LINE
  5
244
330
2
100
AcDbEntity
  8
0
 62
     3
100
AcDbLine
 10
100.2364725705594
 20
248.5780629900185
 30
0.0
 11
99.23641153535948
 21
248.5780629900185
 31
0.0
  0
LINE
  5
245
330
2
100
AcDbEntity
  8
0
 62
     3
100
AcDbLine
 10
102.2363276120594
 20
248.5780629900185
 30
0.0
 11
103.2363886471594
 21
248.5780629900185
 31
0.0
  0
LINE
  5
246
330
2
100
AcDbEntity
  8
0
 62
     3
100
AcDbLine
 10
99.23641153535948
 20
254.5775518205183
 30
0.0
 11
103.2363886471594
 21
254.5775518205183
 31
0.0
  0
CIRCLE
  5
247
330
2
100
AcDbEntity
  8
0
 62
     3
100
AcDbCircle
 10
129.7365564938594
 20
230.5781087663185
 30
0.0
 40
10.95010042189999
  0
CIRCLE
  5
248
330
2
100
AcDbEntity
  8
0
 62
     3
100
AcDbCircle
 10
129.7365564938594
 20
230.5781087663185
 30
0.0
 40
6.000053882599997
  0
LINE
  5
249
330
2
100
AcDbEntity
  8
0
 62
     3
100
AcDbLine
 10
129.7366765538594
 20
241.5280455904185
 30
0.0
 11
120.2536177789594
 21
236.0529983030184
 31
0.0
  0
LINE
  5
24A
330
2
100
AcDbEntity
  8
0
 62
     3
100
AcDbLine
 10
120.2536397837594
 20
225.1029807775184
 30
0.0
 11
129.7367150767594
 21
219.6279239534185
 31
0.0
  0
CIRCLE
  5
24B
330
2
100
AcDbEntity
  8
0
 62
     3
100
AcDbCircle
 10
129.7365564938594
 20
230.5781087663185
 30
0.0
 40
5.000042915299999
  0
ARC
  5
24C
330
2
100
AcDbEntity
  8
0
 62
     3
100
AcDbCircle
 10
129.7365564938594
 20
230.5781087663185
 30
0.0
 40
14.0001177788
100
AcDbArc
 50
56.5518694596
 51
123.4480194361
  0
LINE
  5
24D
330
2
100
AcDbEntity
  8
0
 62
     3
100
AcDbLine
 10
120.2537436124595
 20
236.0531649378184
 30
0.0
 11
120.2537436124595
 21
225.1030716684183
 31
0.0
  0
LINE
  5
24E
330
2
100
AcDbEntity
  8
0
 62
     3
100
AcDbLine
 10
139.2196364041595
 20
225.1030716684183
 30
0.0
 11
139.2196364041595
 21
236.0531649378184
 31
0.0
  0
LINE
  5
24F
330
2
100
AcDbEntity
  8
0
 62
     3
100
AcDbLine
 10
129.7367369666594
 20
219.6277563085184
 30
0.0
 11
139.2197957415594
 21
225.1028035959185
 31
0.0
  0
LINE
  5
250
330
2
100
AcDbEntity
  8
0
 62
     3
100
AcDbLine
 10
139.2197770439594
 20
236.0530668392184
 30
0.0
 11
129.7367017509594
 21
241.5281236633183
 31
0.0
  0
LINE
  5
251
330
2
100
AcDbEntity
  8
0
 62
     3
100
AcDbLine
 10
212.7366633053594
 20
259.5767125871184
 30
0.0
 11
212.7366633053594
 21
214.5779332903185
 31
0.0
  0
CIRCLE
  5
252
330
2
100
AcDbEntity
  8
0
 62
     3
100
AcDbCircle
 10
186.7365641232595
 20
230.5781087663185
 30
0.0
 40
12.0001101494
  0
LINE
  5
253
330
2
100
AcDbEntity
  8
0
  6
PHANTOM
 62
     3
100
AcDbLine
 10
217.7367014523595
 20
176.5778569963185
 30
0.0
 11
217.7367014523595
 21
222.5778569963186
 31
0.0
  0
LINE
  5
254
330
2
100
AcDbEntity
  8
0
 62
     3
100
AcDbLine
 10
212.1366877194594
 20
211.1661824968185
 30
0.0
 11
212.1366877194594
 21
230.5780706194183
 31
0.0
  0
LINE
  5
255
330
2
100
AcDbEntity
  8
0
 62
     3
100
AcDbLine
 10
214.7366709347594
 20
248.5780248430184
 30
0.0
 11
214.7366709347594
 21
206.5778646257184
 31
0.0
  0
LINE
  5
256
330
2
100
AcDbEntity
  8
0
 62
     3
100
AcDbLine
 10
160.7362742062595
 20
214.5778569963185
 30
0.0
 11
160.7362742062595
 21
259.5770177629185
 31
0.0
  0
LINE
  5
257
330
2
100
AcDbEntity
  8
0
 62
     3
100
AcDbLine
 10
155.7365412350595
 20
259.5767125871184
 30
0.0
 11
155.7365412350595
 21
214.5779332903185
 31
0.0
  0
LINE
  5
258
330
2
100
AcDbEntity
  8
0
 62
     3
100
AcDbLine
 10
161.3365549679595
 20
211.1661824968185
 30
0.0
 11
161.3365549679595
 21
230.5780706194183
 31
0.0
  0
LINE
  5
259
330
2
100
AcDbEntity
  8
0
 62
     3
100
AcDbLine
 10
159.2363352414595
 20
206.5779409197185
 30
0.0
 11
159.2363352414595
 21
248.5780629900185
 31
0.0
  0
LINE
  5
25A
330
2
100
AcDbEntity
  8
0
 62
     3
100
AcDbLine
 10
157.2364801999594
 20
206.5779409197185
 30
0.0
 11
157.2364801999594
 21
248.5780629900185
 31
0.0
  0
LINE
  5
25B
330
2
100
AcDbEntity
  8
0
 62
     3
100
AcDbLine
 10
155.1365656491595
 20
211.1661443498185
 30
0.0
 11
155.1365656491595
 21
230.5779943254185
 31
0.0
  0
LINE
  5
25C
330
2
100
AcDbEntity
  8
0
 62
     3
100
AcDbLine
 10
196.2197846733594
 20
174.0525632991185
 30
0.0
 11
186.7367093803594
 21
179.5276201232185
 31
0.0
  0
LINE
  5
25D
330
2
100
AcDbEntity
  8
0
 62
     3
100
AcDbLine
 10
160.2363962765594
 20
204.5778569963184
 30
0.0
 11
211.7366404172595
 21
204.5778569963184
 31
0.0
  0
LINE
  5
25E
330
2
100
AcDbEntity
  8
0
 62
     3
100
AcDbLine
 10
211.7366404172595
 20
194.5777425554185
 30
0.0
 11
160.2363962765594
 21
194.5777425554185
 31
0.0
  0
LINE
  5
25F
330
2
100
AcDbEntity
  8
0
 62
     3
100
AcDbLine
 10
160.2363962765594
 20
189.5777807024185
 30
0.0
 11
160.2363962765594
 21
195.4778585222186
 31
0.0
  0
LINE
  5
260
330
2
100
AcDbEntity
  8
0
 62
     3
100
AcDbLine
 10
156.2364191647595
 20
189.5777807024185
 30
0.0
 11
156.2364191647595
 21
195.4778203752185
 31
0.0
  0
ARC
  5
261
330
2
100
AcDbEntity
  8
0
 62
     3
100
AcDbCircle
 10
170.7363505002595
 20
184.5777807024185
 30
0.0
 40
10.0000834465
100
AcDbArc
 50
89.99992737239997
 51
179.9999093863
  0
LINE
  5
262
330
2
100
AcDbEntity
  8
0
 62
     3
100
AcDbLine
 10
161.3365549679595
 20
168.5776433733185
 30
0.0
 11
161.3365549679595
 21
187.9894552019184
 31
0.0
  0
LINE
  5
263
330
2
100
AcDbEntity
  8
0
 62
     3
100
AcDbLine
 10
155.1365656491595
 20
168.5775670793185
 30
0.0
 11
155.1365656491595
 21
187.9894170549185
 31
0.0
  0
LINE
  5
264
330
2
100
AcDbEntity
  8
0
 62
     3
100
AcDbLine
 10
155.7372307064595
 20
167.5758548681184
 30
0.0
 11
153.7372026322595
 21
166.5758410309184
 31
0.0
  0
LINE
  5
265
330
2
100
AcDbEntity
  8
0
 62
     3
100
AcDbLine
 10
162.7372311665594
 20
166.5770302535185
 30
0.0
 11
160.7375101696594
 21
167.5768904188184
 31
0.0
  0
LINE
  5
266
330
2
100
AcDbEntity
  8
0
 62
     3
100
AcDbLine
 10
159.2363352414595
 20
165.5776128557183
 30
0.0
 11
157.2364801999594
 21
165.5776128557183
 31
0.0
  0
LINE
  5
267
330
2
100
AcDbEntity
  8
0
 62
     3
100
AcDbLine
 10
157.2364801999594
 20
189.5777807024185
 30
0.0
 11
156.2364191647595
 21
189.5777807024185
 31
0.0
  0
LINE
  5
268
330
2
100
AcDbEntity
  8
0
 62
     3
100
AcDbLine
 10
159.2363352414595
 20
189.5777807024185
 30
0.0
 11
160.2363962765594
 21
189.5777807024185
 31
0.0
  0
LINE
  5
269
330
2
100
AcDbEntity
  8
0
 62
     3
100
AcDbLine
 10
186.7366841832595
 20
179.5275420504183
 30
0.0
 11
177.2536254083594
 21
174.0524947630184
 31
0.0
  0
ARC
  5
26A
330
2
100
AcDbEntity
  8
0
 62
     3
100
AcDbCircle
 10
170.7363505002595
 20
214.5780095842183
 30
0.0
 40
10.0000834465
100
AcDbArc
 50
180.0000359722
 51
270.0000179861
  0
LINE
  5
26B
330
2
100
AcDbEntity
  8
0
 62
     3
100
AcDbLine
 10
160.2363962765594
 20
203.6778936174185
 30
0.0
 11
160.2363962765594
 21
209.5779714372186
 31
0.0
  0
LINE
  5
26C
330
2
100
AcDbEntity
  8
0
 62
     3
100
AcDbLine
 10
156.2364191647595
 20
203.6778936174185
 30
0.0
 11
156.2364191647595
 21
209.5779332903183
 31
0.0
  0
LINE
  5
26D
330
2
100
AcDbEntity
  8
0
 62
     3
100
AcDbLine
 10
156.2364191647595
 20
203.6778936174185
 30
0.0
 11
160.2363962765594
 21
203.6778936174185
 31
0.0
  0
LINE
  5
26E
330
2
100
AcDbEntity
  8
0
 62
     3
100
AcDbLine
 10
156.2364191647595
 20
192.5778112200185
 30
0.0
 11
157.2364801999594
 21
192.5778112200185
 31
0.0
  0
LINE
  5
26F
330
2
100
AcDbEntity
  8
0
 62
     3
100
AcDbLine
 10
160.2363962765594
 20
195.4778203752185
 30
0.0
 11
156.2364191647595
 21
195.4778203752185
 31
0.0
  0
LINE
  5
270
330
2
100
AcDbEntity
  8
0
 62
     3
100
AcDbLine
 10
160.2363962765594
 20
192.5778112200185
 30
0.0
 11
159.2363352414595
 21
192.5778112200185
 31
0.0
  0
LINE
  5
271
330
2
100
AcDbEntity
  8
0
 62
     3
100
AcDbLine
 10
157.2364801999594
 20
206.5779409197185
 30
0.0
 11
156.2364191647595
 21
206.5779409197185
 31
0.0
  0
LINE
  5
272
330
2
100
AcDbEntity
  8
0
 62
     3
100
AcDbLine
 10
156.2364191647595
 20
209.5779332903183
 30
0.0
 11
157.2364801999594
 21
209.5779332903183
 31
0.0
  0
LINE
  5
273
330
2
100
AcDbEntity
  8
0
 62
     3
100
AcDbLine
 10
159.2363352414595
 20
206.5779409197185
 30
0.0
 11
160.2363962765594
 21
206.5779409197185
 31
0.0
  0
LINE
  5
274
330
2
100
AcDbEntity
  8
0
 62
     3
100
AcDbLine
 10
160.2363962765594
 20
209.5779714372186
 30
0.0
 11
159.2363352414595
 21
209.5779714372186
 31
0.0
  0
LINE
  5
275
330
2
100
AcDbEntity
  8
0
 62
     3
100
AcDbLine
 10
211.7366404172595
 20
195.3777608659185
 30
0.0
 11
211.7366404172595
 21
189.5777044084185
 31
0.0
  0
ARC
  5
276
330
2
100
AcDbEntity
  8
0
 62
     3
100
AcDbCircle
 10
202.7365488644595
 20
184.5777807024185
 30
0.0
 40
10.0000834465
100
AcDbArc
 50
0.0
 51
89.99992737239997
  0
LINE
  5
277
330
2
100
AcDbEntity
  8
0
  6
PHANTOM
 62
     3
100
AcDbLine
 10
219.7367014523595
 20
176.5778569963185
 30
0.0
 11
219.7367014523595
 21
179.0778569963185
 31
0.0
  0
LINE
  5
278
330
2
100
AcDbEntity
  8
0
 62
     3
100
AcDbLine
 10
212.1366495724594
 20
168.5775670793185
 30
0.0
 11
212.1366495724594
 21
187.9894552019184
 31
0.0
  0
LINE
  5
279
330
2
100
AcDbEntity
  8
0
 62
     3
100
AcDbLine
 10
214.7366709347594
 20
165.5776128557183
 30
0.0
 11
217.7366633053595
 21
165.5776128557183
 31
0.0
  0
LINE
  5
27A
330
2
100
AcDbEntity
  8
0
 62
     3
100
AcDbLine
 10
212.7367959681594
 20
167.5774603328185
 30
0.0
 11
210.7367849538595
 21
166.5774550256184
 31
0.0
  0
LINE
  5
27B
330
2
100
AcDbEntity
  8
0
  6
PHANTOM
 62
     3
100
AcDbLine
 10
217.7367014523595
 20
176.5778569963185
 30
0.0
 11
219.7367014523595
 21
176.5778569963185
 31
0.0
  0
LINE
  5
27C
330
2
100
AcDbEntity
  8
0
 62
     3
100
AcDbLine
 10
211.7366404172595
 20
189.5777044084185
 30
0.0
 11
214.7366709347594
 21
189.5777044084185
 31
0.0
  0
LINE
  5
27D
330
2
100
AcDbEntity
  8
0
  6
PHANTOM
 62
     3
100
AcDbLine
 10
224.2295852945594
 20
185.3705587625185
 30
0.0
 11
225.6437985942594
 21
186.7847726583184
 31
0.0
  0
ARC
  5
27E
330
2
100
AcDbEntity
  8
0
 62
     3
100
AcDbCircle
 10
202.7365488644595
 20
214.5780095842183
 30
0.0
 40
10.0000834465
100
AcDbArc
 50
270.0000179861
 51
0.0
  0
LINE
  5
27F
330
2
100
AcDbEntity
  8
0
 62
     3
100
AcDbLine
 10
211.7366404172595
 20
209.5778951433184
 30
0.0
 11
211.7366404172595
 21
203.7778386858184
 31
0.0
  0
LINE
  5
280
330
2
100
AcDbEntity
  8
0
 62
     3
100
AcDbLine
 10
214.7366709347594
 20
203.7778005388185
 30
0.0
 11
214.7366709347594
 21
195.3777608659185
 31
0.0
  0
LINE
  5
281
330
2
100
AcDbEntity
  8
0
 62
     3
100
AcDbLine
 10
211.7366404172595
 20
195.3777608659185
 30
0.0
 11
214.7366709347594
 21
195.3777608659185
 31
0.0
  0
LINE
  5
282
330
2
100
AcDbEntity
  8
0
 62
     3
100
AcDbLine
 10
214.7366709347594
 20
192.5777349260184
 30
0.0
 11
211.7366404172595
 21
192.5777349260184
 31
0.0
  0
LINE
  5
283
330
2
100
AcDbEntity
  8
0
 62
     3
100
AcDbLine
 10
214.7366709347594
 20
203.7778386858184
 30
0.0
 11
211.7366404172595
 21
203.7778386858184
 31
0.0
  0
CIRCLE
  5
284
330
2
100
AcDbEntity
  8
0
  6
PHANTOM
 62
     3
100
AcDbCircle
 10
224.9367136594595
 20
199.5778569963185
 30
0.0
 40
1.75
  0
CIRCLE
  5
285
330
2
100
AcDbEntity
  8
0
  6
PHANTOM
 62
     3
100
AcDbCircle
 10
224.9367136594595
 20
199.5778569963185
 30
0.0
 40
2.0
  0
LINE
  5
286
330
2
100
AcDbEntity
  8
0
 62
     3
100
AcDbLine
 10
211.7366404172595
 20
206.5778646257184
 30
0.0
 11
214.7366709347594
 21
206.5778646257184
 31
0.0
  0
LINE
  5
287
330
2
100
AcDbEntity
  8
0
 62
     3
100
AcDbLine
 10
214.7366709347594
 20
209.5778951433184
 30
0.0
 11
211.7366404172595
 21
209.5778951433184
 31
0.0
  0
LINE
  5
288
330
2
100
AcDbEntity
  8
0
  6
PHANTOM
 62
     3
100
AcDbLine
 10
224.2295796047593
 20
212.3705454050185
 30
0.0
 11
225.6437929044594
 21
213.7847593008185
 31
0.0
  0
ARC
  5
289
330
2
100
AcDbEntity
  8
0
 62
     3
100
AcDbCircle
 10
186.7365641232595
 20
230.5781087663185
 30
0.0
 40
14.0001177788
100
AcDbArc
 50
56.5518694596
 51
123.4480194361
  0
CIRCLE
  5
28A
330
2
100
AcDbEntity
  8
0
 62
     3
100
AcDbCircle
 10
186.7365641232595
 20
230.5781087663185
 30
0.0
 40
5.000042915299999
  0
LINE
  5
28B
330
2
100
AcDbEntity
  8
0
 62
     3
100
AcDbLine
 10
186.7367445960594
 20
219.6277563085184
 30
0.0
 11
196.2198033709595
 21
225.1028035959185
 31
0.0
  0
CIRCLE
  5
28C
330
2
100
AcDbEntity
  8
0
 62
     3
100
AcDbCircle
 10
186.7365641232595
 20
230.5781087663185
 30
0.0
 40
6.000053882599997
  0
LINE
  5
28D
330
2
100
AcDbEntity
  8
0
 62
     3
100
AcDbLine
 10
196.2197846733594
 20
236.0530668392184
 30
0.0
 11
186.7367093803594
 21
241.5281236633183
 31
0.0
  0
CIRCLE
  5
28E
330
2
100
AcDbEntity
  8
0
 62
     3
100
AcDbCircle
 10
186.7365641232595
 20
230.5781087663185
 30
0.0
 40
10.95010042189999
  0
LINE
  5
28F
330
2
100
AcDbEntity
  8
0
 62
     3
100
AcDbLine
 10
207.7365107175594
 20
246.0779866960185
 30
0.0
 11
165.7372278805594
 21
246.0779866960185
 31
0.0
  0
LINE
  5
290
330
2
100
AcDbEntity
  8
0
 62
     3
100
AcDbLine
 10
210.7366938229595
 20
244.5780095842184
 30
0.0
 11
162.7370066281594
 21
244.5780095842184
 31
0.0
  0
ARC
  5
291
330
2
100
AcDbEntity
  8
0
 62
     3
100
AcDbCircle
 10
165.7363123532595
 20
249.0780553606185
 30
0.0
 40
3.000023365
100
AcDbArc
 50
180.0000359722
 51
270.0000179861
  0
ARC
  5
292
330
2
100
AcDbEntity
  8
0
 62
     3
100
AcDbCircle
 10
150.7361979123595
 20
249.0780553606185
 30
0.0
 40
3.000023365
100
AcDbArc
 50
270.0000179861
 51
0.0
  0
LINE
  5
293
330
2
100
AcDbEntity
  8
0
 62
     3
100
AcDbLine
 10
160.2363962765594
 20
254.5775899675184
 30
0.0
 11
160.2363962765594
 21
243.5780248430184
 31
0.0
  0
LINE
  5
294
330
2
100
AcDbEntity
  8
0
 62
     3
100
AcDbLine
 10
156.2364191647595
 20
254.5775899675184
 30
0.0
 11
156.2364191647595
 21
243.5780248430184
 31
0.0
  0
LINE
  5
295
330
2
100
AcDbEntity
  8
0
 62
     3
100
AcDbLine
 10
162.7363962765595
 20
232.5780401018185
 30
0.0
 11
162.7363962765595
 21
259.5770177629185
 31
0.0
  0
LINE
  5
296
330
2
100
AcDbEntity
  8
0
 62
     3
100
AcDbLine
 10
153.7366861935594
 20
259.5767125871184
 30
0.0
 11
153.7366861935594
 21
232.5780782488186
 31
0.0
  0
LINE
  5
297
330
2
100
AcDbEntity
  8
0
 62
     3
100
AcDbLine
 10
179.0205578925595
 20
242.2581323381185
 30
0.0
 11
161.3369956597595
 21
230.5766659910184
 31
0.0
  0
LINE
  5
298
330
2
100
AcDbEntity
  8
0
 62
     3
100
AcDbLine
 10
181.5409083005593
 20
243.5779866960185
 30
0.0
 11
162.7367014523595
 21
243.5779866960185
 31
0.0
  0
LINE
  5
299
330
2
100
AcDbEntity
  8
0
 62
     3
100
AcDbLine
 10
153.7376601611593
 20
232.5772461475185
 30
0.0
 11
155.7376199959595
 21
231.5772664300185
 31
0.0
  0
LINE
  5
29A
330
2
100
AcDbEntity
  8
0
 62
     3
100
AcDbLine
 10
160.7373399296595
 20
231.5761361290185
 30
0.0
 11
162.7373338841595
 21
232.5761329064186
 31
0.0
  0
LINE
  5
29B
330
2
100
AcDbEntity
  8
0
 62
     3
100
AcDbLine
 10
156.2364191647595
 20
243.5780248430184
 30
0.0
 11
160.2363962765594
 21
243.5780248430184
 31
0.0
  0
LINE
  5
29C
330
2
100
AcDbEntity
  8
0
 62
     3
100
AcDbLine
 10
157.2364801999594
 20
233.5781392839185
 30
0.0
 11
159.2363352414595
 21
233.5781392839185
 31
0.0
  0
LINE
  5
29D
330
2
100
AcDbEntity
  8
0
 62
     3
100
AcDbLine
 10
157.2364801999594
 20
240.0780019548184
 30
0.0
 11
158.2362360593593
 21
240.0780019548184
 31
0.0
  0
LINE
  5
29E
330
2
100
AcDbEntity
  8
0
 62
     3
100
AcDbLine
 10
158.2362360593593
 20
240.0782308367185
 30
0.0
 11
159.2363352414595
 21
240.0782308367185
 31
0.0
  0
LINE
  5
29F
330
2
100
AcDbEntity
  8
0
 62
     3
100
AcDbLine
 10
177.2537512417594
 20
236.0531649378184
 30
0.0
 11
177.2537512417594
 21
225.1030716684183
 31
0.0
  0
LINE
  5
2A0
330
2
100
AcDbEntity
  8
0
 62
     3
100
AcDbLine
 10
177.2536474131594
 20
225.1029807775184
 30
0.0
 11
186.7367227060594
 21
219.6279239534185
 31
0.0
  0
LINE
  5
2A1
330
2
100
AcDbEntity
  8
0
 62
     3
100
AcDbLine
 10
186.7366841832595
 20
241.5280455904185
 30
0.0
 11
177.2536254083594
 21
236.0529983030184
 31
0.0
  0
LINE
  5
2A2
330
2
100
AcDbEntity
  8
0
 62
     3
100
AcDbLine
 10
156.2364191647595
 20
254.5775899675184
 30
0.0
 11
160.2363962765594
 21
254.5775899675184
 31
0.0
  0
LINE
  5
2A3
330
2
100
AcDbEntity
  8
0
 62
     3
100
AcDbLine
 10
157.2364801999594
 20
248.5780629900185
 30
0.0
 11
156.2364191647595
 21
248.5780629900185
 31
0.0
  0
LINE
  5
2A4
330
2
100
AcDbEntity
  8
0
 62
     3
100
AcDbLine
 10
159.2363352414595
 20
248.5780629900185
 30
0.0
 11
160.2363962765594
 21
248.5780629900185
 31
0.0
  0
LINE
  5
2A5
330
2
100
AcDbEntity
  8
0
 62
     3
100
AcDbLine
 10
210.7366556760594
 20
259.5767125871184
 30
0.0
 11
210.7366556760594
 21
232.5780782488186
 31
0.0
  0
ARC
  5
2A6
330
2
100
AcDbEntity
  8
0
 62
     3
100
AcDbCircle
 10
207.7365870114594
 20
249.0780553606185
 30
0.0
 40
3.000023365
100
AcDbArc
 50
270.0000179861
 51
0.0
  0
LINE
  5
2A7
330
2
100
AcDbEntity
  8
0
 62
     3
100
AcDbLine
 10
210.7366938229595
 20
243.5779866960185
 30
0.0
 11
191.9328302975595
 21
243.5779866960185
 31
0.0
  0
LINE
  5
2A8
330
2
100
AcDbEntity
  8
0
 62
     3
100
AcDbLine
 10
194.4546596049594
 20
242.2580748171184
 30
0.0
 11
212.1378981140594
 21
230.5768277749185
 31
0.0
  0
LINE
  5
2A9
330
2
100
AcDbEntity
  8
0
 62
     3
100
AcDbLine
 10
196.2196440335594
 20
225.1030716684183
 30
0.0
 11
196.2196440335594
 21
236.0531649378184
 31
0.0
  0
LINE
  5
2AA
330
2
100
AcDbEntity
  8
0
 62
     3
100
AcDbLine
 10
210.7376050042594
 20
232.5775407231186
 30
0.0
 11
212.7375989587594
 21
231.5775439457185
 31
0.0
  0
LINE
  5
2AB
330
2
100
AcDbEntity
  8
0
  6
PHANTOM
 62
     3
100
AcDbLine
 10
219.7367014523595
 20
220.0778569963186
 30
0.0
 11
219.7367014523595
 21
222.5778569963186
 31
0.0
  0
LINE
  5
2AC
330
2
100
AcDbEntity
  8
0
  6
PHANTOM
 62
     3
100
AcDbLine
 10
219.7367014523595
 20
222.5778569963186
 30
0.0
 11
217.7367014523595
 21
222.5778569963186
 31
0.0
  0
LINE
  5
2AD
330
2
100
AcDbEntity
  8
0
 62
     3
100
AcDbLine
 10
212.7366633053594
 20
243.5779866960185
 30
0.0
 11
217.7367014523595
 21
243.5779866960185
 31
0.0
  0
LINE
  5
2AE
330
2
100
AcDbEntity
  8
0
 62
     3
100
AcDbLine
 10
217.7366633053595
 20
240.0782308367185
 30
0.0
 11
214.7366327878594
 21
240.0782308367185
 31
0.0
  0
LINE
  5
2AF
330
2
100
AcDbEntity
  8
0
 62
     3
100
AcDbLine
 10
217.7366633053595
 20
233.5781392839185
 30
0.0
 11
214.7366327878594
 21
233.5781392839185
 31
0.0
  0
LINE
  5
2B0
330
2
100
AcDbEntity
  8
0
 62
     3
100
AcDbLine
 10
212.7366633053594
 20
254.5775136736185
 30
0.0
 11
217.7367014523595
 21
254.5775136736185
 31
0.0
  0
LINE
  5
2B1
330
2
100
AcDbEntity
  8
0
 62
     3
100
AcDbLine
 10
212.7366633053594
 20
250.5778035906185
 30
0.0
 11
217.7367014523595
 21
250.5778035906185
 31
0.0
  0
LINE
  5
2B2
330
2
100
AcDbEntity
  8
0
 62
     3
100
AcDbLine
 10
212.7366633053594
 20
248.5780248430184
 30
0.0
 11
217.7367014523595
 21
248.5780248430184
 31
0.0
  0
LINE
  5
2B4
330
2
100
AcDbEntity
  8
0
  6
PHANTOM
 62
     3
100
AcDbLine
 10
302.923212368441
 20
220.0779332903184
 30
0.0
 11
319.423212368441
 21
220.0779332903184
 31
0.0
  0
LINE
  5
2B5
330
2
100
AcDbEntity
  8
0
  6
PHANTOM
 62
     3
100
AcDbLine
 10
319.423212368441
 20
179.0779332903184
 30
0.0
 11
302.923212368441
 21
179.0779332903184
 31
0.0
  0
LINE
  5
2B6
330
2
100
AcDbEntity
  8
0
 62
     3
100
AcDbLine
 10
337.4237311673411
 20
259.5782766130184
 30
0.0
 11
279.423242886041
 21
259.5782766130184
 31
0.0
  0
LINE
  5
2B7
330
2
100
AcDbEntity
  8
0
  6
CENTER
 62
     3
100
AcDbLine
 10
255.8740485501409
 20
199.5779332903184
 30
0.0
 11
342.4237240147411
 21
199.5779332903184
 31
0.0
  0
LINE
  5
2B8
330
2
100
AcDbEntity
  8
0
  6
PHANTOM
 62
     3
100
AcDbLine
 10
302.923212368441
 20
179.0779332903184
 30
0.0
 11
302.923212368441
 21
220.0779332903184
 31
0.0
  0
LINE
  5
2B9
330
2
100
AcDbEntity
  8
0
 62
     3
100
AcDbLine
 10
272.4231971097409
 20
165.5776510027185
 30
0.0
 11
272.4231971097409
 21
233.5782537248185
 31
0.0
  0
LINE
  5
2BA
330
2
100
AcDbEntity
  8
0
  6
PHANTOM
 62
     3
100
AcDbLine
 10
232.1367106076595
 20
176.5778569963185
 30
0.0
 11
232.1367106076595
 21
222.5778569963186
 31
0.0
  0
LINE
  5
2BB
330
2
100
AcDbEntity
  8
0
  6
PHANTOM
 62
     3
100
AcDbLine
 10
249.3359156247593
 20
184.5779485491185
 30
0.0
 11
249.3359156247593
 21
214.5778875139185
 31
0.0
  0
LINE
  5
2BC
330
2
100
AcDbEntity
  8
0
  6
PHANTOM
 62
     3
100
AcDbLine
 10
249.3359156247593
 20
191.5779485491185
 30
0.0
 11
232.1367106076595
 21
191.5779485491185
 31
0.0
  0
LINE
  5
2BD
330
2
100
AcDbEntity
  8
0
  6
PHANTOM
 62
     3
100
AcDbLine
 10
232.1367106076595
 20
184.5779485491185
 30
0.0
 11
249.3359156247593
 21
184.5779485491185
 31
0.0
  0
LINE
  5
2BE
330
2
100
AcDbEntity
  8
0
  6
PHANTOM
 62
     3
100
AcDbLine
 10
230.1367106076595
 20
179.0778569963185
 30
0.0
 11
230.1367106076595
 21
176.5778569963185
 31
0.0
  0
LINE
  5
2BF
330
2
100
AcDbEntity
  8
0
  6
PHANTOM
 62
     3
100
AcDbLine
 10
230.1367106076595
 20
176.5778569963185
 30
0.0
 11
232.1367106076595
 21
176.5778569963185
 31
0.0
  0
ARC
  5
2C0
330
2
100
AcDbEntity
  8
0
  6
PHANTOM
 62
     3
100
AcDbCircle
 10
248.0859156247595
 20
199.5779180315185
 30
0.0
 40
2.75
100
AcDbArc
 50
90.0000179861
 51
268.5649865899999
  0
LINE
  5
2C1
330
2
100
AcDbEntity
  8
0
  6
PHANTOM
 62
     3
100
AcDbLine
 10
249.3359156247593
 20
207.5778875139184
 30
0.0
 11
232.1367106076595
 21
207.5778875139184
 31
0.0
  0
LINE
  5
2C2
330
2
100
AcDbEntity
  8
0
  6
PHANTOM
 62
     3
100
AcDbLine
 10
232.1367106076595
 20
214.5778875139185
 30
0.0
 11
249.3359156247593
 21
214.5778875139185
 31
0.0
  0
LINE
  5
2C3
330
2
100
AcDbEntity
  8
0
  6
PHANTOM
 62
     3
100
AcDbLine
 10
238.1520777341595
 20
202.2687749651185
 30
0.0
 11
235.6517725583594
 21
202.2687749651185
 31
0.0
  0
LINE
  5
2C4
330
2
100
AcDbEntity
  8
0
  6
PHANTOM
 62
     3
100
AcDbLine
 10
235.5185633298595
 20
196.8287725237185
 30
0.0
 11
238.1531763669594
 21
196.8287725237185
 31
0.0
  0
ARC
  5
2C5
330
2
100
AcDbEntity
  8
0
  6
PHANTOM
 62
     3
100
AcDbCircle
 10
235.5859156247595
 20
199.5779180315185
 30
0.0
 40
2.75
100
AcDbArc
 50
90.0000179861
 51
268.5977168566
  0
ARC
  5
2C6
330
2
100
AcDbEntity
  8
0
  6
PHANTOM
 62
     3
100
AcDbCircle
 10
238.0859156247594
 20
199.5779180315185
 30
0.0
 40
2.75
100
AcDbArc
 50
271.4029201723
 51
90.00001798610005
  0
LINE
  5
2C7
330
2
100
AcDbEntity
  8
0
  6
PHANTOM
 62
     3
100
AcDbLine
 10
248.0170374509595
 20
196.8288030412185
 30
0.0
 11
249.3359156247593
 21
196.8288030412185
 31
0.0
  0
LINE
  5
2C8
330
2
100
AcDbEntity
  8
0
  6
PHANTOM
 62
     3
100
AcDbLine
 10
248.1533289548595
 20
202.2687749651185
 30
0.0
 11
249.3359156247593
 21
202.2687749651185
 31
0.0
  0
LINE
  5
2C9
330
2
100
AcDbEntity
  8
0
  6
PHANTOM
 62
     3
100
AcDbLine
 10
302.923212368441
 20
188.0779332903184
 30
0.0
 11
293.3232062649409
 21
188.0779332903184
 31
0.0
  0
LINE
  5
2CA
330
2
100
AcDbEntity
  8
0
  6
PHANTOM
 62
     3
100
AcDbLine
 10
302.923212368441
 20
187.5779332903185
 30
0.0
 11
293.323191006141
 21
187.5779332903185
 31
0.0
  0
LINE
  5
2CB
330
2
100
AcDbEntity
  8
0
  6
PHANTOM
 62
     3
100
AcDbLine
 10
302.923212368441
 20
184.0779332903185
 30
0.0
 11
293.3232062649409
 21
184.0779332903185
 31
0.0
  0
LINE
  5
2CC
330
2
100
AcDbEntity
  8
0
  6
PHANTOM
 62
     3
100
AcDbLine
 10
302.923212368441
 20
184.5779485491185
 30
0.0
 11
293.323191006141
 21
184.5779485491185
 31
0.0
  0
LINE
  5
2CD
330
2
100
AcDbEntity
  8
0
  6
PHANTOM
 62
     3
100
AcDbLine
 10
293.3232062649409
 20
182.5779332903185
 30
0.0
 11
293.3232062649409
 21
189.5779332903185
 31
0.0
  0
ARC
  5
2CE
330
2
100
AcDbEntity
  8
0
  6
PHANTOM
 62
     3
100
AcDbCircle
 10
299.723200161441
 20
186.0779332903184
 30
0.0
 40
9.0
100
AcDbArc
 50
165.1679803444
 51
194.8320383248999
  0
ARC
  5
2CF
330
2
100
AcDbEntity
  8
0
  6
PHANTOM
 62
     3
100
AcDbCircle
 10
292.4731086087408
 20
184.1580419328185
 30
0.0
 40
1.5
100
AcDbArc
 50
194.8319836834
 51
264.9999923478
  0
LINE
  5
2D0
330
2
100
AcDbEntity
  8
0
  6
PHANTOM
 62
     3
100
AcDbLine
 10
292.3423371949411
 20
182.6637459145185
 30
0.0
 11
293.323179182841
 21
182.5779334042184
 31
0.0
  0
LINE
  5
2D1
330
2
100
AcDbEntity
  8
0
  6
PHANTOM
 62
     3
100
AcDbLine
 10
290.723193366541
 20
186.0779234200185
 30
0.0
 11
292.2231931877408
 21
188.6759997635184
 31
0.0
  0
ARC
  5
2D2
330
2
100
AcDbEntity
  8
0
  6
PHANTOM
 62
     3
100
AcDbCircle
 10
292.4731086087408
 20
187.9978399065185
 30
0.0
 40
1.5
100
AcDbArc
 50
95.00000583100002
 51
165.1679803444
  0
LINE
  5
2D3
330
2
100
AcDbEntity
  8
0
  6
PHANTOM
 62
     3
100
AcDbLine
 10
290.723151554541
 20
186.0779477169185
 30
0.0
 11
291.2231514948408
 21
185.2119222691185
 31
0.0
  0
LINE
  5
2D4
330
2
100
AcDbEntity
  8
0
  6
PHANTOM
 62
     3
100
AcDbLine
 10
292.342337821141
 20
189.4921173409185
 30
0.0
 11
293.3231798091408
 21
189.5779298513185
 31
0.0
  0
LINE
  5
2D5
330
2
100
AcDbEntity
  8
0
 62
     3
100
AcDbLine
 10
280.4732383084409
 20
203.1286916521184
 30
0.0
 11
276.373239834341
 21
203.1286916521184
 31
0.0
  0
LINE
  5
2D6
330
2
100
AcDbEntity
  8
0
 62
     3
100
AcDbLine
 10
276.373239834341
 20
196.0272130754185
 30
0.0
 11
280.4732383084409
 21
196.0272130754185
 31
0.0
  0
CIRCLE
  5
2D7
330
2
100
AcDbEntity
  8
0
 62
     3
100
AcDbCircle
 10
278.423219997841
 20
199.5779332903184
 30
0.0
 40
2.250018268799998
  0
LINE
  5
2D8
330
2
100
AcDbEntity
  8
0
 62
     3
100
AcDbLine
 10
274.323200352741
 20
199.5779271394184
 30
0.0
 11
276.373218174541
 21
196.0271910884183
 31
0.0
  0
LINE
  5
2D9
330
2
100
AcDbEntity
  8
0
 62
     3
100
AcDbLine
 10
276.3732377727408
 20
203.1286388276185
 30
0.0
 11
274.323219706641
 21
199.5779027766184
 31
0.0
  0
LINE
  5
2DA
330
2
100
AcDbEntity
  8
0
 62
     3
100
AcDbLine
 10
280.473239870241
 20
196.0271702247185
 30
0.0
 11
282.523258669541
 21
199.5779057869184
 31
0.0
  0
LINE
  5
2DB
330
2
100
AcDbEntity
  8
0
 62
     3
100
AcDbLine
 10
282.5232784598408
 20
199.5779335450185
 30
0.0
 11
280.4732599049409
 21
203.1286693516185
 31
0.0
  0
LINE
  5
2DC
330
2
100
AcDbEntity
  8
0
  6
PHANTOM
 62
     3
100
AcDbLine
 10
293.3232062649409
 20
215.0779332903185
 30
0.0
 11
302.923212368441
 21
215.0779332903185
 31
0.0
  0
LINE
  5
2DD
330
2
100
AcDbEntity
  8
0
  6
PHANTOM
 62
     3
100
AcDbLine
 10
293.323191006141
 20
214.5779180315185
 30
0.0
 11
302.923212368441
 21
214.5779180315185
 31
0.0
  0
LINE
  5
2DE
330
2
100
AcDbEntity
  8
0
  6
PHANTOM
 62
     3
100
AcDbLine
 10
293.3232062649409
 20
211.0779332903184
 30
0.0
 11
302.923212368441
 21
211.0779332903184
 31
0.0
  0
LINE
  5
2DF
330
2
100
AcDbEntity
  8
0
  6
PHANTOM
 62
     3
100
AcDbLine
 10
293.323191006141
 20
211.5779332903183
 30
0.0
 11
302.923212368441
 21
211.5779332903183
 31
0.0
  0
LINE
  5
2E0
330
2
100
AcDbEntity
  8
0
  6
PHANTOM
 62
     3
100
AcDbLine
 10
292.223192788241
 20
210.4798643497185
 30
0.0
 11
290.723192967041
 21
213.0779406933184
 31
0.0
  0
LINE
  5
2E1
330
2
100
AcDbEntity
  8
0
  6
PHANTOM
 62
     3
100
AcDbLine
 10
293.3232062649409
 20
209.5779332903183
 30
0.0
 11
293.3232062649409
 21
216.5779332903185
 31
0.0
  0
ARC
  5
2E2
330
2
100
AcDbEntity
  8
0
  6
PHANTOM
 62
     3
100
AcDbCircle
 10
299.723200161441
 20
213.0779332903184
 30
0.0
 40
9.0
100
AcDbArc
 50
165.1679257029
 51
194.8319836834
  0
ARC
  5
2E3
330
2
100
AcDbEntity
  8
0
  6
PHANTOM
 62
     3
100
AcDbCircle
 10
292.4731086087408
 20
211.1580266741185
 30
0.0
 40
1.5
100
AcDbArc
 50
194.8319836834
 51
264.9999923478
  0
LINE
  5
2E4
330
2
100
AcDbEntity
  8
0
  6
PHANTOM
 62
     3
100
AcDbLine
 10
293.3232034994408
 20
209.5779374128185
 30
0.0
 11
292.3423615115408
 21
209.6637499232184
 31
0.0
  0
ARC
  5
2E5
330
2
100
AcDbEntity
  8
0
  6
PHANTOM
 62
     3
100
AcDbCircle
 10
292.4731086087408
 20
214.9978246477185
 30
0.0
 40
1.5
100
AcDbArc
 50
94.99999558569999
 51
165.1679803444
  0
LINE
  5
2E6
330
2
100
AcDbEntity
  8
0
  6
PHANTOM
 62
     3
100
AcDbLine
 10
291.223206796741
 20
213.9439453850185
 30
0.0
 11
290.7232068563411
 21
213.0779199371184
 31
0.0
  0
LINE
  5
2E7
330
2
100
AcDbEntity
  8
0
  6
PHANTOM
 62
     3
100
AcDbLine
 10
293.323202424541
 20
216.5779226489184
 30
0.0
 11
292.3423604366409
 21
216.4921101385183
 31
0.0
  0
ARC
  5
2E8
330
2
100
AcDbEntity
  8
0
 62
     3
100
AcDbCircle
 10
264.8245490384411
 20
250.8318624284185
 30
0.0
 40
4.0000319481
100
AcDbArc
 50
25.8884011243
 51
110.5087451479
  0
ARC
  5
2E9
330
2
100
AcDbEntity
  8
0
  6
PHANTOM
 62
     3
100
AcDbCircle
 10
264.8245490384411
 20
250.8318624284185
 30
0.0
 40
5.500044822699998
100
AcDbArc
 50
28.19563902589998
 51
77.4721583213
  0
LINE
  5
2EA
330
2
100
AcDbEntity
  8
0
 62
     3
100
AcDbLine
 10
272.423183817741
 20
233.5781781947185
 30
0.0
 11
263.623158844641
 21
240.0781956922185
 31
0.0
  0
LINE
  5
2EB
330
2
100
AcDbEntity
  8
0
 62
     3
100
AcDbLine
 10
263.623146393741
 20
243.5782351749185
 30
0.0
 11
259.423152145541
 21
248.5782290133184
 31
0.0
  0
LINE
  5
2EC
330
2
100
AcDbEntity
  8
0
  6
PHANTOM
 62
     3
100
AcDbLine
 10
261.7716211222409
 20
243.4502306980184
 30
0.0
 11
258.6261032250411
 21
247.1948953750184
 31
0.0
  0
LINE
  5
2ED
330
2
100
AcDbEntity
  8
0
  6
PHANTOM
 62
     3
100
AcDbLine
 10
232.1367106076595
 20
222.5778569963186
 30
0.0
 11
230.1367106076595
 21
222.5778569963186
 31
0.0
  0
LINE
  5
2EE
330
2
100
AcDbEntity
  8
0
  6
PHANTOM
 62
     3
100
AcDbLine
 10
230.1367106076595
 20
222.5778569963186
 30
0.0
 11
230.1367106076595
 21
220.0778569963186
 31
0.0
  0
ARC
  5
2EF
330
2
100
AcDbEntity
  8
0
  6
PHANTOM
 62
     3
100
AcDbCircle
 10
260.623079617041
 20
242.4854955461185
 30
0.0
 40
1.500012576599998
100
AcDbArc
 50
359.9995262124999
 51
40.02986383849997
  0
ARC
  5
2F0
330
2
100
AcDbEntity
  8
0
  6
PHANTOM
 62
     3
100
AcDbCircle
 10
260.623079617041
 20
242.4854955461185
 30
0.0
 40
3.000023365
100
AcDbArc
 50
359.9997994199998
 51
40.03002776309995
  0
LINE
  5
2F1
330
2
100
AcDbEntity
  8
0
 62
     3
100
AcDbLine
 10
263.6231521324408
 20
240.0782187450185
 30
0.0
 11
263.6231483176409
 21
243.5782797801184
 31
0.0
  0
ARC
  5
2F2
330
2
100
AcDbEntity
  8
0
  6
PHANTOM
 62
     3
100
AcDbCircle
 10
263.923136074541
 20
250.5783376482185
 30
0.0
 40
6.000049114199999
100
AcDbArc
 50
69.56946552710002
 51
179.9999640277999
  0
ARC
  5
2F3
330
2
100
AcDbEntity
  8
0
  6
PHANTOM
 62
     3
100
AcDbCircle
 10
263.923136074541
 20
250.5783376482185
 30
0.0
 40
4.500036239599999
100
AcDbArc
 50
68.2388353937
 51
179.9999640277999
  0
LINE
  5
2F4
330
2
100
AcDbEntity
  8
0
 62
     3
100
AcDbLine
 10
263.4231673801409
 20
254.5782754572186
 30
0.0
 11
259.423136834141
 21
250.5782540149185
 31
0.0
  0
LINE
  5
2F5
330
2
100
AcDbEntity
  8
0
 62
     3
100
AcDbLine
 10
259.423090298141
 20
248.5783681658185
 30
0.0
 11
259.423090298141
 21
250.5783757951185
 31
0.0
  0
LINE
  5
2F6
330
2
100
AcDbEntity
  8
0
  6
PHANTOM
 62
     3
100
AcDbLine
 10
257.923075039341
 20
249.1247854021185
 30
0.0
 11
257.923075039341
 21
250.5783757951185
 31
0.0
  0
ARC
  5
2F7
330
2
100
AcDbEntity
  8
0
  6
PHANTOM
 62
     3
100
AcDbCircle
 10
260.9231055569411
 20
249.1247472551184
 30
0.0
 40
3.000023365
100
AcDbArc
 50
180.0000906136999
 51
220.0303540183
  0
ARC
  5
2F8
330
2
100
AcDbEntity
  8
0
 62
     3
100
AcDbCircle
 10
279.423242886041
 20
254.5783910539185
 30
0.0
 40
5.000040531199998
100
AcDbArc
 50
89.99998201389999
 51
179.9999640277999
  0
LINE
  5
2F9
330
2
100
AcDbEntity
  8
0
 62
     3
100
AcDbLine
 10
274.423242886041
 20
252.5783834245185
 30
0.0
 11
274.423242886041
 21
254.5783910539185
 31
0.0
  0
LINE
  5
2FA
330
2
100
AcDbEntity
  8
0
  6
PHANTOM
 62
     3
100
AcDbLine
 10
269.672027875541
 20
253.4303667982185
 30
0.0
 11
268.3273819067409
 21
252.7632356259184
 31
0.0
  0
LINE
  5
2FB
330
2
100
AcDbEntity
  8
0
 62
     3
100
AcDbLine
 10
274.423242886041
 20
252.5783834245185
 30
0.0
 11
268.423181850941
 21
252.5783834245185
 31
0.0
  0
LINE
  5
2FC
330
2
100
AcDbEntity
  8
0
  6
PHANTOM
 62
     3
100
AcDbLine
 10
335.4232123684408
 20
221.0779332903185
 30
0.0
 11
335.4232123684408
 21
215.8779210832185
 31
0.0
  0
LINE
  5
2FD
330
2
100
AcDbEntity
  8
0
 62
     3
100
AcDbLine
 10
337.4231971097408
 20
259.5774564531186
 30
0.0
 11
337.4231971097408
 21
216.0779294756185
 31
0.0
  0
LINE
  5
2FE
330
2
100
AcDbEntity
  8
0
 62
     3
100
AcDbLine
 10
335.422846157541
 20
190.0780019548184
 30
0.0
 11
335.422846157541
 21
192.5779638078184
 31
0.0
  0
LINE
  5
2FF
330
2
100
AcDbEntity
  8
0
 62
     3
100
AcDbLine
 10
335.4232276272408
 20
190.0779638078184
 30
0.0
 11
335.4232276272408
 21
192.5779638078184
 31
0.0
  0
LINE
  5
300
330
2
100
AcDbEntity
  8
0
  6
PHANTOM
 62
     3
100
AcDbLine
 10
331.123209316741
 20
193.1779393938185
 30
0.0
 11
331.123209316741
 21
188.5779332903185
 31
0.0
  0
LINE
  5
301
330
2
100
AcDbEntity
  8
0
  6
PHANTOM
 62
     3
100
AcDbLine
 10
337.4231971097408
 20
186.5779332903185
 30
0.0
 11
337.4231971097408
 21
212.5779332903185
 31
0.0
  0
LINE
  5
302
330
2
100
AcDbEntity
  8
0
  6
PHANTOM
 62
     3
100
AcDbLine
 10
335.9231971097408
 20
186.5779332903185
 30
0.0
 11
335.9231971097408
 21
212.5779332903185
 31
0.0
  0
LINE
  5
303
330
2
100
AcDbEntity
  8
0
  6
PHANTOM
 62
     3
100
AcDbLine
 10
321.4231513333408
 20
187.0779485491184
 30
0.0
 11
321.4231513333408
 21
191.8279485491185
 31
0.0
  0
LINE
  5
304
330
2
100
AcDbEntity
  8
0
 62
     3
100
AcDbLine
 10
322.423258144841
 20
191.8279332903185
 30
0.0
 11
322.423258144841
 21
186.5079564836186
 31
0.0
  0
ARC
  5
305
330
2
100
AcDbEntity
  8
0
  6
PHANTOM
 62
     3
100
AcDbCircle
 10
323.423212368441
 20
191.3279332903185
 30
0.0
 40
0.5
100
AcDbArc
 50
0.000017986089343
 51
90.0
  0
LINE
  5
306
330
2
100
AcDbEntity
  8
0
  6
PHANTOM
 62
     3
100
AcDbLine
 10
322.4231971097408
 20
184.8418645647185
 30
0.0
 11
322.4231971097408
 21
191.8279332903185
 31
0.0
  0
LINE
  5
307
330
2
100
AcDbEntity
  8
0
  6
PHANTOM
 62
     3
100
AcDbLine
 10
328.1232093167409
 20
184.0779332903185
 30
0.0
 11
324.423212368441
 21
184.0779332903185
 31
0.0
  0
LINE
  5
308
330
2
100
AcDbEntity
  8
0
  6
PHANTOM
 62
     3
100
AcDbLine
 10
333.923212368441
 20
176.5779332903185
 30
0.0
 11
321.923212368441
 21
176.5779332903185
 31
0.0
  0
LINE
  5
309
330
2
100
AcDbEntity
  8
0
  6
PHANTOM
 62
     3
100
AcDbLine
 10
328.8232062649409
 20
186.2779454973184
 30
0.0
 11
324.723200161441
 21
186.2779454973184
 31
0.0
  0
LINE
  5
30A
330
2
100
AcDbEntity
  8
0
  6
PHANTOM
 62
     3
100
AcDbLine
 10
335.4231971097408
 20
184.5779332903185
 30
0.0
 11
324.4231971097408
 21
184.5779332903185
 31
0.0
  0
LINE
  5
30B
330
2
100
AcDbEntity
  8
0
  6
PHANTOM
 62
     3
100
AcDbLine
 10
335.4231971097408
 20
186.0779332903184
 30
0.0
 11
324.4231971097408
 21
186.0779332903184
 31
0.0
  0
LINE
  5
30C
330
2
100
AcDbEntity
  8
0
 62
     3
100
AcDbLine
 10
324.7232459378408
 20
184.2079686907185
 30
0.0
 11
330.4232276272411
 21
184.2079686907185
 31
0.0
  0
LINE
  5
30D
330
2
100
AcDbEntity
  8
0
  6
PHANTOM
 62
     3
100
AcDbLine
 10
321.9231854107411
 20
176.5779608579185
 30
0.0
 11
319.4231935464411
 21
179.0779527223184
 31
0.0
  0
ARC
  5
30E
330
2
100
AcDbEntity
  8
0
  6
PHANTOM
 62
     3
100
AcDbCircle
 10
324.423212368441
 20
187.0779332903184
 30
0.0
 40
3.0
100
AcDbArc
 50
179.9999820138999
 51
269.9999640277999
  0
ARC
  5
30F
330
2
100
AcDbEntity
  8
0
  6
PHANTOM
 62
     3
100
AcDbCircle
 10
324.4231971097408
 20
186.5779332903185
 30
0.0
 40
2.0
100
AcDbArc
 50
179.9999820138999
 51
269.9999640277999
  0
ARC
  5
310
330
2
100
AcDbEntity
  8
0
 62
     3
100
AcDbCircle
 10
324.7231849026408
 20
186.5078954485184
 30
0.0
 40
2.2999992371
100
AcDbArc
 50
180.0000359722
 51
269.9999087031
  0
LINE
  5
311
330
2
100
AcDbEntity
  8
0
  6
PHANTOM
 62
     3
100
AcDbLine
 10
323.923212368441
 20
187.0779485491184
 30
0.0
 11
323.923212368441
 21
191.3279332903185
 31
0.0
  0
LINE
  5
312
330
2
100
AcDbEntity
  8
0
  6
PHANTOM
 62
     3
100
AcDbLine
 10
324.7231503300408
 20
186.2779436968185
 30
0.0
 11
323.923145164941
 21
187.0779489293185
 31
0.0
  0
LINE
  5
313
330
2
100
AcDbEntity
  8
0
  6
PHANTOM
 62
     3
100
AcDbLine
 10
323.9231971097408
 20
186.5779332903185
 30
0.0
 11
323.9231971097408
 21
191.5779332903184
 31
0.0
  0
ARC
  5
314
330
2
100
AcDbEntity
  8
0
  6
PHANTOM
 62
     3
100
AcDbCircle
 10
324.4231971097408
 20
186.5779332903185
 30
0.0
 40
0.5
100
AcDbArc
 50
179.9999820138999
 51
269.9999640277999
  0
LINE
  5
315
330
2
100
AcDbEntity
  8
0
  6
PHANTOM
 62
     3
100
AcDbLine
 10
322.4231971097408
 20
186.5779332903185
 30
0.0
 11
322.4231971097408
 21
191.5779332903184
 31
0.0
  0
LINE
  5
316
330
2
100
AcDbEntity
  8
0
  6
PHANTOM
 62
     3
100
AcDbLine
 10
323.9231971097408
 20
191.5779332903184
 30
0.0
 11
322.4231971097408
 21
191.5779332903184
 31
0.0
  0
LINE
  5
317
330
2
100
AcDbEntity
  8
0
  6
PHANTOM
 62
     3
100
AcDbLine
 10
335.4232123684408
 20
183.2779454973184
 30
0.0
 11
335.4232123684408
 21
178.0779332903184
 31
0.0
  0
ARC
  5
318
330
2
100
AcDbEntity
  8
0
  6
PHANTOM
 62
     3
100
AcDbCircle
 10
333.923212368441
 20
178.0779332903184
 30
0.0
 40
1.5
100
AcDbArc
 50
270.0000359722
 51
0.0000179861000493
  0
LINE
  5
319
330
2
100
AcDbEntity
  8
0
 62
     3
100
AcDbLine
 10
335.423094112841
 20
183.0779943254185
 30
0.0
 11
337.4231017422411
 21
183.0779943254185
 31
0.0
  0
LINE
  5
31A
330
2
100
AcDbEntity
  8
0
 62
     3
100
AcDbLine
 10
335.4232123684408
 20
182.0780248430184
 30
0.0
 11
337.4232581448408
 21
182.0780248430184
 31
0.0
  0
LINE
  5
31B
330
2
100
AcDbEntity
  8
0
 62
     3
100
AcDbLine
 10
335.4232276272408
 20
183.0779638078183
 30
0.0
 11
337.4232276272408
 21
183.0779638078183
 31
0.0
  0
ARC
  5
31C
330
2
100
AcDbEntity
  8
0
  6
PHANTOM
 62
     3
100
AcDbCircle
 10
335.4231971097408
 20
186.5779332903185
 30
0.0
 40
2.0
100
AcDbArc
 50
269.9999640277999
 51
359.9999460416999
  0
LINE
  5
31D
330
2
100
AcDbEntity
  8
0
  6
PHANTOM
 62
     3
100
AcDbLine
 10
331.623209316741
 20
184.2779454973184
 30
0.0
 11
334.423212368441
 21
184.2779454973184
 31
0.0
  0
LINE
  5
31E
330
2
100
AcDbEntity
  8
0
  6
PHANTOM
 62
     3
100
AcDbLine
 10
331.123209316741
 20
182.2279424455184
 30
0.0
 11
331.123209316741
 21
183.7779454973184
 31
0.0
  0
LINE
  5
31F
330
2
100
AcDbEntity
  8
0
  6
PHANTOM
 62
     3
100
AcDbLine
 10
330.8232062649409
 20
181.9279393938185
 30
0.0
 11
328.9231971097408
 21
181.9279393938185
 31
0.0
  0
ARC
  5
320
330
2
100
AcDbEntity
  8
0
  6
PHANTOM
 62
     3
100
AcDbCircle
 10
331.623209316741
 20
183.7779454973184
 30
0.0
 40
0.5
100
AcDbArc
 50
90.0
 51
179.9999820138999
  0
ARC
  5
321
330
2
100
AcDbEntity
  8
0
  6
PHANTOM
 62
     3
100
AcDbCircle
 10
330.8232062649409
 20
182.2279424455184
 30
0.0
 40
0.2999999522999999
100
AcDbArc
 50
270.0
 51
0.0
  0
LINE
  5
322
330
2
100
AcDbEntity
  8
0
 62
     3
100
AcDbLine
 10
329.4232581448408
 20
183.2079992082185
 30
0.0
 11
329.4232581448408
 21
181.9279393938185
 31
0.0
  0
LINE
  5
323
330
2
100
AcDbEntity
  8
0
 62
     3
100
AcDbLine
 10
330.423043803441
 20
184.2079385850184
 30
0.0
 11
329.4229780042408
 21
183.2078727858185
 31
0.0
  0
LINE
  5
324
330
2
100
AcDbEntity
  8
0
 62
     3
100
AcDbLine
 10
330.4232276272411
 20
184.2079381731185
 30
0.0
 11
330.4232276272411
 21
181.9279699114185
 31
0.0
  0
LINE
  5
325
330
2
100
AcDbEntity
  8
0
 62
     3
100
AcDbLine
 10
330.4232276272411
 20
181.9279699114185
 30
0.0
 11
330.8232062649409
 21
181.9279699114185
 31
0.0
  0
LINE
  5
326
330
2
100
AcDbEntity
  8
0
  6
PHANTOM
 62
     3
100
AcDbLine
 10
328.6232093167408
 20
182.2279424455184
 30
0.0
 11
328.6232093167408
 21
183.5779332903184
 31
0.0
  0
ARC
  5
327
330
2
100
AcDbEntity
  8
0
  6
PHANTOM
 62
     3
100
AcDbCircle
 10
328.1232093167409
 20
183.5779332903184
 30
0.0
 40
0.5
100
AcDbArc
 50
0.000017986089343
 51
90.0
  0
ARC
  5
328
330
2
100
AcDbEntity
  8
0
  6
PHANTOM
 62
     3
100
AcDbCircle
 10
328.9231971097408
 20
182.2279424455184
 30
0.0
 40
0.2999999522999999
100
AcDbArc
 50
179.9999820138999
 51
269.9999640277999
  0
LINE
  5
329
330
2
100
AcDbEntity
  8
0
 62
     3
100
AcDbLine
 10
328.6232093167408
 20
183.2079992082185
 30
0.0
 11
329.4232581448408
 21
183.2079992082185
 31
0.0
  0
LINE
  5
32A
330
2
100
AcDbEntity
  8
0
 62
     3
100
AcDbLine
 10
335.123201687341
 20
182.7783977251183
 30
0.0
 11
335.422755192941
 21
183.0779512308184
 31
0.0
  0
LINE
  5
32B
330
2
100
AcDbEntity
  8
0
 62
     3
100
AcDbLine
 10
335.123201687341
 20
184.2079648760184
 30
0.0
 11
335.423094112841
 21
184.2079648760184
 31
0.0
  0
LINE
  5
32C
330
2
100
AcDbEntity
  8
0
 62
     3
100
AcDbLine
 10
335.422846157541
 20
184.2079648760184
 30
0.0
 11
335.422846157541
 21
183.0779943254185
 31
0.0
  0
ARC
  5
32D
330
2
100
AcDbEntity
  8
0
  6
PHANTOM
 62
     3
100
AcDbCircle
 10
334.423212368441
 20
183.2779454973184
 30
0.0
 40
1.0
100
AcDbArc
 50
0.000017986089343
 51
90.0
  0
LINE
  5
32E
330
2
100
AcDbEntity
  8
0
 62
     3
100
AcDbLine
 10
335.4231570073408
 20
184.2079385850184
 30
0.0
 11
335.1644293883408
 21
183.9492109660183
 31
0.0
  0
LINE
  5
32F
330
2
100
AcDbEntity
  8
0
 62
     3
100
AcDbLine
 10
334.7907131981408
 20
184.2079686907185
 30
0.0
 11
335.4232276272408
 21
184.2079686907185
 31
0.0
  0
LINE
  5
330
330
2
100
AcDbEntity
  8
0
 62
     3
100
AcDbLine
 10
335.4232276272408
 20
184.2079381731185
 30
0.0
 11
335.4232276272408
 21
183.0779332903184
 31
0.0
  0
LINE
  5
331
330
2
100
AcDbEntity
  8
0
 62
     3
100
AcDbLine
 10
333.500650722941
 20
191.5780248430184
 30
0.0
 11
331.123209316741
 21
191.5780248430184
 31
0.0
  0
LINE
  5
332
330
2
100
AcDbEntity
  8
0
 62
     3
100
AcDbLine
 10
332.923227627241
 20
190.5779638078184
 30
0.0
 11
331.123209316741
 21
190.5779638078184
 31
0.0
  0
LINE
  5
333
330
2
100
AcDbEntity
  8
0
  6
PHANTOM
 62
     3
100
AcDbLine
 10
328.823140359541
 20
186.2779273373184
 30
0.0
 11
331.123147698641
 21
188.5779337071184
 31
0.0
  0
ARC
  5
334
330
2
100
AcDbEntity
  8
0
 62
     3
100
AcDbCircle
 10
334.422842342841
 20
190.0779256609185
 30
0.0
 40
0.9999998658999999
100
AcDbArc
 50
314.4558489125
 51
0.0
  0
LINE
  5
335
330
2
100
AcDbEntity
  8
0
 62
     3
100
AcDbLine
 10
335.123201687341
 20
190.0779828813185
 30
0.0
 11
335.422846157541
 21
190.0779828813185
 31
0.0
  0
ARC
  5
336
330
2
100
AcDbEntity
  8
0
  6
PHANTOM
 62
     3
100
AcDbCircle
 10
335.4231971097408
 20
186.5779332903185
 30
0.0
 40
0.5
100
AcDbArc
 50
269.9999640277999
 51
359.9999460416999
  0
ARC
  5
337
330
2
100
AcDbEntity
  8
0
 62
     3
100
AcDbCircle
 10
334.4231971097408
 20
190.0779332903185
 30
0.0
 40
1.0
100
AcDbArc
 50
270.0001272691
 51
0.000072627600094
  0
LINE
  5
338
330
2
100
AcDbEntity
  8
0
 62
     3
100
AcDbLine
 10
334.3666175198408
 20
190.0780248430184
 30
0.0
 11
335.4230140042409
 21
190.0780248430184
 31
0.0
  0
LINE
  5
339
330
2
100
AcDbEntity
  8
0
 62
     3
100
AcDbLine
 10
333.789042991841
 20
189.0779972918183
 30
0.0
 11
334.366345223841
 21
190.0778408180185
 31
0.0
  0
LINE
  5
33A
330
2
100
AcDbEntity
  8
0
 62
     3
100
AcDbLine
 10
333.7892249417409
 20
189.0779638078184
 30
0.0
 11
334.4231971097408
 21
189.0779638078184
 31
0.0
  0
LINE
  5
33B
330
2
100
AcDbEntity
  8
0
 62
     3
100
AcDbLine
 10
332.923035885041
 20
190.5779740101183
 30
0.0
 11
333.500460194041
 21
191.5780289645183
 31
0.0
  0
LINE
  5
33C
330
2
100
AcDbEntity
  8
0
 62
     3
100
AcDbLine
 10
334.3665352115408
 20
190.0780658219185
 30
0.0
 11
333.500568208241
 21
191.5779641817184
 31
0.0
  0
LINE
  5
33D
330
2
100
AcDbEntity
  8
0
 62
     3
100
AcDbLine
 10
333.7891998495411
 20
189.0779156084183
 30
0.0
 11
332.923187173041
 21
190.5778933583183
 31
0.0
  0
LINE
  5
33E
330
2
100
AcDbEntity
  8
0
  6
PHANTOM
 62
     3
100
AcDbLine
 10
324.423212368441
 20
215.0779332903185
 30
0.0
 11
328.1232093167409
 21
215.0779332903185
 31
0.0
  0
LINE
  5
33F
330
2
100
AcDbEntity
  8
0
  6
PHANTOM
 62
     3
100
AcDbLine
 10
324.7231849026408
 20
212.8779210832184
 30
0.0
 11
328.8232062649409
 21
212.8779210832184
 31
0.0
  0
LINE
  5
340
330
2
100
AcDbEntity
  8
0
  6
PHANTOM
 62
     3
100
AcDbLine
 10
324.4231971097408
 20
214.5779332903185
 30
0.0
 11
335.4231971097408
 21
214.5779332903185
 31
0.0
  0
LINE
  5
341
330
2
100
AcDbEntity
  8
0
  6
PHANTOM
 62
     3
100
AcDbLine
 10
324.4231971097408
 20
213.0779332903184
 30
0.0
 11
335.4231971097408
 21
213.0779332903184
 31
0.0
  0
LINE
  5
342
330
2
100
AcDbEntity
  8
0
 62
     3
100
AcDbLine
 10
330.4232276272411
 20
214.9479589250185
 30
0.0
 11
324.7232459378408
 21
214.9479589250185
 31
0.0
  0
LINE
  5
343
330
2
100
AcDbEntity
  8
0
  6
PHANTOM
 62
     3
100
AcDbLine
 10
308.323206264941
 20
202.7779302385184
 30
0.0
 11
319.923212368441
 21
202.7779302385184
 31
0.0
  0
LINE
  5
344
330
2
100
AcDbEntity
  8
0
  6
PHANTOM
 62
     3
100
AcDbLine
 10
319.923212368441
 20
196.3779363420185
 30
0.0
 11
308.323206264941
 21
196.3779363420185
 31
0.0
  0
LINE
  5
345
330
2
100
AcDbEntity
  8
0
  6
PHANTOM
 62
     3
100
AcDbLine
 10
309.8232062649409
 20
196.3779363420185
 30
0.0
 11
309.8232062649409
 21
202.7779302385184
 31
0.0
  0
LINE
  5
346
330
2
100
AcDbEntity
  8
0
  6
PHANTOM
 62
     3
100
AcDbLine
 10
311.4231971097408
 20
196.3779363420185
 30
0.0
 11
311.4231971097408
 21
202.7779302385184
 31
0.0
  0
LINE
  5
347
330
2
100
AcDbEntity
  8
0
  6
PHANTOM
 62
     3
100
AcDbLine
 10
311.9231971097408
 20
202.7779302385184
 30
0.0
 11
311.9231971097408
 21
196.3779363420185
 31
0.0
  0
LINE
  5
348
330
2
100
AcDbEntity
  8
0
  6
PHANTOM
 62
     3
100
AcDbLine
 10
308.323206264941
 20
196.3779363420185
 30
0.0
 11
308.323206264941
 21
202.7779302385184
 31
0.0
  0
LINE
  5
349
330
2
100
AcDbEntity
  8
0
  6
PHANTOM
 62
     3
100
AcDbLine
 10
319.923212368441
 20
202.7779302385184
 30
0.0
 11
319.923212368441
 21
196.3779363420185
 31
0.0
  0
LINE
  5
34A
330
2
100
AcDbEntity
  8
0
  6
PHANTOM
 62
     3
100
AcDbLine
 10
323.423212368441
 20
191.8279332903185
 30
0.0
 11
321.423212368441
 21
191.8279332903185
 31
0.0
  0
LINE
  5
34B
330
2
100
AcDbEntity
  8
0
  6
PHANTOM
 62
     3
100
AcDbLine
 10
323.923184500341
 20
212.0779308196185
 30
0.0
 11
324.723177864341
 21
212.8779262740184
 31
0.0
  0
LINE
  5
34C
330
2
100
AcDbEntity
  8
0
  6
PHANTOM
 62
     3
100
AcDbLine
 10
323.9231971097408
 20
212.5779332903185
 30
0.0
 11
323.9231971097408
 21
207.8279332903185
 31
0.0
  0
LINE
  5
34D
330
2
100
AcDbEntity
  8
0
 62
     3
100
AcDbLine
 10
322.423258144841
 20
212.6479406145185
 30
0.0
 11
322.423258144841
 21
207.3279332903184
 31
0.0
  0
LINE
  5
34E
330
2
100
AcDbEntity
  8
0
  6
PHANTOM
 62
     3
100
AcDbLine
 10
322.4231971097408
 20
207.3279332903184
 30
0.0
 11
322.4231971097408
 21
214.3139867571185
 31
0.0
  0
ARC
  5
34F
330
2
100
AcDbEntity
  8
0
  6
PHANTOM
 62
     3
100
AcDbCircle
 10
324.423212368441
 20
212.0779332903185
 30
0.0
 40
3.0
100
AcDbArc
 50
90.0
 51
179.9999820138999
  0
LINE
  5
350
330
2
100
AcDbEntity
  8
0
  6
PHANTOM
 62
     3
100
AcDbLine
 10
321.423212368441
 20
207.3279332903184
 30
0.0
 11
323.423212368441
 21
207.3279332903184
 31
0.0
  0
LINE
  5
351
330
2
100
AcDbEntity
  8
0
  6
PHANTOM
 62
     3
100
AcDbLine
 10
321.4231818509411
 20
207.3279180315185
 30
0.0
 11
321.4231818509411
 21
212.0779180315185
 31
0.0
  0
LINE
  5
352
330
2
100
AcDbEntity
  8
0
  6
PHANTOM
 62
     3
100
AcDbLine
 10
323.9231971097408
 20
207.8279332903185
 30
0.0
 11
323.9231971097408
 21
212.0779332903185
 31
0.0
  0
LINE
  5
353
330
2
100
AcDbEntity
  8
0
  6
PHANTOM
 62
     3
100
AcDbLine
 10
322.4231971097408
 20
207.5779332903183
 30
0.0
 11
323.8562250703409
 21
207.5779332903183
 31
0.0
  0
ARC
  5
354
330
2
100
AcDbEntity
  8
0
  6
PHANTOM
 62
     3
100
AcDbCircle
 10
323.423212368441
 20
207.8279332903185
 30
0.0
 40
0.5
100
AcDbArc
 50
269.9999640277999
 51
0.0000006831999766
  0
ARC
  5
355
330
2
100
AcDbEntity
  8
0
  6
PHANTOM
 62
     3
100
AcDbCircle
 10
324.4231971097408
 20
212.5779332903185
 30
0.0
 40
0.5
100
AcDbArc
 50
90.0
 51
179.9999820138999
  0
ARC
  5
356
330
2
100
AcDbEntity
  8
0
  6
PHANTOM
 62
     3
100
AcDbCircle
 10
324.4231971097408
 20
212.5779332903185
 30
0.0
 40
2.0
100
AcDbArc
 50
90.0
 51
179.9999820138999
  0
ARC
  5
357
330
2
100
AcDbEntity
  8
0
 62
     3
100
AcDbCircle
 10
324.7231849026408
 20
212.6479100969184
 30
0.0
 40
2.2999992371
100
AcDbArc
 50
89.99998201389999
 51
179.9999640277999
  0
LINE
  5
358
330
2
100
AcDbEntity
  8
0
  6
PHANTOM
 62
     3
100
AcDbLine
 10
331.1231800719411
 20
205.9779294890185
 30
0.0
 11
328.908972158341
 21
203.7637215753185
 31
0.0
  0
LINE
  5
359
330
2
100
AcDbEntity
  8
0
 62
     3
100
AcDbLine
 10
332.923227627241
 20
193.0549230364185
 30
0.0
 11
332.923227627241
 21
206.1009740617183
 31
0.0
  0
LINE
  5
35A
330
2
100
AcDbEntity
  8
0
  6
PHANTOM
 62
     3
100
AcDbLine
 10
328.323206264941
 20
202.3494939592183
 30
0.0
 11
328.323206264941
 21
196.8063726213186
 31
0.0
  0
ARC
  5
35B
330
2
100
AcDbEntity
  8
0
 62
     3
100
AcDbCircle
 10
326.4231971097408
 20
199.5779027727185
 30
0.0
 40
3.25
100
AcDbArc
 50
305.7760222854
 51
54.22397771459999
  0
LINE
  5
35C
330
2
100
AcDbEntity
  8
0
  6
PHANTOM
 62
     3
100
AcDbLine
 10
328.908961368741
 20
195.3921518673184
 30
0.0
 11
331.123169282341
 21
193.1779439536183
 31
0.0
  0
ARC
  5
35D
330
2
100
AcDbEntity
  8
0
  6
PHANTOM
 62
     3
100
AcDbCircle
 10
330.323206264941
 20
196.8063726213186
 30
0.0
 40
2.0
100
AcDbArc
 50
179.9999820138999
 51
224.9999457000999
  0
ARC
  5
35E
330
2
100
AcDbEntity
  8
0
 62
     3
100
AcDbCircle
 10
333.2231849026408
 20
193.0548620012184
 30
0.0
 40
0.2999999522999999
100
AcDbArc
 50
179.9996908202999
 51
265.4258503168
  0
LINE
  5
35F
330
2
100
AcDbEntity
  8
0
 62
     3
100
AcDbLine
 10
335.422821087941
 20
192.5780518089185
 30
0.0
 11
335.123201687341
 21
192.6020212735183
 31
0.0
  0
LINE
  5
360
330
2
100
AcDbEntity
  8
0
 62
     3
100
AcDbLine
 10
335.4233385266411
 20
192.5778664173184
 30
0.0
 11
333.1993952428411
 21
192.7557815076184
 31
0.0
  0
ARC
  5
361
330
2
100
AcDbEntity
  8
0
  6
PHANTOM
 62
     3
100
AcDbCircle
 10
330.323206264941
 20
202.3494939592183
 30
0.0
 40
2.0
100
AcDbArc
 50
135.0000012521998
 51
179.9999820138999
  0
LINE
  5
362
330
2
100
AcDbEntity
  8
0
 62
     3
100
AcDbLine
 10
337.423120815741
 20
217.0779142168185
 30
0.0
 11
335.4232123684408
 21
217.0779142168185
 31
0.0
  0
LINE
  5
363
330
2
100
AcDbEntity
  8
0
 62
     3
100
AcDbLine
 10
337.423120815741
 20
216.0779294756185
 30
0.0
 11
335.423113186341
 21
216.0779294756185
 31
0.0
  0
LINE
  5
364
330
2
100
AcDbEntity
  8
0
 62
     3
100
AcDbLine
 10
337.4232276272408
 20
216.0779332903185
 30
0.0
 11
335.4232276272408
 21
216.0779332903185
 31
0.0
  0
LINE
  5
365
330
2
100
AcDbEntity
  8
0
 62
     3
100
AcDbLine
 10
337.4232276272408
 20
217.0778722551184
 30
0.0
 11
335.4232123684408
 21
217.0778722551184
 31
0.0
  0
ARC
  5
366
330
2
100
AcDbEntity
  8
0
  6
PHANTOM
 62
     3
100
AcDbCircle
 10
335.4231971097408
 20
212.5779332903185
 30
0.0
 40
2.0
100
AcDbArc
 50
0.000017986089343
 51
90.0
  0
LINE
  5
367
330
2
100
AcDbEntity
  8
0
  6
PHANTOM
 62
     3
100
AcDbLine
 10
331.1231931684408
 20
210.5779252468185
 30
0.0
 11
328.823185829341
 21
212.8779316165185
 31
0.0
  0
LINE
  5
368
330
2
100
AcDbEntity
  8
0
 62
     3
100
AcDbLine
 10
331.123209316741
 20
207.5778722551184
 30
0.0
 11
333.500620205441
 21
207.5778722551184
 31
0.0
  0
LINE
  5
369
330
2
100
AcDbEntity
  8
0
 62
     3
100
AcDbLine
 10
331.123209316741
 20
208.5779332903185
 30
0.0
 11
332.923227627241
 21
208.5779332903185
 31
0.0
  0
LINE
  5
36A
330
2
100
AcDbEntity
  8
0
  6
PHANTOM
 62
     3
100
AcDbLine
 10
331.123209316741
 20
210.5779332903185
 30
0.0
 11
331.123209316741
 21
205.9779271867185
 31
0.0
  0
ARC
  5
36B
330
2
100
AcDbEntity
  8
0
 62
     3
100
AcDbCircle
 10
334.423090298141
 20
209.0779981401185
 30
0.0
 40
0.9999998658999999
100
AcDbArc
 50
0.0
 51
45.56405101399999
  0
LINE
  5
36C
330
2
100
AcDbEntity
  8
0
 62
     3
100
AcDbLine
 10
335.422865231041
 20
209.0779409197184
 30
0.0
 11
335.123201687341
 21
209.0779409197184
 31
0.0
  0
LINE
  5
36D
330
2
100
AcDbEntity
  8
0
 62
     3
100
AcDbLine
 10
335.423113186341
 20
206.5779599931185
 30
0.0
 11
335.423113186341
 21
209.0779218462183
 31
0.0
  0
LINE
  5
36E
330
2
100
AcDbEntity
  8
0
 62
     3
100
AcDbLine
 10
335.123201687341
 20
206.5538393448185
 30
0.0
 11
335.4229577181409
 21
206.5778197398183
 31
0.0
  0
ARC
  5
36F
330
2
100
AcDbEntity
  8
0
 62
     3
100
AcDbCircle
 10
334.4231971097408
 20
209.0779027727185
 30
0.0
 40
1.0
100
AcDbArc
 50
0.0
 51
89.99992737239997
  0
LINE
  5
370
330
2
100
AcDbEntity
  8
0
 62
     3
100
AcDbLine
 10
334.4231971097408
 20
210.0779332903185
 30
0.0
 11
333.7892249417409
 21
210.0779332903185
 31
0.0
  0
LINE
  5
371
330
2
100
AcDbEntity
  8
0
 62
     3
100
AcDbLine
 10
335.4232276272408
 20
206.5779332903185
 30
0.0
 11
335.4232276272408
 21
209.0779332903184
 31
0.0
  0
LINE
  5
372
330
2
100
AcDbEntity
  8
0
 62
     3
100
AcDbLine
 10
335.4229834866411
 20
209.0778722551184
 30
0.0
 11
334.3665870022411
 21
209.0778722551184
 31
0.0
  0
LINE
  5
373
330
2
100
AcDbEntity
  8
0
 62
     3
100
AcDbLine
 10
334.3663951751409
 20
209.0777203953185
 30
0.0
 11
333.789001385341
 21
210.0777224927183
 31
0.0
  0
LINE
  5
374
330
2
100
AcDbEntity
  8
0
 62
     3
100
AcDbLine
 10
333.5004185875408
 20
207.5776908200185
 30
0.0
 11
332.923024797741
 21
208.5776929173185
 31
0.0
  0
LINE
  5
375
330
2
100
AcDbEntity
  8
0
 62
     3
100
AcDbLine
 10
332.9232995274411
 20
208.5778045673185
 30
0.0
 11
333.789327565941
 21
210.0778086430184
 31
0.0
  0
LINE
  5
376
330
2
100
AcDbEntity
  8
0
 62
     3
100
AcDbLine
 10
333.199359714841
 20
206.3999813434183
 30
0.0
 11
335.4232727112409
 21
206.5778938671186
 31
0.0
  0
LINE
  5
377
330
2
100
AcDbEntity
  8
0
 62
     3
100
AcDbLine
 10
333.500764731741
 20
207.5777596737184
 30
0.0
 11
334.366731735041
 21
209.0776580334185
 31
0.0
  0
ARC
  5
378
330
2
100
AcDbEntity
  8
0
 62
     3
100
AcDbCircle
 10
333.2231849026408
 20
206.1009435442183
 30
0.0
 40
0.2999999522999999
100
AcDbArc
 50
94.57391381429999
 51
180.0000186692997
  0
LINE
  5
379
330
2
100
AcDbEntity
  8
0
  6
PHANTOM
 62
     3
100
AcDbLine
 10
334.423212368441
 20
214.8779210832184
 30
0.0
 11
331.623209316741
 21
214.8779210832184
 31
0.0
  0
LINE
  5
37A
330
2
100
AcDbEntity
  8
0
  6
PHANTOM
 62
     3
100
AcDbLine
 10
331.123209316741
 20
215.3779210832186
 30
0.0
 11
331.123209316741
 21
216.9279241350185
 31
0.0
  0
LINE
  5
37B
330
2
100
AcDbEntity
  8
0
  6
PHANTOM
 62
     3
100
AcDbLine
 10
328.9231971097408
 20
217.2279271867183
 30
0.0
 11
330.8232062649409
 21
217.2279271867183
 31
0.0
  0
ARC
  5
37C
330
2
100
AcDbEntity
  8
0
  6
PHANTOM
 62
     3
100
AcDbCircle
 10
331.623209316741
 20
215.3779210832186
 30
0.0
 40
0.5
100
AcDbArc
 50
179.9999820138999
 51
269.9999640277999
  0
ARC
  5
37D
330
2
100
AcDbEntity
  8
0
  6
PHANTOM
 62
     3
100
AcDbCircle
 10
330.8232062649409
 20
216.9279241350185
 30
0.0
 40
0.2999999522999999
100
AcDbArc
 50
0.000017986089343
 51
90.0
  0
LINE
  5
37E
330
2
100
AcDbEntity
  8
0
 62
     3
100
AcDbLine
 10
329.4232276272408
 20
217.2279271867183
 30
0.0
 11
329.4232276272408
 21
215.9478673723184
 31
0.0
  0
LINE
  5
37F
330
2
100
AcDbEntity
  8
0
 62
     3
100
AcDbLine
 10
329.423129058541
 20
215.9476196759185
 30
0.0
 11
330.4231301201411
 21
214.9476186143185
 31
0.0
  0
LINE
  5
380
330
2
100
AcDbEntity
  8
0
 62
     3
100
AcDbLine
 10
330.4232276272411
 20
217.2278966692184
 30
0.0
 11
330.4232276272411
 21
214.9479284075185
 31
0.0
  0
LINE
  5
381
330
2
100
AcDbEntity
  8
0
 62
     3
100
AcDbLine
 10
330.8232062649409
 20
217.2279271867183
 30
0.0
 11
330.4232276272411
 21
217.2279271867183
 31
0.0
  0
LINE
  5
382
330
2
100
AcDbEntity
  8
0
  6
PHANTOM
 62
     3
100
AcDbLine
 10
328.6232093167408
 20
215.5779332903184
 30
0.0
 11
328.6232093167408
 21
216.9279241350185
 31
0.0
  0
ARC
  5
383
330
2
100
AcDbEntity
  8
0
  6
PHANTOM
 62
     3
100
AcDbCircle
 10
328.1232093167409
 20
215.5779332903184
 30
0.0
 40
0.5
100
AcDbArc
 50
269.9999640277999
 51
0.0000006831999766
  0
ARC
  5
384
330
2
100
AcDbEntity
  8
0
  6
PHANTOM
 62
     3
100
AcDbCircle
 10
328.9231971097408
 20
216.9279241350185
 30
0.0
 40
0.2999999522999999
100
AcDbArc
 50
90.0
 51
179.9999820138999
  0
LINE
  5
385
330
2
100
AcDbEntity
  8
0
 62
     3
100
AcDbLine
 10
329.4232276272408
 20
215.9478978899185
 30
0.0
 11
328.6232093167408
 21
215.9478978899185
 31
0.0
  0
LINE
  5
386
330
2
100
AcDbEntity
  8
0
 62
     3
100
AcDbLine
 10
335.423113186341
 20
214.9479589250185
 30
0.0
 11
335.123201687341
 21
214.9479589250185
 31
0.0
  0
LINE
  5
387
330
2
100
AcDbEntity
  8
0
 62
     3
100
AcDbLine
 10
335.423113186341
 20
216.0779294756185
 30
0.0
 11
335.423113186341
 21
214.9479589250185
 31
0.0
  0
ARC
  5
388
330
2
100
AcDbEntity
  8
0
  6
PHANTOM
 62
     3
100
AcDbCircle
 10
334.423212368441
 20
215.8779210832185
 30
0.0
 40
1.0
100
AcDbArc
 50
269.9999640277999
 51
0.0000006831999766
  0
LINE
  5
389
330
2
100
AcDbEntity
  8
0
 62
     3
100
AcDbLine
 10
335.4232276272408
 20
214.9479589250185
 30
0.0
 11
334.7908676204411
 21
214.9479589250185
 31
0.0
  0
LINE
  5
38A
330
2
100
AcDbEntity
  8
0
 62
     3
100
AcDbLine
 10
335.164343884341
 20
215.2065612124185
 30
0.0
 11
335.4232001656408
 21
214.9477049311183
 31
0.0
  0
LINE
  5
38B
330
2
100
AcDbEntity
  8
0
 62
     3
100
AcDbLine
 10
335.4232276272408
 20
216.0779332903185
 30
0.0
 11
335.4232276272408
 21
214.9479284075185
 31
0.0
  0
ARC
  5
38C
330
2
100
AcDbEntity
  8
0
  6
PHANTOM
 62
     3
100
AcDbCircle
 10
335.4231971097408
 20
212.5779332903185
 30
0.0
 40
0.5
100
AcDbArc
 50
0.000017986089343
 51
90.0
  0
LINE
  5
38E
330
2
100
AcDbEntity
  8
0
  6
PHANTOM
 62
     3
100
AcDbLine
 10
321.923212368441
 20
222.5779332903185
 30
0.0
 11
333.923212368441
 21
222.5779332903185
 31
0.0
  0
LINE
  5
38F
330
2
100
AcDbEntity
  8
0
  6
PHANTOM
 62
     3
100
AcDbLine
 10
319.423208382141
 20
220.0779166742184
 30
0.0
 11
321.923200246441
 21
222.5779085386185
 31
0.0
  0
ARC
  5
390
330
2
100
AcDbEntity
  8
0
  6
PHANTOM
 62
     3
100
AcDbCircle
 10
333.923212368441
 20
221.0779332903185
 30
0.0
 40
1.5
100
AcDbArc
 50
0.000017986089343
 51
90.0
  0
TEXT
  5
3A8
330
2
100
AcDbEntity
  8
0
 62
     7
100
AcDbText
 10
356.0
 20
85.00000295524989
 30
0.0
 40
2.999994089499998
  1
BN400NW3
 11
356.0
 21
86.49999999999989
 31
0.0
100
AcDbText
 73
     2
  0
ENDSEC
  0
SECTION
  2
OBJECTS
  0
DICTIONARY
  5
7
330
0
100
AcDbDictionary
281
     1
  3
ACAD_GROUP
350
1F
  3
ACAD_LAYOUT
350
B
  3
ACAD_MLINESTYLE
350
20
  3
ACAD_PLOTSETTINGS
350
21
  3
ACAD_PLOTSTYLENAME
350
6
  3
AcDbVariableDictionary
350
3A9
  0
DICTIONARY
  5
1F
102
{ACAD_REACTORS
330
7
102
}
330
7
100
AcDbDictionary
281
     1
  0
DICTIONARY
  5
B
102
{ACAD_REACTORS
330
7
102
}
330
7
100
AcDbDictionary
281
     1
  3
Model
350
A
  3
ﾚｲｱｳﾄ1
350
F
  0
DICTIONARY
  5
20
102
{ACAD_REACTORS
330
7
102
}
330
7
100
AcDbDictionary
281
     1
  3
Standard
350
22
  0
DICTIONARY
  5
21
102
{ACAD_REACTORS
330
7
102
}
330
7
100
AcDbDictionary
281
     1
  0
ACDBDICTIONARYWDFLT
  5
6
102
{ACAD_REACTORS
330
7
102
}
330
7
100
AcDbDictionary
281
     1
  3
Normal
350
5
100
AcDbDictionaryWithDefault
340
5
  0
DICTIONARY
  5
3A9
102
{ACAD_REACTORS
330
7
102
}
330
7
100
AcDbDictionary
281
     1
  3
DIMASSOC
350
3AA
  0
LAYOUT
  5
A
102
{ACAD_REACTORS
330
B
102
}
330
B
100
AcDbPlotSettings
  1

  2
C:\Program Files\AutoCAD 2000i\plotters\DWF Classic.pc3
  4

  6

 40
0.0
 41
0.0
 42
0.0
 43
0.0
 44
0.0
 45
0.0
 46
0.0
 47
0.0
 48
0.0
 49
0.0
140
0.0
141
0.0
142
1.0
143
1.0
 70
  1712
 72
     0
 73
     0
 74
     0
  7

 75
     0
147
1.0
148
0.0
149
0.0
100
AcDbLayout
  1
Model
 70
     1
 71
     0
 10
0.0
 20
0.0
 11
12.0
 21
9.0
 12
0.0
 22
0.0
 32
0.0
 14
0.0
 24
0.0
 34
0.0
 15
0.0
 25
0.0
 35
0.0
146
0.0
 13
0.0
 23
0.0
 33
0.0
 16
1.0
 26
0.0
 36
0.0
 17
0.0
 27
1.0
 37
0.0
 76
     0
330
2
  0
LAYOUT
  5
F
102
{ACAD_REACTORS
330
B
102
}
330
B
100
AcDbPlotSettings
  1

  2
C:\Program Files\AutoCAD 2000i\plotters\DWF Classic.pc3
  4

  6

 40
0.0
 41
0.0
 42
0.0
 43
0.0
 44
0.0
 45
0.0
 46
0.0
 47
0.0
 48
0.0
 49
0.0
140
0.0
141
0.0
142
1.0
143
1.0
 70
   688
 72
     0
 73
     0
 74
     5
  7

 75
    16
147
1.0
148
0.0
149
0.0
100
AcDbLayout
  1
ﾚｲｱｳﾄ1
 70
     1
 71
     1
 10
0.0
 20
0.0
 11
12.0
 21
9.0
 12
0.0
 22
0.0
 32
0.0
 14
1.000000000000000E+20
 24
1.000000000000000E+20
 34
1.000000000000000E+20
 15
-1.000000000000000E+20
 25
-1.000000000000000E+20
 35
-1.000000000000000E+20
146
0.0
 13
0.0
 23
0.0
 33
0.0
 16
1.0
 26
0.0
 36
0.0
 17
0.0
 27
1.0
 37
0.0
 76
     0
330
C
  0
MLINESTYLE
  5
22
102
{ACAD_REACTORS
330
20
102
}
330
20
100
AcDbMlineStyle
  2
STANDARD
 70
     0
  3

 62
   256
 51
90.0
 52
90.0
 71
     2
 49
0.5
 62
   256
  6
BYLAYER
 49
-0.5
 62
   256
  6
BYLAYER
  0
ACDBPLACEHOLDER
  5
5
102
{ACAD_REACTORS
330
6
102
}
330
6
  0
DICTIONARYVAR
  5
3AA
102
{ACAD_REACTORS
330
3A9
102
}
330
3A9
100
DictionaryVariables
280
     0
  1
1
  0
ENDSEC
  0
EOF
