  0
SECTION
  2
HEADER
  9
$ACADVER
  1
AC1015
  9
$ACADMAINTVER
 70
    13
  9
$DWGCODEPAGE
  3
ANSI_932
  9
$INSBASE
 10
0.0
 20
0.0
 30
0.0
  9
$EXTMIN
 10
-0.0520808843782561
 20
-0.0007433513915203
 30
-0.0000000349181948
  9
$EXTMAX
 10
420.0334001050537
 20
297.0189201626581
 30
0.0000000814935747
  9
$LIMMIN
 10
-394.1485412598
 20
-3.174999999999998
  9
$LIMMAX
 10
3.174999999999998
 20
291.2585876465
  9
$ORTHOMODE
 70
     0
  9
$REGENMODE
 70
     1
  9
$FILLMODE
 70
     1
  9
$QTEXTMODE
 70
     0
  9
$MIRRTEXT
 70
     0
  9
$LTSCALE
 40
1.0
  9
$ATTMODE
 70
     1
  9
$TEXTSIZE
 40
2.999994039499997
  9
$TRACEWID
 40
0.05
  9
$TEXTSTYLE
  7
STANDARD
  9
$CLAYER
  8
0
  9
$CELTYPE
  6
BYLAYER
  9
$CECOLOR
 62
   256
  9
$CELTSCALE
 40
1.0
  9
$DISPSILH
 70
     0
  9
$DIMSCALE
 40
1.0
  9
$DIMASZ
 40
1.9727878465
  9
$DIMEXO
 40
2.539999961899999
  9
$DIMDLI
 40
0.38
  9
$DIMRND
 40
0.0
  9
$DIMDLE
 40
0.0
  9
$DIMEXE
 40
3.809999942799997
  9
$DIMTP
 40
0.0
  9
$DIMTM
 40
0.0
  9
$DIMTXT
 40
2.999994039499997
  9
$DIMCEN
 40
0.09
  9
$DIMTSZ
 40
0.0
  9
$DIMTOL
 70
     0
  9
$DIMLIM
 70
     0
  9
$DIMTIH
 70
     0
  9
$DIMTOH
 70
     1
  9
$DIMSE1
 70
     0
  9
$DIMSE2
 70
     0
  9
$DIMTAD
 70
     0
  9
$DIMZIN
 70
     0
  9
$DIMBLK
  1

  9
$DIMASO
 70
     1
  9
$DIMSHO
 70
     0
  9
$DIMPOST
  1

  9
$DIMAPOST
  1

  9
$DIMALT
 70
     0
  9
$DIMALTD
 70
     2
  9
$DIMALTF
 40
25.4
  9
$DIMLFAC
 40
1.0
  9
$DIMTOFL
 70
     0
  9
$DIMTVP
 40
0.0
  9
$DIMTIX
 70
     0
  9
$DIMSOXD
 70
     0
  9
$DIMSAH
 70
     0
  9
$DIMBLK1
  1

  9
$DIMBLK2
  1

  9
$DIMSTYLE
  2
STANDARD
  9
$DIMCLRD
 70
     0
  9
$DIMCLRE
 70
     0
  9
$DIMCLRT
 70
     0
  9
$DIMTFAC
 40
1.0
  9
$DIMGAP
 40
0.09
  9
$DIMJUST
 70
     0
  9
$DIMSD1
 70
     0
  9
$DIMSD2
 70
     0
  9
$DIMTOLJ
 70
     1
  9
$DIMTZIN
 70
     0
  9
$DIMALTZ
 70
     0
  9
$DIMALTTZ
 70
     0
  9
$DIMUPT
 70
     0
  9
$DIMDEC
 70
     4
  9
$DIMTDEC
 70
     4
  9
$DIMALTU
 70
     2
  9
$DIMALTTD
 70
     2
  9
$DIMTXSTY
  7
STANDARD
  9
$DIMAUNIT
 70
     0
  9
$DIMADEC
 70
     0
  9
$DIMALTRND
 40
0.0
  9
$DIMAZIN
 70
     0
  9
$DIMDSEP
 70
    46
  9
$DIMATFIT
 70
     3
  9
$DIMFRAC
 70
     0
  9
$DIMLDRBLK
  1

  9
$DIMLUNIT
 70
     2
  9
$DIMLWD
 70
    -2
  9
$DIMLWE
 70
    -2
  9
$DIMTMOVE
 70
     0
  9
$LUNITS
 70
     2
  9
$LUPREC
 70
     3
  9
$SKETCHINC
 40
0.1
  9
$FILLETRAD
 40
0.0625
  9
$AUNITS
 70
     0
  9
$AUPREC
 70
     0
  9
$MENU
  1
ACAD
  9
$ELEVATION
 40
0.0
  9
$PELEVATION
 40
0.0
  9
$THICKNESS
 40
0.0
  9
$LIMCHECK
 70
     0
  9
$CHAMFERA
 40
0.0
  9
$CHAMFERB
 40
0.0
  9
$CHAMFERC
 40
0.0
  9
$CHAMFERD
 40
0.0
  9
$SKPOLY
 70
     0
  9
$TDCREATE
 40
2453377.948703704
  9
$TDUCREATE
 40
2453377.573703704
  9
$TDUPDATE
 40
2453390.660536203
  9
$TDUUPDATE
 40
2453390.285536203
  9
$TDINDWG
 40
0.0019912731
  9
$TDUSRTIMER
 40
0.0019910880
  9
$USRTIMER
 70
     1
  9
$ANGBASE
 50
0.0
  9
$ANGDIR
 70
     0
  9
$PDMODE
 70
     0
  9
$PDSIZE
 40
0.0
  9
$PLINEWID
 40
0.0
  9
$SPLFRAME
 70
     0
  9
$SPLINETYPE
 70
     6
  9
$SPLINESEGS
 70
     8
  9
$HANDSEED
  5
346
  9
$SURFTAB1
 70
     6
  9
$SURFTAB2
 70
     6
  9
$SURFTYPE
 70
     6
  9
$SURFU
 70
     6
  9
$SURFV
 70
     6
  9
$UCSBASE
  2

  9
$UCSNAME
  2

  9
$UCSORG
 10
0.0
 20
0.0
 30
0.0
  9
$UCSXDIR
 10
1.0
 20
0.0
 30
0.0
  9
$UCSYDIR
 10
0.0
 20
1.0
 30
0.0
  9
$UCSORTHOREF
  2

  9
$UCSORTHOVIEW
 70
     0
  9
$UCSORGTOP
 10
0.0
 20
0.0
 30
0.0
  9
$UCSORGBOTTOM
 10
0.0
 20
0.0
 30
0.0
  9
$UCSORGLEFT
 10
0.0
 20
0.0
 30
0.0
  9
$UCSORGRIGHT
 10
0.0
 20
0.0
 30
0.0
  9
$UCSORGFRONT
 10
0.0
 20
0.0
 30
0.0
  9
$UCSORGBACK
 10
0.0
 20
0.0
 30
0.0
  9
$PUCSBASE
  2

  9
$PUCSNAME
  2

  9
$PUCSORG
 10
0.0
 20
0.0
 30
0.0
  9
$PUCSXDIR
 10
1.0
 20
0.0
 30
0.0
  9
$PUCSYDIR
 10
0.0
 20
1.0
 30
0.0
  9
$PUCSORTHOREF
  2

  9
$PUCSORTHOVIEW
 70
     0
  9
$PUCSORGTOP
 10
0.0
 20
0.0
 30
0.0
  9
$PUCSORGBOTTOM
 10
0.0
 20
0.0
 30
0.0
  9
$PUCSORGLEFT
 10
0.0
 20
0.0
 30
0.0
  9
$PUCSORGRIGHT
 10
0.0
 20
0.0
 30
0.0
  9
$PUCSORGFRONT
 10
0.0
 20
0.0
 30
0.0
  9
$PUCSORGBACK
 10
0.0
 20
0.0
 30
0.0
  9
$USERI1
 70
    24
  9
$USERI2
 70
     0
  9
$USERI3
 70
     0
  9
$USERI4
 70
     0
  9
$USERI5
 70
     0
  9
$USERR1
 40
0.0
  9
$USERR2
 40
0.0
  9
$USERR3
 40
0.0
  9
$USERR4
 40
0.0
  9
$USERR5
 40
0.0
  9
$WORLDVIEW
 70
     1
  9
$SHADEDGE
 70
     3
  9
$SHADEDIF
 70
    70
  9
$TILEMODE
 70
     1
  9
$MAXACTVP
 70
    64
  9
$PINSBASE
 10
0.0
 20
0.0
 30
0.0
  9
$PLIMCHECK
 70
     0
  9
$PEXTMIN
 10
1.000000000000000E+20
 20
1.000000000000000E+20
 30
1.000000000000000E+20
  9
$PEXTMAX
 10
-1.000000000000000E+20
 20
-1.000000000000000E+20
 30
-1.000000000000000E+20
  9
$PLIMMIN
 10
0.0
 20
0.0
  9
$PLIMMAX
 10
12.0
 20
9.0
  9
$UNITMODE
 70
     0
  9
$VISRETAIN
 70
     1
  9
$PLINEGEN
 70
     0
  9
$PSLTSCALE
 70
     1
  9
$TREEDEPTH
 70
  3020
  9
$CMLSTYLE
  2
STANDARD
  9
$CMLJUST
 70
     0
  9
$CMLSCALE
 40
1.0
  9
$PROXYGRAPHICS
 70
     1
  9
$MEASUREMENT
 70
     0
  9
$CELWEIGHT
370
    -1
  9
$ENDCAPS
280
     0
  9
$JOINSTYLE
280
     0
  9
$LWDISPLAY
290
     0
  9
$INSUNITS
 70
     0
  9
$HYPERLINKBASE
  1

  9
$STYLESHEET
  1

  9
$XEDIT
290
     1
  9
$CEPSNTYPE
380
     0
  9
$PSTYLEMODE
290
     1
  9
$FINGERPRINTGUID
  2
{049EF78B-857F-400A-AF88-31465F085AC0}
  9
$VERSIONGUID
  2
{2258612C-26A9-4310-8B57-C508F165B25A}
  9
$EXTNAMES
290
     1
  9
$PSVPSCALE
 40
0.0
  9
$OLESTARTUP
290
     0
  0
ENDSEC
  0
SECTION
  2
CLASSES
  0
CLASS
  1
ACDBDICTIONARYWDFLT
  2
AcDbDictionaryWithDefault
  3
AutoCAD 2000
 90
        0
280
     0
281
     0
  0
CLASS
  1
ACDBPLACEHOLDER
  2
AcDbPlaceHolder
  3
AutoCAD 2000
 90
        0
280
     0
281
     0
  0
CLASS
  1
LAYOUT
  2
AcDbLayout
  3
AutoCAD 2000
 90
        0
280
     0
281
     0
  0
CLASS
  1
LONG_TRANSACTION
  2
AcDbLongTransaction
  3
AutoCAD 2000
 90
    32768
280
     0
281
     0
  0
CLASS
  1
LWPOLYLINE
  2
AcDbPolyline
  3
AutoCAD 2000
 90
    32768
280
     0
281
     1
  0
CLASS
  1
HATCH
  2
AcDbHatch
  3
AutoCAD 2000
 90
    32768
280
     0
281
     1
  0
CLASS
  1
XRECORD
  2
AcDbXrecord
  3
AutoCAD 2000
 90
    32768
280
     0
281
     0
  0
CLASS
  1
DICTIONARYVAR
  2
AcDbDictionaryVar
  3
AutoCAD 2000
 90
        0
280
     0
281
     0
  0
ENDSEC
  0
SECTION
  2
TABLES
  0
TABLE
  2
VPORT
  5
19
330
0
100
AcDbSymbolTable
 70
     2
  0
VPORT
  5
345
330
19
100
AcDbSymbolTableRecord
100
AcDbViewportTableRecord
  2
*Active
 70
     0
 10
0.0
 20
0.0
 11
1.0
 21
1.0
 12
209.9906596103377
 22
148.5090884056333
 13
0.0
 23
0.0
 14
1.0
 24
1.0
 15
0.0
 25
0.0
 16
0.0
 26
0.0
 36
1.0
 17
0.0
 27
0.0
 37
0.0
 40
301.3557169960065
 41
2.407317073170731
 42
50.0
 43
0.0
 44
0.0
 50
0.0
 51
0.0
 71
     0
 72
   100
 73
     1
 74
     1
 75
     0
 76
     0
 77
     0
 78
     0
281
     0
 65
     1
110
0.0
120
0.0
130
0.0
111
1.0
121
0.0
131
0.0
112
0.0
122
1.0
132
0.0
 79
     0
146
0.0
  0
ENDTAB
  0
TABLE
  2
LTYPE
  5
14
330
0
100
AcDbSymbolTable
 70
     3
  0
LTYPE
  5
15
330
14
100
AcDbSymbolTableRecord
100
AcDbLinetypeTableRecord
  2
BYBLOCK
 70
     0
  3

 72
    65
 73
     0
 40
0.0
  0
LTYPE
  5
16
330
14
100
AcDbSymbolTableRecord
100
AcDbLinetypeTableRecord
  2
BYLAYER
 70
     0
  3

 72
    65
 73
     0
 40
0.0
  0
LTYPE
  5
8
330
14
100
AcDbSymbolTableRecord
100
AcDbLinetypeTableRecord
  2
CONTINUOUS
 70
     0
  3
Solid line
 72
    65
 73
     0
 40
0.0
  0
LTYPE
  5
34
330
14
100
AcDbSymbolTableRecord
100
AcDbLinetypeTableRecord
  2
CENTER
 70
     0
  3
Center
 72
    65
 73
     4
 40
9.100006759199999
 49
6.5000119209
 74
     0
 49
-0.7999984026000001
 74
     0
 49
0.9999980329999999
 74
     0
 49
-0.7999984026000001
 74
     0
  0
LTYPE
  5
2F
330
14
100
AcDbSymbolTableRecord
100
AcDbLinetypeTableRecord
  2
PHANTOM
 70
     0
  3
Phantom
 72
    65
 73
     6
 40
9.499981462999999
 49
4.799990654
 74
     0
 49
-0.8999982475999999
 74
     0
 49
0.9999980329999999
 74
     0
 49
-0.8999982475999999
 74
     0
 49
0.9999980329999999
 74
     0
 49
-0.8999982475999999
 74
     0
  0
ENDTAB
  0
TABLE
  2
LAYER
  5
10
330
0
100
AcDbSymbolTable
 70
     1
  0
LAYER
  5
4
330
10
100
AcDbSymbolTableRecord
100
AcDbLayerTableRecord
  2
0
 70
     0
 62
     7
  6
CONTINUOUS
370
    -3
390
339
  0
ENDTAB
  0
TABLE
  2
STYLE
  5
11
330
0
100
AcDbSymbolTable
 70
     1
  0
STYLE
  5
12
330
11
100
AcDbSymbolTableRecord
100
AcDbTextStyleTableRecord
  2
STANDARD
 70
     0
 40
0.0
 41
1.0
 50
0.0
 71
     0
 42
2.999994039499997
  3
romans.shx
  4
bigfont.shx
  0
ENDTAB
  0
TABLE
  2
VIEW
  5
17
330
0
100
AcDbSymbolTable
 70
     0
  0
ENDTAB
  0
TABLE
  2
UCS
  5
18
330
0
100
AcDbSymbolTable
 70
     0
  0
ENDTAB
  0
TABLE
  2
APPID
  5
1B
330
0
100
AcDbSymbolTable
 70
     1
  0
APPID
  5
1C
330
1B
100
AcDbSymbolTableRecord
100
AcDbRegAppTableRecord
  2
ACAD
 70
     0
  0
ENDTAB
  0
TABLE
  2
DIMSTYLE
  5
1D
330
0
100
AcDbSymbolTable
 70
     1
100
AcDbDimStyleTable
 71
     0
  0
DIMSTYLE
105
23
330
1D
100
AcDbSymbolTableRecord
100
AcDbDimStyleTableRecord
  2
STANDARD
 70
     0
340
12
  0
ENDTAB
  0
TABLE
  2
BLOCK_RECORD
  5
1
330
0
100
AcDbSymbolTable
 70
     1
  0
BLOCK_RECORD
  5
2
102
{ACAD_XDICTIONARY
360
330
102
}
330
1
100
AcDbSymbolTableRecord
100
AcDbBlockTableRecord
  2
*MODEL_SPACE
340
33A
  0
BLOCK_RECORD
  5
C
102
{ACAD_XDICTIONARY
360
332
102
}
330
1
100
AcDbSymbolTableRecord
100
AcDbBlockTableRecord
  2
*PAPER_SPACE
340
33B
  0
ENDTAB
  0
ENDSEC
  0
SECTION
  2
BLOCKS
  0
BLOCK
  5
3
330
2
100
AcDbEntity
  8
0
100
AcDbBlockBegin
  2
*MODEL_SPACE
 70
     0
 10
0.0
 20
0.0
 30
0.0
  3
*MODEL_SPACE
  1

  0
ENDBLK
  5
9
330
2
100
AcDbEntity
  8
0
100
AcDbBlockEnd
  0
BLOCK
  5
D
330
C
100
AcDbEntity
 67
     1
  8
0
100
AcDbBlockBegin
  2
*PAPER_SPACE
 70
     0
 10
0.0
 20
0.0
 30
0.0
  3
*PAPER_SPACE
  1

  0
ENDBLK
  5
E
330
C
100
AcDbEntity
 67
     1
  8
0
100
AcDbBlockEnd
  0
ENDSEC
  0
SECTION
  2
ENTITIES
  0
LINE
  5
24
330
2
100
AcDbEntity
  8
0
100
AcDbLine
 10
420.0
 20
0.0
 30
0.0
 11
420.0
 21
297.0
 31
0.0
  0
LINE
  5
25
330
2
100
AcDbEntity
  8
0
100
AcDbLine
 10
0.0
 20
297.0
 30
0.0
 11
0.0
 21
0.0
 31
0.0
  0
LINE
  5
26
330
2
100
AcDbEntity
  8
0
100
AcDbLine
 10
0.0
 20
0.0
 30
0.0
 11
420.0
 21
0.0
 31
0.0
  0
ARC
  5
27
330
2
100
AcDbEntity
  8
0
 62
     3
100
AcDbCircle
 10
177.3879954693998
 20
67.38857005609999
 30
0.0
 40
2.750833511399999
100
AcDbArc
 50
27.04634699999999
 51
152.9536170279
  0
LINE
  5
28
330
2
100
AcDbEntity
  8
0
 62
     3
100
AcDbLine
 10
162.6880748151
 20
70.1390888549
 30
0.0
 11
177.3880565046
 21
70.1390888549
 31
0.0
  0
LINE
  5
29
330
2
100
AcDbEntity
  8
0
 62
     3
100
AcDbLine
 10
159.5382335065
 20
60.63921092520001
 30
0.0
 11
180.5381114361999
 21
60.63921092520001
 31
0.0
  0
LINE
  5
2A
330
2
100
AcDbEntity
  8
0
 62
     3
100
AcDbLine
 10
160.2381236432
 20
63.1391804077
 30
0.0
 11
179.8380992291999
 21
63.1391804077
 31
0.0
  0
LINE
  5
2B
330
2
100
AcDbEntity
  8
0
 62
     3
100
AcDbLine
 10
155.0384267105
 20
54.6394581003
 30
0.0
 11
185.0381215347
 21
54.6394263621
 31
0.0
  0
LINE
  5
2C
330
2
100
AcDbEntity
  8
0
 62
     3
100
AcDbLine
 10
153.5384471296
 20
58.6392414428
 30
0.0
 11
186.5380504011
 21
58.6392414428
 31
0.0
  0
LINE
  5
2D
330
2
100
AcDbEntity
  8
0
 62
     3
100
AcDbLine
 10
183.0379283307
 20
32.6400043823
 30
0.0
 11
157.0382335065
 21
32.6400043823
 31
0.0
  0
LINE
  5
2E
330
2
100
AcDbEntity
  8
0
  6
PHANTOM
 62
     3
100
AcDbLine
 10
75.53838609440004
 20
91.1393329955
 30
0.0
 11
190.5375926374
 21
91.1393329955
 31
0.0
  0
LINE
  5
30
330
2
100
AcDbEntity
  8
0
  6
PHANTOM
 62
     3
100
AcDbLine
 10
75.5383555768001
 20
80.63918040770001
 30
0.0
 11
190.5375926374
 21
80.63918040770001
 31
0.0
  0
LINE
  5
31
330
2
100
AcDbEntity
  8
0
 62
     3
100
AcDbLine
 10
75.5383555768001
 20
75.63918040770001
 30
0.0
 11
190.5375926374
 21
75.63918040770001
 31
0.0
  0
LINE
  5
32
330
2
100
AcDbEntity
  8
0
 62
     3
100
AcDbLine
 10
190.5375926374
 20
24.6401264526
 30
0.0
 11
75.5383555768001
 21
24.6401264526
 31
0.0
  0
LINE
  5
33
330
2
100
AcDbEntity
  8
0
  6
CENTER
 62
     3
100
AcDbLine
 10
170.0380504011
 20
96.1393940307
 30
0.0
 11
170.0380504011
 21
17.9694027869
 31
0.0
  0
LINE
  5
35
330
2
100
AcDbEntity
  8
0
 62
     3
100
AcDbLine
 10
118.0387523054
 20
34.6403400756
 30
0.0
 11
118.0387523054
 21
56.640309558
 31
0.0
  0
LINE
  5
36
330
2
100
AcDbEntity
  8
0
 62
     3
100
AcDbLine
 10
148.0378672956
 20
56.6395771362
 30
0.0
 11
148.0378672956
 21
34.63960765369999
 31
0.0
  0
LINE
  5
37
330
2
100
AcDbEntity
  8
0
 62
     3
100
AcDbLine
 10
155.0387217878
 20
34.6403400756
 30
0.0
 11
155.0387217878
 21
56.640309558
 31
0.0
  0
LINE
  5
38
330
2
100
AcDbEntity
  8
0
 62
     3
100
AcDbLine
 10
111.0380809186
 20
56.63960765369999
 30
0.0
 11
111.0380809186
 21
34.63966868889999
 31
0.0
  0
LINE
  5
39
330
2
100
AcDbEntity
  8
0
  6
CENTER
 62
     3
100
AcDbLine
 10
133.0380504011
 20
96.1393940307
 30
0.0
 11
133.0380504011
 21
17.9694027869
 31
0.0
  0
LINE
  5
3A
330
2
100
AcDbEntity
  8
0
 62
     3
100
AcDbLine
 10
75.53838609440004
 20
39.6402180053
 30
0.0
 11
75.53838609440004
 21
57.6402180053
 31
0.0
  0
LINE
  5
3B
330
2
100
AcDbEntity
  8
0
  6
CENTER
 62
     3
100
AcDbLine
 10
96.03805040110001
 20
96.1394245483
 30
0.0
 11
96.03805040110001
 21
19.6402180053
 31
0.0
  0
LINE
  5
3C
330
2
100
AcDbEntity
  8
0
 62
     3
100
AcDbLine
 10
81.0383250593
 20
34.639516101
 30
0.0
 11
81.0383250593
 21
56.6394855834
 31
0.0
  0
LINE
  5
3D
330
2
100
AcDbEntity
  8
0
 62
     3
100
AcDbLine
 10
75.5383555768001
 20
24.6395466186
 30
0.0
 11
75.5383555768001
 21
89.63930247799998
 31
0.0
  0
LINE
  5
3E
330
2
100
AcDbEntity
  8
0
 62
     3
100
AcDbLine
 10
109.0381114362
 20
32.6398517944
 30
0.0
 11
83.00319932680002
 21
32.6398517944
 31
0.0
  0
LINE
  5
3F
330
2
100
AcDbEntity
  8
0
 62
     3
100
AcDbLine
 10
73.53817247140006
 20
42.6402180053
 30
0.0
 11
73.53817247140006
 21
24.6405536987
 31
0.0
  0
LINE
  5
40
330
2
100
AcDbEntity
  8
0
 62
     3
100
AcDbLine
 10
58.53820298890008
 20
26.6402180053
 30
0.0
 11
73.53817247140006
 21
26.6402180053
 31
0.0
  0
LINE
  5
41
330
2
100
AcDbEntity
  8
0
 62
     3
100
AcDbLine
 10
75.5383555768001
 20
24.64049266349999
 30
0.0
 11
58.53844712960007
 21
24.64049266349999
 31
0.0
  0
LINE
  5
42
330
2
100
AcDbEntity
  8
0
 62
     3
100
AcDbLine
 10
58.53820298890008
 20
26.6402180053
 30
0.0
 11
58.53820298890008
 21
24.6405536987
 31
0.0
  0
LINE
  5
43
330
2
100
AcDbEntity
  8
0
 62
     3
100
AcDbLine
 10
70.93817988540006
 20
34.6401262342
 30
0.0
 11
71.57703486590003
 21
35.7466554991
 31
0.0
  0
LINE
  5
44
330
2
100
AcDbEntity
  8
0
 62
     3
100
AcDbLine
 10
70.93819688540006
 20
36.6402180053
 30
0.0
 11
70.93819688540006
 21
32.6402180053
 31
0.0
  0
ARC
  5
45
330
2
100
AcDbEntity
  8
0
 62
     3
100
AcDbCircle
 10
72.43819688540009
 20
32.6402180053
 30
0.0
 40
1.5
100
AcDbArc
 50
179.9999640277999
 51
270.0000006831999
  0
LINE
  5
46
330
2
100
AcDbEntity
  8
0
 62
     3
100
AcDbLine
 10
70.93825376090001
 20
34.6401746174
 30
0.0
 11
71.61376035260001
 21
33.4701629005
 31
0.0
  0
LINE
  5
47
330
2
100
AcDbEntity
  8
0
 62
     3
100
AcDbLine
 10
72.43819688540009
 20
31.1402180053
 30
0.0
 11
73.53817247140006
 21
31.1402180053
 31
0.0
  0
ARC
  5
48
330
2
100
AcDbEntity
  8
0
 62
     3
100
AcDbCircle
 10
72.43819688540009
 20
36.6402180053
 30
0.0
 40
1.5
100
AcDbArc
 50
89.99998201389999
 51
179.9999640277999
  0
LINE
  5
49
330
2
100
AcDbEntity
  8
0
 62
     3
100
AcDbLine
 10
72.43819688540009
 20
38.14021800529999
 30
0.0
 11
73.53817247140006
 21
38.14021800529999
 31
0.0
  0
ARC
  5
4A
330
2
100
AcDbEntity
  8
0
 62
     3
100
AcDbCircle
 10
83.03817247140001
 20
34.63960765369999
 30
0.0
 40
2.0
100
AcDbArc
 50
180.0000359722
 51
269.9997994199999
  0
LINE
  5
4B
330
2
100
AcDbEntity
  8
0
 62
     3
100
AcDbLine
 10
73.53817247140006
 20
42.6402180053
 30
0.0
 11
75.53817247140006
 21
42.6402180053
 31
0.0
  0
ARC
  5
4C
330
2
100
AcDbEntity
  8
0
 62
     3
100
AcDbCircle
 10
109.0379588482999
 20
34.6397297241
 30
0.0
 40
2.0
100
AcDbArc
 50
270.0001819106
 51
359.9999285696999
  0
LINE
  5
4D
330
2
100
AcDbEntity
  8
0
 62
     3
100
AcDbLine
 10
146.0379283306999
 20
32.6400043823
 30
0.0
 11
120.0382335065
 21
32.6400043823
 31
0.0
  0
ARC
  5
4E
330
2
100
AcDbEntity
  8
0
 62
     3
100
AcDbCircle
 10
120.0382335065
 20
34.63991282949999
 30
0.0
 40
2.0
100
AcDbArc
 50
180.0000359722
 51
269.9997994199999
  0
ARC
  5
4F
330
2
100
AcDbEntity
  8
0
 62
     3
100
AcDbCircle
 10
146.0378672955999
 20
34.6397602416
 30
0.0
 40
2.0
100
AcDbArc
 50
270.0001819106
 51
359.9999285696999
  0
ARC
  5
50
330
2
100
AcDbEntity
  8
0
 62
     3
100
AcDbCircle
 10
157.0382335065
 20
34.63991282949999
 30
0.0
 40
2.0
100
AcDbArc
 50
180.0000359722
 51
269.9997994199999
  0
LINE
  5
51
330
2
100
AcDbEntity
  8
0
 62
     3
100
AcDbLine
 10
114.5380504011
 20
89.63887523190003
 30
0.0
 11
116.0389354107999
 21
89.63887523190003
 31
0.0
  0
LINE
  5
52
330
2
100
AcDbEntity
  8
0
 62
     3
100
AcDbLine
 10
114.5380504011
 20
80.63893626699998
 30
0.0
 11
116.0389354107999
 21
80.63893626699998
 31
0.0
  0
LINE
  5
53
330
2
100
AcDbEntity
  8
0
 62
     3
100
AcDbLine
 10
114.5380504011
 20
85.64415477290003
 30
0.0
 11
116.0389354107999
 21
85.64415477290003
 31
0.0
  0
LINE
  5
54
330
2
100
AcDbEntity
  8
0
 62
     3
100
AcDbLine
 10
79.53872178780007
 20
58.6394245483
 30
0.0
 11
112.5380504011
 21
58.6394245483
 31
0.0
  0
LINE
  5
55
330
2
100
AcDbEntity
  8
0
 62
     3
100
AcDbLine
 10
81.03842671050001
 20
54.6396498324
 30
0.0
 11
111.038243605
 21
54.6396180941
 31
0.0
  0
LINE
  5
56
330
2
100
AcDbEntity
  8
0
 62
     3
100
AcDbLine
 10
79.53832505930001
 20
89.63933299549999
 30
0.0
 11
79.53832505930001
 21
56.6393635131
 31
0.0
  0
LINE
  5
57
330
2
100
AcDbEntity
  8
0
 62
     3
100
AcDbLine
 10
79.53829679440008
 20
56.63936214439999
 30
0.0
 11
81.03829679440009
 21
56.63937740319999
 31
0.0
  0
LINE
  5
58
330
2
100
AcDbEntity
  8
0
 62
     3
100
AcDbLine
 10
75.5383555768001
 20
85.6445209838
 30
0.0
 11
79.53835557680003
 21
85.6445209838
 31
0.0
  0
LINE
  5
59
330
2
100
AcDbEntity
  8
0
 62
     3
100
AcDbLine
 10
75.5383555768001
 20
89.63933299549999
 30
0.0
 11
79.53835557680003
 21
89.63933299549999
 31
0.0
  0
LINE
  5
5A
330
2
100
AcDbEntity
  8
0
  6
PHANTOM
 62
     3
100
AcDbLine
 10
75.5383555768001
 20
89.63930247799998
 30
0.0
 11
75.5383555768001
 21
91.13930247799999
 31
0.0
  0
LINE
  5
5B
330
2
100
AcDbEntity
  8
0
 62
     3
100
AcDbLine
 10
112.5380504011
 20
56.6394855834
 30
0.0
 11
112.5380504011
 21
75.6393940307
 31
0.0
  0
ARC
  5
5C
330
2
100
AcDbEntity
  8
0
 62
     3
100
AcDbCircle
 10
96.03805040110001
 20
61.38628986429999
 30
0.0
 40
8.753328323399999
100
AcDbArc
 50
55.95892024720001
 51
124.0409891390999
  0
LINE
  5
5D
330
2
100
AcDbEntity
  8
0
 62
     3
100
AcDbLine
 10
88.68825792060006
 20
70.13930247800001
 30
0.0
 11
103.3879954694
 21
70.13930247800001
 31
0.0
  0
LINE
  5
5E
330
2
100
AcDbEntity
  8
0
 62
     3
100
AcDbLine
 10
85.53826402410004
 20
60.6394245483
 30
0.0
 11
106.5378367779999
 21
60.6394245483
 31
0.0
  0
LINE
  5
5F
330
2
100
AcDbEntity
  8
0
 62
     3
100
AcDbLine
 10
86.23827623110003
 20
63.1393940307
 30
0.0
 11
105.8380076763999
 21
63.1393940307
 31
0.0
  0
LINE
  5
60
330
2
100
AcDbEntity
  8
0
 62
     3
100
AcDbLine
 10
91.1382090925
 20
68.639302478
 30
0.0
 11
91.1382090925
 21
63.13930247800001
 31
0.0
  0
LINE
  5
61
330
2
100
AcDbEntity
  8
0
 62
     3
100
AcDbLine
 10
91.13805650460006
 20
68.6393111046
 30
0.0
 11
91.13805650460006
 21
63.1393111046
 31
0.0
  0
LINE
  5
62
330
2
100
AcDbEntity
  8
0
 62
     3
100
AcDbLine
 10
86.23827623110003
 20
63.1393940307
 30
0.0
 11
86.23827623110003
 21
68.6393940307
 31
0.0
  0
LINE
  5
63
330
2
100
AcDbEntity
  8
0
 62
     3
100
AcDbLine
 10
86.2381236432
 20
63.1393721397
 30
0.0
 11
86.2381236432
 21
68.6393721397
 31
0.0
  0
LINE
  5
64
330
2
100
AcDbEntity
  8
0
 62
     3
100
AcDbLine
 10
86.83825181710004
 20
60.6394245483
 30
0.0
 11
86.83825181710004
 21
63.1394245483
 31
0.0
  0
LINE
  5
65
330
2
100
AcDbEntity
  8
0
 62
     3
100
AcDbLine
 10
86.83809922920003
 20
60.6394026573
 30
0.0
 11
86.83809922920003
 21
63.1394026573
 31
0.0
  0
LINE
  5
66
330
2
100
AcDbEntity
  8
0
 62
     3
100
AcDbLine
 10
85.53826402410004
 20
58.6394245483
 30
0.0
 11
85.53826402410004
 21
60.6394245483
 31
0.0
  0
LINE
  5
67
330
2
100
AcDbEntity
  8
0
 62
     3
100
AcDbLine
 10
85.53823350650004
 20
58.63943317489997
 30
0.0
 11
85.53823350650004
 21
60.63943317489997
 31
0.0
  0
LINE
  5
68
330
2
100
AcDbEntity
  8
0
 62
     3
100
AcDbLine
 10
93.53807847210005
 20
63.1394611204
 30
0.0
 11
96.03809044050002
 21
60.6394462016
 31
0.0
  0
LINE
  5
69
330
2
100
AcDbEntity
  8
0
 62
     3
100
AcDbLine
 10
93.53808235160006
 20
63.1394832642
 30
0.0
 11
94.61140885420007
 21
62.06615549510001
 31
0.0
  0
LINE
  5
6A
330
2
100
AcDbEntity
  8
0
 62
     3
100
AcDbLine
 10
98.53801756740006
 20
60.6394663057
 30
0.0
 11
96.03800559890007
 21
63.1394812245
 31
0.0
  0
ARC
  5
6B
330
2
100
AcDbEntity
  8
0
 62
     3
100
AcDbCircle
 10
96.03805040110001
 20
61.3863117553
 30
0.0
 40
8.753328323399999
100
AcDbArc
 50
90.0201447323
 51
124.0409891390999
  0
ARC
  5
6C
330
2
100
AcDbEntity
  8
0
 62
     3
100
AcDbCircle
 10
88.68813585030007
 20
67.3887836791
 30
0.0
 40
2.750833511399999
100
AcDbArc
 50
27.04634699999999
 51
152.9536170279
  0
ARC
  5
6D
330
2
100
AcDbEntity
  8
0
 62
     3
100
AcDbCircle
 10
88.68813585030007
 20
67.3887617882
 30
0.0
 40
2.750833511399999
100
AcDbArc
 50
27.04634699999999
 51
152.9536170279
  0
LINE
  5
6E
330
2
100
AcDbEntity
  8
0
 62
     3
100
AcDbLine
 10
105.8380076763999
 20
68.639302478
 30
0.0
 11
105.8380076763999
 21
63.13930247800001
 31
0.0
  0
LINE
  5
6F
330
2
100
AcDbEntity
  8
0
 62
     3
100
AcDbLine
 10
105.8378550886
 20
68.6393111046
 30
0.0
 11
105.8378550886
 21
63.1393111046
 31
0.0
  0
LINE
  5
70
330
2
100
AcDbEntity
  8
0
 62
     3
100
AcDbLine
 10
100.9380748151
 20
63.1393940307
 30
0.0
 11
100.9380748151
 21
68.6393940307
 31
0.0
  0
LINE
  5
71
330
2
100
AcDbEntity
  8
0
 62
     3
100
AcDbLine
 10
100.9378917097
 20
63.1393721397
 30
0.0
 11
100.9378917097
 21
68.6393721397
 31
0.0
  0
LINE
  5
72
330
2
100
AcDbEntity
  8
0
 62
     3
100
AcDbLine
 10
106.5379893658999
 20
60.6394245483
 30
0.0
 11
106.5379893658999
 21
58.6394245483
 31
0.0
  0
LINE
  5
73
330
2
100
AcDbEntity
  8
0
 62
     3
100
AcDbLine
 10
106.5378367779999
 20
60.6394026573
 30
0.0
 11
106.5378367779999
 21
58.6394026573
 31
0.0
  0
LINE
  5
74
330
2
100
AcDbEntity
  8
0
 62
     3
100
AcDbLine
 10
105.2380015728999
 20
63.1393940307
 30
0.0
 11
105.2380015728999
 21
60.6393940307
 31
0.0
  0
LINE
  5
75
330
2
100
AcDbEntity
  8
0
 62
     3
100
AcDbLine
 10
105.2378489849999
 20
63.1393721397
 30
0.0
 11
105.2378489849999
 21
60.6393721397
 31
0.0
  0
LINE
  5
76
330
2
100
AcDbEntity
  8
0
 62
     3
100
AcDbLine
 10
111.0380457138999
 20
56.6394578957
 30
0.0
 11
112.5380457139
 21
56.6394273782
 31
0.0
  0
ARC
  5
77
330
2
100
AcDbEntity
  8
0
 62
     3
100
AcDbCircle
 10
103.3879954694
 20
67.3887836791
 30
0.0
 40
2.750833511399999
100
AcDbArc
 50
27.04634699999999
 51
152.9536170279
  0
ARC
  5
78
330
2
100
AcDbEntity
  8
0
 62
     3
100
AcDbCircle
 10
103.3879954694
 20
67.3887617882
 30
0.0
 40
2.750833511399999
100
AcDbArc
 50
27.04634699999999
 51
152.9536170279
  0
ARC
  5
79
330
2
100
AcDbEntity
  8
0
 62
     3
100
AcDbCircle
 10
96.03805040110001
 20
61.3863117553
 30
0.0
 40
8.753328323399999
100
AcDbArc
 50
55.95892024720001
 51
63.5621775482
  0
LINE
  5
7A
330
2
100
AcDbEntity
  8
0
 62
     3
100
AcDbLine
 10
113.0379283307
 20
75.6394245483
 30
0.0
 11
113.0379283307
 21
89.6395466186
 31
0.0
  0
LINE
  5
7B
330
2
100
AcDbEntity
  8
0
 62
     3
100
AcDbLine
 10
113.0379893659
 20
80.63918040770001
 30
0.0
 11
114.5377147077
 21
80.63918040770001
 31
0.0
  0
LINE
  5
7C
330
2
100
AcDbEntity
  8
0
 62
     3
100
AcDbLine
 10
113.0379893659
 20
85.64449046620001
 30
0.0
 11
114.5377147077
 21
85.64449046620001
 31
0.0
  0
LINE
  5
7D
330
2
100
AcDbEntity
  8
0
 62
     3
100
AcDbLine
 10
113.0379893659
 20
89.63927196040001
 30
0.0
 11
114.5377147077
 21
89.63927196040001
 31
0.0
  0
LINE
  5
7E
330
2
100
AcDbEntity
  8
0
 62
     3
100
AcDbLine
 10
116.5384471295999
 20
58.6392414428
 30
0.0
 11
149.5380504011
 21
58.6392414428
 31
0.0
  0
LINE
  5
7F
330
2
100
AcDbEntity
  8
0
 62
     3
100
AcDbLine
 10
118.0384267104997
 20
54.6394581003
 30
0.0
 11
148.0381215347
 21
54.6394263621
 31
0.0
  0
LINE
  5
80
330
2
100
AcDbEntity
  8
0
 62
     3
100
AcDbLine
 10
116.5384471295999
 20
56.6393459898
 30
0.0
 11
116.5384471295999
 21
75.63918040770001
 31
0.0
  0
LINE
  5
81
330
2
100
AcDbEntity
  8
0
 62
     3
100
AcDbLine
 10
123.2381236431999
 20
63.1391804077
 30
0.0
 11
142.8380992292
 21
63.1391804077
 31
0.0
  0
LINE
  5
82
330
2
100
AcDbEntity
  8
0
 62
     3
100
AcDbLine
 10
122.5382335064999
 20
60.63921092520001
 30
0.0
 11
143.5381114362
 21
60.63921092520001
 31
0.0
  0
LINE
  5
83
330
2
100
AcDbEntity
  8
0
 62
     3
100
AcDbLine
 10
125.6880748151
 20
70.1390888549
 30
0.0
 11
140.3880565046
 21
70.1390888549
 31
0.0
  0
ARC
  5
84
330
2
100
AcDbEntity
  8
0
 62
     3
100
AcDbCircle
 10
133.0380504011
 20
61.38609813229999
 30
0.0
 40
8.753328323399999
100
AcDbArc
 50
55.95892024720001
 51
124.0409891390999
  0
LINE
  5
85
330
2
100
AcDbEntity
  8
0
 62
     3
100
AcDbLine
 10
128.1380565045999
 20
68.63911937250001
 30
0.0
 11
128.1380565045999
 21
63.13911937250001
 31
0.0
  0
LINE
  5
86
330
2
100
AcDbEntity
  8
0
 62
     3
100
AcDbLine
 10
123.2381236431999
 20
63.1391804077
 30
0.0
 11
123.2381236431999
 21
68.63918040770001
 31
0.0
  0
LINE
  5
87
330
2
100
AcDbEntity
  8
0
 62
     3
100
AcDbLine
 10
116.5385480012999
 20
56.6394885472
 30
0.0
 11
118.0385480012999
 21
56.63951813649999
 31
0.0
  0
LINE
  5
88
330
2
100
AcDbEntity
  8
0
 62
     3
100
AcDbLine
 10
122.5382335064999
 20
58.6392414428
 30
0.0
 11
122.5382335064999
 21
60.6392414428
 31
0.0
  0
LINE
  5
89
330
2
100
AcDbEntity
  8
0
 62
     3
100
AcDbLine
 10
123.8380992291999
 20
60.63921092520001
 30
0.0
 11
123.8380992291999
 21
63.13921092520001
 31
0.0
  0
ARC
  5
8A
330
2
100
AcDbEntity
  8
0
 62
     3
100
AcDbCircle
 10
125.6881358503
 20
67.38857005609999
 30
0.0
 40
2.750833511399999
100
AcDbArc
 50
27.04634699999999
 51
152.9536170279
  0
LINE
  5
8B
330
2
100
AcDbEntity
  8
0
 62
     3
100
AcDbLine
 10
142.8378550886
 20
68.63911937250001
 30
0.0
 11
142.8378550886
 21
63.13911937250001
 31
0.0
  0
LINE
  5
8C
330
2
100
AcDbEntity
  8
0
 62
     3
100
AcDbLine
 10
137.9378917096999
 20
63.1391804077
 30
0.0
 11
137.9378917096999
 21
68.63918040770001
 31
0.0
  0
LINE
  5
8D
330
2
100
AcDbEntity
  8
0
 62
     3
100
AcDbLine
 10
135.5380175674
 20
60.63927457369999
 30
0.0
 11
133.0380055988999
 21
63.1392894924
 31
0.0
  0
LINE
  5
8E
330
2
100
AcDbEntity
  8
0
 62
     3
100
AcDbLine
 10
130.5380784720999
 20
63.13926938829999
 30
0.0
 11
133.0380904404999
 21
60.63925446959999
 31
0.0
  0
LINE
  5
8F
330
2
100
AcDbEntity
  8
0
 62
     3
100
AcDbLine
 10
143.5378367779998
 20
60.63921092520001
 30
0.0
 11
143.5378367779998
 21
58.6392109252
 31
0.0
  0
LINE
  5
90
330
2
100
AcDbEntity
  8
0
 62
     3
100
AcDbLine
 10
142.2378489849999
 20
63.1391804077
 30
0.0
 11
142.2378489849999
 21
60.6391804077
 31
0.0
  0
ARC
  5
91
330
2
100
AcDbEntity
  8
0
 62
     3
100
AcDbCircle
 10
140.3879954694
 20
67.38857005609999
 30
0.0
 40
2.750833511399999
100
AcDbArc
 50
27.04634699999999
 51
152.9536170279
  0
LINE
  5
92
330
2
100
AcDbEntity
  8
0
 62
     3
100
AcDbLine
 10
116.0385081646998
 20
89.6389057494
 30
0.0
 11
116.0385081646998
 21
75.6387836791
 31
0.0
  0
LINE
  5
93
330
2
100
AcDbEntity
  8
0
 62
     3
100
AcDbLine
 10
149.5380504011
 20
56.6394111844
 30
0.0
 11
149.5380504011
 21
75.63918040770001
 31
0.0
  0
LINE
  5
94
330
2
100
AcDbEntity
  8
0
 62
     3
100
AcDbLine
 10
153.5384471296
 20
56.6394859916
 30
0.0
 11
153.5384471296
 21
75.63918040770001
 31
0.0
  0
ARC
  5
95
330
2
100
AcDbEntity
  8
0
 62
     3
100
AcDbCircle
 10
162.6881358502999
 20
67.38857005609999
 30
0.0
 40
2.750833511399999
100
AcDbArc
 50
27.04634699999999
 51
152.9536170279
  0
LINE
  5
96
330
2
100
AcDbEntity
  8
0
 62
     3
100
AcDbLine
 10
160.2381236432
 20
63.1391804077
 30
0.0
 11
160.2381236432
 21
68.63918040770001
 31
0.0
  0
LINE
  5
97
330
2
100
AcDbEntity
  8
0
 62
     3
100
AcDbLine
 10
153.5385174982
 20
56.639485993
 30
0.0
 11
155.0387217878
 21
56.63951558629999
 31
0.0
  0
LINE
  5
98
330
2
100
AcDbEntity
  8
0
 62
     3
100
AcDbLine
 10
148.0378393165
 20
56.63942737380001
 30
0.0
 11
149.5378393164999
 21
56.6394111867
 31
0.0
  0
LINE
  5
99
330
2
100
AcDbEntity
  8
0
 62
     3
100
AcDbLine
 10
160.8380992292
 20
60.63921092520001
 30
0.0
 11
160.8380992292
 21
63.13921092520001
 31
0.0
  0
LINE
  5
9A
330
2
100
AcDbEntity
  8
0
 62
     3
100
AcDbLine
 10
159.5382335065
 20
58.6392414428
 30
0.0
 11
159.5382335065
 21
60.6392414428
 31
0.0
  0
LINE
  5
9B
330
2
100
AcDbEntity
  8
0
 62
     3
100
AcDbLine
 10
174.9378917097
 20
63.1391804077
 30
0.0
 11
174.9378917097
 21
68.63918040770001
 31
0.0
  0
LINE
  5
9C
330
2
100
AcDbEntity
  8
0
 62
     3
100
AcDbLine
 10
165.1380565046
 20
68.63911937250001
 30
0.0
 11
165.1380565046
 21
63.13911937250001
 31
0.0
  0
LINE
  5
9D
330
2
100
AcDbEntity
  8
0
 62
     3
100
AcDbLine
 10
167.5380784720999
 20
63.13926938829999
 30
0.0
 11
170.0380904404999
 21
60.63925446959999
 31
0.0
  0
LINE
  5
9E
330
2
100
AcDbEntity
  8
0
 62
     3
100
AcDbLine
 10
172.5380175674
 20
60.63927457369999
 30
0.0
 11
170.0380055988999
 21
63.1392894924
 31
0.0
  0
ARC
  5
9F
330
2
100
AcDbEntity
  8
0
 62
     3
100
AcDbCircle
 10
170.0380504011
 20
61.38609813229999
 30
0.0
 40
8.753328323399999
100
AcDbArc
 50
55.95892024720001
 51
124.0409891390999
  0
LINE
  5
A0
330
2
100
AcDbEntity
  8
0
 62
     3
100
AcDbLine
 10
150.0376231549997
 20
75.6389057494
 30
0.0
 11
150.0376231549997
 21
89.63902781979998
 31
0.0
  0
LINE
  5
A1
330
2
100
AcDbEntity
  8
0
 62
     3
100
AcDbLine
 10
153.0384776471999
 20
89.638936267
 30
0.0
 11
153.0384776471999
 21
75.6388141967
 31
0.0
  0
LINE
  5
A2
330
2
100
AcDbEntity
  8
0
 62
     3
100
AcDbLine
 10
150.0370738386
 20
80.638722644
 30
0.0
 11
151.5379588483
 21
80.638722644
 31
0.0
  0
LINE
  5
A3
330
2
100
AcDbEntity
  8
0
 62
     3
100
AcDbLine
 10
151.5380198834999
 20
80.63896678459999
 30
0.0
 11
153.0389048932
 21
80.63896678459999
 31
0.0
  0
LINE
  5
A4
330
2
100
AcDbEntity
  8
0
 62
     3
100
AcDbLine
 10
150.0370738386
 20
85.64384959709999
 30
0.0
 11
151.5379588483
 21
85.64384959709999
 31
0.0
  0
LINE
  5
A5
330
2
100
AcDbEntity
  8
0
 62
     3
100
AcDbLine
 10
151.5380198834999
 20
85.6441852905
 30
0.0
 11
153.0389048932
 21
85.6441852905
 31
0.0
  0
LINE
  5
A6
330
2
100
AcDbEntity
  8
0
 62
     3
100
AcDbLine
 10
150.0370738386
 20
89.6384785034
 30
0.0
 11
151.5379588483
 21
89.6384785034
 31
0.0
  0
LINE
  5
A7
330
2
100
AcDbEntity
  8
0
 62
     3
100
AcDbLine
 10
151.5380198834999
 20
89.6389057494
 30
0.0
 11
153.0389048932
 21
89.6389057494
 31
0.0
  0
LINE
  5
A8
330
2
100
AcDbEntity
  8
0
 62
     3
100
AcDbLine
 10
190.5377147077
 20
39.6402180053
 30
0.0
 11
190.5377147077
 21
57.6402180053
 31
0.0
  0
LINE
  5
A9
330
2
100
AcDbEntity
  8
0
 62
     3
100
AcDbLine
 10
190.5375926374
 20
89.638936267
 30
0.0
 11
190.5375926374
 21
24.6391498901
 31
0.0
  0
LINE
  5
AA
330
2
100
AcDbEntity
  8
0
 62
     3
100
AcDbLine
 10
185.0377147076998
 20
56.6395771362
 30
0.0
 11
185.0377147076998
 21
34.6396381713
 31
0.0
  0
LINE
  5
AB
330
2
100
AcDbEntity
  8
0
 62
     3
100
AcDbLine
 10
192.5379283307
 20
42.6402180053
 30
0.0
 11
192.5379283307
 21
24.6405536987
 31
0.0
  0
LINE
  5
AC
330
2
100
AcDbEntity
  8
0
 62
     3
100
AcDbLine
 10
190.5377452253
 20
24.64049266349999
 30
0.0
 11
207.5376536724998
 21
24.64049266349999
 31
0.0
  0
LINE
  5
AD
330
2
100
AcDbEntity
  8
0
 62
     3
100
AcDbLine
 10
207.5378978132
 20
26.6402180053
 30
0.0
 11
192.5379283307
 21
26.6402180053
 31
0.0
  0
LINE
  5
AE
330
2
100
AcDbEntity
  8
0
 62
     3
100
AcDbLine
 10
207.5378978132
 20
26.6402180053
 30
0.0
 11
207.5378978132
 21
24.6405536987
 31
0.0
  0
LINE
  5
AF
330
2
100
AcDbEntity
  8
0
 62
     3
100
AcDbLine
 10
192.5379283307
 20
42.6402180053
 30
0.0
 11
190.5379283307
 21
42.6402180053
 31
0.0
  0
ARC
  5
B0
330
2
100
AcDbEntity
  8
0
 62
     3
100
AcDbCircle
 10
183.0378672956
 20
34.6397602416
 30
0.0
 40
2.0
100
AcDbArc
 50
270.0001819106
 51
359.9999285696999
  0
LINE
  5
B1
330
2
100
AcDbEntity
  8
0
 62
     3
100
AcDbLine
 10
195.1379039166999
 20
36.6402180053
 30
0.0
 11
195.1379039166999
 21
32.6402180053
 31
0.0
  0
LINE
  5
B2
330
2
100
AcDbEntity
  8
0
 62
     3
100
AcDbLine
 10
195.1379209166999
 20
34.6401262342
 30
0.0
 11
194.4990659362
 21
35.7466554991
 31
0.0
  0
LINE
  5
B3
330
2
100
AcDbEntity
  8
0
 62
     3
100
AcDbLine
 10
193.6379039166999
 20
31.1402180053
 30
0.0
 11
192.5379283307
 21
31.1402180053
 31
0.0
  0
LINE
  5
B4
330
2
100
AcDbEntity
  8
0
 62
     3
100
AcDbLine
 10
195.1378470413
 20
34.6401746174
 30
0.0
 11
194.4623404495
 21
33.4701629005
 31
0.0
  0
ARC
  5
B5
330
2
100
AcDbEntity
  8
0
 62
     3
100
AcDbCircle
 10
193.6379039166999
 20
32.6402180053
 30
0.0
 40
1.5
100
AcDbArc
 50
269.9999993168
 51
0.0000359722000187
  0
LINE
  5
B6
330
2
100
AcDbEntity
  8
0
 62
     3
100
AcDbLine
 10
193.6379039166999
 20
38.14021800529999
 30
0.0
 11
192.5379283307
 21
38.14021800529999
 31
0.0
  0
ARC
  5
B7
330
2
100
AcDbEntity
  8
0
 62
     3
100
AcDbCircle
 10
193.6379039166999
 20
36.6402180053
 30
0.0
 40
1.5
100
AcDbArc
 50
0.000035972178762
 51
90.0000179861
  0
LINE
  5
B8
330
2
100
AcDbEntity
  8
0
 62
     3
100
AcDbLine
 10
186.5376841900999
 20
56.6394550659
 30
0.0
 11
186.5376841900999
 21
89.63945506589999
 31
0.0
  0
LINE
  5
B9
330
2
100
AcDbEntity
  8
0
 62
     3
100
AcDbLine
 10
179.8378550886
 20
68.63911937250001
 30
0.0
 11
179.8378550886
 21
63.13911937250001
 31
0.0
  0
LINE
  5
BA
330
2
100
AcDbEntity
  8
0
 62
     3
100
AcDbLine
 10
180.5378367779999
 20
60.63921092520001
 30
0.0
 11
180.5378367779999
 21
58.6392109252
 31
0.0
  0
LINE
  5
BB
330
2
100
AcDbEntity
  8
0
 62
     3
100
AcDbLine
 10
179.2378489849999
 20
63.1391804077
 30
0.0
 11
179.2378489849999
 21
60.6391804077
 31
0.0
  0
LINE
  5
BC
330
2
100
AcDbEntity
  8
0
 62
     3
100
AcDbLine
 10
185.037747768
 20
56.63942482149999
 30
0.0
 11
186.537747768
 21
56.6394086344
 31
0.0
  0
LINE
  5
BD
330
2
100
AcDbEntity
  8
0
 62
     3
100
AcDbLine
 10
186.5376536724999
 20
80.63893626699998
 30
0.0
 11
190.5376536724999
 21
80.63893626699998
 31
0.0
  0
LINE
  5
BE
330
2
100
AcDbEntity
  8
0
 62
     3
100
AcDbLine
 10
186.5376536724999
 20
85.64421580799999
 30
0.0
 11
190.5376536724999
 21
85.64421580799999
 31
0.0
  0
LINE
  5
BF
330
2
100
AcDbEntity
  8
0
 62
     3
100
AcDbLine
 10
186.5376536724999
 20
89.63896678459999
 30
0.0
 11
190.5376536724999
 21
89.63896678459999
 31
0.0
  0
LINE
  5
C0
330
2
100
AcDbEntity
  8
0
  6
PHANTOM
 62
     3
100
AcDbLine
 10
190.5375926374
 20
91.1393329955
 30
0.0
 11
190.5375926374
 21
89.638936267
 31
0.0
  0
TEXT
  5
C1
330
2
100
AcDbEntity
  8
0
 62
     5
100
AcDbText
 10
355.0
 20
10.0
 30
0.0
 40
5.0
  1
ＭＡ４－Ｂ００５４０Ｃ
 41
0.8443967743953109
 72
     5
 11
409.0413935612999
 21
10.0
 31
0.0
100
AcDbText
  0
LINE
  5
C2
330
2
100
AcDbEntity
  8
0
 62
     3
100
AcDbLine
 10
300.0379893658998
 20
234.6393940307
 30
0.0
 11
313.0379893659
 21
234.6393940307
 31
0.0
  0
LINE
  5
C3
330
2
100
AcDbEntity
  8
0
 62
     3
100
AcDbLine
 10
305.088038194
 20
230.1901142454999
 30
0.0
 11
300.9880320904998
 21
230.1901142454999
 31
0.0
  0
LINE
  5
C4
330
2
100
AcDbEntity
  8
0
 62
     3
100
AcDbLine
 10
313.0379893659
 20
241.6393940307
 30
0.0
 11
266.0380504011
 21
241.6393940307
 31
0.0
  0
CIRCLE
  5
C5
330
2
100
AcDbEntity
  8
0
 62
     3
100
AcDbCircle
 10
303.0380198835
 20
226.6393940307
 30
0.0
 40
2.25
  0
LINE
  5
C6
330
2
100
AcDbEntity
  8
0
 62
     3
100
AcDbLine
 10
300.9880320904998
 20
223.0887043334
 30
0.0
 11
305.088038194
 21
223.0887043334
 31
0.0
  0
CIRCLE
  5
C7
330
2
100
AcDbEntity
  8
0
 62
     3
100
AcDbCircle
 10
302.0380504011
 20
196.6394245483
 30
0.0
 40
3.0999984741
  0
CIRCLE
  5
C8
330
2
100
AcDbEntity
  8
0
 62
     3
100
AcDbCircle
 10
303.0380198835
 20
166.639516101
 30
0.0
 40
2.25
  0
LINE
  5
C9
330
2
100
AcDbEntity
  8
0
 62
     3
100
AcDbLine
 10
300.9880320904998
 20
163.0887958862
 30
0.0
 11
305.088038194
 21
163.0887958862
 31
0.0
  0
LINE
  5
CA
330
2
100
AcDbEntity
  8
0
 62
     3
100
AcDbLine
 10
305.088038194
 20
170.1902057983
 30
0.0
 11
300.9880320904998
 21
170.1902057983
 31
0.0
  0
LINE
  5
CB
330
2
100
AcDbEntity
  8
0
 62
     3
100
AcDbLine
 10
300.0379893658998
 20
158.6394245483
 30
0.0
 11
313.0379893659
 21
158.6394245483
 31
0.0
  0
LINE
  5
CC
330
2
100
AcDbEntity
  8
0
  6
CENTER
 62
     3
100
AcDbLine
 10
316.9441478132
 20
196.6394245483
 30
0.0
 11
246.1887767193998
 21
196.6394245483
 31
0.0
  0
LINE
  5
CD
330
2
100
AcDbEntity
  8
0
 62
     3
100
AcDbLine
 10
266.0380504011
 20
151.6394550659
 30
0.0
 11
313.0379893659
 21
151.6394550659
 31
0.0
  0
LINE
  5
CE
330
2
100
AcDbEntity
  8
0
100
AcDbLine
 10
420.0
 20
297.0
 30
0.0
 11
0.0
 21
297.0
 31
0.0
  0
LINE
  5
CF
330
2
100
AcDbEntity
  8
0
  6
CENTER
 62
     3
100
AcDbLine
 10
52.70630499260001
 20
196.6393635131
 30
0.0
 11
210.84655366
 21
196.6393635131
 31
0.0
  0
LINE
  5
D0
330
2
100
AcDbEntity
  8
0
 62
     3
100
AcDbLine
 10
155.0380198835
 20
231.6393940306999
 30
0.0
 11
185.0381114361999
 21
231.6393940306999
 31
0.0
  0
LINE
  5
D1
330
2
100
AcDbEntity
  8
0
 62
     3
100
AcDbLine
 10
155.0380198835
 20
230.6393940307
 30
0.0
 11
185.0381114361999
 21
230.6393940307
 31
0.0
  0
LINE
  5
D2
330
2
100
AcDbEntity
  8
0
 62
     3
100
AcDbLine
 10
178.0380504011
 20
220.4894230224
 30
0.0
 11
173.0540492413999
 21
220.4894230224
 31
0.0
  0
LINE
  5
D3
330
2
100
AcDbEntity
  8
0
 62
     3
100
AcDbLine
 10
178.0380504011
 20
218.7894260741999
 30
0.0
 11
173.0540492413999
 21
218.7894260741999
 31
0.0
  0
LINE
  5
D4
330
2
100
AcDbEntity
  8
0
 62
     3
100
AcDbLine
 10
179.8380064962
 20
219.6393292498
 30
0.0
 11
174.9380334256
 21
211.1523228847
 31
0.0
  0
LINE
  5
D5
330
2
100
AcDbEntity
  8
0
 62
     3
100
AcDbLine
 10
174.9380478728998
 20
228.1264220095998
 30
0.0
 11
179.8380565156
 21
219.6393754766999
 31
0.0
  0
LINE
  5
D6
330
2
100
AcDbEntity
  8
0
 62
     3
100
AcDbLine
 10
178.0380504011
 20
174.4893009521
 30
0.0
 11
173.0540492413999
 21
174.4893009521
 31
0.0
  0
LINE
  5
D7
330
2
100
AcDbEntity
  8
0
 62
     3
100
AcDbLine
 10
178.0380504011
 20
172.7893040037998
 30
0.0
 11
173.0540492413999
 21
172.7893040037998
 31
0.0
  0
LINE
  5
D8
330
2
100
AcDbEntity
  8
0
 62
     3
100
AcDbLine
 10
174.9380478728998
 20
165.1523050167
 30
0.0
 11
179.8380565156
 21
173.6393515495
 31
0.0
  0
LINE
  5
D9
330
2
100
AcDbEntity
  8
0
 62
     3
100
AcDbLine
 10
179.8380064962
 20
173.6393977763999
 30
0.0
 11
174.9380334256
 21
182.1264041416
 31
0.0
  0
CIRCLE
  5
DA
330
2
100
AcDbEntity
  8
0
 62
     3
100
AcDbCircle
 10
170.0380504011
 20
219.6394245483
 30
0.0
 40
8.249992370599999
  0
LINE
  5
DB
330
2
100
AcDbEntity
  8
0
 62
     3
100
AcDbLine
 10
153.5380504011
 20
201.6394245483
 30
0.0
 11
185.5380297831
 21
201.6394245483
 31
0.0
  0
LINE
  5
DC
330
2
100
AcDbEntity
  8
0
 62
     3
100
AcDbLine
 10
153.5380504011
 20
191.6393024779999
 30
0.0
 11
185.5380297831
 21
191.6393024779999
 31
0.0
  0
LINE
  5
DD
330
2
100
AcDbEntity
  8
0
 62
     3
100
AcDbLine
 10
155.0380198835
 20
162.6393329954999
 30
0.0
 11
185.0381114361999
 21
162.6393329954999
 31
0.0
  0
LINE
  5
DE
330
2
100
AcDbEntity
  8
0
 62
     3
100
AcDbLine
 10
155.0380198835
 20
161.6393329954999
 30
0.0
 11
185.0381114361999
 21
161.6393329954999
 31
0.0
  0
ARC
  5
DF
330
2
100
AcDbEntity
  8
0
 62
     3
100
AcDbCircle
 10
170.0380504011
 20
173.6393024779999
 30
0.0
 40
11.0
100
AcDbArc
 50
227.8764363834
 51
312.1235636165998
  0
CIRCLE
  5
E0
330
2
100
AcDbEntity
  8
0
 62
     3
100
AcDbCircle
 10
170.0380504011
 20
173.6393024779999
 30
0.0
 40
8.249992370599999
  0
CIRCLE
  5
E1
330
2
100
AcDbEntity
  8
0
 62
     3
100
AcDbCircle
 10
170.0380504011
 20
173.6393024779999
 30
0.0
 40
10.5
  0
CIRCLE
  5
E2
330
2
100
AcDbEntity
  8
0
 62
     3
100
AcDbCircle
 10
170.0380504011
 20
219.6394245483
 30
0.0
 40
10.5
  0
ARC
  5
E3
330
2
100
AcDbEntity
  8
0
 62
     3
100
AcDbCircle
 10
170.0380504011
 20
219.6394245483
 30
0.0
 40
11.0
100
AcDbArc
 50
47.87643638339999
 51
132.1235636166
  0
LINE
  5
E4
330
2
100
AcDbEntity
  8
0
  6
PHANTOM
 62
     3
100
AcDbLine
 10
75.5380748151
 20
154.1394855833999
 30
0.0
 11
190.538025987
 21
154.1394855833999
 31
0.0
  0
LINE
  5
E5
330
2
100
AcDbEntity
  8
0
  6
PHANTOM
 62
     3
100
AcDbLine
 10
75.5380748151
 20
239.1392414428
 30
0.0
 11
190.538025987
 21
239.1392414428
 31
0.0
  0
LINE
  5
E6
330
2
100
AcDbEntity
  8
0
 62
     3
100
AcDbLine
 10
190.538025987
 20
241.639302478
 30
0.0
 11
75.5380748151
 21
241.639302478
 31
0.0
  0
LINE
  5
E7
330
2
100
AcDbEntity
  8
0
 62
     3
100
AcDbLine
 10
190.538025987
 20
151.6394245483
 30
0.0
 11
75.5380748151
 21
151.6394245483
 31
0.0
  0
LINE
  5
E8
330
2
100
AcDbEntity
  8
0
 62
     3
100
AcDbLine
 10
170.0380809185999
 20
230.6393329954999
 30
0.0
 11
170.0380809185999
 21
241.6394550659
 31
0.0
  0
LINE
  5
E9
330
2
100
AcDbEntity
  8
0
 62
     3
100
AcDbLine
 10
153.0380809186
 20
231.6392109252
 30
0.0
 11
153.0380809186
 21
237.6339313841999
 31
0.0
  0
LINE
  5
EA
330
2
100
AcDbEntity
  8
0
 62
     3
100
AcDbLine
 10
150.0381053327
 20
231.6392414427999
 30
0.0
 11
150.0381053327
 21
237.6339619018
 31
0.0
  0
LINE
  5
EB
330
2
100
AcDbEntity
  8
0
 62
     3
100
AcDbLine
 10
150.0380198835
 20
231.6392109252
 30
0.0
 11
150.0380198835
 21
237.6339313841999
 31
0.0
  0
LINE
  5
EC
330
2
100
AcDbEntity
  8
0
 62
     3
100
AcDbLine
 10
153.0379954694
 20
231.6392414427999
 30
0.0
 11
153.0379954694
 21
237.6339619018
 31
0.0
  0
LINE
  5
ED
330
2
100
AcDbEntity
  8
0
 62
     3
100
AcDbLine
 10
133.0380809186
 20
230.6393329954999
 30
0.0
 11
133.0380809186
 21
241.6394550659
 31
0.0
  0
LINE
  5
EE
330
2
100
AcDbEntity
  8
0
 62
     3
100
AcDbLine
 10
113.0380198834999
 20
231.6392109252
 30
0.0
 11
113.0380198834999
 21
237.6339313841999
 31
0.0
  0
LINE
  5
EF
330
2
100
AcDbEntity
  8
0
 62
     3
100
AcDbLine
 10
116.0379954694
 20
231.6392414427999
 30
0.0
 11
116.0379954694
 21
237.6339619018
 31
0.0
  0
LINE
  5
F0
330
2
100
AcDbEntity
  8
0
 62
     3
100
AcDbLine
 10
113.0381053327
 20
231.6392414427999
 30
0.0
 11
113.0381053327
 21
237.6339619018
 31
0.0
  0
LINE
  5
F1
330
2
100
AcDbEntity
  8
0
 62
     3
100
AcDbLine
 10
116.0380809185999
 20
231.6392109252
 30
0.0
 11
116.0380809185999
 21
237.6339313841999
 31
0.0
  0
LINE
  5
F2
330
2
100
AcDbEntity
  8
0
  6
CENTER
 62
     3
100
AcDbLine
 10
170.0380504011
 20
146.6392719604
 30
0.0
 11
170.0380504011
 21
246.6394550658999
 31
0.0
  0
LINE
  5
F3
330
2
100
AcDbEntity
  8
0
 62
     3
100
AcDbLine
 10
111.0380809186
 20
220.9393207884999
 30
0.0
 11
111.0380809186
 21
241.6390888549
 31
0.0
  0
LINE
  5
F4
330
2
100
AcDbEntity
  8
0
 62
     3
100
AcDbLine
 10
112.5380504011
 20
200.8394062377
 30
0.0
 11
112.5380504011
 21
241.6394550659
 31
0.0
  0
LINE
  5
F5
330
2
100
AcDbEntity
  8
0
 62
     3
100
AcDbLine
 10
116.538025987
 20
241.6394855834
 30
0.0
 11
116.538025987
 21
200.8394367553
 31
0.0
  0
LINE
  5
F6
330
2
100
AcDbEntity
  8
0
 62
     3
100
AcDbLine
 10
153.5380504011
 20
200.8394062377
 30
0.0
 11
153.5380504011
 21
241.6394550659
 31
0.0
  0
LINE
  5
F7
330
2
100
AcDbEntity
  8
0
 62
     3
100
AcDbLine
 10
153.5380198834999
 20
241.6393635131
 30
0.0
 11
153.5380198834999
 21
206.6392719603999
 31
0.0
  0
LINE
  5
F8
330
2
100
AcDbEntity
  8
0
 62
     3
100
AcDbLine
 10
149.5380748150999
 20
241.6394855834
 30
0.0
 11
149.5380748150999
 21
200.8394367553
 31
0.0
  0
LINE
  5
F9
330
2
100
AcDbEntity
  8
0
 62
     3
100
AcDbLine
 10
155.0380198835
 20
220.9393207884999
 30
0.0
 11
155.0380198835
 21
241.6390888549
 31
0.0
  0
LINE
  5
FA
330
2
100
AcDbEntity
  8
0
 62
     3
100
AcDbLine
 10
118.0380198835
 20
220.9393207884999
 30
0.0
 11
118.0380198835
 21
241.6390888549
 31
0.0
  0
LINE
  5
FB
330
2
100
AcDbEntity
  8
0
 62
     3
100
AcDbLine
 10
148.0380809186
 20
220.9393207884999
 30
0.0
 11
148.0380809186
 21
241.6390888549
 31
0.0
  0
LINE
  5
FC
330
2
100
AcDbEntity
  8
0
 62
     3
100
AcDbLine
 10
112.5380748151
 20
241.6394855834
 30
0.0
 11
112.5380748151
 21
200.8394367553
 31
0.0
  0
LINE
  5
FD
330
2
100
AcDbEntity
  8
0
 62
     3
100
AcDbLine
 10
116.5380198835
 20
241.6393635131
 30
0.0
 11
116.5380198835
 21
206.6392719603999
 31
0.0
  0
LINE
  5
FE
330
2
100
AcDbEntity
  8
0
 62
     3
100
AcDbLine
 10
116.5380504011
 20
200.8394062377
 30
0.0
 11
116.5380504011
 21
241.6394550659
 31
0.0
  0
LINE
  5
FF
330
2
100
AcDbEntity
  8
0
 62
     3
100
AcDbLine
 10
149.5380504011
 20
200.8394062377
 30
0.0
 11
149.5380504011
 21
241.6394550659
 31
0.0
  0
LINE
  5
100
330
2
100
AcDbEntity
  8
0
 62
     3
100
AcDbLine
 10
153.5380259869999
 20
241.6394855834
 30
0.0
 11
153.5380259869999
 21
200.8394367553
 31
0.0
  0
LINE
  5
101
330
2
100
AcDbEntity
  8
0
 62
     3
100
AcDbLine
 10
96.03808091860004
 20
241.6394550659
 30
0.0
 11
96.03808091860004
 21
230.6393329954999
 31
0.0
  0
LINE
  5
102
330
2
100
AcDbEntity
  8
0
 62
     3
100
AcDbLine
 10
81.03801988350005
 20
220.9393207884999
 30
0.0
 11
81.03801988350005
 21
241.6390888549
 31
0.0
  0
LINE
  5
103
330
2
100
AcDbEntity
  8
0
 62
     3
100
AcDbLine
 10
79.53801988350005
 20
241.6393635131
 30
0.0
 11
79.53801988350005
 21
206.6392719603999
 31
0.0
  0
LINE
  5
104
330
2
100
AcDbEntity
  8
0
 62
     3
100
AcDbLine
 10
79.53805040110002
 20
206.6394245482999
 30
0.0
 11
79.53805040110002
 21
241.6394550659
 31
0.0
  0
LINE
  5
105
330
2
100
AcDbEntity
  8
0
  6
CENTER
 62
     3
100
AcDbLine
 10
96.03805040110001
 20
145.7015888548999
 30
0.0
 11
96.03805040110001
 21
246.9484760618998
 31
0.0
  0
LINE
  5
106
330
2
100
AcDbEntity
  8
0
 62
     3
100
AcDbLine
 10
75.5380748151
 20
151.6392414428
 30
0.0
 11
75.5380748151
 21
241.639302478
 31
0.0
  0
LINE
  5
107
330
2
100
AcDbEntity
  8
0
 62
     3
100
AcDbLine
 10
116.0380809185999
 20
231.6392109252
 30
0.0
 11
114.5380809186
 21
231.6392109252
 31
0.0
  0
LINE
  5
108
330
2
100
AcDbEntity
  8
0
 62
     3
100
AcDbLine
 10
116.0380809185999
 20
233.6391804076999
 30
0.0
 11
114.5380809186
 21
233.6391804076999
 31
0.0
  0
LINE
  5
109
330
2
100
AcDbEntity
  8
0
 62
     3
100
AcDbLine
 10
116.0380809185999
 20
231.6392414427999
 30
0.0
 11
113.0380198834999
 21
231.6392414427999
 31
0.0
  0
LINE
  5
10A
330
2
100
AcDbEntity
  8
0
 62
     3
100
AcDbLine
 10
116.0380809185999
 20
233.6392109252
 30
0.0
 11
113.0380198834999
 21
233.6392109252
 31
0.0
  0
LINE
  5
10B
330
2
100
AcDbEntity
  8
0
 62
     3
100
AcDbLine
 10
116.5380504011
 20
226.6392414428
 30
0.0
 11
114.5380809186
 21
226.6392414428
 31
0.0
  0
LINE
  5
10C
330
2
100
AcDbEntity
  8
0
 62
     3
100
AcDbLine
 10
116.538025987
 20
226.6392719604
 30
0.0
 11
112.5380748151
 21
226.6392719604
 31
0.0
  0
LINE
  5
10D
330
2
100
AcDbEntity
  8
0
 62
     3
100
AcDbLine
 10
113.5381053327
 20
223.1392719603999
 30
0.0
 11
115.5379954694
 21
223.1392719603999
 31
0.0
  0
LINE
  5
10E
330
2
100
AcDbEntity
  8
0
 62
     3
100
AcDbLine
 10
114.5380809186
 20
223.1392414427999
 30
0.0
 11
115.5380809186
 21
223.1392414427999
 31
0.0
  0
LINE
  5
10F
330
2
100
AcDbEntity
  8
0
 62
     3
100
AcDbLine
 10
113.5381053327
 20
216.6392414428
 30
0.0
 11
115.5379954694
 21
216.6392414428
 31
0.0
  0
LINE
  5
110
330
2
100
AcDbEntity
  8
0
 62
     3
100
AcDbLine
 10
114.5380809186
 20
216.6392109252
 30
0.0
 11
115.5380809186
 21
216.6392109252
 31
0.0
  0
LINE
  5
111
330
2
100
AcDbEntity
  8
0
 62
     3
100
AcDbLine
 10
116.5380504011
 20
200.8392841674
 30
0.0
 11
112.5380504011
 21
200.8392841674
 31
0.0
  0
LINE
  5
112
330
2
100
AcDbEntity
  8
0
 62
     3
100
AcDbLine
 10
112.5380504011
 20
192.4394428588
 30
0.0
 11
116.5380504011
 21
192.4394428588
 31
0.0
  0
LINE
  5
113
330
2
100
AcDbEntity
  8
0
 62
     3
100
AcDbLine
 10
114.5380809186
 20
176.6395161009999
 30
0.0
 11
115.5380809186
 21
176.6395161009999
 31
0.0
  0
LINE
  5
114
330
2
100
AcDbEntity
  8
0
 62
     3
100
AcDbLine
 10
115.5379954694
 20
176.6394855833999
 30
0.0
 11
113.5381053327
 21
176.6394855833999
 31
0.0
  0
LINE
  5
115
330
2
100
AcDbEntity
  8
0
 62
     3
100
AcDbLine
 10
114.5380809186
 20
170.1394855833999
 30
0.0
 11
115.5380809186
 21
170.1394855833999
 31
0.0
  0
LINE
  5
116
330
2
100
AcDbEntity
  8
0
 62
     3
100
AcDbLine
 10
115.5379954694
 20
170.1394550658999
 30
0.0
 11
113.5381053327
 21
170.1394550658999
 31
0.0
  0
LINE
  5
117
330
2
100
AcDbEntity
  8
0
 62
     3
100
AcDbLine
 10
116.0380809185999
 20
161.6395161009999
 30
0.0
 11
114.5380809186
 21
161.6395161009999
 31
0.0
  0
LINE
  5
118
330
2
100
AcDbEntity
  8
0
 62
     3
100
AcDbLine
 10
116.5380504011
 20
166.6394855833999
 30
0.0
 11
114.5380809186
 21
166.6394855833999
 31
0.0
  0
LINE
  5
119
330
2
100
AcDbEntity
  8
0
 62
     3
100
AcDbLine
 10
112.5380748151
 20
166.6394550658999
 30
0.0
 11
116.538025987
 21
166.6394550658999
 31
0.0
  0
LINE
  5
11A
330
2
100
AcDbEntity
  8
0
 62
     3
100
AcDbLine
 10
113.0380198834999
 20
161.6394855833999
 30
0.0
 11
116.0380809185999
 21
161.6394855833999
 31
0.0
  0
LINE
  5
11B
330
2
100
AcDbEntity
  8
0
 62
     3
100
AcDbLine
 10
116.0380809185999
 20
159.6395466186
 30
0.0
 11
114.5380809186
 21
159.6395466186
 31
0.0
  0
LINE
  5
11C
330
2
100
AcDbEntity
  8
0
 62
     3
100
AcDbLine
 10
116.0380809185999
 20
155.644795642
 30
0.0
 11
114.5380809186
 21
155.644795642
 31
0.0
  0
LINE
  5
11D
330
2
100
AcDbEntity
  8
0
 62
     3
100
AcDbLine
 10
113.0381053327
 20
155.6447651244
 30
0.0
 11
116.0379954694
 21
155.6447651244
 31
0.0
  0
LINE
  5
11E
330
2
100
AcDbEntity
  8
0
 62
     3
100
AcDbLine
 10
113.0380198834999
 20
159.639516101
 30
0.0
 11
116.0380809185999
 21
159.639516101
 31
0.0
  0
LINE
  5
11F
330
2
100
AcDbEntity
  8
0
 62
     3
100
AcDbLine
 10
116.5380504011
 20
151.6393940307
 30
0.0
 11
114.5380809186
 21
151.6393940307
 31
0.0
  0
ARC
  5
120
330
2
100
AcDbEntity
  8
0
 62
     3
100
AcDbCircle
 10
107.5381114362
 20
186.6393024779999
 30
0.0
 40
5.0
100
AcDbArc
 50
0.2478898768
 51
90.0000179861
  0
LINE
  5
121
330
2
100
AcDbEntity
  8
0
 62
     3
100
AcDbLine
 10
112.5380748151
 20
151.6392414428
 30
0.0
 11
112.5380748151
 21
192.4392902708999
 31
0.0
  0
LINE
  5
122
330
2
100
AcDbEntity
  8
0
 62
     3
100
AcDbLine
 10
112.5380504011
 20
192.4393207885
 30
0.0
 11
112.5380504011
 21
151.6392719604
 31
0.0
  0
ARC
  5
123
330
2
100
AcDbEntity
  8
0
 62
     3
100
AcDbCircle
 10
84.53798936590004
 20
186.6393024779999
 30
0.0
 40
5.0
100
AcDbArc
 50
89.99998201389999
 51
143.1284949963
  0
LINE
  5
124
330
2
100
AcDbEntity
  8
0
 62
     3
100
AcDbLine
 10
80.53807001500002
 20
192.4393918920999
 30
0.0
 11
80.53807478340003
 21
188.6393735815
 31
0.0
  0
LINE
  5
125
330
2
100
AcDbEntity
  8
0
 62
     3
100
AcDbLine
 10
56.53804429750005
 20
216.6394550659
 30
0.0
 11
56.53804429750005
 21
176.6394550659
 31
0.0
  0
LINE
  5
126
330
2
100
AcDbEntity
  8
0
 62
     3
100
AcDbLine
 10
73.53804429750005
 20
234.6394550658999
 30
0.0
 11
73.53804429750005
 21
158.6394550659
 31
0.0
  0
LINE
  5
127
330
2
100
AcDbEntity
  8
0
 62
     3
100
AcDbLine
 10
88.65999855330006
 20
165.4807347995999
 30
0.0
 11
79.53800454750002
 21
173.7299109765999
 31
0.0
  0
LINE
  5
128
330
2
100
AcDbEntity
  8
0
 62
     3
100
AcDbLine
 10
81.03801988350005
 20
162.6393329954999
 30
0.0
 11
111.0381114362
 21
162.6393329954999
 31
0.0
  0
LINE
  5
129
330
2
100
AcDbEntity
  8
0
 62
     3
100
AcDbLine
 10
81.03801988350005
 20
161.6393329954999
 30
0.0
 11
111.0381114362
 21
161.6393329954999
 31
0.0
  0
LINE
  5
12A
330
2
100
AcDbEntity
  8
0
 62
     3
100
AcDbLine
 10
70.93805865550002
 20
166.6393946574
 30
0.0
 11
71.57691363600003
 21
167.7459239224
 31
0.0
  0
LINE
  5
12B
330
2
100
AcDbEntity
  8
0
 62
     3
100
AcDbLine
 10
70.938038194
 20
168.6394550658999
 30
0.0
 11
70.938038194
 21
164.6394550659
 31
0.0
  0
LINE
  5
12C
330
2
100
AcDbEntity
  8
0
 62
     3
100
AcDbLine
 10
81.03801988350005
 20
172.3394062377
 30
0.0
 11
81.03801988350005
 21
151.6396381712999
 31
0.0
  0
LINE
  5
12D
330
2
100
AcDbEntity
  8
0
 62
     3
100
AcDbLine
 10
79.53805040110002
 20
186.6393024779999
 30
0.0
 11
79.53805040110002
 21
151.6392719604
 31
0.0
  0
LINE
  5
12E
330
2
100
AcDbEntity
  8
0
 62
     3
100
AcDbLine
 10
79.53801988350005
 20
151.6393635130999
 30
0.0
 11
79.53801988350005
 21
186.6394550659
 31
0.0
  0
LINE
  5
12F
330
2
100
AcDbEntity
  8
0
 62
     3
100
AcDbLine
 10
77.53810533270002
 20
189.6393635131
 30
0.0
 11
77.53810533270002
 21
161.6394245483
 31
0.0
  0
LINE
  5
130
330
2
100
AcDbEntity
  8
0
 62
     3
100
AcDbLine
 10
79.53805040110002
 20
151.6393940307
 30
0.0
 11
77.53808091860008
 21
151.6393940307
 31
0.0
  0
LINE
  5
131
330
2
100
AcDbEntity
  8
0
 62
     3
100
AcDbLine
 10
77.53810533270002
 20
166.6394550658999
 30
0.0
 11
75.5380748151
 21
166.6394550658999
 31
0.0
  0
LINE
  5
132
330
2
100
AcDbEntity
  8
0
 62
     3
100
AcDbLine
 10
73.53804429750005
 20
158.6394550659
 30
0.0
 11
75.53804429750005
 21
158.6394550659
 31
0.0
  0
ARC
  5
133
330
2
100
AcDbEntity
  8
0
 62
     3
100
AcDbCircle
 10
72.438038194
 20
164.6394550659
 30
0.0
 40
1.5
100
AcDbArc
 50
179.9999640277999
 51
270.0000006831999
  0
LINE
  5
134
330
2
100
AcDbEntity
  8
0
 62
     3
100
AcDbLine
 10
70.93804454020006
 20
166.6394002572999
 30
0.0
 11
71.61353587320006
 21
165.4694149695
 31
0.0
  0
LINE
  5
135
330
2
100
AcDbEntity
  8
0
 62
     3
100
AcDbLine
 10
72.438038194
 20
163.1394550658999
 30
0.0
 11
73.53804429750005
 21
163.1394550658999
 31
0.0
  0
LINE
  5
136
330
2
100
AcDbEntity
  8
0
 62
     3
100
AcDbLine
 10
77.53816795750009
 20
161.6394485356998
 30
0.0
 11
79.53810692230002
 21
161.6394332767999
 31
0.0
  0
LINE
  5
137
330
2
100
AcDbEntity
  8
0
 62
     3
100
AcDbLine
 10
79.53805040110002
 20
166.6394855833999
 30
0.0
 11
77.53808091860008
 21
166.6394855833999
 31
0.0
  0
LINE
  5
138
330
2
100
AcDbEntity
  8
0
  6
CENTER
 62
     3
100
AcDbLine
 10
59.73804429750011
 20
181.6394550659
 30
0.0
 11
69.33804429750006
 21
181.6394550659
 31
0.0
  0
LINE
  5
139
330
2
100
AcDbEntity
  8
0
 62
     3
100
AcDbLine
 10
59.53804429750005
 20
173.6394550658999
 30
0.0
 11
73.53804429750005
 21
173.6394550658999
 31
0.0
  0
CIRCLE
  5
13A
330
2
100
AcDbEntity
  8
0
 62
     3
100
AcDbCircle
 10
64.53804429750005
 20
181.6394550659
 30
0.0
 40
4.0
  0
LINE
  5
13B
330
2
100
AcDbEntity
  8
0
  6
CENTER
 62
     3
100
AcDbLine
 10
64.53804429750005
 20
176.8394550659
 30
0.0
 11
64.53804429750005
 21
186.4394550659
 31
0.0
  0
ARC
  5
13C
330
2
100
AcDbEntity
  8
0
 62
     3
100
AcDbCircle
 10
59.53804429750005
 20
176.6394550659
 30
0.0
 40
3.0
100
AcDbArc
 50
180.0000359722
 51
270.0000179861
  0
LINE
  5
13D
330
2
100
AcDbEntity
  8
0
 62
     3
100
AcDbLine
 10
75.5380748151
 20
176.6394855833999
 30
0.0
 11
77.53810533270002
 21
176.6394855833999
 31
0.0
  0
LINE
  5
13E
330
2
100
AcDbEntity
  8
0
 62
     3
100
AcDbLine
 10
75.5380748151
 20
170.1394550658999
 30
0.0
 11
77.53810533270002
 21
170.1394550658999
 31
0.0
  0
ARC
  5
13F
330
2
100
AcDbEntity
  8
0
 62
     3
100
AcDbCircle
 10
72.438038194
 20
168.6394550658999
 30
0.0
 40
1.5
100
AcDbArc
 50
89.99998201389999
 51
179.9999640277999
  0
LINE
  5
140
330
2
100
AcDbEntity
  8
0
 62
     3
100
AcDbLine
 10
72.438038194
 20
170.1394550658999
 30
0.0
 11
73.53804429750005
 21
170.1394550658999
 31
0.0
  0
LINE
  5
141
330
2
100
AcDbEntity
  8
0
 62
     3
100
AcDbLine
 10
77.53825792060002
 20
189.6392414427999
 30
0.0
 11
80.53816636790003
 21
189.6392414427999
 31
0.0
  0
LINE
  5
142
330
2
100
AcDbEntity
  8
0
 62
     3
100
AcDbLine
 10
77.53810533270002
 20
188.6393635131
 30
0.0
 11
80.53801378000001
 21
188.6393635131
 31
0.0
  0
ARC
  5
143
330
2
100
AcDbEntity
  8
0
 62
     3
100
AcDbCircle
 10
84.53798936590004
 20
186.6393024779999
 30
0.0
 40
5.0
100
AcDbArc
 50
156.419913707
 51
179.7521101232
  0
LINE
  5
144
330
2
100
AcDbEntity
  8
0
 62
     3
100
AcDbLine
 10
79.53805040110002
 20
188.6394550659
 30
0.0
 11
78.53808091860003
 21
188.6394550659
 31
0.0
  0
LINE
  5
145
330
2
100
AcDbEntity
  8
0
 62
     3
100
AcDbLine
 10
78.53808091860003
 20
189.6394550659
 30
0.0
 11
79.53805040110002
 21
189.6394550659
 31
0.0
  0
LINE
  5
146
330
2
100
AcDbEntity
  8
0
 62
     3
100
AcDbLine
 10
103.4161022487999
 20
165.4807347995999
 30
0.0
 11
112.5380962545999
 21
173.7299109765999
 31
0.0
  0
LINE
  5
147
330
2
100
AcDbEntity
  8
0
 62
     3
100
AcDbLine
 10
111.0380809186
 20
172.3394062377
 30
0.0
 11
111.0380809186
 21
151.6396381712999
 31
0.0
  0
LINE
  5
148
330
2
100
AcDbEntity
  8
0
 62
     3
100
AcDbLine
 10
113.5381053327
 20
189.6394855834
 30
0.0
 11
113.5381053327
 21
161.6394855833999
 31
0.0
  0
LINE
  5
149
330
2
100
AcDbEntity
  8
0
 62
     3
100
AcDbLine
 10
113.5380198835
 20
189.6394550659
 30
0.0
 11
113.5380198835
 21
161.6394855833999
 31
0.0
  0
LINE
  5
14A
330
2
100
AcDbEntity
  8
0
 62
     3
100
AcDbLine
 10
91.13805292920003
 20
165.1523050167
 30
0.0
 11
86.23804428650005
 21
173.6393515495
 31
0.0
  0
LINE
  5
14B
330
2
100
AcDbEntity
  8
0
 62
     3
100
AcDbLine
 10
100.9380478729
 20
165.1523050167
 30
0.0
 11
105.8380565156
 21
173.6393515495
 31
0.0
  0
CIRCLE
  5
14C
330
2
100
AcDbEntity
  8
0
 62
     3
100
AcDbCircle
 10
96.03805040110001
 20
173.6393024779999
 30
0.0
 40
8.249992370599999
  0
CIRCLE
  5
14D
330
2
100
AcDbEntity
  8
0
 62
     3
100
AcDbCircle
 10
96.03805040110001
 20
173.6393024779999
 30
0.0
 40
10.5
  0
LINE
  5
14E
330
2
100
AcDbEntity
  8
0
 62
     3
100
AcDbLine
 10
91.13804887520002
 20
165.1522724487
 30
0.0
 11
100.9380519268999
 21
165.1522724487
 31
0.0
  0
ARC
  5
14F
330
2
100
AcDbEntity
  8
0
 62
     3
100
AcDbCircle
 10
96.03805040110001
 20
173.6393024779999
 30
0.0
 40
11.0
100
AcDbArc
 50
227.8764363834
 51
312.1235636165998
  0
LINE
  5
150
330
2
100
AcDbEntity
  8
0
 62
     3
100
AcDbLine
 10
96.03808091860004
 20
151.6392719604
 30
0.0
 11
96.03808091860004
 21
162.6393940307
 31
0.0
  0
LINE
  5
151
330
2
100
AcDbEntity
  8
0
 62
     3
100
AcDbLine
 10
111.5380442975
 20
151.6393940307
 30
0.0
 11
109.5380442975
 21
151.6393940307
 31
0.0
  0
LINE
  5
152
330
2
100
AcDbEntity
  8
0
 62
     3
100
AcDbLine
 10
112.5380504011
 20
151.6393940307
 30
0.0
 11
114.5380198835
 21
151.6393940307
 31
0.0
  0
LINE
  5
153
330
2
100
AcDbEntity
  8
0
 62
     3
100
AcDbLine
 10
113.0381053327
 20
161.6394855833999
 30
0.0
 11
113.0381053327
 21
155.6447651244
 31
0.0
  0
LINE
  5
154
330
2
100
AcDbEntity
  8
0
 62
     3
100
AcDbLine
 10
113.0380198834999
 20
161.6395161009999
 30
0.0
 11
113.0380198834999
 21
155.644795642
 31
0.0
  0
LINE
  5
155
330
2
100
AcDbEntity
  8
0
 62
     3
100
AcDbLine
 10
113.0380198834999
 20
155.644795642
 30
0.0
 11
114.5380198835
 21
155.644795642
 31
0.0
  0
LINE
  5
156
330
2
100
AcDbEntity
  8
0
 62
     3
100
AcDbLine
 10
113.0380198834999
 20
159.6395466186
 30
0.0
 11
114.5380198835
 21
159.6395466186
 31
0.0
  0
LINE
  5
157
330
2
100
AcDbEntity
  8
0
 62
     3
100
AcDbLine
 10
112.5380504011
 20
166.6394855833999
 30
0.0
 11
114.5380198835
 21
166.6394855833999
 31
0.0
  0
LINE
  5
158
330
2
100
AcDbEntity
  8
0
 62
     3
100
AcDbLine
 10
113.0380198834999
 20
161.6395161009999
 30
0.0
 11
114.5380198835
 21
161.6395161009999
 31
0.0
  0
LINE
  5
159
330
2
100
AcDbEntity
  8
0
 62
     3
100
AcDbLine
 10
100.9380519268999
 20
182.1263553954
 30
0.0
 11
91.13804887520002
 21
182.1263553954
 31
0.0
  0
LINE
  5
15A
330
2
100
AcDbEntity
  8
0
 62
     3
100
AcDbLine
 10
104.0380504011
 20
174.4893009521
 30
0.0
 11
99.05404924140007
 21
174.4893009521
 31
0.0
  0
LINE
  5
15B
330
2
100
AcDbEntity
  8
0
 62
     3
100
AcDbLine
 10
104.0380504011
 20
172.7893040037998
 30
0.0
 11
99.05404924140007
 21
172.7893040037998
 31
0.0
  0
LINE
  5
15C
330
2
100
AcDbEntity
  8
0
 62
     3
100
AcDbLine
 10
86.2380943059
 20
173.6393977763999
 30
0.0
 11
91.13806737660002
 21
182.1264041416
 31
0.0
  0
LINE
  5
15D
330
2
100
AcDbEntity
  8
0
 62
     3
100
AcDbLine
 10
88.03805040110001
 20
172.7893040037998
 30
0.0
 11
93.02205156070005
 21
172.7893040037998
 31
0.0
  0
LINE
  5
15E
330
2
100
AcDbEntity
  8
0
 62
     3
100
AcDbLine
 10
88.03805040110001
 20
174.4893009521
 30
0.0
 11
93.02205156070005
 21
174.4893009521
 31
0.0
  0
LINE
  5
15F
330
2
100
AcDbEntity
  8
0
 62
     3
100
AcDbLine
 10
88.03805040110001
 20
174.4893009521
 30
0.0
 11
88.03805040110001
 21
172.7893040037998
 31
0.0
  0
LINE
  5
160
330
2
100
AcDbEntity
  8
0
 62
     3
100
AcDbLine
 10
91.88805650460009
 20
172.7893040037998
 30
0.0
 11
91.88805650460009
 21
174.4893009521
 31
0.0
  0
ARC
  5
161
330
2
100
AcDbEntity
  8
0
 62
     3
100
AcDbCircle
 10
93.02205156070005
 20
170.7893040037999
 30
0.0
 40
2.0
100
AcDbArc
 50
0.0
 51
89.99998201389999
  0
ARC
  5
162
330
2
100
AcDbEntity
  8
0
 62
     3
100
AcDbCircle
 10
99.05404924140007
 20
170.7893040037999
 30
0.0
 40
2.0
100
AcDbArc
 50
90.0000179861
 51
180.0
  0
LINE
  5
163
330
2
100
AcDbEntity
  8
0
 62
     3
100
AcDbLine
 10
97.05405687080002
 20
169.4893085814999
 30
0.0
 11
95.02204393130005
 21
169.4893085814999
 31
0.0
  0
LINE
  5
164
330
2
100
AcDbEntity
  8
0
 62
     3
100
AcDbLine
 10
95.02205156070004
 20
169.4893085814999
 30
0.0
 11
95.02205156070004
 21
170.7893040037999
 31
0.0
  0
LINE
  5
165
330
2
100
AcDbEntity
  8
0
 62
     3
100
AcDbLine
 10
97.05404924140005
 20
169.4893085814999
 30
0.0
 11
97.05404924140005
 21
170.7893040037999
 31
0.0
  0
LINE
  5
166
330
2
100
AcDbEntity
  8
0
 62
     3
100
AcDbLine
 10
97.05405687080002
 20
177.7893040038
 30
0.0
 11
95.02204393130005
 21
177.7893040038
 31
0.0
  0
LINE
  5
167
330
2
100
AcDbEntity
  8
0
 62
     3
100
AcDbLine
 10
95.02205156070004
 20
176.4893009520999
 30
0.0
 11
95.02205156070004
 21
177.7893040038
 31
0.0
  0
ARC
  5
168
330
2
100
AcDbEntity
  8
0
 62
     3
100
AcDbCircle
 10
93.02205156070005
 20
176.4893009520999
 30
0.0
 40
2.0
100
AcDbArc
 50
270.0000179861
 51
0.0
  0
LINE
  5
169
330
2
100
AcDbEntity
  8
0
 62
     3
100
AcDbLine
 10
97.05404924140005
 20
176.4893009520999
 30
0.0
 11
97.05404924140005
 21
177.7893040038
 31
0.0
  0
ARC
  5
16A
330
2
100
AcDbEntity
  8
0
 62
     3
100
AcDbCircle
 10
99.05404924140007
 20
176.4893009520999
 30
0.0
 40
2.0
100
AcDbArc
 50
180.0
 51
269.9999820138998
  0
LINE
  5
16B
330
2
100
AcDbEntity
  8
0
 62
     3
100
AcDbLine
 10
105.8380064962
 20
173.6393977763999
 30
0.0
 11
100.9380334255999
 21
182.1264041416
 31
0.0
  0
LINE
  5
16C
330
2
100
AcDbEntity
  8
0
 62
     3
100
AcDbLine
 10
104.0380504011
 20
174.4893009521
 30
0.0
 11
104.0380504011
 21
172.7893040037998
 31
0.0
  0
LINE
  5
16D
330
2
100
AcDbEntity
  8
0
 62
     3
100
AcDbLine
 10
100.1880442975
 20
172.7893040037998
 30
0.0
 11
100.1880442975
 21
174.4893009521
 31
0.0
  0
LINE
  5
16E
330
2
100
AcDbEntity
  8
0
 62
     3
100
AcDbLine
 10
114.5380198835
 20
170.1394855833999
 30
0.0
 11
113.5380198835
 21
170.1394855833999
 31
0.0
  0
LINE
  5
16F
330
2
100
AcDbEntity
  8
0
 62
     3
100
AcDbLine
 10
114.5380198835
 20
176.6395161009999
 30
0.0
 11
113.5380198835
 21
176.6395161009999
 31
0.0
  0
LINE
  5
170
330
2
100
AcDbEntity
  8
0
 62
     3
100
AcDbLine
 10
113.5381053327
 20
189.6394855834
 30
0.0
 11
112.5380748151
 21
189.6394855834
 31
0.0
  0
LINE
  5
171
330
2
100
AcDbEntity
  8
0
 62
     3
100
AcDbLine
 10
113.5380198835
 20
189.6394550659
 30
0.0
 11
112.5380504011
 21
189.6394550659
 31
0.0
  0
LINE
  5
172
330
2
100
AcDbEntity
  8
0
 62
     3
100
AcDbLine
 10
112.5380504011
 20
188.6394550659
 30
0.0
 11
113.5381053327
 21
188.6394550659
 31
0.0
  0
LINE
  5
173
330
2
100
AcDbEntity
  8
0
 62
     3
100
AcDbLine
 10
88.65999855330006
 20
227.7979922266998
 30
0.0
 11
79.53800454750002
 21
219.5488160497
 31
0.0
  0
ARC
  5
174
330
2
100
AcDbEntity
  8
0
 62
     3
100
AcDbCircle
 10
84.53798936590004
 20
206.6394245482999
 30
0.0
 40
5.0
100
AcDbArc
 50
216.8715050037
 51
270.0000179861
  0
LINE
  5
175
330
2
100
AcDbEntity
  8
0
 62
     3
100
AcDbLine
 10
81.03801988350005
 20
231.6393940306999
 30
0.0
 11
111.0381114362
 21
231.6393940306999
 31
0.0
  0
LINE
  5
176
330
2
100
AcDbEntity
  8
0
 62
     3
100
AcDbLine
 10
81.03801988350005
 20
230.6393940307
 30
0.0
 11
111.0381114362
 21
230.6393940307
 31
0.0
  0
LINE
  5
177
330
2
100
AcDbEntity
  8
0
 62
     3
100
AcDbLine
 10
80.53807101900003
 20
201.6394245483
 30
0.0
 11
112.5379832624
 21
201.6394245483
 31
0.0
  0
LINE
  5
178
330
2
100
AcDbEntity
  8
0
 62
     3
100
AcDbLine
 10
80.53807101900003
 20
191.6393024779999
 30
0.0
 11
112.5379832624
 21
191.6393024779999
 31
0.0
  0
CIRCLE
  5
179
330
2
100
AcDbEntity
  8
0
 62
     3
100
AcDbCircle
 10
64.53804429750005
 20
211.6394550658999
 30
0.0
 40
4.0
  0
LINE
  5
17A
330
2
100
AcDbEntity
  8
0
  6
CENTER
 62
     3
100
AcDbLine
 10
64.53804429750005
 20
206.8394550659
 30
0.0
 11
64.53804429750005
 21
216.4394550659
 31
0.0
  0
LINE
  5
17B
330
2
100
AcDbEntity
  8
0
 62
     3
100
AcDbLine
 10
77.53810533270002
 20
203.6393635131
 30
0.0
 11
77.53810533270002
 21
231.6393024779999
 31
0.0
  0
LINE
  5
17C
330
2
100
AcDbEntity
  8
0
  6
CENTER
 62
     3
100
AcDbLine
 10
59.73804429750011
 20
211.6394550658999
 30
0.0
 11
69.33804429750006
 21
211.6394550658999
 31
0.0
  0
CIRCLE
  5
17D
330
2
100
AcDbEntity
  8
0
 62
     3
100
AcDbCircle
 10
64.53804429750005
 20
196.6394550659
 30
0.0
 40
4.0
  0
LINE
  5
17E
330
2
100
AcDbEntity
  8
0
  6
CENTER
 62
     3
100
AcDbLine
 10
64.53804429750005
 20
191.8394550659
 30
0.0
 11
64.53804429750005
 21
201.4394550658999
 31
0.0
  0
LINE
  5
17F
330
2
100
AcDbEntity
  8
0
 62
     3
100
AcDbLine
 10
80.53807001500002
 20
200.8393351341998
 30
0.0
 11
80.53807478340003
 21
204.6393534447
 31
0.0
  0
LINE
  5
180
330
2
100
AcDbEntity
  8
0
 62
     3
100
AcDbLine
 10
77.53810533270002
 20
200.8393757202
 30
0.0
 11
77.53810533270002
 21
192.4393513061
 31
0.0
  0
LINE
  5
181
330
2
100
AcDbEntity
  8
0
 62
     3
100
AcDbLine
 10
77.5383494733
 20
192.4391682006
 30
0.0
 11
80.53825792060001
 21
192.4391682006
 31
0.0
  0
LINE
  5
182
330
2
100
AcDbEntity
  8
0
 62
     3
100
AcDbLine
 10
77.5383494733
 20
200.8395588256
 30
0.0
 11
80.53825792060001
 21
200.8395588256
 31
0.0
  0
LINE
  5
183
330
2
100
AcDbEntity
  8
0
 62
     3
100
AcDbLine
 10
77.53810533270002
 20
204.6393635131
 30
0.0
 11
80.53801378000001
 21
204.6393635131
 31
0.0
  0
LINE
  5
184
330
2
100
AcDbEntity
  8
0
 62
     3
100
AcDbLine
 10
77.53825792060002
 20
203.6394855833999
 30
0.0
 11
80.53816636790003
 21
203.6394855833999
 31
0.0
  0
ARC
  5
185
330
2
100
AcDbEntity
  8
0
 62
     3
100
AcDbCircle
 10
84.53798936590004
 20
206.6394245482999
 30
0.0
 40
5.0
100
AcDbArc
 50
180.2478898767999
 51
203.5789416008
  0
LINE
  5
186
330
2
100
AcDbEntity
  8
0
 62
     3
100
AcDbLine
 10
78.53808091860003
 20
203.6392719604
 30
0.0
 11
79.53805040110002
 21
203.6392719604
 31
0.0
  0
LINE
  5
187
330
2
100
AcDbEntity
  8
0
 62
     3
100
AcDbLine
 10
79.53805040110002
 20
204.6392719603999
 30
0.0
 11
78.53808091860003
 21
204.6392719603999
 31
0.0
  0
LINE
  5
188
330
2
100
AcDbEntity
  8
0
 62
     3
100
AcDbLine
 10
59.53804429750005
 20
219.6394550658999
 30
0.0
 11
73.53804429750005
 21
219.6394550658999
 31
0.0
  0
ARC
  5
189
330
2
100
AcDbEntity
  8
0
 62
     3
100
AcDbCircle
 10
59.53804429750005
 20
216.6394550659
 30
0.0
 40
3.0
100
AcDbArc
 50
89.99998201389999
 51
179.9999640277999
  0
ARC
  5
18A
330
2
100
AcDbEntity
  8
0
 62
     3
100
AcDbCircle
 10
72.43806871160002
 20
224.6394245483
 30
0.0
 40
1.5
100
AcDbArc
 50
180.0000359722
 51
270.0000179861
  0
LINE
  5
18B
330
2
100
AcDbEntity
  8
0
 62
     3
100
AcDbLine
 10
75.5380748151
 20
223.1392719603999
 30
0.0
 11
77.53810533270002
 21
223.1392719603999
 31
0.0
  0
LINE
  5
18C
330
2
100
AcDbEntity
  8
0
 62
     3
100
AcDbLine
 10
75.5380748151
 20
216.6392414428
 30
0.0
 11
77.53810533270002
 21
216.6392414428
 31
0.0
  0
LINE
  5
18D
330
2
100
AcDbEntity
  8
0
 62
     3
100
AcDbLine
 10
73.5380748151
 20
223.1393329954999
 30
0.0
 11
72.43809922920006
 21
223.1393329954999
 31
0.0
  0
LINE
  5
18E
330
2
100
AcDbEntity
  8
0
 62
     3
100
AcDbLine
 10
77.53810533270002
 20
226.6392719604
 30
0.0
 11
75.5380748151
 21
226.6392719604
 31
0.0
  0
ARC
  5
18F
330
2
100
AcDbEntity
  8
0
 62
     3
100
AcDbCircle
 10
72.43806871160002
 20
228.6394245483
 30
0.0
 40
1.5
100
AcDbArc
 50
89.99998201389999
 51
180.0000186692997
  0
LINE
  5
190
330
2
100
AcDbEntity
  8
0
 62
     3
100
AcDbLine
 10
71.61357992500007
 20
227.8093177205
 30
0.0
 11
70.93808851149998
 21
226.6393324327
 31
0.0
  0
LINE
  5
191
330
2
100
AcDbEntity
  8
0
 62
     3
100
AcDbLine
 10
71.57693516170008
 20
225.5327622140999
 30
0.0
 11
70.93808025740003
 21
226.6392915552
 31
0.0
  0
LINE
  5
192
330
2
100
AcDbEntity
  8
0
 62
     3
100
AcDbLine
 10
70.93806871160002
 20
228.6393329955
 30
0.0
 11
70.93806871160002
 21
224.6393329955
 31
0.0
  0
LINE
  5
193
330
2
100
AcDbEntity
  8
0
 62
     3
100
AcDbLine
 10
73.5380748151
 20
230.1393329954999
 30
0.0
 11
72.43809922920006
 21
230.1393329954999
 31
0.0
  0
LINE
  5
194
330
2
100
AcDbEntity
  8
0
 62
     3
100
AcDbLine
 10
75.53804429750005
 20
234.6394550658999
 30
0.0
 11
73.53804429750005
 21
234.6394550658999
 31
0.0
  0
LINE
  5
195
330
2
100
AcDbEntity
  8
0
 62
     3
100
AcDbLine
 10
79.53805040110002
 20
226.6392414428
 30
0.0
 11
77.53808091860008
 21
226.6392414428
 31
0.0
  0
LINE
  5
196
330
2
100
AcDbEntity
  8
0
 62
     3
100
AcDbLine
 10
77.53816795750009
 20
231.6392784905
 30
0.0
 11
79.53810692230002
 21
231.6392937494
 31
0.0
  0
LINE
  5
197
330
2
100
AcDbEntity
  8
0
 62
     3
100
AcDbLine
 10
113.5380198835
 20
203.6392719604
 30
0.0
 11
113.5380198835
 21
231.6392414427999
 31
0.0
  0
LINE
  5
198
330
2
100
AcDbEntity
  8
0
 62
     3
100
AcDbLine
 10
113.5381053327
 20
203.6392414428
 30
0.0
 11
113.5381053327
 21
231.6392414427999
 31
0.0
  0
LINE
  5
199
330
2
100
AcDbEntity
  8
0
 62
     3
100
AcDbLine
 10
86.2380943059
 20
219.6393292498
 30
0.0
 11
91.13806737660002
 21
211.1523228847
 31
0.0
  0
CIRCLE
  5
19A
330
2
100
AcDbEntity
  8
0
 62
     3
100
AcDbCircle
 10
96.03805040110001
 20
219.6394245483
 30
0.0
 40
10.5
  0
CIRCLE
  5
19B
330
2
100
AcDbEntity
  8
0
 62
     3
100
AcDbCircle
 10
96.03805040110001
 20
219.6394245483
 30
0.0
 40
8.249992370599999
  0
LINE
  5
19C
330
2
100
AcDbEntity
  8
0
 62
     3
100
AcDbLine
 10
105.8380064962
 20
219.6393292498
 30
0.0
 11
100.9380334255999
 21
211.1523228847
 31
0.0
  0
LINE
  5
19D
330
2
100
AcDbEntity
  8
0
 62
     3
100
AcDbLine
 10
100.9380519268999
 20
211.1523716308
 30
0.0
 11
91.13804887520002
 21
211.1523716308
 31
0.0
  0
ARC
  5
19E
330
2
100
AcDbEntity
  8
0
 62
     3
100
AcDbCircle
 10
107.5381114362
 20
206.6394245482999
 30
0.0
 40
5.0
100
AcDbArc
 50
269.9999820138998
 51
359.7521101232
  0
LINE
  5
19F
330
2
100
AcDbEntity
  8
0
 62
     3
100
AcDbLine
 10
113.5380198835
 20
203.6392719604
 30
0.0
 11
112.5380504011
 21
203.6392719604
 31
0.0
  0
LINE
  5
1A0
330
2
100
AcDbEntity
  8
0
 62
     3
100
AcDbLine
 10
113.5381053327
 20
203.6392414428
 30
0.0
 11
112.5380748151
 21
203.6392414428
 31
0.0
  0
LINE
  5
1A1
330
2
100
AcDbEntity
  8
0
 62
     3
100
AcDbLine
 10
113.5381053327
 20
204.6392719603999
 30
0.0
 11
112.5380504011
 21
204.6392719603999
 31
0.0
  0
LINE
  5
1A2
330
2
100
AcDbEntity
  8
0
 62
     3
100
AcDbLine
 10
91.13804887520002
 20
228.1264545776
 30
0.0
 11
100.9380519268999
 21
228.1264545776
 31
0.0
  0
LINE
  5
1A3
330
2
100
AcDbEntity
  8
0
 62
     3
100
AcDbLine
 10
104.0380504011
 20
220.4894230224
 30
0.0
 11
99.05404924140007
 21
220.4894230224
 31
0.0
  0
LINE
  5
1A4
330
2
100
AcDbEntity
  8
0
 62
     3
100
AcDbLine
 10
104.0380504011
 20
218.7894260741999
 30
0.0
 11
99.05404924140007
 21
218.7894260741999
 31
0.0
  0
ARC
  5
1A5
330
2
100
AcDbEntity
  8
0
 62
     3
100
AcDbCircle
 10
96.03805040110001
 20
219.6394245483
 30
0.0
 40
11.0
100
AcDbArc
 50
47.87643638339999
 51
132.1235636166
  0
LINE
  5
1A6
330
2
100
AcDbEntity
  8
0
 62
     3
100
AcDbLine
 10
91.13805292920003
 20
228.1264220095998
 30
0.0
 11
86.23804428650005
 21
219.6393754766999
 31
0.0
  0
LINE
  5
1A7
330
2
100
AcDbEntity
  8
0
 62
     3
100
AcDbLine
 10
88.03805040110001
 20
218.7894260741999
 30
0.0
 11
93.02205156070005
 21
218.7894260741999
 31
0.0
  0
LINE
  5
1A8
330
2
100
AcDbEntity
  8
0
 62
     3
100
AcDbLine
 10
88.03805040110001
 20
220.4894230224
 30
0.0
 11
93.02205156070005
 21
220.4894230224
 31
0.0
  0
LINE
  5
1A9
330
2
100
AcDbEntity
  8
0
 62
     3
100
AcDbLine
 10
88.03805040110001
 20
218.7894260741999
 30
0.0
 11
88.03805040110001
 21
220.4894230224
 31
0.0
  0
LINE
  5
1AA
330
2
100
AcDbEntity
  8
0
 62
     3
100
AcDbLine
 10
91.88805650460009
 20
220.4894230224
 30
0.0
 11
91.88805650460009
 21
218.7894260741999
 31
0.0
  0
ARC
  5
1AB
330
2
100
AcDbEntity
  8
0
 62
     3
100
AcDbCircle
 10
99.05404924140007
 20
216.7894260741999
 30
0.0
 40
2.0
100
AcDbArc
 50
90.0000179861
 51
180.0
  0
ARC
  5
1AC
330
2
100
AcDbEntity
  8
0
 62
     3
100
AcDbCircle
 10
93.02205156070005
 20
216.7894260741999
 30
0.0
 40
2.0
100
AcDbArc
 50
0.0
 51
89.99998201389999
  0
LINE
  5
1AD
330
2
100
AcDbEntity
  8
0
 62
     3
100
AcDbLine
 10
97.05405687080002
 20
215.4894230224
 30
0.0
 11
95.02204393130005
 21
215.4894230224
 31
0.0
  0
LINE
  5
1AE
330
2
100
AcDbEntity
  8
0
 62
     3
100
AcDbLine
 10
95.02205156070004
 20
216.7894260741999
 30
0.0
 11
95.02205156070004
 21
215.4894230224
 31
0.0
  0
LINE
  5
1AF
330
2
100
AcDbEntity
  8
0
 62
     3
100
AcDbLine
 10
97.05404924140005
 20
216.7894260741999
 30
0.0
 11
97.05404924140005
 21
215.4894230224
 31
0.0
  0
LINE
  5
1B0
330
2
100
AcDbEntity
  8
0
 62
     3
100
AcDbLine
 10
97.05405687080002
 20
223.7894184447998
 30
0.0
 11
95.02204393130005
 21
223.7894184447998
 31
0.0
  0
LINE
  5
1B1
330
2
100
AcDbEntity
  8
0
 62
     3
100
AcDbLine
 10
95.02205156070004
 20
223.7894184447998
 30
0.0
 11
95.02205156070004
 21
222.4894230224
 31
0.0
  0
ARC
  5
1B2
330
2
100
AcDbEntity
  8
0
 62
     3
100
AcDbCircle
 10
93.02205156070005
 20
222.4894230224
 30
0.0
 40
2.0
100
AcDbArc
 50
270.0000179861
 51
0.0
  0
LINE
  5
1B3
330
2
100
AcDbEntity
  8
0
 62
     3
100
AcDbLine
 10
97.05404924140005
 20
223.7894184447998
 30
0.0
 11
97.05404924140005
 21
222.4894230224
 31
0.0
  0
ARC
  5
1B4
330
2
100
AcDbEntity
  8
0
 62
     3
100
AcDbCircle
 10
99.05404924140007
 20
222.4894230224
 30
0.0
 40
2.0
100
AcDbArc
 50
180.0
 51
269.9999820138998
  0
LINE
  5
1B5
330
2
100
AcDbEntity
  8
0
 62
     3
100
AcDbLine
 10
103.4161022487999
 20
227.7979922266998
 30
0.0
 11
112.5380962545999
 21
219.5488160497
 31
0.0
  0
LINE
  5
1B6
330
2
100
AcDbEntity
  8
0
 62
     3
100
AcDbLine
 10
100.9380478729
 20
228.1264220095998
 30
0.0
 11
105.8380565156
 21
219.6393754766999
 31
0.0
  0
LINE
  5
1B7
330
2
100
AcDbEntity
  8
0
 62
     3
100
AcDbLine
 10
104.0380504011
 20
218.7894260741999
 30
0.0
 11
104.0380504011
 21
220.4894230224
 31
0.0
  0
LINE
  5
1B8
330
2
100
AcDbEntity
  8
0
 62
     3
100
AcDbLine
 10
100.1880442975
 20
220.4894230224
 30
0.0
 11
100.1880442975
 21
218.7894260741999
 31
0.0
  0
LINE
  5
1B9
330
2
100
AcDbEntity
  8
0
 62
     3
100
AcDbLine
 10
114.5380198835
 20
216.6392109252
 30
0.0
 11
113.5380198835
 21
216.6392109252
 31
0.0
  0
LINE
  5
1BA
330
2
100
AcDbEntity
  8
0
 62
     3
100
AcDbLine
 10
114.5380198835
 20
223.1392414427999
 30
0.0
 11
113.5380198835
 21
223.1392414427999
 31
0.0
  0
LINE
  5
1BB
330
2
100
AcDbEntity
  8
0
 62
     3
100
AcDbLine
 10
112.5380504011
 20
226.6392414428
 30
0.0
 11
114.5380198835
 21
226.6392414428
 31
0.0
  0
LINE
  5
1BC
330
2
100
AcDbEntity
  8
0
 62
     3
100
AcDbLine
 10
113.0380198834999
 20
233.6391804076999
 30
0.0
 11
114.5380198835
 21
233.6391804076999
 31
0.0
  0
LINE
  5
1BD
330
2
100
AcDbEntity
  8
0
 62
     3
100
AcDbLine
 10
113.0380198834999
 20
231.6392109252
 30
0.0
 11
114.5380198835
 21
231.6392109252
 31
0.0
  0
ARC
  5
1BE
330
2
100
AcDbEntity
  8
0
 62
     3
100
AcDbCircle
 10
158.5379893658999
 20
186.6393024779999
 30
0.0
 40
5.0
100
AcDbArc
 50
89.99998201389999
 51
179.7521101232
  0
ARC
  5
1BF
330
2
100
AcDbEntity
  8
0
 62
     3
100
AcDbCircle
 10
144.5381114362
 20
186.6393024779999
 30
0.0
 40
5.0
100
AcDbArc
 50
0.2478898768
 51
90.0000179861
  0
ARC
  5
1C0
330
2
100
AcDbEntity
  8
0
 62
     3
100
AcDbCircle
 10
121.5379893659
 20
186.6393024779999
 30
0.0
 40
5.0
100
AcDbArc
 50
89.99998201389999
 51
179.7521101232
  0
LINE
  5
1C1
330
2
100
AcDbEntity
  8
0
 62
     3
100
AcDbLine
 10
153.5380259869999
 20
151.6392414428
 30
0.0
 11
153.5380259869999
 21
192.4392902708999
 31
0.0
  0
LINE
  5
1C2
330
2
100
AcDbEntity
  8
0
 62
     3
100
AcDbLine
 10
149.5380504011
 20
192.4393207885
 30
0.0
 11
149.5380504011
 21
151.6392719604
 31
0.0
  0
LINE
  5
1C3
330
2
100
AcDbEntity
  8
0
 62
     3
100
AcDbLine
 10
116.5380504011
 20
192.4393207885
 30
0.0
 11
116.5380504011
 21
151.6392719604
 31
0.0
  0
LINE
  5
1C4
330
2
100
AcDbEntity
  8
0
 62
     3
100
AcDbLine
 10
149.5380748150999
 20
151.6392414428
 30
0.0
 11
149.5380748150999
 21
192.4392902708999
 31
0.0
  0
LINE
  5
1C5
330
2
100
AcDbEntity
  8
0
 62
     3
100
AcDbLine
 10
153.5380504011
 20
192.4393207885
 30
0.0
 11
153.5380504011
 21
151.6392719604
 31
0.0
  0
LINE
  5
1C6
330
2
100
AcDbEntity
  8
0
 62
     3
100
AcDbLine
 10
116.538025987
 20
151.6392414428
 30
0.0
 11
116.538025987
 21
192.4392902708999
 31
0.0
  0
LINE
  5
1C7
330
2
100
AcDbEntity
  8
0
 62
     3
100
AcDbLine
 10
140.4161022488
 20
165.4807347995999
 30
0.0
 11
149.5380962545999
 21
173.7299109765999
 31
0.0
  0
LINE
  5
1C8
330
2
100
AcDbEntity
  8
0
 62
     3
100
AcDbLine
 10
118.0380198835
 20
161.6393329954999
 30
0.0
 11
148.0381114362
 21
161.6393329954999
 31
0.0
  0
LINE
  5
1C9
330
2
100
AcDbEntity
  8
0
 62
     3
100
AcDbLine
 10
118.0380198835
 20
162.6393329954999
 30
0.0
 11
148.0381114362
 21
162.6393329954999
 31
0.0
  0
LINE
  5
1CA
330
2
100
AcDbEntity
  8
0
 62
     3
100
AcDbLine
 10
137.9380478729
 20
165.1523050167
 30
0.0
 11
142.8380565155999
 21
173.6393515495
 31
0.0
  0
LINE
  5
1CB
330
2
100
AcDbEntity
  8
0
 62
     3
100
AcDbLine
 10
128.1380529291999
 20
165.1523050167
 30
0.0
 11
123.2380442865
 21
173.6393515495
 31
0.0
  0
LINE
  5
1CC
330
2
100
AcDbEntity
  8
0
 62
     3
100
AcDbLine
 10
125.6599985533
 20
165.4807347995999
 30
0.0
 11
116.5380045475
 21
173.7299109765999
 31
0.0
  0
LINE
  5
1CD
330
2
100
AcDbEntity
  8
0
 62
     3
100
AcDbLine
 10
118.0380198835
 20
172.3394062377
 30
0.0
 11
118.0380198835
 21
151.6396381712999
 31
0.0
  0
CIRCLE
  5
1CE
330
2
100
AcDbEntity
  8
0
 62
     3
100
AcDbCircle
 10
133.0380504011
 20
173.6393024779999
 30
0.0
 40
8.249992370599999
  0
LINE
  5
1CF
330
2
100
AcDbEntity
  8
0
 62
     3
100
AcDbLine
 10
115.5380809186
 20
189.6394550659
 30
0.0
 11
115.5380809186
 21
161.6394855833999
 31
0.0
  0
LINE
  5
1D0
330
2
100
AcDbEntity
  8
0
 62
     3
100
AcDbLine
 10
116.5380198835
 20
151.6393635130999
 30
0.0
 11
116.5380198835
 21
186.6394550659
 31
0.0
  0
CIRCLE
  5
1D1
330
2
100
AcDbEntity
  8
0
 62
     3
100
AcDbCircle
 10
133.0380504011
 20
173.6393024779999
 30
0.0
 40
10.5
  0
LINE
  5
1D2
330
2
100
AcDbEntity
  8
0
 62
     3
100
AcDbLine
 10
115.5379954694
 20
189.6394855834
 30
0.0
 11
115.5379954694
 21
161.6394855833999
 31
0.0
  0
LINE
  5
1D3
330
2
100
AcDbEntity
  8
0
 62
     3
100
AcDbLine
 10
128.1380488752
 20
165.1522724487
 30
0.0
 11
137.9380519269
 21
165.1522724487
 31
0.0
  0
ARC
  5
1D4
330
2
100
AcDbEntity
  8
0
 62
     3
100
AcDbCircle
 10
133.0380504011
 20
173.6393024779999
 30
0.0
 40
11.0
100
AcDbArc
 50
227.8764363834
 51
312.1235636165998
  0
LINE
  5
1D5
330
2
100
AcDbEntity
  8
0
 62
     3
100
AcDbLine
 10
116.0380809185999
 20
161.6395161009999
 30
0.0
 11
116.0380809185999
 21
155.644795642
 31
0.0
  0
LINE
  5
1D6
330
2
100
AcDbEntity
  8
0
 62
     3
100
AcDbLine
 10
116.0379954694
 20
161.6394855833999
 30
0.0
 11
116.0379954694
 21
155.6447651244
 31
0.0
  0
LINE
  5
1D7
330
2
100
AcDbEntity
  8
0
 62
     3
100
AcDbLine
 10
133.0380809186
 20
151.6392719604
 30
0.0
 11
133.0380809186
 21
162.6393940307
 31
0.0
  0
ARC
  5
1D8
330
2
100
AcDbEntity
  8
0
 62
     3
100
AcDbCircle
 10
130.0220515606999
 20
176.4893009520999
 30
0.0
 40
2.0
100
AcDbArc
 50
270.0000179861
 51
0.0
  0
ARC
  5
1D9
330
2
100
AcDbEntity
  8
0
 62
     3
100
AcDbCircle
 10
130.0220515606999
 20
170.7893040037999
 30
0.0
 40
2.0
100
AcDbArc
 50
0.0
 51
89.99998201389999
  0
LINE
  5
1DA
330
2
100
AcDbEntity
  8
0
 62
     3
100
AcDbLine
 10
137.9380519269
 20
182.1263553954
 30
0.0
 11
128.1380488752
 21
182.1263553954
 31
0.0
  0
LINE
  5
1DB
330
2
100
AcDbEntity
  8
0
 62
     3
100
AcDbLine
 10
123.2380943059
 20
173.6393977763999
 30
0.0
 11
128.1380673765999
 21
182.1264041416
 31
0.0
  0
LINE
  5
1DC
330
2
100
AcDbEntity
  8
0
 62
     3
100
AcDbLine
 10
128.8880565046
 20
172.7893040037998
 30
0.0
 11
128.8880565046
 21
174.4893009521
 31
0.0
  0
LINE
  5
1DD
330
2
100
AcDbEntity
  8
0
 62
     3
100
AcDbLine
 10
125.0380504011
 20
174.4893009521
 30
0.0
 11
125.0380504011
 21
172.7893040037998
 31
0.0
  0
LINE
  5
1DE
330
2
100
AcDbEntity
  8
0
 62
     3
100
AcDbLine
 10
125.0380504011
 20
172.7893040037998
 30
0.0
 11
130.0220515606999
 21
172.7893040037998
 31
0.0
  0
LINE
  5
1DF
330
2
100
AcDbEntity
  8
0
 62
     3
100
AcDbLine
 10
125.0380504011
 20
174.4893009521
 30
0.0
 11
130.0220515606999
 21
174.4893009521
 31
0.0
  0
LINE
  5
1E0
330
2
100
AcDbEntity
  8
0
 62
     3
100
AcDbLine
 10
115.5380809186
 20
189.6394550659
 30
0.0
 11
116.5380504011
 21
189.6394550659
 31
0.0
  0
LINE
  5
1E1
330
2
100
AcDbEntity
  8
0
 62
     3
100
AcDbLine
 10
115.5379954694
 20
189.6394855834
 30
0.0
 11
116.538025987
 21
189.6394855834
 31
0.0
  0
LINE
  5
1E2
330
2
100
AcDbEntity
  8
0
 62
     3
100
AcDbLine
 10
115.5379954694
 20
188.6394550659
 30
0.0
 11
116.5380504011
 21
188.6394550659
 31
0.0
  0
LINE
  5
1E3
330
2
100
AcDbEntity
  8
0
 62
     3
100
AcDbLine
 10
142.8380064961999
 20
173.6393977763999
 30
0.0
 11
137.9380334256
 21
182.1264041416
 31
0.0
  0
LINE
  5
1E4
330
2
100
AcDbEntity
  8
0
 62
     3
100
AcDbLine
 10
141.0380504011
 20
172.7893040037998
 30
0.0
 11
136.0540492413998
 21
172.7893040037998
 31
0.0
  0
LINE
  5
1E5
330
2
100
AcDbEntity
  8
0
 62
     3
100
AcDbLine
 10
141.0380504011
 20
174.4893009521
 30
0.0
 11
136.0540492413998
 21
174.4893009521
 31
0.0
  0
LINE
  5
1E6
330
2
100
AcDbEntity
  8
0
 62
     3
100
AcDbLine
 10
137.1880442975
 20
172.7893040037998
 30
0.0
 11
137.1880442975
 21
174.4893009521
 31
0.0
  0
ARC
  5
1E7
330
2
100
AcDbEntity
  8
0
 62
     3
100
AcDbCircle
 10
136.0540492413998
 20
170.7893040037999
 30
0.0
 40
2.0
100
AcDbArc
 50
90.0000179861
 51
180.0
  0
LINE
  5
1E8
330
2
100
AcDbEntity
  8
0
 62
     3
100
AcDbLine
 10
134.0540492413998
 20
169.4893085814999
 30
0.0
 11
134.0540492413998
 21
170.7893040037999
 31
0.0
  0
LINE
  5
1E9
330
2
100
AcDbEntity
  8
0
 62
     3
100
AcDbLine
 10
132.0220515606999
 20
169.4893085814999
 30
0.0
 11
132.0220515606999
 21
170.7893040037999
 31
0.0
  0
LINE
  5
1EA
330
2
100
AcDbEntity
  8
0
 62
     3
100
AcDbLine
 10
134.0540568708
 20
169.4893085814999
 30
0.0
 11
132.0220439313
 21
169.4893085814999
 31
0.0
  0
ARC
  5
1EB
330
2
100
AcDbEntity
  8
0
 62
     3
100
AcDbCircle
 10
136.0540492413998
 20
176.4893009520999
 30
0.0
 40
2.0
100
AcDbArc
 50
180.0
 51
269.9999820138998
  0
LINE
  5
1EC
330
2
100
AcDbEntity
  8
0
 62
     3
100
AcDbLine
 10
134.0540492413998
 20
176.4893009520999
 30
0.0
 11
134.0540492413998
 21
177.7893040038
 31
0.0
  0
LINE
  5
1ED
330
2
100
AcDbEntity
  8
0
 62
     3
100
AcDbLine
 10
132.0220515606999
 20
176.4893009520999
 30
0.0
 11
132.0220515606999
 21
177.7893040038
 31
0.0
  0
LINE
  5
1EE
330
2
100
AcDbEntity
  8
0
 62
     3
100
AcDbLine
 10
134.0540568708
 20
177.7893040038
 30
0.0
 11
132.0220439313
 21
177.7893040038
 31
0.0
  0
LINE
  5
1EF
330
2
100
AcDbEntity
  8
0
 62
     3
100
AcDbLine
 10
141.0380504011
 20
174.4893009521
 30
0.0
 11
141.0380504011
 21
172.7893040037998
 31
0.0
  0
LINE
  5
1F0
330
2
100
AcDbEntity
  8
0
 62
     3
100
AcDbLine
 10
162.6599985532999
 20
165.4807347995999
 30
0.0
 11
153.5380045475
 21
173.7299109765999
 31
0.0
  0
LINE
  5
1F1
330
2
100
AcDbEntity
  8
0
 62
     3
100
AcDbLine
 10
148.0380809186
 20
172.3394062377
 30
0.0
 11
148.0380809186
 21
151.6396381712999
 31
0.0
  0
LINE
  5
1F2
330
2
100
AcDbEntity
  8
0
 62
     3
100
AcDbLine
 10
155.0380198835
 20
172.3394062377
 30
0.0
 11
155.0380198835
 21
151.6396381712999
 31
0.0
  0
LINE
  5
1F3
330
2
100
AcDbEntity
  8
0
 62
     3
100
AcDbLine
 10
152.5379954694
 20
189.6394855834
 30
0.0
 11
152.5379954694
 21
161.6394855833999
 31
0.0
  0
LINE
  5
1F4
330
2
100
AcDbEntity
  8
0
 62
     3
100
AcDbLine
 10
150.5380198834999
 20
189.6394550659
 30
0.0
 11
150.5380198834999
 21
161.6394855833999
 31
0.0
  0
LINE
  5
1F5
330
2
100
AcDbEntity
  8
0
 62
     3
100
AcDbLine
 10
150.5381053327
 20
189.6394855834
 30
0.0
 11
150.5381053327
 21
161.6394855833999
 31
0.0
  0
LINE
  5
1F6
330
2
100
AcDbEntity
  8
0
 62
     3
100
AcDbLine
 10
153.5380198834999
 20
151.6393635130999
 30
0.0
 11
153.5380198834999
 21
186.6394550659
 31
0.0
  0
LINE
  5
1F7
330
2
100
AcDbEntity
  8
0
 62
     3
100
AcDbLine
 10
152.5380809186
 20
189.6394550659
 30
0.0
 11
152.5380809186
 21
161.6394855833999
 31
0.0
  0
LINE
  5
1F8
330
2
100
AcDbEntity
  8
0
 62
     3
100
AcDbLine
 10
165.1380529292
 20
165.1523050167
 30
0.0
 11
160.2380442864999
 21
173.6393515495
 31
0.0
  0
LINE
  5
1F9
330
2
100
AcDbEntity
  8
0
 62
     3
100
AcDbLine
 10
149.5380504011
 20
151.6393940307
 30
0.0
 11
151.5380198834999
 21
151.6393940307
 31
0.0
  0
LINE
  5
1FA
330
2
100
AcDbEntity
  8
0
 62
     3
100
AcDbLine
 10
148.5380442974999
 20
151.6393940307
 30
0.0
 11
146.5380442974999
 21
151.6393940307
 31
0.0
  0
LINE
  5
1FB
330
2
100
AcDbEntity
  8
0
 62
     3
100
AcDbLine
 10
153.5380504011
 20
151.6393940307
 30
0.0
 11
151.5380809186
 21
151.6393940307
 31
0.0
  0
LINE
  5
1FC
330
2
100
AcDbEntity
  8
0
 62
     3
100
AcDbLine
 10
153.0379954694
 20
161.6394855833999
 30
0.0
 11
153.0379954694
 21
155.6447651244
 31
0.0
  0
LINE
  5
1FD
330
2
100
AcDbEntity
  8
0
 62
     3
100
AcDbLine
 10
150.0380198835
 20
161.6395161009999
 30
0.0
 11
150.0380198835
 21
155.644795642
 31
0.0
  0
LINE
  5
1FE
330
2
100
AcDbEntity
  8
0
 62
     3
100
AcDbLine
 10
150.0381053327
 20
161.6394855833999
 30
0.0
 11
150.0381053327
 21
155.6447651244
 31
0.0
  0
LINE
  5
1FF
330
2
100
AcDbEntity
  8
0
 62
     3
100
AcDbLine
 10
153.0380809186
 20
161.6395161009999
 30
0.0
 11
153.0380809186
 21
155.644795642
 31
0.0
  0
LINE
  5
200
330
2
100
AcDbEntity
  8
0
 62
     3
100
AcDbLine
 10
150.0380198835
 20
155.644795642
 30
0.0
 11
151.5380198834999
 21
155.644795642
 31
0.0
  0
LINE
  5
201
330
2
100
AcDbEntity
  8
0
 62
     3
100
AcDbLine
 10
150.0380198835
 20
159.6395466186
 30
0.0
 11
151.5380198834999
 21
159.6395466186
 31
0.0
  0
LINE
  5
202
330
2
100
AcDbEntity
  8
0
 62
     3
100
AcDbLine
 10
153.0379954694
 20
155.6447651244
 30
0.0
 11
150.0381053327
 21
155.6447651244
 31
0.0
  0
LINE
  5
203
330
2
100
AcDbEntity
  8
0
 62
     3
100
AcDbLine
 10
153.0380809186
 20
155.644795642
 30
0.0
 11
151.5380809186
 21
155.644795642
 31
0.0
  0
LINE
  5
204
330
2
100
AcDbEntity
  8
0
 62
     3
100
AcDbLine
 10
153.0380809186
 20
159.639516101
 30
0.0
 11
150.0380198835
 21
159.639516101
 31
0.0
  0
LINE
  5
205
330
2
100
AcDbEntity
  8
0
 62
     3
100
AcDbLine
 10
153.0380809186
 20
159.6395466186
 30
0.0
 11
151.5380809186
 21
159.6395466186
 31
0.0
  0
LINE
  5
206
330
2
100
AcDbEntity
  8
0
 62
     3
100
AcDbLine
 10
149.5380504011
 20
166.6394855833999
 30
0.0
 11
151.5380198834999
 21
166.6394855833999
 31
0.0
  0
LINE
  5
207
330
2
100
AcDbEntity
  8
0
 62
     3
100
AcDbLine
 10
153.5380259869999
 20
166.6394550658999
 30
0.0
 11
149.5380748150999
 21
166.6394550658999
 31
0.0
  0
LINE
  5
208
330
2
100
AcDbEntity
  8
0
 62
     3
100
AcDbLine
 10
150.0380198835
 20
161.6395161009999
 30
0.0
 11
151.5380198834999
 21
161.6395161009999
 31
0.0
  0
LINE
  5
209
330
2
100
AcDbEntity
  8
0
 62
     3
100
AcDbLine
 10
153.0380809186
 20
161.6394855833999
 30
0.0
 11
150.0380198835
 21
161.6394855833999
 31
0.0
  0
LINE
  5
20A
330
2
100
AcDbEntity
  8
0
 62
     3
100
AcDbLine
 10
153.5380504011
 20
166.6394855833999
 30
0.0
 11
151.5380809186
 21
166.6394855833999
 31
0.0
  0
LINE
  5
20B
330
2
100
AcDbEntity
  8
0
 62
     3
100
AcDbLine
 10
153.0380809186
 20
161.6395161009999
 30
0.0
 11
151.5380809186
 21
161.6395161009999
 31
0.0
  0
LINE
  5
20C
330
2
100
AcDbEntity
  8
0
 62
     3
100
AcDbLine
 10
170.0380809185999
 20
151.6392719604
 30
0.0
 11
170.0380809185999
 21
162.6393940307
 31
0.0
  0
LINE
  5
20D
330
2
100
AcDbEntity
  8
0
 62
     3
100
AcDbLine
 10
165.1380488752
 20
165.1522724487
 30
0.0
 11
174.9380519268999
 21
165.1522724487
 31
0.0
  0
LINE
  5
20E
330
2
100
AcDbEntity
  8
0
 62
     3
100
AcDbLine
 10
160.2380943059
 20
173.6393977763999
 30
0.0
 11
165.1380673765999
 21
182.1264041416
 31
0.0
  0
LINE
  5
20F
330
2
100
AcDbEntity
  8
0
 62
     3
100
AcDbLine
 10
151.5380198834999
 20
170.1394855833999
 30
0.0
 11
150.5380198834999
 21
170.1394855833999
 31
0.0
  0
LINE
  5
210
330
2
100
AcDbEntity
  8
0
 62
     3
100
AcDbLine
 10
150.5381053327
 20
170.1394550658999
 30
0.0
 11
152.5379954694
 21
170.1394550658999
 31
0.0
  0
LINE
  5
211
330
2
100
AcDbEntity
  8
0
 62
     3
100
AcDbLine
 10
151.5380809186
 20
170.1394855833999
 30
0.0
 11
152.5380809186
 21
170.1394855833999
 31
0.0
  0
LINE
  5
212
330
2
100
AcDbEntity
  8
0
 62
     3
100
AcDbLine
 10
151.5380198834999
 20
176.6395161009999
 30
0.0
 11
150.5380198834999
 21
176.6395161009999
 31
0.0
  0
LINE
  5
213
330
2
100
AcDbEntity
  8
0
 62
     3
100
AcDbLine
 10
150.5381053327
 20
176.6394855833999
 30
0.0
 11
152.5379954694
 21
176.6394855833999
 31
0.0
  0
LINE
  5
214
330
2
100
AcDbEntity
  8
0
 62
     3
100
AcDbLine
 10
151.5380809186
 20
176.6395161009999
 30
0.0
 11
152.5380809186
 21
176.6395161009999
 31
0.0
  0
LINE
  5
215
330
2
100
AcDbEntity
  8
0
 62
     3
100
AcDbLine
 10
150.5380198834999
 20
189.6394550659
 30
0.0
 11
149.5380504011
 21
189.6394550659
 31
0.0
  0
LINE
  5
216
330
2
100
AcDbEntity
  8
0
 62
     3
100
AcDbLine
 10
150.5381053327
 20
189.6394855834
 30
0.0
 11
149.5380748150999
 21
189.6394855834
 31
0.0
  0
LINE
  5
217
330
2
100
AcDbEntity
  8
0
 62
     3
100
AcDbLine
 10
150.5381053327
 20
188.6394550659
 30
0.0
 11
149.5380504011
 21
188.6394550659
 31
0.0
  0
LINE
  5
218
330
2
100
AcDbEntity
  8
0
 62
     3
100
AcDbLine
 10
152.5379954694
 20
189.6394855834
 30
0.0
 11
153.5380259869999
 21
189.6394855834
 31
0.0
  0
LINE
  5
219
330
2
100
AcDbEntity
  8
0
 62
     3
100
AcDbLine
 10
152.5380809186
 20
189.6394550659
 30
0.0
 11
153.5380504011
 21
189.6394550659
 31
0.0
  0
LINE
  5
21A
330
2
100
AcDbEntity
  8
0
 62
     3
100
AcDbLine
 10
153.5380504011
 20
188.6394550659
 30
0.0
 11
152.5379954694
 21
188.6394550659
 31
0.0
  0
LINE
  5
21B
330
2
100
AcDbEntity
  8
0
 62
     3
100
AcDbLine
 10
171.0540568707999
 20
177.7893040038
 30
0.0
 11
169.0220439313
 21
177.7893040038
 31
0.0
  0
ARC
  5
21C
330
2
100
AcDbEntity
  8
0
 62
     3
100
AcDbCircle
 10
167.0220515607
 20
176.4893009520999
 30
0.0
 40
2.0
100
AcDbArc
 50
270.0000179861
 51
0.0
  0
LINE
  5
21D
330
2
100
AcDbEntity
  8
0
 62
     3
100
AcDbLine
 10
171.0540568707999
 20
169.4893085814999
 30
0.0
 11
169.0220439313
 21
169.4893085814999
 31
0.0
  0
ARC
  5
21E
330
2
100
AcDbEntity
  8
0
 62
     3
100
AcDbCircle
 10
167.0220515607
 20
170.7893040037999
 30
0.0
 40
2.0
100
AcDbArc
 50
0.0
 51
89.99998201389999
  0
LINE
  5
21F
330
2
100
AcDbEntity
  8
0
 62
     3
100
AcDbLine
 10
165.8880565046
 20
172.7893040037998
 30
0.0
 11
165.8880565046
 21
174.4893009521
 31
0.0
  0
LINE
  5
220
330
2
100
AcDbEntity
  8
0
 62
     3
100
AcDbLine
 10
162.0380504011
 20
174.4893009521
 30
0.0
 11
162.0380504011
 21
172.7893040037998
 31
0.0
  0
LINE
  5
221
330
2
100
AcDbEntity
  8
0
 62
     3
100
AcDbLine
 10
162.0380504011
 20
172.7893040037998
 30
0.0
 11
167.0220515607
 21
172.7893040037998
 31
0.0
  0
LINE
  5
222
330
2
100
AcDbEntity
  8
0
 62
     3
100
AcDbLine
 10
169.0220515606999
 20
169.4893085814999
 30
0.0
 11
169.0220515606999
 21
170.7893040037999
 31
0.0
  0
LINE
  5
223
330
2
100
AcDbEntity
  8
0
 62
     3
100
AcDbLine
 10
162.0380504011
 20
174.4893009521
 30
0.0
 11
167.0220515607
 21
174.4893009521
 31
0.0
  0
LINE
  5
224
330
2
100
AcDbEntity
  8
0
 62
     3
100
AcDbLine
 10
169.0220515606999
 20
176.4893009520999
 30
0.0
 11
169.0220515606999
 21
177.7893040038
 31
0.0
  0
LINE
  5
225
330
2
100
AcDbEntity
  8
0
 62
     3
100
AcDbLine
 10
174.1880442975
 20
172.7893040037998
 30
0.0
 11
174.1880442975
 21
174.4893009521
 31
0.0
  0
ARC
  5
226
330
2
100
AcDbEntity
  8
0
 62
     3
100
AcDbCircle
 10
173.0540492413999
 20
170.7893040037999
 30
0.0
 40
2.0
100
AcDbArc
 50
90.0000179861
 51
180.0
  0
LINE
  5
227
330
2
100
AcDbEntity
  8
0
 62
     3
100
AcDbLine
 10
171.0540492413999
 20
169.4893085814999
 30
0.0
 11
171.0540492413999
 21
170.7893040037999
 31
0.0
  0
LINE
  5
228
330
2
100
AcDbEntity
  8
0
 62
     3
100
AcDbLine
 10
171.0540492413999
 20
176.4893009520999
 30
0.0
 11
171.0540492413999
 21
177.7893040038
 31
0.0
  0
ARC
  5
229
330
2
100
AcDbEntity
  8
0
 62
     3
100
AcDbCircle
 10
173.0540492413999
 20
176.4893009520999
 30
0.0
 40
2.0
100
AcDbArc
 50
180.0
 51
269.9999820138998
  0
LINE
  5
22A
330
2
100
AcDbEntity
  8
0
 62
     3
100
AcDbLine
 10
174.9380519268999
 20
182.1263553954
 30
0.0
 11
165.1380488752
 21
182.1263553954
 31
0.0
  0
LINE
  5
22B
330
2
100
AcDbEntity
  8
0
 62
     3
100
AcDbLine
 10
118.0380198835
 20
230.6393940307
 30
0.0
 11
148.0381114362
 21
230.6393940307
 31
0.0
  0
LINE
  5
22C
330
2
100
AcDbEntity
  8
0
 62
     3
100
AcDbLine
 10
118.0380198835
 20
231.6393940306999
 30
0.0
 11
148.0381114362
 21
231.6393940306999
 31
0.0
  0
LINE
  5
22D
330
2
100
AcDbEntity
  8
0
 62
     3
100
AcDbLine
 10
140.4161022488
 20
227.7979922266998
 30
0.0
 11
149.5380962545999
 21
219.5488160497
 31
0.0
  0
ARC
  5
22E
330
2
100
AcDbEntity
  8
0
 62
     3
100
AcDbCircle
 10
144.5381114362
 20
206.6394245482999
 30
0.0
 40
5.0
100
AcDbArc
 50
269.9999820138998
 51
359.7521101232
  0
LINE
  5
22F
330
2
100
AcDbEntity
  8
0
 62
     3
100
AcDbLine
 10
116.5380504011
 20
191.6393024779999
 30
0.0
 11
149.5379832623999
 21
191.6393024779999
 31
0.0
  0
LINE
  5
230
330
2
100
AcDbEntity
  8
0
 62
     3
100
AcDbLine
 10
116.5380504011
 20
201.6394245483
 30
0.0
 11
149.5379832623999
 21
201.6394245483
 31
0.0
  0
LINE
  5
231
330
2
100
AcDbEntity
  8
0
 62
     3
100
AcDbLine
 10
142.8380064961999
 20
219.6393292498
 30
0.0
 11
137.9380334256
 21
211.1523228847
 31
0.0
  0
LINE
  5
232
330
2
100
AcDbEntity
  8
0
 62
     3
100
AcDbLine
 10
123.2380943059
 20
219.6393292498
 30
0.0
 11
128.1380673765999
 21
211.1523228847
 31
0.0
  0
CIRCLE
  5
233
330
2
100
AcDbEntity
  8
0
 62
     3
100
AcDbCircle
 10
133.0380504011
 20
219.6394245483
 30
0.0
 40
8.249992370599999
  0
LINE
  5
234
330
2
100
AcDbEntity
  8
0
 62
     3
100
AcDbLine
 10
115.5379954694
 20
203.6392414428
 30
0.0
 11
115.5379954694
 21
231.6392414427999
 31
0.0
  0
CIRCLE
  5
235
330
2
100
AcDbEntity
  8
0
 62
     3
100
AcDbCircle
 10
133.0380504011
 20
219.6394245483
 30
0.0
 40
10.5
  0
LINE
  5
236
330
2
100
AcDbEntity
  8
0
 62
     3
100
AcDbLine
 10
115.5380809186
 20
203.6392719604
 30
0.0
 11
115.5380809186
 21
231.6392414427999
 31
0.0
  0
LINE
  5
237
330
2
100
AcDbEntity
  8
0
 62
     3
100
AcDbLine
 10
137.9380519269
 20
211.1523716308
 30
0.0
 11
128.1380488752
 21
211.1523716308
 31
0.0
  0
ARC
  5
238
330
2
100
AcDbEntity
  8
0
 62
     3
100
AcDbCircle
 10
121.5379893659
 20
206.6394245482999
 30
0.0
 40
5.0
100
AcDbArc
 50
180.2478898767999
 51
270.0000179861
  0
LINE
  5
239
330
2
100
AcDbEntity
  8
0
 62
     3
100
AcDbLine
 10
115.5379954694
 20
203.6392414428
 30
0.0
 11
116.538025987
 21
203.6392414428
 31
0.0
  0
LINE
  5
23A
330
2
100
AcDbEntity
  8
0
 62
     3
100
AcDbLine
 10
115.5380809186
 20
203.6392719604
 30
0.0
 11
116.5380504011
 21
203.6392719604
 31
0.0
  0
LINE
  5
23B
330
2
100
AcDbEntity
  8
0
 62
     3
100
AcDbLine
 10
116.5380504011
 20
204.6392719603999
 30
0.0
 11
115.5379954694
 21
204.6392719603999
 31
0.0
  0
ARC
  5
23C
330
2
100
AcDbEntity
  8
0
 62
     3
100
AcDbCircle
 10
130.0220515606999
 20
222.4894230224
 30
0.0
 40
2.0
100
AcDbArc
 50
270.0000179861
 51
0.0
  0
ARC
  5
23D
330
2
100
AcDbEntity
  8
0
 62
     3
100
AcDbCircle
 10
130.0220515606999
 20
216.7894260741999
 30
0.0
 40
2.0
100
AcDbArc
 50
0.0
 51
89.99998201389999
  0
LINE
  5
23E
330
2
100
AcDbEntity
  8
0
 62
     3
100
AcDbLine
 10
128.1380488752
 20
228.1264545776
 30
0.0
 11
137.9380519269
 21
228.1264545776
 31
0.0
  0
ARC
  5
23F
330
2
100
AcDbEntity
  8
0
 62
     3
100
AcDbCircle
 10
133.0380504011
 20
219.6394245483
 30
0.0
 40
11.0
100
AcDbArc
 50
47.87643638339999
 51
132.1235636166
  0
LINE
  5
240
330
2
100
AcDbEntity
  8
0
 62
     3
100
AcDbLine
 10
128.1380529291999
 20
228.1264220095998
 30
0.0
 11
123.2380442865
 21
219.6393754766999
 31
0.0
  0
LINE
  5
241
330
2
100
AcDbEntity
  8
0
 62
     3
100
AcDbLine
 10
125.6599985533
 20
227.7979922266998
 30
0.0
 11
116.5380045475
 21
219.5488160497
 31
0.0
  0
LINE
  5
242
330
2
100
AcDbEntity
  8
0
 62
     3
100
AcDbLine
 10
128.8880565046
 20
220.4894230224
 30
0.0
 11
128.8880565046
 21
218.7894260741999
 31
0.0
  0
LINE
  5
243
330
2
100
AcDbEntity
  8
0
 62
     3
100
AcDbLine
 10
125.0380504011
 20
218.7894260741999
 30
0.0
 11
125.0380504011
 21
220.4894230224
 31
0.0
  0
LINE
  5
244
330
2
100
AcDbEntity
  8
0
 62
     3
100
AcDbLine
 10
125.0380504011
 20
218.7894260741999
 30
0.0
 11
130.0220515606999
 21
218.7894260741999
 31
0.0
  0
LINE
  5
245
330
2
100
AcDbEntity
  8
0
 62
     3
100
AcDbLine
 10
125.0380504011
 20
220.4894230224
 30
0.0
 11
130.0220515606999
 21
220.4894230224
 31
0.0
  0
LINE
  5
246
330
2
100
AcDbEntity
  8
0
 62
     3
100
AcDbLine
 10
137.9380478729
 20
228.1264220095998
 30
0.0
 11
142.8380565155999
 21
219.6393754766999
 31
0.0
  0
LINE
  5
247
330
2
100
AcDbEntity
  8
0
 62
     3
100
AcDbLine
 10
141.0380504011
 20
218.7894260741999
 30
0.0
 11
136.0540492413998
 21
218.7894260741999
 31
0.0
  0
LINE
  5
248
330
2
100
AcDbEntity
  8
0
 62
     3
100
AcDbLine
 10
141.0380504011
 20
220.4894230224
 30
0.0
 11
136.0540492413998
 21
220.4894230224
 31
0.0
  0
LINE
  5
249
330
2
100
AcDbEntity
  8
0
 62
     3
100
AcDbLine
 10
137.1880442975
 20
220.4894230224
 30
0.0
 11
137.1880442975
 21
218.7894260741999
 31
0.0
  0
ARC
  5
24A
330
2
100
AcDbEntity
  8
0
 62
     3
100
AcDbCircle
 10
136.0540492413998
 20
216.7894260741999
 30
0.0
 40
2.0
100
AcDbArc
 50
90.0000179861
 51
180.0
  0
LINE
  5
24B
330
2
100
AcDbEntity
  8
0
 62
     3
100
AcDbLine
 10
134.0540492413998
 20
216.7894260741999
 30
0.0
 11
134.0540492413998
 21
215.4894230224
 31
0.0
  0
LINE
  5
24C
330
2
100
AcDbEntity
  8
0
 62
     3
100
AcDbLine
 10
132.0220515606999
 20
216.7894260741999
 30
0.0
 11
132.0220515606999
 21
215.4894230224
 31
0.0
  0
LINE
  5
24D
330
2
100
AcDbEntity
  8
0
 62
     3
100
AcDbLine
 10
134.0540568708
 20
215.4894230224
 30
0.0
 11
132.0220439313
 21
215.4894230224
 31
0.0
  0
ARC
  5
24E
330
2
100
AcDbEntity
  8
0
 62
     3
100
AcDbCircle
 10
136.0540492413998
 20
222.4894230224
 30
0.0
 40
2.0
100
AcDbArc
 50
180.0
 51
269.9999820138998
  0
LINE
  5
24F
330
2
100
AcDbEntity
  8
0
 62
     3
100
AcDbLine
 10
134.0540492413998
 20
223.7894184447998
 30
0.0
 11
134.0540492413998
 21
222.4894230224
 31
0.0
  0
LINE
  5
250
330
2
100
AcDbEntity
  8
0
 62
     3
100
AcDbLine
 10
132.0220515606999
 20
223.7894184447998
 30
0.0
 11
132.0220515606999
 21
222.4894230224
 31
0.0
  0
LINE
  5
251
330
2
100
AcDbEntity
  8
0
 62
     3
100
AcDbLine
 10
134.0540568708
 20
223.7894184447998
 30
0.0
 11
132.0220439313
 21
223.7894184447998
 31
0.0
  0
LINE
  5
252
330
2
100
AcDbEntity
  8
0
 62
     3
100
AcDbLine
 10
141.0380504011
 20
218.7894260741999
 30
0.0
 11
141.0380504011
 21
220.4894230224
 31
0.0
  0
LINE
  5
253
330
2
100
AcDbEntity
  8
0
 62
     3
100
AcDbLine
 10
160.2380943059
 20
219.6393292498
 30
0.0
 11
165.1380673765999
 21
211.1523228847
 31
0.0
  0
LINE
  5
254
330
2
100
AcDbEntity
  8
0
 62
     3
100
AcDbLine
 10
152.5380809186
 20
203.6392719604
 30
0.0
 11
152.5380809186
 21
231.6392414427999
 31
0.0
  0
LINE
  5
255
330
2
100
AcDbEntity
  8
0
 62
     3
100
AcDbLine
 10
150.5381053327
 20
203.6392414428
 30
0.0
 11
150.5381053327
 21
231.6392414427999
 31
0.0
  0
LINE
  5
256
330
2
100
AcDbEntity
  8
0
 62
     3
100
AcDbLine
 10
150.5380198834999
 20
203.6392719604
 30
0.0
 11
150.5380198834999
 21
231.6392414427999
 31
0.0
  0
LINE
  5
257
330
2
100
AcDbEntity
  8
0
 62
     3
100
AcDbLine
 10
152.5379954694
 20
203.6392414428
 30
0.0
 11
152.5379954694
 21
231.6392414427999
 31
0.0
  0
ARC
  5
258
330
2
100
AcDbEntity
  8
0
 62
     3
100
AcDbCircle
 10
158.5379893658999
 20
206.6394245482999
 30
0.0
 40
5.0
100
AcDbArc
 50
180.2478898767999
 51
270.0000179861
  0
LINE
  5
259
330
2
100
AcDbEntity
  8
0
 62
     3
100
AcDbLine
 10
153.5380504011
 20
192.4394428588
 30
0.0
 11
149.5380504011
 21
192.4394428588
 31
0.0
  0
LINE
  5
25A
330
2
100
AcDbEntity
  8
0
 62
     3
100
AcDbLine
 10
149.5380504011
 20
200.8392841674
 30
0.0
 11
153.5380504011
 21
200.8392841674
 31
0.0
  0
LINE
  5
25B
330
2
100
AcDbEntity
  8
0
 62
     3
100
AcDbLine
 10
150.5381053327
 20
203.6392414428
 30
0.0
 11
149.5380748150999
 21
203.6392414428
 31
0.0
  0
LINE
  5
25C
330
2
100
AcDbEntity
  8
0
 62
     3
100
AcDbLine
 10
149.5380504011
 20
204.6392719603999
 30
0.0
 11
150.5381053327
 21
204.6392719603999
 31
0.0
  0
LINE
  5
25D
330
2
100
AcDbEntity
  8
0
 62
     3
100
AcDbLine
 10
150.5380198834999
 20
203.6392719604
 30
0.0
 11
149.5380504011
 21
203.6392719604
 31
0.0
  0
LINE
  5
25E
330
2
100
AcDbEntity
  8
0
 62
     3
100
AcDbLine
 10
152.5380809186
 20
203.6392719604
 30
0.0
 11
153.5380504011
 21
203.6392719604
 31
0.0
  0
LINE
  5
25F
330
2
100
AcDbEntity
  8
0
 62
     3
100
AcDbLine
 10
152.5379954694
 20
204.6392719603999
 30
0.0
 11
153.5380504011
 21
204.6392719603999
 31
0.0
  0
LINE
  5
260
330
2
100
AcDbEntity
  8
0
 62
     3
100
AcDbLine
 10
152.5379954694
 20
203.6392414428
 30
0.0
 11
153.5380259869999
 21
203.6392414428
 31
0.0
  0
LINE
  5
261
330
2
100
AcDbEntity
  8
0
 62
     3
100
AcDbLine
 10
174.9380519268999
 20
211.1523716308
 30
0.0
 11
165.1380488752
 21
211.1523716308
 31
0.0
  0
LINE
  5
262
330
2
100
AcDbEntity
  8
0
 62
     3
100
AcDbLine
 10
162.6599985532999
 20
227.7979922266998
 30
0.0
 11
153.5380045475
 21
219.5488160497
 31
0.0
  0
LINE
  5
263
330
2
100
AcDbEntity
  8
0
 62
     3
100
AcDbLine
 10
165.1380529292
 20
228.1264220095998
 30
0.0
 11
160.2380442864999
 21
219.6393754766999
 31
0.0
  0
LINE
  5
264
330
2
100
AcDbEntity
  8
0
 62
     3
100
AcDbLine
 10
151.5380198834999
 20
216.6392109252
 30
0.0
 11
150.5380198834999
 21
216.6392109252
 31
0.0
  0
LINE
  5
265
330
2
100
AcDbEntity
  8
0
 62
     3
100
AcDbLine
 10
151.5380809186
 20
216.6392109252
 30
0.0
 11
152.5380809186
 21
216.6392109252
 31
0.0
  0
LINE
  5
266
330
2
100
AcDbEntity
  8
0
 62
     3
100
AcDbLine
 10
152.5379954694
 20
216.6392414428
 30
0.0
 11
150.5381053327
 21
216.6392414428
 31
0.0
  0
LINE
  5
267
330
2
100
AcDbEntity
  8
0
 62
     3
100
AcDbLine
 10
151.5380198834999
 20
223.1392414427999
 30
0.0
 11
150.5380198834999
 21
223.1392414427999
 31
0.0
  0
LINE
  5
268
330
2
100
AcDbEntity
  8
0
 62
     3
100
AcDbLine
 10
151.5380809186
 20
223.1392414427999
 30
0.0
 11
152.5380809186
 21
223.1392414427999
 31
0.0
  0
LINE
  5
269
330
2
100
AcDbEntity
  8
0
 62
     3
100
AcDbLine
 10
152.5379954694
 20
223.1392719603999
 30
0.0
 11
150.5381053327
 21
223.1392719603999
 31
0.0
  0
LINE
  5
26A
330
2
100
AcDbEntity
  8
0
 62
     3
100
AcDbLine
 10
149.5380504011
 20
226.6392414428
 30
0.0
 11
151.5380198834999
 21
226.6392414428
 31
0.0
  0
LINE
  5
26B
330
2
100
AcDbEntity
  8
0
 62
     3
100
AcDbLine
 10
149.5380748150999
 20
226.6392719604
 30
0.0
 11
153.5380259869999
 21
226.6392719604
 31
0.0
  0
LINE
  5
26C
330
2
100
AcDbEntity
  8
0
 62
     3
100
AcDbLine
 10
153.5380504011
 20
226.6392414428
 30
0.0
 11
151.5380809186
 21
226.6392414428
 31
0.0
  0
LINE
  5
26D
330
2
100
AcDbEntity
  8
0
 62
     3
100
AcDbLine
 10
150.0380198835
 20
233.6391804076999
 30
0.0
 11
151.5380198834999
 21
233.6391804076999
 31
0.0
  0
LINE
  5
26E
330
2
100
AcDbEntity
  8
0
 62
     3
100
AcDbLine
 10
150.0380198835
 20
231.6392109252
 30
0.0
 11
151.5380198834999
 21
231.6392109252
 31
0.0
  0
LINE
  5
26F
330
2
100
AcDbEntity
  8
0
 62
     3
100
AcDbLine
 10
153.0380809186
 20
233.6391804076999
 30
0.0
 11
151.5380809186
 21
233.6391804076999
 31
0.0
  0
LINE
  5
270
330
2
100
AcDbEntity
  8
0
 62
     3
100
AcDbLine
 10
153.0380809186
 20
231.6392109252
 30
0.0
 11
151.5380809186
 21
231.6392109252
 31
0.0
  0
LINE
  5
271
330
2
100
AcDbEntity
  8
0
 62
     3
100
AcDbLine
 10
150.0380198835
 20
233.6392109252
 30
0.0
 11
153.0380809186
 21
233.6392109252
 31
0.0
  0
LINE
  5
272
330
2
100
AcDbEntity
  8
0
 62
     3
100
AcDbLine
 10
150.0380198835
 20
231.6392414427999
 30
0.0
 11
153.0380809186
 21
231.6392414427999
 31
0.0
  0
LINE
  5
273
330
2
100
AcDbEntity
  8
0
 62
     3
100
AcDbLine
 10
171.0540568707999
 20
223.7894184447998
 30
0.0
 11
169.0220439313
 21
223.7894184447998
 31
0.0
  0
ARC
  5
274
330
2
100
AcDbEntity
  8
0
 62
     3
100
AcDbCircle
 10
167.0220515607
 20
222.4894230224
 30
0.0
 40
2.0
100
AcDbArc
 50
270.0000179861
 51
0.0
  0
LINE
  5
275
330
2
100
AcDbEntity
  8
0
 62
     3
100
AcDbLine
 10
171.0540568707999
 20
215.4894230224
 30
0.0
 11
169.0220439313
 21
215.4894230224
 31
0.0
  0
ARC
  5
276
330
2
100
AcDbEntity
  8
0
 62
     3
100
AcDbCircle
 10
167.0220515607
 20
216.7894260741999
 30
0.0
 40
2.0
100
AcDbArc
 50
0.0
 51
89.99998201389999
  0
LINE
  5
277
330
2
100
AcDbEntity
  8
0
 62
     3
100
AcDbLine
 10
165.8880565046
 20
220.4894230224
 30
0.0
 11
165.8880565046
 21
218.7894260741999
 31
0.0
  0
LINE
  5
278
330
2
100
AcDbEntity
  8
0
 62
     3
100
AcDbLine
 10
162.0380504011
 20
218.7894260741999
 30
0.0
 11
162.0380504011
 21
220.4894230224
 31
0.0
  0
LINE
  5
279
330
2
100
AcDbEntity
  8
0
 62
     3
100
AcDbLine
 10
162.0380504011
 20
218.7894260741999
 30
0.0
 11
167.0220515607
 21
218.7894260741999
 31
0.0
  0
LINE
  5
27A
330
2
100
AcDbEntity
  8
0
 62
     3
100
AcDbLine
 10
169.0220515606999
 20
216.7894260741999
 30
0.0
 11
169.0220515606999
 21
215.4894230224
 31
0.0
  0
LINE
  5
27B
330
2
100
AcDbEntity
  8
0
 62
     3
100
AcDbLine
 10
162.0380504011
 20
220.4894230224
 30
0.0
 11
167.0220515607
 21
220.4894230224
 31
0.0
  0
LINE
  5
27C
330
2
100
AcDbEntity
  8
0
 62
     3
100
AcDbLine
 10
169.0220515606999
 20
223.7894184447998
 30
0.0
 11
169.0220515606999
 21
222.4894230224
 31
0.0
  0
LINE
  5
27D
330
2
100
AcDbEntity
  8
0
 62
     3
100
AcDbLine
 10
174.1880442975
 20
220.4894230224
 30
0.0
 11
174.1880442975
 21
218.7894260741999
 31
0.0
  0
ARC
  5
27E
330
2
100
AcDbEntity
  8
0
 62
     3
100
AcDbCircle
 10
173.0540492413999
 20
216.7894260741999
 30
0.0
 40
2.0
100
AcDbArc
 50
90.0000179861
 51
180.0
  0
LINE
  5
27F
330
2
100
AcDbEntity
  8
0
 62
     3
100
AcDbLine
 10
171.0540492413999
 20
216.7894260741999
 30
0.0
 11
171.0540492413999
 21
215.4894230224
 31
0.0
  0
LINE
  5
280
330
2
100
AcDbEntity
  8
0
 62
     3
100
AcDbLine
 10
171.0540492413999
 20
223.7894184447998
 30
0.0
 11
171.0540492413999
 21
222.4894230224
 31
0.0
  0
ARC
  5
281
330
2
100
AcDbEntity
  8
0
 62
     3
100
AcDbCircle
 10
173.0540492413999
 20
222.4894230224
 30
0.0
 40
2.0
100
AcDbArc
 50
180.0
 51
269.9999820138998
  0
LINE
  5
282
330
2
100
AcDbEntity
  8
0
 62
     3
100
AcDbLine
 10
165.1380488752
 20
228.1264545776
 30
0.0
 11
174.9380519268999
 21
228.1264545776
 31
0.0
  0
LINE
  5
283
330
2
100
AcDbEntity
  8
0
 62
     3
100
AcDbLine
 10
116.5380504011
 20
241.6393329955
 30
0.0
 11
114.5380809186
 21
241.6393329955
 31
0.0
  0
LINE
  5
284
330
2
100
AcDbEntity
  8
0
 62
     3
100
AcDbLine
 10
116.0380809185999
 20
237.6339313841999
 30
0.0
 11
114.5380809186
 21
237.6339313841999
 31
0.0
  0
LINE
  5
285
330
2
100
AcDbEntity
  8
0
 62
     3
100
AcDbLine
 10
116.0379954694
 20
237.6339619018
 30
0.0
 11
113.0381053327
 21
237.6339619018
 31
0.0
  0
LINE
  5
286
330
2
100
AcDbEntity
  8
0
 62
     3
100
AcDbLine
 10
79.53805040110002
 20
241.6393329955
 30
0.0
 11
77.53808091860008
 21
241.6393329955
 31
0.0
  0
LINE
  5
287
330
2
100
AcDbEntity
  8
0
 62
     3
100
AcDbLine
 10
111.5380442975
 20
241.6393329955
 30
0.0
 11
109.5380442975
 21
241.6393329955
 31
0.0
  0
LINE
  5
288
330
2
100
AcDbEntity
  8
0
 62
     3
100
AcDbLine
 10
112.5380504011
 20
241.6393329955
 30
0.0
 11
114.5380198835
 21
241.6393329955
 31
0.0
  0
LINE
  5
289
330
2
100
AcDbEntity
  8
0
 62
     3
100
AcDbLine
 10
113.0380198834999
 20
237.6339313841999
 30
0.0
 11
114.5380198835
 21
237.6339313841999
 31
0.0
  0
LINE
  5
28A
330
2
100
AcDbEntity
  8
0
 62
     3
100
AcDbLine
 10
149.5380504011
 20
241.6393329955
 30
0.0
 11
151.5380198834999
 21
241.6393329955
 31
0.0
  0
LINE
  5
28B
330
2
100
AcDbEntity
  8
0
 62
     3
100
AcDbLine
 10
148.5380442974999
 20
241.6393329955
 30
0.0
 11
146.5380442974999
 21
241.6393329955
 31
0.0
  0
LINE
  5
28C
330
2
100
AcDbEntity
  8
0
 62
     3
100
AcDbLine
 10
153.5380504011
 20
241.6393329955
 30
0.0
 11
151.5380809186
 21
241.6393329955
 31
0.0
  0
LINE
  5
28D
330
2
100
AcDbEntity
  8
0
 62
     3
100
AcDbLine
 10
150.0380198835
 20
237.6339313841999
 30
0.0
 11
151.5380198834999
 21
237.6339313841999
 31
0.0
  0
LINE
  5
28E
330
2
100
AcDbEntity
  8
0
 62
     3
100
AcDbLine
 10
153.0380809186
 20
237.6339313841999
 30
0.0
 11
151.5380809186
 21
237.6339313841999
 31
0.0
  0
LINE
  5
28F
330
2
100
AcDbEntity
  8
0
 62
     3
100
AcDbLine
 10
150.0381053327
 20
237.6339619018
 30
0.0
 11
153.0379954694
 21
237.6339619018
 31
0.0
  0
LINE
  5
290
330
2
100
AcDbEntity
  8
0
 62
     3
100
AcDbLine
 10
262.0380504010999
 20
237.6393940307
 30
0.0
 11
262.0380504010999
 21
235.6393940307
 31
0.0
  0
LINE
  5
291
330
2
100
AcDbEntity
  8
0
 62
     3
100
AcDbLine
 10
254.0953150341998
 20
237.1819833182
 30
0.0
 11
257.0380925740999
 21
235.6392769179
 31
0.0
  0
LINE
  5
292
330
2
100
AcDbEntity
  8
0
 62
     3
100
AcDbLine
 10
252.0328195619
 20
237.6340301364999
 30
0.0
 11
248.0380893918999
 21
233.6392824565
 31
0.0
  0
ARC
  5
293
330
2
100
AcDbEntity
  8
0
  6
PHANTOM
 62
     3
100
AcDbCircle
 10
252.2380626081
 20
233.4394123411999
 30
0.0
 40
4.199998855599997
100
AcDbArc
 50
92.7974635734
 51
180.2167269113
  0
ARC
  5
294
330
2
100
AcDbEntity
  8
0
  6
PHANTOM
 62
     3
100
AcDbCircle
 10
252.2380626081
 20
233.4394123411999
 30
0.0
 40
5.699998855599999
100
AcDbArc
 50
62.3349105674
 51
179.8537979795999
  0
LINE
  5
295
330
2
100
AcDbEntity
  8
0
  6
PHANTOM
 62
     3
100
AcDbLine
 10
256.3782873452999
 20
235.9851697812
 30
0.0
 11
257.083685492
 21
237.3307466768
 31
0.0
  0
LINE
  5
296
330
2
100
AcDbEntity
  8
0
 62
     3
100
AcDbLine
 10
186.5380504011
 20
206.6394245482999
 30
0.0
 11
186.5380504011
 21
241.6394550659
 31
0.0
  0
LINE
  5
297
330
2
100
AcDbEntity
  8
0
 62
     3
100
AcDbLine
 10
185.0380809186
 20
220.9393207884999
 30
0.0
 11
185.0380809186
 21
241.6390888549
 31
0.0
  0
LINE
  5
298
330
2
100
AcDbEntity
  8
0
 62
     3
100
AcDbLine
 10
190.538025987
 20
241.6394855834
 30
0.0
 11
190.538025987
 21
200.8394367553
 31
0.0
  0
LINE
  5
299
330
2
100
AcDbEntity
  8
0
 62
     3
100
AcDbLine
 10
185.5380307870999
 20
192.4393918920999
 30
0.0
 11
185.5380260186999
 21
188.6393735815
 31
0.0
  0
ARC
  5
29A
330
2
100
AcDbEntity
  8
0
 62
     3
100
AcDbCircle
 10
181.5381114361999
 20
186.6393024779999
 30
0.0
 40
5.0
100
AcDbArc
 50
36.8715050037
 51
90.0000179861
  0
LINE
  5
29B
330
2
100
AcDbEntity
  8
0
 62
     3
100
AcDbLine
 10
190.538025987
 20
151.6392414428
 30
0.0
 11
190.538025987
 21
200.8392841674
 31
0.0
  0
LINE
  5
29C
330
2
100
AcDbEntity
  8
0
 62
     3
100
AcDbLine
 10
209.5380565045999
 20
216.6394550659
 30
0.0
 11
209.5380565045999
 21
176.6394550659
 31
0.0
  0
LINE
  5
29D
330
2
100
AcDbEntity
  8
0
 62
     3
100
AcDbLine
 10
192.5380565045999
 20
234.6394550658999
 30
0.0
 11
192.5380565045999
 21
158.6394550659
 31
0.0
  0
ARC
  5
29E
330
2
100
AcDbEntity
  8
0
 62
     3
100
AcDbCircle
 10
206.5380565045999
 20
176.6394550659
 30
0.0
 40
3.0
100
AcDbArc
 50
269.9999820138998
 51
359.9999640277999
  0
LINE
  5
29F
330
2
100
AcDbEntity
  8
0
 62
     3
100
AcDbLine
 10
195.1380626081
 20
168.6394550658999
 30
0.0
 11
195.1380626081
 21
164.6394550659
 31
0.0
  0
LINE
  5
2A0
330
2
100
AcDbEntity
  8
0
 62
     3
100
AcDbLine
 10
177.4161022488
 20
165.4807347995999
 30
0.0
 11
186.5380962546
 21
173.7299109765999
 31
0.0
  0
LINE
  5
2A1
330
2
100
AcDbEntity
  8
0
 62
     3
100
AcDbLine
 10
185.0380809186
 20
172.3394062377
 30
0.0
 11
185.0380809186
 21
151.6396381712999
 31
0.0
  0
LINE
  5
2A2
330
2
100
AcDbEntity
  8
0
 62
     3
100
AcDbLine
 10
195.1380421466
 20
166.6393946574
 30
0.0
 11
194.4991871661
 21
167.7459239224
 31
0.0
  0
LINE
  5
2A3
330
2
100
AcDbEntity
  8
0
 62
     3
100
AcDbLine
 10
186.5380504011
 20
186.6393024779999
 30
0.0
 11
186.5380504011
 21
151.6392719604
 31
0.0
  0
LINE
  5
2A4
330
2
100
AcDbEntity
  8
0
 62
     3
100
AcDbLine
 10
188.5379954693999
 20
189.6393635131
 30
0.0
 11
188.5379954693999
 21
161.6394245483
 31
0.0
  0
LINE
  5
2A5
330
2
100
AcDbEntity
  8
0
 62
     3
100
AcDbLine
 10
192.5380565045999
 20
158.6394550659
 30
0.0
 11
190.5380565045999
 21
158.6394550659
 31
0.0
  0
LINE
  5
2A6
330
2
100
AcDbEntity
  8
0
 62
     3
100
AcDbLine
 10
188.5379954693999
 20
166.6394550658999
 30
0.0
 11
190.538025987
 21
166.6394550658999
 31
0.0
  0
LINE
  5
2A7
330
2
100
AcDbEntity
  8
0
 62
     3
100
AcDbLine
 10
186.5380504011
 20
166.6394855833999
 30
0.0
 11
188.5380198834999
 21
166.6394855833999
 31
0.0
  0
LINE
  5
2A8
330
2
100
AcDbEntity
  8
0
 62
     3
100
AcDbLine
 10
188.5379328447
 20
161.6394485356998
 30
0.0
 11
186.5379938797999
 21
161.6394332767999
 31
0.0
  0
LINE
  5
2A9
330
2
100
AcDbEntity
  8
0
 62
     3
100
AcDbLine
 10
193.6380626081
 20
163.1394550658999
 30
0.0
 11
192.5380565045999
 21
163.1394550658999
 31
0.0
  0
LINE
  5
2AA
330
2
100
AcDbEntity
  8
0
 62
     3
100
AcDbLine
 10
195.1380562618999
 20
166.6394002572999
 30
0.0
 11
194.4625649289
 21
165.4694149695
 31
0.0
  0
ARC
  5
2AB
330
2
100
AcDbEntity
  8
0
 62
     3
100
AcDbCircle
 10
193.6380626081
 20
164.6394550659
 30
0.0
 40
1.5
100
AcDbArc
 50
269.9999993168
 51
0.0000359722000187
  0
LINE
  5
2AC
330
2
100
AcDbEntity
  8
0
 62
     3
100
AcDbLine
 10
178.0380504011
 20
174.4893009521
 30
0.0
 11
178.0380504011
 21
172.7893040037998
 31
0.0
  0
LINE
  5
2AD
330
2
100
AcDbEntity
  8
0
 62
     3
100
AcDbLine
 10
190.538025987
 20
170.1394550658999
 30
0.0
 11
188.5379954693999
 21
170.1394550658999
 31
0.0
  0
LINE
  5
2AE
330
2
100
AcDbEntity
  8
0
 62
     3
100
AcDbLine
 10
190.538025987
 20
176.6394855833999
 30
0.0
 11
188.5379954693999
 21
176.6394855833999
 31
0.0
  0
ARC
  5
2AF
330
2
100
AcDbEntity
  8
0
 62
     3
100
AcDbCircle
 10
181.5381114361999
 20
186.6393024779999
 30
0.0
 40
5.0
100
AcDbArc
 50
0.2478898768
 51
23.5789416008
  0
ARC
  5
2B0
330
2
100
AcDbEntity
  8
0
 62
     3
100
AcDbCircle
 10
181.5381114361999
 20
186.6393024779999
 30
0.0
 40
5.0
100
AcDbArc
 50
0.2478898768
 51
23.5789416008
  0
LINE
  5
2B1
330
2
100
AcDbEntity
  8
0
 62
     3
100
AcDbLine
 10
188.5379954693999
 20
188.6393635131
 30
0.0
 11
185.5380870222
 21
188.6393635131
 31
0.0
  0
LINE
  5
2B2
330
2
100
AcDbEntity
  8
0
 62
     3
100
AcDbLine
 10
188.5378428815
 20
189.6392414427999
 30
0.0
 11
185.5379344343
 21
189.6392414427999
 31
0.0
  0
CIRCLE
  5
2B3
330
2
100
AcDbEntity
  8
0
 62
     3
100
AcDbCircle
 10
201.5380565045999
 20
181.6394550659
 30
0.0
 40
4.0
  0
LINE
  5
2B4
330
2
100
AcDbEntity
  8
0
  6
CENTER
 62
     3
100
AcDbLine
 10
201.5380565045999
 20
176.8394550659
 30
0.0
 11
201.5380565045999
 21
186.4394550659
 31
0.0
  0
LINE
  5
2B5
330
2
100
AcDbEntity
  8
0
 62
     3
100
AcDbLine
 10
206.5380565045999
 20
173.6394550658999
 30
0.0
 11
192.5380565045999
 21
173.6394550658999
 31
0.0
  0
LINE
  5
2B6
330
2
100
AcDbEntity
  8
0
 62
     3
100
AcDbLine
 10
193.6380626081
 20
170.1394550658999
 30
0.0
 11
192.5380565045999
 21
170.1394550658999
 31
0.0
  0
ARC
  5
2B7
330
2
100
AcDbEntity
  8
0
 62
     3
100
AcDbCircle
 10
193.6380626081
 20
168.6394550658999
 30
0.0
 40
1.5
100
AcDbArc
 50
0.000035972178686
 51
90.0000179861
  0
LINE
  5
2B8
330
2
100
AcDbEntity
  8
0
  6
CENTER
 62
     3
100
AcDbLine
 10
196.7380565045999
 20
181.6394550659
 30
0.0
 11
206.3380565045998
 21
181.6394550659
 31
0.0
  0
ARC
  5
2B9
330
2
100
AcDbEntity
  8
0
 62
     3
100
AcDbCircle
 10
206.5380565045999
 20
216.6394550659
 30
0.0
 40
3.0
100
AcDbArc
 50
0.000035972178686
 51
90.0000179861
  0
CIRCLE
  5
2BA
330
2
100
AcDbEntity
  8
0
 62
     3
100
AcDbCircle
 10
201.5380565045999
 20
211.6394550658999
 30
0.0
 40
4.0
  0
LINE
  5
2BB
330
2
100
AcDbEntity
  8
0
  6
CENTER
 62
     3
100
AcDbLine
 10
201.5380565045999
 20
206.8394550659
 30
0.0
 11
201.5380565045999
 21
216.4394550659
 31
0.0
  0
LINE
  5
2BC
330
2
100
AcDbEntity
  8
0
 62
     3
100
AcDbLine
 10
188.5379954693999
 20
203.6393635131
 30
0.0
 11
188.5379954693999
 21
231.6393024779999
 31
0.0
  0
ARC
  5
2BD
330
2
100
AcDbEntity
  8
0
 62
     3
100
AcDbCircle
 10
181.5381114361999
 20
206.6394245482999
 30
0.0
 40
5.0
100
AcDbArc
 50
269.9999820138998
 51
323.1284949962998
  0
ARC
  5
2BE
330
2
100
AcDbEntity
  8
0
 62
     3
100
AcDbCircle
 10
181.5381114361999
 20
206.6394245482999
 30
0.0
 40
5.0
100
AcDbArc
 50
269.9999820138998
 51
323.1284949962998
  0
LINE
  5
2BF
330
2
100
AcDbEntity
  8
0
 62
     3
100
AcDbLine
 10
185.5380307870999
 20
200.8393351341998
 30
0.0
 11
185.5380260186999
 21
204.6393534447
 31
0.0
  0
ARC
  5
2C0
330
2
100
AcDbEntity
  8
0
 62
     3
100
AcDbCircle
 10
181.5381114361999
 20
186.6393024779999
 30
0.0
 40
5.0
100
AcDbArc
 50
47.05581874009999
 51
90.0000179861
  0
LINE
  5
2C1
330
2
100
AcDbEntity
  8
0
 62
     3
100
AcDbLine
 10
188.5379954693999
 20
200.8393757202
 30
0.0
 11
188.5379954693999
 21
192.4393513061
 31
0.0
  0
LINE
  5
2C2
330
2
100
AcDbEntity
  8
0
 62
     3
100
AcDbLine
 10
188.5377513287998
 20
192.4391682006
 30
0.0
 11
185.5378428815
 21
192.4391682006
 31
0.0
  0
LINE
  5
2C3
330
2
100
AcDbEntity
  8
0
 62
     3
100
AcDbLine
 10
188.5377513287998
 20
200.8395588256
 30
0.0
 11
185.5378428815
 21
200.8395588256
 31
0.0
  0
ARC
  5
2C4
330
2
100
AcDbEntity
  8
0
 62
     3
100
AcDbCircle
 10
181.5381114361999
 20
206.6394245482999
 30
0.0
 40
5.0
100
AcDbArc
 50
336.4210583992
 51
359.7521101232
  0
ARC
  5
2C5
330
2
100
AcDbEntity
  8
0
 62
     3
100
AcDbCircle
 10
181.5381114361999
 20
206.6394245482999
 30
0.0
 40
5.0
100
AcDbArc
 50
336.419913707
 51
359.7521101232
  0
LINE
  5
2C6
330
2
100
AcDbEntity
  8
0
 62
     3
100
AcDbLine
 10
188.5378428815
 20
203.6394855833999
 30
0.0
 11
185.5379344343
 21
203.6394855833999
 31
0.0
  0
LINE
  5
2C7
330
2
100
AcDbEntity
  8
0
 62
     3
100
AcDbLine
 10
188.5379954693999
 20
204.6393635131
 30
0.0
 11
185.5380870222
 21
204.6393635131
 31
0.0
  0
LINE
  5
2C8
330
2
100
AcDbEntity
  8
0
 62
     3
100
AcDbLine
 10
186.5380504011
 20
204.6392719603999
 30
0.0
 11
187.5380198835
 21
204.6392719603999
 31
0.0
  0
LINE
  5
2C9
330
2
100
AcDbEntity
  8
0
 62
     3
100
AcDbLine
 10
187.5380198835
 20
203.6392719604
 30
0.0
 11
186.5380504011
 21
203.6392719604
 31
0.0
  0
CIRCLE
  5
2CA
330
2
100
AcDbEntity
  8
0
 62
     3
100
AcDbCircle
 10
201.5380565045999
 20
196.6394550659
 30
0.0
 40
4.0
  0
LINE
  5
2CB
330
2
100
AcDbEntity
  8
0
  6
CENTER
 62
     3
100
AcDbLine
 10
201.5380565045999
 20
191.8394550659
 30
0.0
 11
201.5380565045999
 21
201.4394550658999
 31
0.0
  0
LINE
  5
2CC
330
2
100
AcDbEntity
  8
0
  6
CENTER
 62
     3
100
AcDbLine
 10
196.7380565045999
 20
211.6394550658999
 30
0.0
 11
206.3380565045998
 21
211.6394550658999
 31
0.0
  0
LINE
  5
2CD
330
2
100
AcDbEntity
  8
0
 62
     3
100
AcDbLine
 10
190.5380565045999
 20
234.6394550658999
 30
0.0
 11
192.5380565045999
 21
234.6394550658999
 31
0.0
  0
LINE
  5
2CE
330
2
100
AcDbEntity
  8
0
 62
     3
100
AcDbLine
 10
177.4161022488
 20
227.7979922266998
 30
0.0
 11
186.5380962546
 21
219.5488160497
 31
0.0
  0
LINE
  5
2CF
330
2
100
AcDbEntity
  8
0
 62
     3
100
AcDbLine
 10
178.0380504011
 20
218.7894260741999
 30
0.0
 11
178.0380504011
 21
220.4894230224
 31
0.0
  0
LINE
  5
2D0
330
2
100
AcDbEntity
  8
0
 62
     3
100
AcDbLine
 10
190.538025987
 20
216.6392414428
 30
0.0
 11
188.5379954693999
 21
216.6392414428
 31
0.0
  0
LINE
  5
2D1
330
2
100
AcDbEntity
  8
0
 62
     3
100
AcDbLine
 10
190.538025987
 20
223.1392719603999
 30
0.0
 11
188.5379954693999
 21
223.1392719603999
 31
0.0
  0
LINE
  5
2D2
330
2
100
AcDbEntity
  8
0
 62
     3
100
AcDbLine
 10
188.5379954693999
 20
226.6392719604
 30
0.0
 11
190.538025987
 21
226.6392719604
 31
0.0
  0
LINE
  5
2D3
330
2
100
AcDbEntity
  8
0
 62
     3
100
AcDbLine
 10
186.5380504011
 20
226.6392414428
 30
0.0
 11
188.5380198834999
 21
226.6392414428
 31
0.0
  0
LINE
  5
2D4
330
2
100
AcDbEntity
  8
0
 62
     3
100
AcDbLine
 10
188.5379328447
 20
231.6392784905
 30
0.0
 11
186.5379938797999
 21
231.6392937494
 31
0.0
  0
ARC
  5
2D5
330
2
100
AcDbEntity
  8
0
 62
     3
100
AcDbCircle
 10
193.6380320904999
 20
224.6394245483
 30
0.0
 40
1.5
100
AcDbArc
 50
269.9999820138998
 51
359.9999640277999
  0
LINE
  5
2D6
330
2
100
AcDbEntity
  8
0
 62
     3
100
AcDbLine
 10
206.5380565045999
 20
219.6394550658999
 30
0.0
 11
192.5380565045999
 21
219.6394550658999
 31
0.0
  0
LINE
  5
2D7
330
2
100
AcDbEntity
  8
0
 62
     3
100
AcDbLine
 10
192.538025987
 20
223.1393329954999
 30
0.0
 11
193.6380015729
 21
223.1393329954999
 31
0.0
  0
ARC
  5
2D8
330
2
100
AcDbEntity
  8
0
 62
     3
100
AcDbCircle
 10
193.6380320904999
 20
228.6394245483
 30
0.0
 40
1.5
100
AcDbArc
 50
359.9999813306998
 51
90.00001798610005
  0
LINE
  5
2D9
330
2
100
AcDbEntity
  8
0
 62
     3
100
AcDbLine
 10
192.538025987
 20
230.1393329954999
 30
0.0
 11
193.6380015729
 21
230.1393329954999
 31
0.0
  0
LINE
  5
2DA
330
2
100
AcDbEntity
  8
0
 62
     3
100
AcDbLine
 10
195.1380320904999
 20
228.6393329955
 30
0.0
 11
195.1380320904999
 21
224.6393329955
 31
0.0
  0
LINE
  5
2DB
330
2
100
AcDbEntity
  8
0
 62
     3
100
AcDbLine
 10
194.4991656404
 20
225.5327622140999
 30
0.0
 11
195.1380205447
 21
226.6392915552
 31
0.0
  0
LINE
  5
2DC
330
2
100
AcDbEntity
  8
0
 62
     3
100
AcDbLine
 10
194.4625208770999
 20
227.8093177205
 30
0.0
 11
195.1380122907
 21
226.6393324327
 31
0.0
  0
LINE
  5
2DD
330
2
100
AcDbEntity
  8
0
 62
     3
100
AcDbLine
 10
295.0379893658998
 20
163.6394245483
 30
0.0
 11
295.0379893658998
 21
229.6393940306999
 31
0.0
  0
LINE
  5
2DE
330
2
100
AcDbEntity
  8
0
 62
     3
100
AcDbLine
 10
260.0380504010999
 20
216.6393940307
 30
0.0
 11
260.0380504010999
 21
176.6394550659
 31
0.0
  0
LINE
  5
2DF
330
2
100
AcDbEntity
  8
0
  6
PHANTOM
 62
     3
100
AcDbLine
 10
250.7380015729
 20
168.1858417846
 30
0.0
 11
250.7380015729
 21
225.0929767944
 31
0.0
  0
LINE
  5
2E0
330
2
100
AcDbEntity
  8
0
  6
PHANTOM
 62
     3
100
AcDbLine
 10
252.2380015728999
 20
167.6394245483
 30
0.0
 11
252.2380015728999
 21
225.6393940306999
 31
0.0
  0
LINE
  5
2E1
330
2
100
AcDbEntity
  8
0
 62
     3
100
AcDbLine
 10
252.2380626081
 20
170.1394245483
 30
0.0
 11
252.2380626081
 21
166.6394245483
 31
0.0
  0
LINE
  5
2E2
330
2
100
AcDbEntity
  8
0
  6
PHANTOM
 62
     3
100
AcDbLine
 10
250.7380544256999
 20
168.1857507145999
 30
0.0
 11
247.8735795991998
 21
164.7756716846998
 31
0.0
  0
LINE
  5
2E3
330
2
100
AcDbEntity
  8
0
  6
PHANTOM
 62
     3
100
AcDbLine
 10
252.2380621431999
 20
167.6393547545998
 30
0.0
 11
249.022135474
 21
163.8108819066999
 31
0.0
  0
LINE
  5
2E4
330
2
100
AcDbEntity
  8
0
 62
     3
100
AcDbLine
 10
257.0383763534
 20
157.6395876877
 30
0.0
 11
254.0957069283
 21
156.096938163
 31
0.0
  0
ARC
  5
2E5
330
2
100
AcDbEntity
  8
0
  6
PHANTOM
 62
     3
100
AcDbCircle
 10
252.2380626081
 20
159.8394977904999
 30
0.0
 40
5.699998855599999
100
AcDbArc
 50
180.0
 51
299.6828726471998
  0
ARC
  5
2E6
330
2
100
AcDbEntity
  8
0
 62
     3
100
AcDbCircle
 10
252.2380015728999
 20
159.6394855834
 30
0.0
 40
4.0
100
AcDbArc
 50
267.0585013974
 51
297.6650708418
  0
ARC
  5
2E7
330
2
100
AcDbEntity
  8
0
  6
PHANTOM
 62
     3
100
AcDbCircle
 10
252.2380626081
 20
159.8394977904999
 30
0.0
 40
4.199998855599997
100
AcDbArc
 50
176.4779360011999
 51
267.2024644822
  0
ARC
  5
2E8
330
2
100
AcDbEntity
  8
0
  6
PHANTOM
 62
     3
100
AcDbCircle
 10
252.2380626081
 20
161.1096088744
 30
0.0
 40
5.699998855599999
100
AcDbArc
 50
139.9696459817
 51
179.9999640277999
  0
LINE
  5
2E9
330
2
100
AcDbEntity
  8
0
  6
PHANTOM
 62
     3
100
AcDbLine
 10
246.5380504011
 20
159.8394977904999
 30
0.0
 11
246.5380504011
 21
161.1095783569
 31
0.0
  0
ARC
  5
2EA
330
2
100
AcDbEntity
  8
0
  6
PHANTOM
 62
     3
100
AcDbCircle
 10
252.2380931257
 20
161.1096088744
 30
0.0
 40
4.199998855599997
100
AcDbArc
 50
139.9695913401999
 51
179.9999093863
  0
LINE
  5
2EB
330
2
100
AcDbEntity
  8
0
 62
     3
100
AcDbLine
 10
248.0381114361999
 20
159.639516101
 30
0.0
 11
248.0381114361999
 21
161.6394855833999
 31
0.0
  0
LINE
  5
2EC
330
2
100
AcDbEntity
  8
0
 62
     3
100
AcDbLine
 10
248.0384717560998
 20
159.6397413295
 30
0.0
 11
252.0332015893
 21
155.6449933128
 31
0.0
  0
LINE
  5
2ED
330
2
100
AcDbEntity
  8
0
 62
     3
100
AcDbLine
 10
252.2381401411999
 20
166.6393126275
 30
0.0
 11
248.0382857131
 21
161.6395006613998
 31
0.0
  0
ARC
  5
2EE
330
2
100
AcDbEntity
  8
0
 62
     3
100
AcDbCircle
 10
266.0379588483
 20
155.6394855833999
 30
0.0
 40
4.0
100
AcDbArc
 50
179.9999093863
 51
269.9998914002
  0
LINE
  5
2EF
330
2
100
AcDbEntity
  8
0
  6
PHANTOM
 62
     3
100
AcDbLine
 10
257.0836102597999
 20
155.9478350122
 30
0.0
 11
254.8006575233999
 21
154.7510318906
 31
0.0
  0
LINE
  5
2F0
330
2
100
AcDbEntity
  8
0
 62
     3
100
AcDbLine
 10
257.0380504011
 20
157.6394550658999
 30
0.0
 11
262.0380504010999
 21
157.6394550658999
 31
0.0
  0
LINE
  5
2F1
330
2
100
AcDbEntity
  8
0
  6
PHANTOM
 62
     3
100
AcDbLine
 10
257.0835832311
 20
155.9478208428
 30
0.0
 11
256.3781461193
 21
157.2934720661999
 31
0.0
  0
LINE
  5
2F2
330
2
100
AcDbEntity
  8
0
 62
     3
100
AcDbLine
 10
262.0380504010999
 20
157.6394245483
 30
0.0
 11
262.0380504010999
 21
155.6394245483
 31
0.0
  0
LINE
  5
2F3
330
2
100
AcDbEntity
  8
0
 62
     3
100
AcDbLine
 10
260.0381287272
 20
176.6393725858
 30
0.0
 11
252.2385115566998
 21
170.1396830372999
 31
0.0
  0
LINE
  5
2F4
330
2
100
AcDbEntity
  8
0
 62
     3
100
AcDbLine
 10
300.9880087231
 20
170.1900892634
 30
0.0
 11
298.9380148207
 21
166.6394097360999
 31
0.0
  0
ARC
  5
2F5
330
2
100
AcDbEntity
  8
0
 62
     3
100
AcDbCircle
 10
300.0380198834998
 20
163.6394550659
 30
0.0
 40
5.0
100
AcDbArc
 50
179.9999640277999
 51
269.9999460416999
  0
LINE
  5
2F6
330
2
100
AcDbEntity
  8
0
 62
     3
100
AcDbLine
 10
298.9380071613
 20
166.6394294050999
 30
0.0
 11
300.9880099686998
 21
163.0887197831999
 31
0.0
  0
LINE
  5
2F7
330
2
100
AcDbEntity
  8
0
 62
     3
100
AcDbLine
 10
252.2381087175
 20
223.1392205169
 30
0.0
 11
260.0380769463999
 21
216.6392373098
 31
0.0
  0
LINE
  5
2F8
330
2
100
AcDbEntity
  8
0
 62
     3
100
AcDbLine
 10
252.2380626081
 20
226.6393940307
 30
0.0
 11
252.2380626081
 21
223.1393940307
 31
0.0
  0
ARC
  5
2F9
330
2
100
AcDbEntity
  8
0
  6
PHANTOM
 62
     3
100
AcDbCircle
 10
252.2380626081
 20
232.1693012572999
 30
0.0
 40
5.699998855599999
100
AcDbArc
 50
179.9999640277999
 51
220.0302820739
  0
LINE
  5
2FA
330
2
100
AcDbEntity
  8
0
  6
PHANTOM
 62
     3
100
AcDbLine
 10
246.5380504011
 20
232.1692402221
 30
0.0
 11
246.5380504011
 21
233.6393329954999
 31
0.0
  0
LINE
  5
2FB
330
2
100
AcDbEntity
  8
0
 62
     3
100
AcDbLine
 10
248.0381016211999
 20
231.6392819415999
 30
0.0
 11
252.2381126896
 21
226.6392822577
 31
0.0
  0
ARC
  5
2FC
330
2
100
AcDbEntity
  8
0
  6
PHANTOM
 62
     3
100
AcDbCircle
 10
252.2380931257
 20
232.1693012572999
 30
0.0
 40
4.199998855599997
100
AcDbArc
 50
180.0000906136999
 51
220.0304086597999
  0
LINE
  5
2FD
330
2
100
AcDbEntity
  8
0
  6
PHANTOM
 62
     3
100
AcDbLine
 10
247.8735670518
 20
228.5029509477999
 30
0.0
 11
250.738061507
 21
225.092848285
 31
0.0
  0
LINE
  5
2FE
330
2
100
AcDbEntity
  8
0
  6
PHANTOM
 62
     3
100
AcDbLine
 10
249.0221426446999
 20
229.4677173584
 30
0.0
 11
252.2380496852999
 21
225.6392675799
 31
0.0
  0
LINE
  5
2FF
330
2
100
AcDbEntity
  8
0
 62
     3
100
AcDbLine
 10
248.0380809186
 20
231.6393940306999
 30
0.0
 11
248.0380809186
 21
233.6393635131
 31
0.0
  0
LINE
  5
300
330
2
100
AcDbEntity
  8
0
 62
     3
100
AcDbLine
 10
262.0380504010999
 20
235.6393940307
 30
0.0
 11
257.0380504011
 21
235.6393940307
 31
0.0
  0
LINE
  5
301
330
2
100
AcDbEntity
  8
0
 62
     3
100
AcDbLine
 10
298.9380232039998
 20
226.6392877033
 30
0.0
 11
300.9880107525998
 21
223.0886045102999
 31
0.0
  0
ARC
  5
302
330
2
100
AcDbEntity
  8
0
 62
     3
100
AcDbCircle
 10
300.0380504011
 20
229.6393940306999
 30
0.0
 40
5.0
100
AcDbArc
 50
89.99998201389999
 51
179.9999640277999
  0
LINE
  5
303
330
2
100
AcDbEntity
  8
0
 62
     3
100
AcDbLine
 10
300.9880207411999
 20
230.1899933725
 30
0.0
 11
298.93801158
 21
226.6392874161999
 31
0.0
  0
ARC
  5
304
330
2
100
AcDbEntity
  8
0
 62
     3
100
AcDbCircle
 10
252.2380015728999
 20
233.6393329954999
 30
0.0
 40
4.0
100
AcDbArc
 50
62.33487451670001
 51
92.94138931959995
  0
ARC
  5
305
330
2
100
AcDbEntity
  8
0
 62
     3
100
AcDbCircle
 10
266.0379893658999
 20
237.6393635131
 30
0.0
 40
4.0
100
AcDbArc
 50
89.99998201389999
 51
179.9998547448
  0
LINE
  5
306
330
2
100
AcDbEntity
  8
0
  6
PHANTOM
 62
     3
100
AcDbLine
 10
254.882882499
 20
238.4845185063
 30
0.0
 11
257.0836996613
 21
237.3307737056
 31
0.0
  0
LINE
  5
307
330
2
100
AcDbEntity
  8
0
 62
     3
100
AcDbLine
 10
313.0379893659
 20
241.6393940307
 30
0.0
 11
313.0379893659
 21
222.6393940307
 31
0.0
  0
LINE
  5
312
330
2
100
AcDbEntity
  8
0
 62
     3
100
AcDbLine
 10
311.0379893659
 20
173.6394245483
 30
0.0
 11
311.0379893659
 21
219.6393940307
 31
0.0
  0
LINE
  5
313
330
2
100
AcDbEntity
  8
0
 62
     3
100
AcDbLine
 10
313.0379893659
 20
222.6393940307
 30
0.0
 11
313.0379893659
 21
170.6394245483
 31
0.0
  0
LINE
  5
314
330
2
100
AcDbEntity
  8
0
 62
     3
100
AcDbLine
 10
307.1379946708
 20
166.6393757081
 30
0.0
 11
305.0879925965998
 21
170.1900855743999
 31
0.0
  0
LINE
  5
315
330
2
100
AcDbEntity
  8
0
 62
     3
100
AcDbLine
 10
313.0379893659
 20
170.6394245483
 30
0.0
 11
313.0379893659
 21
151.6394245483
 31
0.0
  0
LINE
  5
316
330
2
100
AcDbEntity
  8
0
 62
     3
100
AcDbLine
 10
305.0879941972
 20
163.0886832589999
 30
0.0
 11
307.1380026252998
 21
166.6393894596
 31
0.0
  0
LINE
  5
317
330
2
100
AcDbEntity
  8
0
 62
     3
100
AcDbLine
 10
308.0379893658999
 20
173.6394245483
 30
0.0
 11
313.0379893659
 21
173.6394245483
 31
0.0
  0
LINE
  5
318
330
2
100
AcDbEntity
  8
0
 62
     3
100
AcDbLine
 10
308.0379893658999
 20
170.6394245483
 30
0.0
 11
313.0379893659
 21
170.6394245483
 31
0.0
  0
LINE
  5
319
330
2
100
AcDbEntity
  8
0
 62
     3
100
AcDbLine
 10
308.0379893658999
 20
170.6394245483
 30
0.0
 11
308.0379893658999
 21
173.6394245483
 31
0.0
  0
LINE
  5
31A
330
2
100
AcDbEntity
  8
0
 62
     3
100
AcDbLine
 10
305.0880457876
 20
223.0885425768
 30
0.0
 11
307.1380476173998
 21
226.6392526875
 31
0.0
  0
LINE
  5
31B
330
2
100
AcDbEntity
  8
0
 62
     3
100
AcDbLine
 10
308.0379893658999
 20
222.6393940307
 30
0.0
 11
313.0379893659
 21
222.6393940307
 31
0.0
  0
LINE
  5
31C
330
2
100
AcDbEntity
  8
0
 62
     3
100
AcDbLine
 10
308.0379893658999
 20
219.6393940307
 30
0.0
 11
313.0379893659
 21
219.6393940307
 31
0.0
  0
LINE
  5
31D
330
2
100
AcDbEntity
  8
0
 62
     3
100
AcDbLine
 10
308.0379893658999
 20
219.6393940307
 30
0.0
 11
308.0379893658999
 21
222.6393940307
 31
0.0
  0
LINE
  5
31E
330
2
100
AcDbEntity
  8
0
 62
     3
100
AcDbLine
 10
307.1379853499
 20
226.6392576259999
 30
0.0
 11
305.0879766774
 21
230.1899638266998
 31
0.0
  0
TEXT
  5
342
330
2
100
AcDbEntity
  8
0
 62
     7
100
AcDbText
 10
356.0
 20
85.00000295524989
 30
0.0
 40
2.999994089499998
  1
BN200BW3K
 11
356.0
 21
86.49999999999989
 31
0.0
100
AcDbText
 73
     2
  0
ENDSEC
  0
SECTION
  2
OBJECTS
  0
DICTIONARY
  5
7
330
0
100
AcDbDictionary
281
     1
  3
ACAD_GROUP
350
1F
  3
ACAD_LAYOUT
350
B
  3
ACAD_MLINESTYLE
350
20
  3
ACAD_PLOTSETTINGS
350
21
  3
ACAD_PLOTSTYLENAME
350
338
  3
AcDbVariableDictionary
350
343
1001
ACAD
1000
TREAT_AS_HARD
1070
     0
  0
DICTIONARY
  5
330
330
2
100
AcDbDictionary
281
     1
  3
ACAD_LAYOUTSELFREF
350
331
  0
DICTIONARY
  5
332
330
C
100
AcDbDictionary
281
     1
  3
ACAD_LAYOUTSELFREF
350
333
  0
DICTIONARY
  5
1F
102
{ACAD_REACTORS
330
7
102
}
330
7
100
AcDbDictionary
281
     1
1001
ACAD
1000
TREAT_AS_HARD
1070
     0
  0
DICTIONARY
  5
B
102
{ACAD_REACTORS
330
7
102
}
330
7
100
AcDbDictionary
281
     1
  3
Model
350
33A
  3
ﾚｲｱｳﾄ1
350
33B
1001
ACAD
1000
TREAT_AS_HARD
1070
     0
  0
DICTIONARY
  5
20
102
{ACAD_REACTORS
330
7
102
}
330
7
100
AcDbDictionary
281
     1
  3
STANDARD
350
22
1001
ACAD
1000
TREAT_AS_HARD
1070
     0
  0
DICTIONARY
  5
21
102
{ACAD_REACTORS
330
7
102
}
330
7
100
AcDbDictionary
281
     1
1001
ACAD
1000
TREAT_AS_HARD
1070
     0
  0
ACDBDICTIONARYWDFLT
  5
338
102
{ACAD_REACTORS
330
7
102
}
330
7
100
AcDbDictionary
281
     1
  3
Normal
350
339
100
AcDbDictionaryWithDefault
340
339
  0
DICTIONARY
  5
343
102
{ACAD_REACTORS
330
7
102
}
330
7
100
AcDbDictionary
281
     1
  3
DIMASSOC
350
344
  0
XRECORD
  5
331
102
{ACAD_REACTORS
330
330
102
}
330
330
100
AcDbXrecord
280
     1
340
2
  0
XRECORD
  5
333
102
{ACAD_REACTORS
330
332
102
}
330
332
100
AcDbXrecord
280
     1
340
C
  0
LAYOUT
  5
33A
102
{ACAD_REACTORS
330
B
102
}
330
B
100
AcDbPlotSettings
  1

  2
C:\Program Files\AutoCAD 2002\plotters\DWF ePlot (optimized for plotting).pc3
  4

  6

 40
0.0
 41
0.0
 42
0.0
 43
0.0
 44
0.0
 45
0.0
 46
0.0
 47
0.0
 48
0.0
 49
0.0
140
0.0
141
0.0
142
1.0
143
1.0
 70
  1712
 72
     0
 73
     0
 74
     0
  7

 75
     0
147
1.0
148
0.0
149
0.0
100
AcDbLayout
  1
Model
 70
     1
 71
     0
 10
0.0
 20
0.0
 11
12.0
 21
9.0
 12
0.0
 22
0.0
 32
0.0
 14
0.0
 24
0.0
 34
0.0
 15
0.0
 25
0.0
 35
0.0
146
0.0
 13
0.0
 23
0.0
 33
0.0
 16
1.0
 26
0.0
 36
0.0
 17
0.0
 27
1.0
 37
0.0
 76
     0
330
2
  0
LAYOUT
  5
33B
102
{ACAD_REACTORS
330
B
102
}
330
B
100
AcDbPlotSettings
  1

  2
C:\Program Files\AutoCAD 2002\plotters\DWF ePlot (optimized for plotting).pc3
  4

  6

 40
0.0
 41
0.0
 42
0.0
 43
0.0
 44
0.0
 45
0.0
 46
0.0
 47
0.0
 48
0.0
 49
0.0
140
0.0
141
0.0
142
1.0
143
1.0
 70
   688
 72
     0
 73
     0
 74
     5
  7

 75
    16
147
1.0
148
0.0
149
0.0
100
AcDbLayout
  1
ﾚｲｱｳﾄ1
 70
     1
 71
     1
 10
0.0
 20
0.0
 11
12.0
 21
9.0
 12
0.0
 22
0.0
 32
0.0
 14
1.000000000000000E+20
 24
1.000000000000000E+20
 34
1.000000000000000E+20
 15
-1.000000000000000E+20
 25
-1.000000000000000E+20
 35
-1.000000000000000E+20
146
0.0
 13
0.0
 23
0.0
 33
0.0
 16
1.0
 26
0.0
 36
0.0
 17
0.0
 27
1.0
 37
0.0
 76
     0
330
C
  0
MLINESTYLE
  5
22
102
{ACAD_REACTORS
330
20
102
}
330
20
100
AcDbMlineStyle
  2
STANDARD
 70
     0
  3

 62
   256
 51
90.0
 52
90.0
 71
     2
 49
0.5
 62
   256
  6
BYLAYER
 49
-0.5
 62
   256
  6
BYLAYER
  0
ACDBPLACEHOLDER
  5
339
102
{ACAD_REACTORS
330
338
102
}
330
338
  0
DICTIONARYVAR
  5
344
102
{ACAD_REACTORS
330
343
102
}
330
343
100
DictionaryVariables
280
     0
  1
1
  0
ENDSEC
  0
EOF
