  0
SECTION
  2
HEADER
  9
$ACADVER
  1
AC1015
  9
$ACADMAINTVER
 70
    13
  9
$DWGCODEPAGE
  3
ANSI_932
  9
$INSBASE
 10
0.0
 20
0.0
 30
0.0
  9
$EXTMIN
 10
-0.0410670150695296
 20
-0.0008048076929299
 30
-0.0000000349181948
  9
$EXTMAX
 10
420.0446062410346
 20
297.0131081537071
 30
0.0000000814935747
  9
$LIMMIN
 10
-412.983380127
 20
-3.174999999999998
  9
$LIMMAX
 10
3.174999999999998
 20
291.2585876465
  9
$ORTHOMODE
 70
     0
  9
$REGENMODE
 70
     1
  9
$FILLMODE
 70
     1
  9
$QTEXTMODE
 70
     0
  9
$MIRRTEXT
 70
     0
  9
$LTSCALE
 40
1.0
  9
$ATTMODE
 70
     1
  9
$TEXTSIZE
 40
2.999994039499997
  9
$TRACEWID
 40
0.05
  9
$TEXTSTYLE
  7
STANDARD
  9
$CLAYER
  8
0
  9
$CELTYPE
  6
BYLAYER
  9
$CECOLOR
 62
   256
  9
$CELTSCALE
 40
1.0
  9
$DISPSILH
 70
     0
  9
$DIMSCALE
 40
1.0
  9
$DIMASZ
 40
1.9727878465
  9
$DIMEXO
 40
2.539999961899999
  9
$DIMDLI
 40
0.38
  9
$DIMRND
 40
0.0
  9
$DIMDLE
 40
0.0
  9
$DIMEXE
 40
3.809999942799997
  9
$DIMTP
 40
0.0
  9
$DIMTM
 40
0.0
  9
$DIMTXT
 40
2.999994039499997
  9
$DIMCEN
 40
0.09
  9
$DIMTSZ
 40
0.0
  9
$DIMTOL
 70
     0
  9
$DIMLIM
 70
     0
  9
$DIMTIH
 70
     0
  9
$DIMTOH
 70
     1
  9
$DIMSE1
 70
     0
  9
$DIMSE2
 70
     0
  9
$DIMTAD
 70
     0
  9
$DIMZIN
 70
     0
  9
$DIMBLK
  1

  9
$DIMASO
 70
     1
  9
$DIMSHO
 70
     0
  9
$DIMPOST
  1

  9
$DIMAPOST
  1

  9
$DIMALT
 70
     0
  9
$DIMALTD
 70
     2
  9
$DIMALTF
 40
25.4
  9
$DIMLFAC
 40
1.0
  9
$DIMTOFL
 70
     0
  9
$DIMTVP
 40
0.0
  9
$DIMTIX
 70
     0
  9
$DIMSOXD
 70
     0
  9
$DIMSAH
 70
     0
  9
$DIMBLK1
  1

  9
$DIMBLK2
  1

  9
$DIMSTYLE
  2
STANDARD
  9
$DIMCLRD
 70
     0
  9
$DIMCLRE
 70
     0
  9
$DIMCLRT
 70
     0
  9
$DIMTFAC
 40
1.0
  9
$DIMGAP
 40
0.09
  9
$DIMJUST
 70
     0
  9
$DIMSD1
 70
     0
  9
$DIMSD2
 70
     0
  9
$DIMTOLJ
 70
     1
  9
$DIMTZIN
 70
     0
  9
$DIMALTZ
 70
     0
  9
$DIMALTTZ
 70
     0
  9
$DIMUPT
 70
     0
  9
$DIMDEC
 70
     4
  9
$DIMTDEC
 70
     4
  9
$DIMALTU
 70
     2
  9
$DIMALTTD
 70
     2
  9
$DIMTXSTY
  7
STANDARD
  9
$DIMAUNIT
 70
     0
  9
$DIMADEC
 70
     0
  9
$DIMALTRND
 40
0.0
  9
$DIMAZIN
 70
     0
  9
$DIMDSEP
 70
    46
  9
$DIMATFIT
 70
     3
  9
$DIMFRAC
 70
     0
  9
$DIMLDRBLK
  1

  9
$DIMLUNIT
 70
     2
  9
$DIMLWD
 70
    -2
  9
$DIMLWE
 70
    -2
  9
$DIMTMOVE
 70
     0
  9
$LUNITS
 70
     2
  9
$LUPREC
 70
     3
  9
$SKETCHINC
 40
0.1
  9
$FILLETRAD
 40
0.0625
  9
$AUNITS
 70
     0
  9
$AUPREC
 70
     0
  9
$MENU
  1
ACAD
  9
$ELEVATION
 40
0.0
  9
$PELEVATION
 40
0.0
  9
$THICKNESS
 40
0.0
  9
$LIMCHECK
 70
     0
  9
$CHAMFERA
 40
0.0
  9
$CHAMFERB
 40
0.0
  9
$CHAMFERC
 40
0.0
  9
$CHAMFERD
 40
0.0
  9
$SKPOLY
 70
     0
  9
$TDCREATE
 40
2453377.949201388
  9
$TDUCREATE
 40
2453377.574201389
  9
$TDUPDATE
 40
2453390.664906678
  9
$TDUUPDATE
 40
2453390.289906678
  9
$TDINDWG
 40
0.0024106597
  9
$TDUSRTIMER
 40
0.0024103009
  9
$USRTIMER
 70
     1
  9
$ANGBASE
 50
0.0
  9
$ANGDIR
 70
     0
  9
$PDMODE
 70
     0
  9
$PDSIZE
 40
0.0
  9
$PLINEWID
 40
0.0
  9
$SPLFRAME
 70
     0
  9
$SPLINETYPE
 70
     6
  9
$SPLINESEGS
 70
     8
  9
$HANDSEED
  5
42F
  9
$SURFTAB1
 70
     6
  9
$SURFTAB2
 70
     6
  9
$SURFTYPE
 70
     6
  9
$SURFU
 70
     6
  9
$SURFV
 70
     6
  9
$UCSBASE
  2

  9
$UCSNAME
  2

  9
$UCSORG
 10
0.0
 20
0.0
 30
0.0
  9
$UCSXDIR
 10
1.0
 20
0.0
 30
0.0
  9
$UCSYDIR
 10
0.0
 20
1.0
 30
0.0
  9
$UCSORTHOREF
  2

  9
$UCSORTHOVIEW
 70
     0
  9
$UCSORGTOP
 10
0.0
 20
0.0
 30
0.0
  9
$UCSORGBOTTOM
 10
0.0
 20
0.0
 30
0.0
  9
$UCSORGLEFT
 10
0.0
 20
0.0
 30
0.0
  9
$UCSORGRIGHT
 10
0.0
 20
0.0
 30
0.0
  9
$UCSORGFRONT
 10
0.0
 20
0.0
 30
0.0
  9
$UCSORGBACK
 10
0.0
 20
0.0
 30
0.0
  9
$PUCSBASE
  2

  9
$PUCSNAME
  2

  9
$PUCSORG
 10
0.0
 20
0.0
 30
0.0
  9
$PUCSXDIR
 10
1.0
 20
0.0
 30
0.0
  9
$PUCSYDIR
 10
0.0
 20
1.0
 30
0.0
  9
$PUCSORTHOREF
  2

  9
$PUCSORTHOVIEW
 70
     0
  9
$PUCSORGTOP
 10
0.0
 20
0.0
 30
0.0
  9
$PUCSORGBOTTOM
 10
0.0
 20
0.0
 30
0.0
  9
$PUCSORGLEFT
 10
0.0
 20
0.0
 30
0.0
  9
$PUCSORGRIGHT
 10
0.0
 20
0.0
 30
0.0
  9
$PUCSORGFRONT
 10
0.0
 20
0.0
 30
0.0
  9
$PUCSORGBACK
 10
0.0
 20
0.0
 30
0.0
  9
$USERI1
 70
    24
  9
$USERI2
 70
     0
  9
$USERI3
 70
     0
  9
$USERI4
 70
     0
  9
$USERI5
 70
     0
  9
$USERR1
 40
0.0
  9
$USERR2
 40
0.0
  9
$USERR3
 40
0.0
  9
$USERR4
 40
0.0
  9
$USERR5
 40
0.0
  9
$WORLDVIEW
 70
     1
  9
$SHADEDGE
 70
     3
  9
$SHADEDIF
 70
    70
  9
$TILEMODE
 70
     1
  9
$MAXACTVP
 70
    64
  9
$PINSBASE
 10
0.0
 20
0.0
 30
0.0
  9
$PLIMCHECK
 70
     0
  9
$PEXTMIN
 10
1.000000000000000E+20
 20
1.000000000000000E+20
 30
1.000000000000000E+20
  9
$PEXTMAX
 10
-1.000000000000000E+20
 20
-1.000000000000000E+20
 30
-1.000000000000000E+20
  9
$PLIMMIN
 10
0.0
 20
0.0
  9
$PLIMMAX
 10
12.0
 20
9.0
  9
$UNITMODE
 70
     0
  9
$VISRETAIN
 70
     1
  9
$PLINEGEN
 70
     0
  9
$PSLTSCALE
 70
     1
  9
$TREEDEPTH
 70
  3020
  9
$CMLSTYLE
  2
STANDARD
  9
$CMLJUST
 70
     0
  9
$CMLSCALE
 40
1.0
  9
$PROXYGRAPHICS
 70
     1
  9
$MEASUREMENT
 70
     0
  9
$CELWEIGHT
370
    -1
  9
$ENDCAPS
280
     0
  9
$JOINSTYLE
280
     0
  9
$LWDISPLAY
290
     0
  9
$INSUNITS
 70
     0
  9
$HYPERLINKBASE
  1

  9
$STYLESHEET
  1

  9
$XEDIT
290
     1
  9
$CEPSNTYPE
380
     0
  9
$PSTYLEMODE
290
     1
  9
$FINGERPRINTGUID
  2
{EE563186-E992-4E76-8490-76ADE9D88E54}
  9
$VERSIONGUID
  2
{95469477-5D63-4B5F-9394-95FD31516839}
  9
$EXTNAMES
290
     1
  9
$PSVPSCALE
 40
0.0
  9
$OLESTARTUP
290
     0
  0
ENDSEC
  0
SECTION
  2
CLASSES
  0
CLASS
  1
ACDBDICTIONARYWDFLT
  2
AcDbDictionaryWithDefault
  3
AutoCAD 2000
 90
        0
280
     0
281
     0
  0
CLASS
  1
ACDBPLACEHOLDER
  2
AcDbPlaceHolder
  3
AutoCAD 2000
 90
        0
280
     0
281
     0
  0
CLASS
  1
LAYOUT
  2
AcDbLayout
  3
AutoCAD 2000
 90
        0
280
     0
281
     0
  0
CLASS
  1
LONG_TRANSACTION
  2
AcDbLongTransaction
  3
AutoCAD 2000
 90
    32768
280
     0
281
     0
  0
CLASS
  1
LWPOLYLINE
  2
AcDbPolyline
  3
AutoCAD 2000
 90
    32768
280
     0
281
     1
  0
CLASS
  1
HATCH
  2
AcDbHatch
  3
AutoCAD 2000
 90
    32768
280
     0
281
     1
  0
CLASS
  1
XRECORD
  2
AcDbXrecord
  3
AutoCAD 2000
 90
    32768
280
     0
281
     0
  0
CLASS
  1
DICTIONARYVAR
  2
AcDbDictionaryVar
  3
AutoCAD 2000
 90
        0
280
     0
281
     0
  0
ENDSEC
  0
SECTION
  2
TABLES
  0
TABLE
  2
VPORT
  5
19
330
0
100
AcDbSymbolTable
 70
     2
  0
VPORT
  5
42E
330
19
100
AcDbSymbolTableRecord
100
AcDbViewportTableRecord
  2
*Active
 70
     0
 10
0.0
 20
0.0
 11
1.0
 21
1.0
 12
210.0017696129825
 22
148.506151673007
 13
0.0
 23
0.0
 14
1.0
 24
1.0
 15
0.0
 25
0.0
 16
0.0
 26
0.0
 36
1.0
 17
0.0
 27
0.0
 37
0.0
 40
301.3498824936832
 41
2.407317073170731
 42
50.0
 43
0.0
 44
0.0
 50
0.0
 51
0.0
 71
     0
 72
   100
 73
     1
 74
     1
 75
     0
 76
     0
 77
     0
 78
     0
281
     0
 65
     1
110
0.0
120
0.0
130
0.0
111
1.0
121
0.0
131
0.0
112
0.0
122
1.0
132
0.0
 79
     0
146
0.0
  0
ENDTAB
  0
TABLE
  2
LTYPE
  5
14
330
0
100
AcDbSymbolTable
 70
     3
  0
LTYPE
  5
15
330
14
100
AcDbSymbolTableRecord
100
AcDbLinetypeTableRecord
  2
BYBLOCK
 70
     0
  3

 72
    65
 73
     0
 40
0.0
  0
LTYPE
  5
16
330
14
100
AcDbSymbolTableRecord
100
AcDbLinetypeTableRecord
  2
BYLAYER
 70
     0
  3

 72
    65
 73
     0
 40
0.0
  0
LTYPE
  5
8
330
14
100
AcDbSymbolTableRecord
100
AcDbLinetypeTableRecord
  2
CONTINUOUS
 70
     0
  3
Solid line
 72
    65
 73
     0
 40
0.0
  0
LTYPE
  5
33
330
14
100
AcDbSymbolTableRecord
100
AcDbLinetypeTableRecord
  2
CENTER
 70
     0
  3
Center
 72
    65
 73
     4
 40
9.100006759199999
 49
6.5000119209
 74
     0
 49
-0.7999984026000001
 74
     0
 49
0.9999980329999999
 74
     0
 49
-0.7999984026000001
 74
     0
  0
LTYPE
  5
28
330
14
100
AcDbSymbolTableRecord
100
AcDbLinetypeTableRecord
  2
PHANTOM
 70
     0
  3
Phantom
 72
    65
 73
     6
 40
9.499981462999999
 49
4.799990654
 74
     0
 49
-0.8999982475999999
 74
     0
 49
0.9999980329999999
 74
     0
 49
-0.8999982475999999
 74
     0
 49
0.9999980329999999
 74
     0
 49
-0.8999982475999999
 74
     0
  0
ENDTAB
  0
TABLE
  2
LAYER
  5
10
330
0
100
AcDbSymbolTable
 70
     1
  0
LAYER
  5
4
330
10
100
AcDbSymbolTableRecord
100
AcDbLayerTableRecord
  2
0
 70
     0
 62
     7
  6
CONTINUOUS
370
    -3
390
422
  0
ENDTAB
  0
TABLE
  2
STYLE
  5
11
330
0
100
AcDbSymbolTable
 70
     1
  0
STYLE
  5
12
330
11
100
AcDbSymbolTableRecord
100
AcDbTextStyleTableRecord
  2
STANDARD
 70
     0
 40
0.0
 41
1.0
 50
0.0
 71
     0
 42
2.999994039499997
  3
romans.shx
  4
bigfont.shx
  0
ENDTAB
  0
TABLE
  2
VIEW
  5
17
330
0
100
AcDbSymbolTable
 70
     0
  0
ENDTAB
  0
TABLE
  2
UCS
  5
18
330
0
100
AcDbSymbolTable
 70
     0
  0
ENDTAB
  0
TABLE
  2
APPID
  5
1B
330
0
100
AcDbSymbolTable
 70
     1
  0
APPID
  5
1C
330
1B
100
AcDbSymbolTableRecord
100
AcDbRegAppTableRecord
  2
ACAD
 70
     0
  0
ENDTAB
  0
TABLE
  2
DIMSTYLE
  5
1D
330
0
100
AcDbSymbolTable
 70
     1
100
AcDbDimStyleTable
 71
     0
  0
DIMSTYLE
105
23
330
1D
100
AcDbSymbolTableRecord
100
AcDbDimStyleTableRecord
  2
STANDARD
 70
     0
340
12
  0
ENDTAB
  0
TABLE
  2
BLOCK_RECORD
  5
1
330
0
100
AcDbSymbolTable
 70
     1
  0
BLOCK_RECORD
  5
2
102
{ACAD_XDICTIONARY
360
419
102
}
330
1
100
AcDbSymbolTableRecord
100
AcDbBlockTableRecord
  2
*MODEL_SPACE
340
423
  0
BLOCK_RECORD
  5
C
102
{ACAD_XDICTIONARY
360
41B
102
}
330
1
100
AcDbSymbolTableRecord
100
AcDbBlockTableRecord
  2
*PAPER_SPACE
340
424
  0
ENDTAB
  0
ENDSEC
  0
SECTION
  2
BLOCKS
  0
BLOCK
  5
3
330
2
100
AcDbEntity
  8
0
100
AcDbBlockBegin
  2
*MODEL_SPACE
 70
     0
 10
0.0
 20
0.0
 30
0.0
  3
*MODEL_SPACE
  1

  0
ENDBLK
  5
9
330
2
100
AcDbEntity
  8
0
100
AcDbBlockEnd
  0
BLOCK
  5
D
330
C
100
AcDbEntity
 67
     1
  8
0
100
AcDbBlockBegin
  2
*PAPER_SPACE
 70
     0
 10
0.0
 20
0.0
 30
0.0
  3
*PAPER_SPACE
  1

  0
ENDBLK
  5
E
330
C
100
AcDbEntity
 67
     1
  8
0
100
AcDbBlockEnd
  0
ENDSEC
  0
SECTION
  2
ENTITIES
  0
LINE
  5
24
330
2
100
AcDbEntity
  8
0
100
AcDbLine
 10
420.0
 20
0.0
 30
0.0
 11
420.0
 21
297.0
 31
0.0
  0
LINE
  5
25
330
2
100
AcDbEntity
  8
0
100
AcDbLine
 10
0.0
 20
297.0
 30
0.0
 11
0.0
 21
0.0
 31
0.0
  0
LINE
  5
26
330
2
100
AcDbEntity
  8
0
100
AcDbLine
 10
0.0
 20
0.0
 30
0.0
 11
420.0
 21
0.0
 31
0.0
  0
LINE
  5
27
330
2
100
AcDbEntity
  8
0
  6
PHANTOM
 62
     3
100
AcDbLine
 10
39.65333708000002
 20
47.5144292447
 30
0.0
 11
56.90373075669999
 21
47.5144292447
 31
0.0
  0
LINE
  5
29
330
2
100
AcDbEntity
  8
0
  6
PHANTOM
 62
     3
100
AcDbLine
 10
71.30361784169997
 20
32.5144292447
 30
0.0
 11
39.70336759759993
 21
32.5144292447
 31
0.0
  0
LINE
  5
2A
330
2
100
AcDbEntity
  8
0
  6
PHANTOM
 62
     3
100
AcDbLine
 10
39.70336759759993
 20
32.5144292447
 30
0.0
 11
39.70336759759993
 21
47.5144292447
 31
0.0
  0
LINE
  5
2B
330
2
100
AcDbEntity
  8
0
 62
     3
100
AcDbLine
 10
182.3028854197999
 20
93.51842704739999
 30
0.0
 11
186.3028854197999
 21
93.51842704739999
 31
0.0
  0
LINE
  5
2C
330
2
100
AcDbEntity
  8
0
 62
     3
100
AcDbLine
 10
182.3028854197999
 20
97.513178024
 30
0.0
 11
186.3028854197999
 21
97.513178024
 31
0.0
  0
LINE
  5
2D
330
2
100
AcDbEntity
  8
0
 62
     3
100
AcDbLine
 10
182.3028854197999
 20
88.51314750639998
 30
0.0
 11
186.3028854197999
 21
88.51314750639998
 31
0.0
  0
LINE
  5
2E
330
2
100
AcDbEntity
  8
0
 62
     3
100
AcDbLine
 10
71.30358732409995
 20
83.51339164699998
 30
0.0
 11
186.3028243846999
 21
83.51339164699998
 31
0.0
  0
LINE
  5
2F
330
2
100
AcDbEntity
  8
0
 62
     3
100
AcDbLine
 10
186.3028243846999
 20
32.514337692
 30
0.0
 11
71.30358732409995
 21
32.514337692
 31
0.0
  0
LINE
  5
30
330
2
100
AcDbEntity
  8
0
  6
PHANTOM
 62
     3
100
AcDbLine
 10
71.30361784169997
 20
99.01354423489999
 30
0.0
 11
186.3028243846999
 21
99.01354423489999
 31
0.0
  0
LINE
  5
31
330
2
100
AcDbEntity
  8
0
  6
PHANTOM
 62
     3
100
AcDbLine
 10
71.30358732409995
 20
88.513391647
 30
0.0
 11
186.3028243846999
 21
88.513391647
 31
0.0
  0
LINE
  5
32
330
2
100
AcDbEntity
  8
0
  6
CENTER
 62
     3
100
AcDbLine
 10
128.8032821483
 20
104.0136052700999
 30
0.0
 11
128.8032821483
 21
25.8436140263
 31
0.0
  0
LINE
  5
34
330
2
100
AcDbEntity
  8
0
  6
CENTER
 62
     3
100
AcDbLine
 10
165.8032821482999
 20
104.0136052700999
 30
0.0
 11
165.8032821482999
 21
25.8436140263
 31
0.0
  0
LINE
  5
35
330
2
100
AcDbEntity
  8
0
 62
     3
100
AcDbLine
 10
113.8039840525999
 20
42.514551315
 30
0.0
 11
113.8039840525999
 21
64.5145207974
 31
0.0
  0
LINE
  5
36
330
2
100
AcDbEntity
  8
0
 62
     3
100
AcDbLine
 10
143.8030990428998
 20
64.5137883756
 30
0.0
 11
143.8030990428998
 21
42.5138188931
 31
0.0
  0
LINE
  5
37
330
2
100
AcDbEntity
  8
0
 62
     3
100
AcDbLine
 10
150.8039535350999
 20
42.514551315
 30
0.0
 11
150.8039535350999
 21
64.5145207974
 31
0.0
  0
LINE
  5
38
330
2
100
AcDbEntity
  8
0
 62
     3
100
AcDbLine
 10
180.8029464549999
 20
64.5137883756
 30
0.0
 11
180.8029464549999
 21
42.51384941069999
 31
0.0
  0
LINE
  5
39
330
2
100
AcDbEntity
  8
0
  6
CENTER
 62
     3
100
AcDbLine
 10
91.80328214830002
 20
104.0136357877
 30
0.0
 11
91.80328214830002
 21
27.5144292447
 31
0.0
  0
LINE
  5
3A
330
2
100
AcDbEntity
  8
0
 62
     3
100
AcDbLine
 10
106.8033126658999
 20
64.51381889310001
 30
0.0
 11
106.8033126658999
 21
42.51387992829999
 31
0.0
  0
LINE
  5
3B
330
2
100
AcDbEntity
  8
0
 62
     3
100
AcDbLine
 10
71.30361784169997
 20
47.5144292447
 30
0.0
 11
71.30361784169997
 21
65.51442924469999
 31
0.0
  0
LINE
  5
3C
330
2
100
AcDbEntity
  8
0
  6
PHANTOM
 62
     3
100
AcDbLine
 10
69.10372770500003
 20
58.5143987271
 30
0.0
 11
69.10372770500003
 21
47.5143987271
 31
0.0
  0
LINE
  5
3D
330
2
100
AcDbEntity
  8
0
  6
PHANTOM
 62
     3
100
AcDbLine
 10
59.10374296379997
 20
58.5143987271
 30
0.0
 11
59.10374296379997
 21
47.5143987271
 31
0.0
  0
LINE
  5
3E
330
2
100
AcDbEntity
  8
0
  6
PHANTOM
 62
     3
100
AcDbLine
 10
67.50373686030002
 20
58.5143987271
 30
0.0
 11
67.50373686030002
 21
47.5143987271
 31
0.0
  0
LINE
  5
3F
330
2
100
AcDbEntity
  8
0
  6
PHANTOM
 62
     3
100
AcDbLine
 10
60.70373380849996
 20
58.5143987271
 30
0.0
 11
60.70373380849996
 21
47.5143987271
 31
0.0
  0
LINE
  5
40
330
2
100
AcDbEntity
  8
0
  6
PHANTOM
 62
     3
100
AcDbLine
 10
58.90373075669997
 20
65.01438346829999
 30
0.0
 11
58.90373075669997
 21
34.51438346829998
 31
0.0
  0
LINE
  5
41
330
2
100
AcDbEntity
  8
0
  6
PHANTOM
 62
     3
100
AcDbLine
 10
69.30373991199997
 20
65.01438346829999
 30
0.0
 11
69.30373991199997
 21
34.51438346829998
 31
0.0
  0
LINE
  5
42
330
2
100
AcDbEntity
  8
0
  6
PHANTOM
 62
     3
100
AcDbLine
 10
56.90373075669999
 20
65.01438346829999
 30
0.0
 11
56.90373075669999
 21
34.51438346829998
 31
0.0
  0
LINE
  5
43
330
2
100
AcDbEntity
  8
0
  6
PHANTOM
 62
     3
100
AcDbLine
 10
71.30373991199997
 20
65.01438346829999
 30
0.0
 11
71.30373991199997
 21
34.51438346829998
 31
0.0
  0
LINE
  5
44
330
2
100
AcDbEntity
  8
0
 62
     3
100
AcDbLine
 10
76.80355680649995
 20
42.5137273404
 30
0.0
 11
76.80355680649995
 21
64.5136968228
 31
0.0
  0
LINE
  5
45
330
2
100
AcDbEntity
  8
0
 62
     3
100
AcDbLine
 10
71.30358732409995
 20
32.513757858
 30
0.0
 11
71.30358732409995
 21
97.5135137174
 31
0.0
  0
LINE
  5
46
330
2
100
AcDbEntity
  8
0
 62
     3
100
AcDbLine
 10
141.8031600779999
 20
40.5142156217
 30
0.0
 11
115.8034652537999
 21
40.5142156217
 31
0.0
  0
LINE
  5
47
330
2
100
AcDbEntity
  8
0
 62
     3
100
AcDbLine
 10
104.8033431834999
 20
40.5140630338
 30
0.0
 11
78.76843107409995
 21
40.5140630338
 31
0.0
  0
LINE
  5
48
330
2
100
AcDbEntity
  8
0
  6
PHANTOM
 62
     3
100
AcDbLine
 10
58.90373838610003
 20
34.51438346829998
 30
0.0
 11
56.90373838610003
 21
34.51438346829998
 31
0.0
  0
LINE
  5
49
330
2
100
AcDbEntity
  8
0
  6
PHANTOM
 62
     3
100
AcDbLine
 10
71.30374754140001
 20
34.51438346829998
 30
0.0
 11
69.3037475414
 21
34.51438346829998
 31
0.0
  0
LINE
  5
4A
330
2
100
AcDbEntity
  8
0
  6
PHANTOM
 62
     3
100
AcDbLine
 10
58.90373075669997
 20
47.5144292447
 30
0.0
 11
69.30373991199997
 21
47.5144292447
 31
0.0
  0
LINE
  5
4B
330
2
100
AcDbEntity
  8
0
  6
PHANTOM
 62
     3
100
AcDbLine
 10
60.70373380849996
 20
47.5143987271
 30
0.0
 11
59.10374296379997
 21
47.5143987271
 31
0.0
  0
LINE
  5
4C
330
2
100
AcDbEntity
  8
0
  6
PHANTOM
 62
     3
100
AcDbLine
 10
58.90373075669997
 20
48.0143834683
 30
0.0
 11
56.90373075669999
 21
48.0143834683
 31
0.0
  0
LINE
  5
4D
330
2
100
AcDbEntity
  8
0
  6
PHANTOM
 62
     3
100
AcDbLine
 10
58.90373075669997
 20
50.5143834683
 30
0.0
 11
56.90373075669999
 21
50.5143834683
 31
0.0
  0
LINE
  5
4E
330
2
100
AcDbEntity
  8
0
  6
PHANTOM
 62
     3
100
AcDbLine
 10
69.10372770500003
 20
47.5143987271
 30
0.0
 11
67.50373686030002
 21
47.5143987271
 31
0.0
  0
LINE
  5
4F
330
2
100
AcDbEntity
  8
0
  6
PHANTOM
 62
     3
100
AcDbLine
 10
71.30373991199997
 20
48.0143834683
 30
0.0
 11
69.30373991199997
 21
48.0143834683
 31
0.0
  0
LINE
  5
50
330
2
100
AcDbEntity
  8
0
  6
PHANTOM
 62
     3
100
AcDbLine
 10
71.30373991199997
 20
50.5143834683
 30
0.0
 11
69.30373991199997
 21
50.5143834683
 31
0.0
  0
ARC
  5
51
330
2
100
AcDbEntity
  8
0
 62
     3
100
AcDbCircle
 10
78.80340421860002
 20
42.5138188931
 30
0.0
 40
2.0
100
AcDbArc
 50
180.0000359722
 51
269.9997994199999
  0
ARC
  5
52
330
2
100
AcDbEntity
  8
0
 62
     3
100
AcDbCircle
 10
115.8034652537999
 20
42.5141240689
 30
0.0
 40
2.0
100
AcDbArc
 50
180.0000359722
 51
269.9997994199999
  0
ARC
  5
53
330
2
100
AcDbEntity
  8
0
 62
     3
100
AcDbCircle
 10
104.8031905955999
 20
42.5139409635
 30
0.0
 40
2.0
100
AcDbArc
 50
270.0001819106
 51
359.9999285696999
  0
ARC
  5
54
330
2
100
AcDbEntity
  8
0
 62
     3
100
AcDbCircle
 10
152.8034652537999
 20
42.5141240689
 30
0.0
 40
2.0
100
AcDbArc
 50
180.0000359722
 51
269.9997994199999
  0
ARC
  5
55
330
2
100
AcDbEntity
  8
0
 62
     3
100
AcDbCircle
 10
141.8030990428998
 20
42.51397148099999
 30
0.0
 40
2.0
100
AcDbArc
 50
270.0001819106
 51
359.9999285696999
  0
LINE
  5
56
330
2
100
AcDbEntity
  8
0
 62
     3
100
AcDbLine
 10
178.8031600779999
 20
40.5142156217
 30
0.0
 11
152.8034652537999
 21
40.5142156217
 31
0.0
  0
ARC
  5
57
330
2
100
AcDbEntity
  8
0
 62
     3
100
AcDbCircle
 10
178.8030990428999
 20
42.51397148099999
 30
0.0
 40
2.0
100
AcDbArc
 50
270.0001819106
 51
359.9999285696999
  0
LINE
  5
58
330
2
100
AcDbEntity
  8
0
 62
     3
100
AcDbLine
 10
112.3036788769
 20
66.5134526822
 30
0.0
 11
145.3032821483
 21
66.5134526822
 31
0.0
  0
LINE
  5
59
330
2
100
AcDbEntity
  8
0
 62
     3
100
AcDbLine
 10
113.8036584578
 20
62.5136693397
 30
0.0
 11
143.803353282
 21
62.51363760149999
 31
0.0
  0
LINE
  5
5A
330
2
100
AcDbEntity
  8
0
 62
     3
100
AcDbLine
 10
119.0033553904997
 20
71.01339164699999
 30
0.0
 11
138.6033309764999
 21
71.01339164699999
 31
0.0
  0
LINE
  5
5B
330
2
100
AcDbEntity
  8
0
 62
     3
100
AcDbLine
 10
118.3034652537999
 20
68.5134221646
 30
0.0
 11
139.3033431834999
 21
68.5134221646
 31
0.0
  0
ARC
  5
5C
330
2
100
AcDbEntity
  8
0
 62
     3
100
AcDbCircle
 10
121.4533675975999
 20
75.2627812955
 30
0.0
 40
2.750833511399999
100
AcDbArc
 50
27.04634699999999
 51
152.9536170279
  0
LINE
  5
5D
330
2
100
AcDbEntity
  8
0
  6
PHANTOM
 62
     3
100
AcDbLine
 10
71.30358732409995
 20
97.5135137174
 30
0.0
 11
71.30358732409995
 21
99.0135137174
 31
0.0
  0
ARC
  5
5E
330
2
100
AcDbEntity
  8
0
 62
     3
100
AcDbCircle
 10
91.80328214830002
 20
69.2605229947
 30
0.0
 40
8.753328323399999
100
AcDbArc
 50
90.0201447323
 51
124.0409891390999
  0
ARC
  5
5F
330
2
100
AcDbEntity
  8
0
 62
     3
100
AcDbCircle
 10
91.80328214830002
 20
69.26050110369999
 30
0.0
 40
8.753328323399999
100
AcDbArc
 50
55.95892024720001
 51
124.0409891390999
  0
LINE
  5
60
330
2
100
AcDbEntity
  8
0
 62
     3
100
AcDbLine
 10
76.80365845779999
 20
62.5138610718
 30
0.0
 11
106.8034753522999
 21
62.51382933350001
 31
0.0
  0
LINE
  5
61
330
2
100
AcDbEntity
  8
0
 62
     3
100
AcDbLine
 10
84.45348966789998
 20
78.0135137174
 30
0.0
 11
99.15322721669998
 21
78.0135137174
 31
0.0
  0
LINE
  5
62
330
2
100
AcDbEntity
  8
0
 62
     3
100
AcDbLine
 10
81.30349577139998
 20
68.51363578770001
 30
0.0
 11
102.3030685252999
 21
68.51363578770001
 31
0.0
  0
LINE
  5
63
330
2
100
AcDbEntity
  8
0
 62
     3
100
AcDbLine
 10
82.00350797839995
 20
71.0136052701
 30
0.0
 11
101.6032394236999
 21
71.0136052701
 31
0.0
  0
LINE
  5
64
330
2
100
AcDbEntity
  8
0
 62
     3
100
AcDbLine
 10
75.30395353509994
 20
66.51363578770001
 30
0.0
 11
108.3032821483
 21
66.51363578770001
 31
0.0
  0
LINE
  5
65
330
2
100
AcDbEntity
  8
0
 62
     3
100
AcDbLine
 10
86.90328825189999
 20
76.513522344
 30
0.0
 11
86.90328825189999
 21
71.013522344
 31
0.0
  0
LINE
  5
66
330
2
100
AcDbEntity
  8
0
 62
     3
100
AcDbLine
 10
86.90344083970002
 20
76.5135137174
 30
0.0
 11
86.90344083970002
 21
71.0135137174
 31
0.0
  0
LINE
  5
67
330
2
100
AcDbEntity
  8
0
 62
     3
100
AcDbLine
 10
82.00335539049993
 20
71.01358337909998
 30
0.0
 11
82.00335539049993
 21
76.5135833791
 31
0.0
  0
LINE
  5
68
330
2
100
AcDbEntity
  8
0
 62
     3
100
AcDbLine
 10
82.00350797839995
 20
71.0136052701
 30
0.0
 11
82.00350797839995
 21
76.5136052701
 31
0.0
  0
LINE
  5
69
330
2
100
AcDbEntity
  8
0
  6
PHANTOM
 62
     3
100
AcDbLine
 10
66.10372770500004
 20
76.6143895718
 30
0.0
 11
66.10372770500004
 21
67.01438346829999
 31
0.0
  0
LINE
  5
6A
330
2
100
AcDbEntity
  8
0
  6
PHANTOM
 62
     3
100
AcDbLine
 10
65.60372770500004
 20
76.61440483060001
 30
0.0
 11
65.60372770500004
 21
67.01438346829999
 31
0.0
  0
LINE
  5
6B
330
2
100
AcDbEntity
  8
0
  6
PHANTOM
 62
     3
100
AcDbLine
 10
62.60374296379996
 20
67.01438346829999
 30
0.0
 11
62.60374296379996
 21
76.61440483060001
 31
0.0
  0
LINE
  5
6C
330
2
100
AcDbEntity
  8
0
  6
PHANTOM
 62
     3
100
AcDbLine
 10
62.10372770500004
 20
76.6143895718
 30
0.0
 11
62.10372770500004
 21
67.01438346829999
 31
0.0
  0
LINE
  5
6D
330
2
100
AcDbEntity
  8
0
 62
     3
100
AcDbLine
 10
75.30355680649996
 20
97.51354423489999
 30
0.0
 11
75.30355680649996
 21
64.5135747525
 31
0.0
  0
ARC
  5
6E
330
2
100
AcDbEntity
  8
0
  6
PHANTOM
 62
     3
100
AcDbCircle
 10
69.30373991199997
 20
65.01438346829999
 30
0.0
 40
2.0
100
AcDbArc
 50
0.000035972178762
 51
90.0000179861
  0
LINE
  5
6F
330
2
100
AcDbEntity
  8
0
  6
PHANTOM
 62
     3
100
AcDbLine
 10
66.10372770500004
 20
60.6144048306
 30
0.0
 11
66.10372770500004
 21
65.01438346829999
 31
0.0
  0
LINE
  5
70
330
2
100
AcDbEntity
  8
0
  6
PHANTOM
 62
     3
100
AcDbLine
 10
62.60374296379996
 20
65.01438346829999
 30
0.0
 11
62.60374296379996
 21
60.1144048306
 31
0.0
  0
LINE
  5
71
330
2
100
AcDbEntity
  8
0
  6
PHANTOM
 62
     3
100
AcDbLine
 10
65.60372770500004
 20
65.01438346829999
 30
0.0
 11
65.60372770500004
 21
60.1144048306
 31
0.0
  0
LINE
  5
72
330
2
100
AcDbEntity
  8
0
  6
PHANTOM
 62
     3
100
AcDbLine
 10
62.10372393509993
 20
65.014386237
 30
0.0
 11
62.10373919390002
 21
60.6144075993
 31
0.0
  0
LINE
  5
73
330
2
100
AcDbEntity
  8
0
  6
PHANTOM
 62
     3
100
AcDbLine
 10
62.10371244619995
 20
60.61442008939999
 30
0.0
 11
66.10371244619995
 21
60.61442008939999
 31
0.0
  0
LINE
  5
74
330
2
100
AcDbEntity
  8
0
  6
PHANTOM
 62
     3
100
AcDbLine
 10
69.30373991199997
 20
60.11438957180001
 30
0.0
 11
58.90373075669997
 21
60.11438957180001
 31
0.0
  0
LINE
  5
75
330
2
100
AcDbEntity
  8
0
  6
PHANTOM
 62
     3
100
AcDbLine
 10
66.70373380849998
 20
58.0143987271
 30
0.0
 11
61.50373686019998
 21
58.0143987271
 31
0.0
  0
LINE
  5
76
330
2
100
AcDbEntity
  8
0
  6
PHANTOM
 62
     3
100
AcDbLine
 10
67.50373686030002
 20
58.5143987271
 30
0.0
 11
60.70373380849996
 21
58.5143987271
 31
0.0
  0
ARC
  5
77
330
2
100
AcDbEntity
  8
0
  6
PHANTOM
 62
     3
100
AcDbCircle
 10
60.70373380849996
 20
58.5143987271
 30
0.0
 40
1.5999994278
100
AcDbArc
 50
90.0000179861
 51
180.0
  0
LINE
  5
78
330
2
100
AcDbEntity
  8
0
  6
PHANTOM
 62
     3
100
AcDbLine
 10
59.10372770500003
 20
58.5143987271
 30
0.0
 11
58.90373075669997
 21
58.5143987271
 31
0.0
  0
ARC
  5
79
330
2
100
AcDbEntity
  8
0
  6
PHANTOM
 62
     3
100
AcDbCircle
 10
61.50373686019998
 20
58.5143987271
 30
0.0
 40
0.5
100
AcDbArc
 50
180.0
 51
269.9999820138998
  0
LINE
  5
7A
330
2
100
AcDbEntity
  8
0
  6
PHANTOM
 62
     3
100
AcDbLine
 10
61.00373686030002
 20
58.5143987271
 30
0.0
 11
61.00373686030002
 21
58.43705192539999
 31
0.0
  0
LINE
  5
7B
330
2
100
AcDbEntity
  8
0
  6
PHANTOM
 62
     3
100
AcDbLine
 10
62.60373302939996
 20
60.1143937528
 30
0.0
 11
62.10373275149994
 21
60.61439453649999
 31
0.0
  0
ARC
  5
7C
330
2
100
AcDbEntity
  8
0
  6
PHANTOM
 62
     3
100
AcDbCircle
 10
66.70373380849998
 20
58.5143987271
 30
0.0
 40
0.5
100
AcDbArc
 50
269.9999993168
 51
0.0000359722000187
  0
LINE
  5
7D
330
2
100
AcDbEntity
  8
0
  6
PHANTOM
 62
     3
100
AcDbLine
 10
67.20373380849998
 20
58.5143987271
 30
0.0
 11
67.20373380849998
 21
58.43705192539999
 31
0.0
  0
LINE
  5
7E
330
2
100
AcDbEntity
  8
0
  6
PHANTOM
 62
     3
100
AcDbLine
 10
66.10372620819997
 20
60.6143817238
 30
0.0
 11
65.6037254245
 21
60.11438144590001
 31
0.0
  0
ARC
  5
7F
330
2
100
AcDbEntity
  8
0
  6
PHANTOM
 62
     3
100
AcDbCircle
 10
67.50373686030002
 20
58.5143987271
 30
0.0
 40
1.5999994278
100
AcDbArc
 50
0.000035972178762
 51
90.0000179861
  0
LINE
  5
80
330
2
100
AcDbEntity
  8
0
  6
PHANTOM
 62
     3
100
AcDbLine
 10
69.10372770500003
 20
58.5143987271
 30
0.0
 11
69.30373991199997
 21
58.5143987271
 31
0.0
  0
LINE
  5
81
330
2
100
AcDbEntity
  8
0
  6
PHANTOM
 62
     3
100
AcDbLine
 10
69.30373991199997
 20
65.01438346829999
 30
0.0
 11
58.90373075669997
 21
65.01438346829999
 31
0.0
  0
LINE
  5
82
330
2
100
AcDbEntity
  8
0
  6
PHANTOM
 62
     3
100
AcDbLine
 10
69.30373991199997
 20
67.01438346829999
 30
0.0
 11
58.90373075669997
 21
67.01438346829999
 31
0.0
  0
ARC
  5
83
330
2
100
AcDbEntity
  8
0
  6
PHANTOM
 62
     3
100
AcDbCircle
 10
58.90373075669997
 20
65.01438346829999
 30
0.0
 40
2.0
100
AcDbArc
 50
90.0000179861
 51
180.0
  0
LINE
  5
84
330
2
100
AcDbEntity
  8
0
 62
     3
100
AcDbLine
 10
75.30352854170001
 20
64.51357338380001
 30
0.0
 11
76.80352854170002
 21
64.5135886426
 31
0.0
  0
LINE
  5
85
330
2
100
AcDbEntity
  8
0
 62
     3
100
AcDbLine
 10
82.60333097649999
 20
68.5136138967
 30
0.0
 11
82.60333097649999
 21
71.0136138967
 31
0.0
  0
LINE
  5
86
330
2
100
AcDbEntity
  8
0
 62
     3
100
AcDbLine
 10
82.60348356439996
 20
68.51363578770001
 30
0.0
 11
82.60348356439996
 21
71.01363578770001
 31
0.0
  0
LINE
  5
87
330
2
100
AcDbEntity
  8
0
 62
     3
100
AcDbLine
 10
81.30346525379996
 20
66.51364441430001
 30
0.0
 11
81.30346525379996
 21
68.5136444143
 31
0.0
  0
LINE
  5
88
330
2
100
AcDbEntity
  8
0
 62
     3
100
AcDbLine
 10
81.30349577139998
 20
66.51363578770001
 30
0.0
 11
81.30349577139998
 21
68.51363578770001
 31
0.0
  0
LINE
  5
89
330
2
100
AcDbEntity
  8
0
 62
     3
100
AcDbLine
 10
71.30358732409995
 20
93.5187322232
 30
0.0
 11
75.30358732409997
 21
93.5187322232
 31
0.0
  0
LINE
  5
8A
330
2
100
AcDbEntity
  8
0
 62
     3
100
AcDbLine
 10
71.30358732409995
 20
97.51354423489999
 30
0.0
 11
75.30358732409997
 21
97.51354423489999
 31
0.0
  0
LINE
  5
8B
330
2
100
AcDbEntity
  8
0
  6
PHANTOM
 62
     3
100
AcDbLine
 10
63.23770773629997
 20
78.7144064127
 30
0.0
 11
64.10373318419999
 21
79.2144063531
 31
0.0
  0
ARC
  5
8C
330
2
100
AcDbEntity
  8
0
  6
PHANTOM
 62
     3
100
AcDbCircle
 10
64.10372770500003
 20
70.21439567539998
 30
0.0
 40
9.0
100
AcDbArc
 50
75.1680163166
 51
104.8320742970999
  0
LINE
  5
8D
330
2
100
AcDbEntity
  8
0
  6
PHANTOM
 62
     3
100
AcDbLine
 10
67.60372770500004
 20
76.6143895718
 30
0.0
 11
60.60372770500004
 21
76.6143895718
 31
0.0
  0
ARC
  5
8E
330
2
100
AcDbEntity
  8
0
  6
PHANTOM
 62
     3
100
AcDbCircle
 10
62.18383634759994
 20
77.4644872281
 30
0.0
 40
1.5
100
AcDbArc
 50
104.8320196555998
 51
175.0000044143
  0
LINE
  5
8F
330
2
100
AcDbEntity
  8
0
  6
PHANTOM
 62
     3
100
AcDbLine
 10
60.60373888159995
 20
76.61439344919998
 30
0.0
 11
60.68955139199999
 21
77.5952354371
 31
0.0
  0
ARC
  5
90
330
2
100
AcDbEntity
  8
0
  6
PHANTOM
 62
     3
100
AcDbCircle
 10
66.02363432119995
 20
77.4644872281
 30
0.0
 40
1.5
100
AcDbArc
 50
5.000007652199998
 51
75.1680163166
  0
LINE
  5
91
330
2
100
AcDbEntity
  8
0
  6
PHANTOM
 62
     3
100
AcDbLine
 10
66.70182632979997
 20
77.7143992303
 30
0.0
 11
64.10375411579997
 21
79.21439666729998
 31
0.0
  0
LINE
  5
92
330
2
100
AcDbEntity
  8
0
  6
PHANTOM
 62
     3
100
AcDbLine
 10
67.60373931839996
 20
76.6143936303
 30
0.0
 11
67.51792680799997
 21
77.5952356183
 31
0.0
  0
ARC
  5
93
330
2
100
AcDbEntity
  8
0
 62
     3
100
AcDbCircle
 10
84.45336759759998
 20
75.26297302749998
 30
0.0
 40
2.750833511399999
100
AcDbArc
 50
27.04634699999999
 51
152.9536170279
  0
ARC
  5
94
330
2
100
AcDbEntity
  8
0
 62
     3
100
AcDbCircle
 10
84.45336759759998
 20
75.2629949185
 30
0.0
 40
2.750833511399999
100
AcDbArc
 50
27.04634699999999
 51
152.9536170279
  0
LINE
  5
95
330
2
100
AcDbEntity
  8
0
 62
     3
100
AcDbLine
 10
119.0033553904997
 20
71.01339164699999
 30
0.0
 11
119.0033553904997
 21
76.51339164699999
 31
0.0
  0
LINE
  5
96
330
2
100
AcDbEntity
  8
0
 62
     3
100
AcDbLine
 10
96.7031234569
 20
71.01358337909998
 30
0.0
 11
96.7031234569
 21
76.5135833791
 31
0.0
  0
LINE
  5
97
330
2
100
AcDbEntity
  8
0
 62
     3
100
AcDbLine
 10
101.6030868357999
 20
76.513522344
 30
0.0
 11
101.6030868357999
 21
71.013522344
 31
0.0
  0
LINE
  5
98
330
2
100
AcDbEntity
  8
0
 62
     3
100
AcDbLine
 10
96.70330656239997
 20
71.0136052701
 30
0.0
 11
96.70330656239997
 21
76.5136052701
 31
0.0
  0
LINE
  5
99
330
2
100
AcDbEntity
  8
0
 62
     3
100
AcDbLine
 10
101.6032394236999
 20
76.5135137174
 30
0.0
 11
101.6032394236999
 21
71.0135137174
 31
0.0
  0
LINE
  5
9A
330
2
100
AcDbEntity
  8
0
 62
     3
100
AcDbLine
 10
112.3036788769
 20
64.5135572292
 30
0.0
 11
112.3036788769
 21
83.51339164699998
 31
0.0
  0
LINE
  5
9B
330
2
100
AcDbEntity
  8
0
 62
     3
100
AcDbLine
 10
108.3032821483
 20
64.5136968228
 30
0.0
 11
108.3032821483
 21
83.51360527009999
 31
0.0
  0
LINE
  5
9C
330
2
100
AcDbEntity
  8
0
 62
     3
100
AcDbLine
 10
89.30331021939997
 20
71.01367235979998
 30
0.0
 11
91.8033221878
 21
68.513657441
 31
0.0
  0
LINE
  5
9D
330
2
100
AcDbEntity
  8
0
 62
     3
100
AcDbLine
 10
94.30324931459999
 20
68.5136775451
 30
0.0
 11
91.80323734620001
 21
71.01369246379999
 31
0.0
  0
LINE
  5
9E
330
2
100
AcDbEntity
  8
0
 62
     3
100
AcDbLine
 10
89.30331409889999
 20
71.0136945036
 30
0.0
 11
90.3766406015
 21
69.9403667344
 31
0.0
  0
LINE
  5
9F
330
2
100
AcDbEntity
  8
0
 62
     3
100
AcDbLine
 10
101.0030807322999
 20
71.01358337909998
 30
0.0
 11
101.0030807322999
 21
68.51358337909998
 31
0.0
  0
LINE
  5
A0
330
2
100
AcDbEntity
  8
0
 62
     3
100
AcDbLine
 10
101.0032333201999
 20
71.0136052701
 30
0.0
 11
101.0032333201999
 21
68.5136052701
 31
0.0
  0
LINE
  5
A1
330
2
100
AcDbEntity
  8
0
 62
     3
100
AcDbLine
 10
102.3030685252999
 20
68.5136138967
 30
0.0
 11
102.3030685252999
 21
66.51361389669999
 31
0.0
  0
LINE
  5
A2
330
2
100
AcDbEntity
  8
0
 62
     3
100
AcDbLine
 10
102.3032211131998
 20
68.51363578770001
 30
0.0
 11
102.3032211131998
 21
66.51363578770001
 31
0.0
  0
LINE
  5
A3
330
2
100
AcDbEntity
  8
0
 62
     3
100
AcDbLine
 10
106.8032774612
 20
64.5136691351
 30
0.0
 11
108.3032774612
 21
64.5136386176
 31
0.0
  0
LINE
  5
A4
330
2
100
AcDbEntity
  8
0
 62
     3
100
AcDbLine
 10
119.6033309765
 20
68.5134221646
 30
0.0
 11
119.6033309765
 21
71.0134221646
 31
0.0
  0
LINE
  5
A5
330
2
100
AcDbEntity
  8
0
 62
     3
100
AcDbLine
 10
112.3037797485999
 20
64.5136997866
 30
0.0
 11
113.8037797485999
 21
64.5137293759
 31
0.0
  0
LINE
  5
A6
330
2
100
AcDbEntity
  8
0
 62
     3
100
AcDbLine
 10
118.3034652537999
 20
66.5134526822
 30
0.0
 11
118.3034652537999
 21
68.5134526822
 31
0.0
  0
ARC
  5
A7
330
2
100
AcDbEntity
  8
0
 62
     3
100
AcDbCircle
 10
91.80328214830002
 20
69.2605229947
 30
0.0
 40
8.753328323399999
100
AcDbArc
 50
55.95892024720001
 51
63.5621775482
  0
ARC
  5
A8
330
2
100
AcDbEntity
  8
0
 62
     3
100
AcDbCircle
 10
99.15322721669998
 20
75.26297302749998
 30
0.0
 40
2.750833511399999
100
AcDbArc
 50
27.04634699999999
 51
152.9536170279
  0
ARC
  5
A9
330
2
100
AcDbEntity
  8
0
 62
     3
100
AcDbCircle
 10
99.15322721669998
 20
75.2629949185
 30
0.0
 40
2.750833511399999
100
AcDbArc
 50
27.04634699999999
 51
152.9536170279
  0
LINE
  5
AA
330
2
100
AcDbEntity
  8
0
 62
     3
100
AcDbLine
 10
111.8037399119999
 20
97.5131169888
 30
0.0
 11
111.8037399119999
 21
83.51299491849998
 31
0.0
  0
LINE
  5
AB
330
2
100
AcDbEntity
  8
0
 62
     3
100
AcDbLine
 10
108.8031600779998
 20
83.51363578770001
 30
0.0
 11
108.8031600779998
 21
97.513757858
 31
0.0
  0
LINE
  5
AC
330
2
100
AcDbEntity
  8
0
 62
     3
100
AcDbLine
 10
108.8032211131998
 20
88.513391647
 30
0.0
 11
110.3029464549997
 21
88.513391647
 31
0.0
  0
LINE
  5
AD
330
2
100
AcDbEntity
  8
0
 62
     3
100
AcDbLine
 10
110.3032821483
 20
88.51314750639998
 30
0.0
 11
111.8041671580999
 21
88.51314750639998
 31
0.0
  0
LINE
  5
AE
330
2
100
AcDbEntity
  8
0
 62
     3
100
AcDbLine
 10
108.8032211131998
 20
93.51870170559999
 30
0.0
 11
110.3029464549997
 21
93.51870170559999
 31
0.0
  0
LINE
  5
AF
330
2
100
AcDbEntity
  8
0
 62
     3
100
AcDbLine
 10
108.8032211131998
 20
97.51348319979999
 30
0.0
 11
110.3029464549997
 21
97.51348319979999
 31
0.0
  0
LINE
  5
B0
330
2
100
AcDbEntity
  8
0
 62
     3
100
AcDbLine
 10
110.3032821483
 20
93.51836601229999
 30
0.0
 11
111.8041671580999
 21
93.51836601229999
 31
0.0
  0
LINE
  5
B1
330
2
100
AcDbEntity
  8
0
 62
     3
100
AcDbLine
 10
110.3032821483
 20
97.51308647129999
 30
0.0
 11
111.8041671580999
 21
97.51308647129999
 31
0.0
  0
LINE
  5
B2
330
2
100
AcDbEntity
  8
0
 62
     3
100
AcDbLine
 10
150.8036584577999
 20
62.5136693397
 30
0.0
 11
180.8033532819998
 21
62.51363760149999
 31
0.0
  0
LINE
  5
B3
330
2
100
AcDbEntity
  8
0
 62
     3
100
AcDbLine
 10
149.3036788768999
 20
66.5134526822
 30
0.0
 11
182.3032821482998
 21
66.5134526822
 31
0.0
  0
LINE
  5
B4
330
2
100
AcDbEntity
  8
0
 62
     3
100
AcDbLine
 10
138.6030868358
 20
76.5133306119
 30
0.0
 11
138.6030868358
 21
71.0133306119
 31
0.0
  0
LINE
  5
B5
330
2
100
AcDbEntity
  8
0
 62
     3
100
AcDbLine
 10
133.7031234569
 20
71.01339164699999
 30
0.0
 11
133.7031234569
 21
76.51339164699999
 31
0.0
  0
LINE
  5
B6
330
2
100
AcDbEntity
  8
0
 62
     3
100
AcDbLine
 10
123.9032882519
 20
76.5133306119
 30
0.0
 11
123.9032882519
 21
71.0133306119
 31
0.0
  0
LINE
  5
B7
330
2
100
AcDbEntity
  8
0
 62
     3
100
AcDbLine
 10
145.3032821483
 20
64.5136224238
 30
0.0
 11
145.3032821483
 21
83.51339164699998
 31
0.0
  0
LINE
  5
B8
330
2
100
AcDbEntity
  8
0
 62
     3
100
AcDbLine
 10
149.3036788768999
 20
64.513697231
 30
0.0
 11
149.3036788768999
 21
83.51339164699998
 31
0.0
  0
LINE
  5
B9
330
2
100
AcDbEntity
  8
0
 62
     3
100
AcDbLine
 10
126.3033102193999
 20
71.0134806277
 30
0.0
 11
128.8033221878
 21
68.513465709
 31
0.0
  0
LINE
  5
BA
330
2
100
AcDbEntity
  8
0
 62
     3
100
AcDbLine
 10
131.3032493145999
 20
68.5134858131
 30
0.0
 11
128.8032373461999
 21
71.0135007318
 31
0.0
  0
LINE
  5
BB
330
2
100
AcDbEntity
  8
0
 62
     3
100
AcDbLine
 10
143.8030710637999
 20
64.5136386132
 30
0.0
 11
145.3030710637999
 21
64.5136224261
 31
0.0
  0
LINE
  5
BC
330
2
100
AcDbEntity
  8
0
 62
     3
100
AcDbLine
 10
138.0030807322997
 20
71.01339164699999
 30
0.0
 11
138.0030807322997
 21
68.51339164699999
 31
0.0
  0
LINE
  5
BD
330
2
100
AcDbEntity
  8
0
 62
     3
100
AcDbLine
 10
139.3030685252999
 20
68.5134221646
 30
0.0
 11
139.3030685252999
 21
66.5134221646
 31
0.0
  0
LINE
  5
BE
330
2
100
AcDbEntity
  8
0
 62
     3
100
AcDbLine
 10
149.3037492453999
 20
64.51369723239999
 30
0.0
 11
150.8039535350999
 21
64.51372682569999
 31
0.0
  0
ARC
  5
BF
330
2
100
AcDbEntity
  8
0
 62
     3
100
AcDbCircle
 10
136.1532272166999
 20
75.2627812955
 30
0.0
 40
2.750833511399999
100
AcDbArc
 50
27.04634699999999
 51
152.9536170279
  0
ARC
  5
C0
330
2
100
AcDbEntity
  8
0
 62
     3
100
AcDbCircle
 10
128.8032821483
 20
69.26030937170001
 30
0.0
 40
8.753328323399999
100
AcDbArc
 50
55.95892024720001
 51
124.0409891390999
  0
LINE
  5
C1
330
2
100
AcDbEntity
  8
0
 62
     3
100
AcDbLine
 10
121.4533065623997
 20
78.0133000943
 30
0.0
 11
136.1532882519
 21
78.0133000943
 31
0.0
  0
LINE
  5
C2
330
2
100
AcDbEntity
  8
0
 62
     3
100
AcDbLine
 10
145.8028549021999
 20
83.51311698880001
 30
0.0
 11
145.8028549021999
 21
97.51323905920001
 31
0.0
  0
LINE
  5
C3
330
2
100
AcDbEntity
  8
0
 62
     3
100
AcDbLine
 10
148.8037093944
 20
97.51314750639998
 30
0.0
 11
148.8037093944
 21
83.51302543610001
 31
0.0
  0
LINE
  5
C4
330
2
100
AcDbEntity
  8
0
 62
     3
100
AcDbLine
 10
147.3032516307999
 20
88.513178024
 30
0.0
 11
148.8041366404999
 21
88.513178024
 31
0.0
  0
LINE
  5
C5
330
2
100
AcDbEntity
  8
0
 62
     3
100
AcDbLine
 10
145.8023055858
 20
88.5129338834
 30
0.0
 11
147.3031905955997
 21
88.5129338834
 31
0.0
  0
LINE
  5
C6
330
2
100
AcDbEntity
  8
0
 62
     3
100
AcDbLine
 10
147.3032516307999
 20
93.51839652989999
 30
0.0
 11
148.8041366404999
 21
93.51839652989999
 31
0.0
  0
LINE
  5
C7
330
2
100
AcDbEntity
  8
0
 62
     3
100
AcDbLine
 10
147.3032516307999
 20
97.5131169888
 30
0.0
 11
148.8041366404999
 21
97.5131169888
 31
0.0
  0
LINE
  5
C8
330
2
100
AcDbEntity
  8
0
 62
     3
100
AcDbLine
 10
145.8023055858
 20
93.5180608365
 30
0.0
 11
147.3031905955997
 21
93.5180608365
 31
0.0
  0
LINE
  5
C9
330
2
100
AcDbEntity
  8
0
 62
     3
100
AcDbLine
 10
145.8023055858
 20
97.51268974270001
 30
0.0
 11
147.3031905955997
 21
97.51268974270001
 31
0.0
  0
LINE
  5
CA
330
2
100
AcDbEntity
  8
0
 62
     3
100
AcDbLine
 10
170.7031234568999
 20
71.01339164699999
 30
0.0
 11
170.7031234568999
 21
76.51339164699999
 31
0.0
  0
LINE
  5
CB
330
2
100
AcDbEntity
  8
0
 62
     3
100
AcDbLine
 10
175.6030868357998
 20
76.5133306119
 30
0.0
 11
175.6030868357998
 21
71.0133306119
 31
0.0
  0
LINE
  5
CC
330
2
100
AcDbEntity
  8
0
 62
     3
100
AcDbLine
 10
160.9032882518999
 20
76.5133306119
 30
0.0
 11
160.9032882518999
 21
71.0133306119
 31
0.0
  0
LINE
  5
CD
330
2
100
AcDbEntity
  8
0
 62
     3
100
AcDbLine
 10
156.0033553904998
 20
71.01339164699999
 30
0.0
 11
156.0033553904998
 21
76.51339164699999
 31
0.0
  0
LINE
  5
CE
330
2
100
AcDbEntity
  8
0
 62
     3
100
AcDbLine
 10
182.3029159374
 20
64.5136663052
 30
0.0
 11
182.3029159374
 21
97.51366630520001
 31
0.0
  0
LINE
  5
CF
330
2
100
AcDbEntity
  8
0
 62
     3
100
AcDbLine
 10
156.0033553904998
 20
71.01339164699999
 30
0.0
 11
175.6033309764999
 21
71.01339164699999
 31
0.0
  0
LINE
  5
D0
330
2
100
AcDbEntity
  8
0
 62
     3
100
AcDbLine
 10
155.3034652537999
 20
68.5134221646
 30
0.0
 11
176.3033431834999
 21
68.5134221646
 31
0.0
  0
LINE
  5
D1
330
2
100
AcDbEntity
  8
0
 62
     3
100
AcDbLine
 10
156.6033309764998
 20
68.5134221646
 30
0.0
 11
156.6033309764998
 21
71.0134221646
 31
0.0
  0
LINE
  5
D2
330
2
100
AcDbEntity
  8
0
 62
     3
100
AcDbLine
 10
155.3034652537999
 20
66.5134526822
 30
0.0
 11
155.3034652537999
 21
68.5134526822
 31
0.0
  0
LINE
  5
D3
330
2
100
AcDbEntity
  8
0
 62
     3
100
AcDbLine
 10
163.3033102193999
 20
71.0134806277
 30
0.0
 11
165.8033221878
 21
68.513465709
 31
0.0
  0
LINE
  5
D4
330
2
100
AcDbEntity
  8
0
 62
     3
100
AcDbLine
 10
168.3032493145999
 20
68.5134858131
 30
0.0
 11
165.8032373462
 21
71.0135007318
 31
0.0
  0
LINE
  5
D5
330
2
100
AcDbEntity
  8
0
 62
     3
100
AcDbLine
 10
175.0030807322999
 20
71.01339164699999
 30
0.0
 11
175.0030807322999
 21
68.51339164699999
 31
0.0
  0
LINE
  5
D6
330
2
100
AcDbEntity
  8
0
 62
     3
100
AcDbLine
 10
176.3030685252999
 20
68.5134221646
 30
0.0
 11
176.3030685252999
 21
66.5134221646
 31
0.0
  0
LINE
  5
D7
330
2
100
AcDbEntity
  8
0
 62
     3
100
AcDbLine
 10
180.8029795152999
 20
64.5136360609
 30
0.0
 11
182.3029795152999
 21
64.5136198738
 31
0.0
  0
ARC
  5
D8
330
2
100
AcDbEntity
  8
0
 62
     3
100
AcDbCircle
 10
165.8032821482999
 20
69.26030937170001
 30
0.0
 40
8.753328323399999
100
AcDbArc
 50
55.95892024720001
 51
124.0409891390999
  0
LINE
  5
D9
330
2
100
AcDbEntity
  8
0
 62
     3
100
AcDbLine
 10
158.4533065623999
 20
78.0133000943
 30
0.0
 11
173.1532882518999
 21
78.0133000943
 31
0.0
  0
ARC
  5
DA
330
2
100
AcDbEntity
  8
0
 62
     3
100
AcDbCircle
 10
158.4533675976
 20
75.2627812955
 30
0.0
 40
2.750833511399999
100
AcDbArc
 50
27.04634699999999
 51
152.9536170279
  0
ARC
  5
DB
330
2
100
AcDbEntity
  8
0
 62
     3
100
AcDbCircle
 10
173.1532272166999
 20
75.2627812955
 30
0.0
 40
2.750833511399999
100
AcDbArc
 50
27.04634699999999
 51
152.9536170279
  0
LINE
  5
DC
330
2
100
AcDbEntity
  8
0
  6
PHANTOM
 62
     3
100
AcDbLine
 10
196.9028304881999
 20
58.5143987271
 30
0.0
 11
196.9028304881999
 21
47.5143987271
 31
0.0
  0
LINE
  5
DD
330
2
100
AcDbEntity
  8
0
  6
PHANTOM
 62
     3
100
AcDbLine
 10
190.1028274363999
 20
58.5143987271
 30
0.0
 11
190.1028274363999
 21
47.5143987271
 31
0.0
  0
LINE
  5
DE
330
2
100
AcDbEntity
  8
0
  6
PHANTOM
 62
     3
100
AcDbLine
 10
198.5028213328998
 20
58.5143987271
 30
0.0
 11
198.5028213328998
 21
47.5143987271
 31
0.0
  0
LINE
  5
DF
330
2
100
AcDbEntity
  8
0
  6
PHANTOM
 62
     3
100
AcDbLine
 10
188.5028365916999
 20
58.5143987271
 30
0.0
 11
188.5028365916999
 21
47.5143987271
 31
0.0
  0
LINE
  5
E0
330
2
100
AcDbEntity
  8
0
 62
     3
100
AcDbLine
 10
186.3029464549999
 20
47.5144292447
 30
0.0
 11
186.3029464549999
 21
65.51442924469999
 31
0.0
  0
LINE
  5
E1
330
2
100
AcDbEntity
  8
0
  6
PHANTOM
 62
     3
100
AcDbLine
 10
186.3028243846999
 20
65.01438346829999
 30
0.0
 11
186.3028243846999
 21
34.51438346829998
 31
0.0
  0
LINE
  5
E2
330
2
100
AcDbEntity
  8
0
  6
PHANTOM
 62
     3
100
AcDbLine
 10
200.7028335398998
 20
65.01438346829999
 30
0.0
 11
200.7028335398998
 21
34.51438346829998
 31
0.0
  0
LINE
  5
E3
330
2
100
AcDbEntity
  8
0
  6
PHANTOM
 62
     3
100
AcDbLine
 10
188.3028243846998
 20
65.01438346829999
 30
0.0
 11
188.3028243846998
 21
34.51438346829998
 31
0.0
  0
LINE
  5
E4
330
2
100
AcDbEntity
  8
0
  6
PHANTOM
 62
     3
100
AcDbLine
 10
198.7028335398998
 20
65.01438346829999
 30
0.0
 11
198.7028335398998
 21
34.51438346829998
 31
0.0
  0
LINE
  5
E5
330
2
100
AcDbEntity
  8
0
 62
     3
100
AcDbLine
 10
186.3028243846999
 20
97.51314750639998
 30
0.0
 11
186.3028243846999
 21
32.51336112949999
 31
0.0
  0
LINE
  5
E6
330
2
100
AcDbEntity
  8
0
  6
PHANTOM
 62
     3
100
AcDbLine
 10
217.9532272167
 20
47.5144292447
 30
0.0
 11
200.7028335398998
 21
47.5144292447
 31
0.0
  0
LINE
  5
E7
330
2
100
AcDbEntity
  8
0
  6
PHANTOM
 62
     3
100
AcDbLine
 10
186.3029464549999
 20
32.5144292447
 30
0.0
 11
217.9532272167
 21
32.5144292447
 31
0.0
  0
LINE
  5
E8
330
2
100
AcDbEntity
  8
0
  6
PHANTOM
 62
     3
100
AcDbLine
 10
186.3028167553
 20
34.51438346829998
 30
0.0
 11
188.3028167553
 21
34.51438346829998
 31
0.0
  0
LINE
  5
E9
330
2
100
AcDbEntity
  8
0
  6
PHANTOM
 62
     3
100
AcDbLine
 10
198.7028259104999
 20
34.51438346829998
 30
0.0
 11
200.7028259104999
 21
34.51438346829998
 31
0.0
  0
LINE
  5
EA
330
2
100
AcDbEntity
  8
0
  6
PHANTOM
 62
     3
100
AcDbLine
 10
198.7028335398998
 20
47.5144292447
 30
0.0
 11
188.3028243846998
 21
47.5144292447
 31
0.0
  0
LINE
  5
EB
330
2
100
AcDbEntity
  8
0
  6
PHANTOM
 62
     3
100
AcDbLine
 10
188.5028365916999
 20
47.5143987271
 30
0.0
 11
190.1028274363999
 21
47.5143987271
 31
0.0
  0
LINE
  5
EC
330
2
100
AcDbEntity
  8
0
  6
PHANTOM
 62
     3
100
AcDbLine
 10
186.3028243846999
 20
50.5143834683
 30
0.0
 11
188.3028243846998
 21
50.5143834683
 31
0.0
  0
LINE
  5
ED
330
2
100
AcDbEntity
  8
0
  6
PHANTOM
 62
     3
100
AcDbLine
 10
186.3028243846999
 20
48.0143834683
 30
0.0
 11
188.3028243846998
 21
48.0143834683
 31
0.0
  0
LINE
  5
EE
330
2
100
AcDbEntity
  8
0
  6
PHANTOM
 62
     3
100
AcDbLine
 10
196.9028304881999
 20
47.5143987271
 30
0.0
 11
198.5028213328998
 21
47.5143987271
 31
0.0
  0
LINE
  5
EF
330
2
100
AcDbEntity
  8
0
  6
PHANTOM
 62
     3
100
AcDbLine
 10
198.7028335398998
 20
50.5143834683
 30
0.0
 11
200.7028335398998
 21
50.5143834683
 31
0.0
  0
LINE
  5
F0
330
2
100
AcDbEntity
  8
0
  6
PHANTOM
 62
     3
100
AcDbLine
 10
198.7028335398998
 20
48.0143834683
 30
0.0
 11
200.7028335398998
 21
48.0143834683
 31
0.0
  0
LINE
  5
F1
330
2
100
AcDbEntity
  8
0
  6
PHANTOM
 62
     3
100
AcDbLine
 10
217.9532272167
 20
32.5144292447
 30
0.0
 11
217.9532272167
 21
47.5144292447
 31
0.0
  0
LINE
  5
F2
330
2
100
AcDbEntity
  8
0
  6
PHANTOM
 62
     3
100
AcDbLine
 10
186.3028243846999
 20
99.01354423489999
 30
0.0
 11
186.3028243846999
 21
97.51314750639998
 31
0.0
  0
LINE
  5
F3
330
2
100
AcDbEntity
  8
0
  6
PHANTOM
 62
     3
100
AcDbLine
 10
195.5028365916999
 20
76.6143895718
 30
0.0
 11
195.5028365916999
 21
67.01438346829999
 31
0.0
  0
LINE
  5
F4
330
2
100
AcDbEntity
  8
0
  6
PHANTOM
 62
     3
100
AcDbLine
 10
195.0028213328998
 20
67.01438346829999
 30
0.0
 11
195.0028213328998
 21
76.61440483060001
 31
0.0
  0
LINE
  5
F5
330
2
100
AcDbEntity
  8
0
  6
PHANTOM
 62
     3
100
AcDbLine
 10
192.0028365916999
 20
76.61440483060001
 30
0.0
 11
192.0028365916999
 21
67.01438346829999
 31
0.0
  0
LINE
  5
F6
330
2
100
AcDbEntity
  8
0
  6
PHANTOM
 62
     3
100
AcDbLine
 10
191.5028365916999
 20
76.6143895718
 30
0.0
 11
191.5028365916999
 21
67.01438346829999
 31
0.0
  0
LINE
  5
F7
330
2
100
AcDbEntity
  8
0
  6
PHANTOM
 62
     3
100
AcDbLine
 10
195.0028213328998
 20
65.01438346829999
 30
0.0
 11
195.0028213328998
 21
60.1144048306
 31
0.0
  0
LINE
  5
F8
330
2
100
AcDbEntity
  8
0
  6
PHANTOM
 62
     3
100
AcDbLine
 10
195.5028403614998
 20
65.014386237
 30
0.0
 11
195.5028251027997
 21
60.6144075993
 31
0.0
  0
LINE
  5
F9
330
2
100
AcDbEntity
  8
0
  6
PHANTOM
 62
     3
100
AcDbLine
 10
192.0028365916999
 20
65.01438346829999
 30
0.0
 11
192.0028365916999
 21
60.1144048306
 31
0.0
  0
LINE
  5
FA
330
2
100
AcDbEntity
  8
0
  6
PHANTOM
 62
     3
100
AcDbLine
 10
191.5028365916999
 20
60.6144048306
 30
0.0
 11
191.5028365916999
 21
65.01438346829999
 31
0.0
  0
LINE
  5
FB
330
2
100
AcDbEntity
  8
0
  6
PHANTOM
 62
     3
100
AcDbLine
 10
190.9028304881999
 20
58.0143987271
 30
0.0
 11
196.1028274363999
 21
58.0143987271
 31
0.0
  0
LINE
  5
FC
330
2
100
AcDbEntity
  8
0
  6
PHANTOM
 62
     3
100
AcDbLine
 10
188.3028243846998
 20
60.11438957180001
 30
0.0
 11
198.7028335398998
 21
60.11438957180001
 31
0.0
  0
LINE
  5
FD
330
2
100
AcDbEntity
  8
0
  6
PHANTOM
 62
     3
100
AcDbLine
 10
195.5028518504999
 20
60.61442008939999
 30
0.0
 11
191.5028518504999
 21
60.61442008939999
 31
0.0
  0
LINE
  5
FE
330
2
100
AcDbEntity
  8
0
  6
PHANTOM
 62
     3
100
AcDbLine
 10
190.1028274363999
 20
58.5143987271
 30
0.0
 11
196.9028304881999
 21
58.5143987271
 31
0.0
  0
ARC
  5
FF
330
2
100
AcDbEntity
  8
0
  6
PHANTOM
 62
     3
100
AcDbCircle
 10
190.1028274363999
 20
58.5143987271
 30
0.0
 40
1.5999994278
100
AcDbArc
 50
89.99998201389999
 51
179.9999640277999
  0
LINE
  5
100
330
2
100
AcDbEntity
  8
0
  6
PHANTOM
 62
     3
100
AcDbLine
 10
188.5028365916999
 20
58.5143987271
 30
0.0
 11
188.3028243846998
 21
58.5143987271
 31
0.0
  0
LINE
  5
101
330
2
100
AcDbEntity
  8
0
  6
PHANTOM
 62
     3
100
AcDbLine
 10
190.4028304881999
 20
58.5143987271
 30
0.0
 11
190.4028304881999
 21
58.43705192539999
 31
0.0
  0
LINE
  5
102
330
2
100
AcDbEntity
  8
0
  6
PHANTOM
 62
     3
100
AcDbLine
 10
191.5028380884999
 20
60.6143817238
 30
0.0
 11
192.0028388721
 21
60.11438144590001
 31
0.0
  0
ARC
  5
103
330
2
100
AcDbEntity
  8
0
  6
PHANTOM
 62
     3
100
AcDbCircle
 10
190.9028304881999
 20
58.5143987271
 30
0.0
 40
0.5
100
AcDbArc
 50
179.9999640277999
 51
270.0000006831999
  0
ARC
  5
104
330
2
100
AcDbEntity
  8
0
  6
PHANTOM
 62
     3
100
AcDbCircle
 10
196.9028304881999
 20
58.5143987271
 30
0.0
 40
1.5999994278
100
AcDbArc
 50
0.0
 51
89.99998201389999
  0
LINE
  5
105
330
2
100
AcDbEntity
  8
0
  6
PHANTOM
 62
     3
100
AcDbLine
 10
196.6028274363999
 20
58.5143987271
 30
0.0
 11
196.6028274363999
 21
58.43705192539999
 31
0.0
  0
LINE
  5
106
330
2
100
AcDbEntity
  8
0
  6
PHANTOM
 62
     3
100
AcDbLine
 10
195.0028312672999
 20
60.1143937528
 30
0.0
 11
195.5028315451998
 21
60.61439453649999
 31
0.0
  0
ARC
  5
107
330
2
100
AcDbEntity
  8
0
  6
PHANTOM
 62
     3
100
AcDbCircle
 10
196.1028274363999
 20
58.5143987271
 30
0.0
 40
0.5
100
AcDbArc
 50
270.0000179861
 51
0.0
  0
LINE
  5
108
330
2
100
AcDbEntity
  8
0
  6
PHANTOM
 62
     3
100
AcDbLine
 10
198.5028365916999
 20
58.5143987271
 30
0.0
 11
198.7028335398998
 21
58.5143987271
 31
0.0
  0
LINE
  5
109
330
2
100
AcDbEntity
  8
0
  6
PHANTOM
 62
     3
100
AcDbLine
 10
188.3028243846998
 20
67.01438346829999
 30
0.0
 11
198.7028335398998
 21
67.01438346829999
 31
0.0
  0
LINE
  5
10A
330
2
100
AcDbEntity
  8
0
  6
PHANTOM
 62
     3
100
AcDbLine
 10
188.3028243846998
 20
65.01438346829999
 30
0.0
 11
198.7028335398998
 21
65.01438346829999
 31
0.0
  0
ARC
  5
10B
330
2
100
AcDbEntity
  8
0
  6
PHANTOM
 62
     3
100
AcDbCircle
 10
188.3028243846998
 20
65.01438346829999
 30
0.0
 40
2.0
100
AcDbArc
 50
89.99998201389999
 51
179.9999640277999
  0
ARC
  5
10C
330
2
100
AcDbEntity
  8
0
  6
PHANTOM
 62
     3
100
AcDbCircle
 10
198.7028335398998
 20
65.01438346829999
 30
0.0
 40
2.0
100
AcDbArc
 50
0.0
 51
89.99998201389999
  0
LINE
  5
10D
330
2
100
AcDbEntity
  8
0
  6
PHANTOM
 62
     3
100
AcDbLine
 10
190.0028365916999
 20
76.6143895718
 30
0.0
 11
197.0028365916999
 21
76.6143895718
 31
0.0
  0
LINE
  5
10E
330
2
100
AcDbEntity
  8
0
  6
PHANTOM
 62
     3
100
AcDbLine
 10
190.9047379668999
 20
77.7143992303
 30
0.0
 11
193.5028101808999
 21
79.21439666729998
 31
0.0
  0
ARC
  5
10F
330
2
100
AcDbEntity
  8
0
  6
PHANTOM
 62
     3
100
AcDbCircle
 10
193.5028365916999
 20
70.21439567539998
 30
0.0
 40
9.0
100
AcDbArc
 50
75.16792570289998
 51
104.8319836834
  0
LINE
  5
110
330
2
100
AcDbEntity
  8
0
  6
PHANTOM
 62
     3
100
AcDbLine
 10
190.0028249781999
 20
76.6143936303
 30
0.0
 11
190.0886374885999
 21
77.5952356183
 31
0.0
  0
ARC
  5
111
330
2
100
AcDbEntity
  8
0
  6
PHANTOM
 62
     3
100
AcDbCircle
 10
191.5829299754999
 20
77.4644872281
 30
0.0
 40
1.5
100
AcDbArc
 50
104.8319836834
 51
174.9999923478
  0
LINE
  5
112
330
2
100
AcDbEntity
  8
0
  6
PHANTOM
 62
     3
100
AcDbLine
 10
197.0028254150999
 20
76.61439344919998
 30
0.0
 11
196.9170129046999
 21
77.5952354371
 31
0.0
  0
LINE
  5
113
330
2
100
AcDbEntity
  8
0
  6
PHANTOM
 62
     3
100
AcDbLine
 10
194.3688565602999
 20
78.7144064127
 30
0.0
 11
193.5028311124999
 21
79.2144063531
 31
0.0
  0
ARC
  5
114
330
2
100
AcDbEntity
  8
0
  6
PHANTOM
 62
     3
100
AcDbCircle
 10
195.4227279490999
 20
77.4644872281
 30
0.0
 40
1.5
100
AcDbArc
 50
4.999995585699999
 51
75.16798034439999
  0
TEXT
  5
115
330
2
100
AcDbEntity
  8
0
 62
     5
100
AcDbText
 10
355.0
 20
10.0
 30
0.0
 40
5.0
  1
ＭＡ４－Ｂ００６１１Ｄ
 41
0.8443967743953106
 72
     5
 11
409.0413935612999
 21
10.0
 31
0.0
100
AcDbText
  0
LINE
  5
116
330
2
100
AcDbEntity
  8
0
  6
PHANTOM
 62
     3
100
AcDbLine
 10
303.3032668894998
 20
236.5136357877
 30
0.0
 11
315.3032668894998
 21
236.5136357877
 31
0.0
  0
LINE
  5
117
330
2
100
AcDbEntity
  8
0
 62
     3
100
AcDbLine
 10
318.8032211132
 20
258.5136052700998
 30
0.0
 11
271.8032821483
 21
258.5136052700998
 31
0.0
  0
LINE
  5
118
330
2
100
AcDbEntity
  8
0
 62
     3
100
AcDbLine
 10
315.8031905955998
 20
224.0136357877
 30
0.0
 11
315.1692184275998
 21
224.0136357877
 31
0.0
  0
LINE
  5
119
330
2
100
AcDbEntity
  8
0
 62
     3
100
AcDbLine
 10
314.5793532007997
 20
220.3356838408
 30
0.0
 11
316.8032661971
 21
220.5135963646
 31
0.0
  0
LINE
  5
11A
330
2
100
AcDbEntity
  8
0
 62
     3
100
AcDbLine
 10
315.7463886609998
 20
223.0134228927
 30
0.0
 11
315.1689948713
 21
224.0134249901
 31
0.0
  0
LINE
  5
11B
330
2
100
AcDbEntity
  8
0
 62
     3
100
AcDbLine
 10
314.8807582175998
 20
221.5134621710999
 30
0.0
 11
315.7467252209997
 21
223.0133605308
 31
0.0
  0
LINE
  5
11C
330
2
100
AcDbEntity
  8
0
 62
     3
100
AcDbLine
 10
315.7465286975
 20
204.0137683193999
 30
0.0
 11
314.8805616940998
 21
205.5136666790999
 31
0.0
  0
LINE
  5
11D
330
2
100
AcDbEntity
  8
0
 62
     3
100
AcDbLine
 10
315.1690364777998
 20
203.0136997891998
 30
0.0
 11
315.7463387098
 21
204.0135433154
 31
0.0
  0
LINE
  5
11E
330
2
100
AcDbEntity
  8
0
 62
     3
100
AcDbLine
 10
316.8033320125
 20
206.5135689147
 30
0.0
 11
314.5793887287998
 21
206.6914840049999
 31
0.0
  0
LINE
  5
11F
330
2
100
AcDbEntity
  8
0
 62
     3
100
AcDbLine
 10
315.1692184275998
 20
203.0136663052
 30
0.0
 11
315.8031905955998
 21
203.0136663052
 31
0.0
  0
LINE
  5
120
330
2
100
AcDbEntity
  8
0
  6
PHANTOM
 62
     3
100
AcDbLine
 10
316.8032516308
 20
200.0136357876999
 30
0.0
 11
305.8032516307998
 21
200.0136357876999
 31
0.0
  0
LINE
  5
121
330
2
100
AcDbEntity
  8
0
  6
PHANTOM
 62
     3
100
AcDbLine
 10
316.8032516308
 20
198.5136357877
 30
0.0
 11
305.8032516307998
 21
198.5136357877
 31
0.0
  0
LINE
  5
122
330
2
100
AcDbEntity
  8
0
  6
PHANTOM
 62
     3
100
AcDbLine
 10
305.8032516307998
 20
227.0136357876999
 30
0.0
 11
316.8032516308
 21
227.0136357876999
 31
0.0
  0
LINE
  5
123
330
2
100
AcDbEntity
  8
0
  6
PHANTOM
 62
     3
100
AcDbLine
 10
305.8032516307998
 20
228.5136357877
 30
0.0
 11
316.8032516308
 21
228.5136357877
 31
0.0
  0
LINE
  5
124
330
2
100
AcDbEntity
  8
0
  6
PHANTOM
 62
     3
100
AcDbLine
 10
313.0032638377997
 20
198.2136479947
 30
0.0
 11
315.8032668894998
 21
198.2136479947
 31
0.0
  0
LINE
  5
125
330
2
100
AcDbEntity
  8
0
  6
PHANTOM
 62
     3
100
AcDbLine
 10
315.3032668894998
 20
190.5136357876998
 30
0.0
 11
303.3032668894998
 21
190.5136357876998
 31
0.0
  0
LINE
  5
126
330
2
100
AcDbEntity
  8
0
  6
PHANTOM
 62
     3
100
AcDbLine
 10
315.8032668894998
 20
228.8136235806
 30
0.0
 11
313.0032638377997
 21
228.8136235806
 31
0.0
  0
LINE
  5
127
330
2
100
AcDbEntity
  8
0
  6
CENTER
 62
     3
100
AcDbLine
 10
322.7093795603998
 20
213.5136357877
 30
0.0
 11
251.9540084666999
 21
213.5136357877
 31
0.0
  0
LINE
  5
128
330
2
100
AcDbEntity
  8
0
 62
     3
100
AcDbLine
 10
271.8032821483
 20
168.5136663052
 30
0.0
 11
318.8032211132
 21
168.5136663052
 31
0.0
  0
LINE
  5
129
330
2
100
AcDbEntity
  8
0
100
AcDbLine
 10
420.0
 20
297.0
 30
0.0
 11
0.0
 21
297.0
 31
0.0
  0
LINE
  5
12A
330
2
100
AcDbEntity
  8
0
  6
PHANTOM
 62
     3
100
AcDbLine
 10
56.90329740710001
 20
198.5136663052
 30
0.0
 11
39.70336759759993
 21
198.5136663052
 31
0.0
  0
LINE
  5
12B
330
2
100
AcDbEntity
  8
0
  6
PHANTOM
 62
     3
100
AcDbLine
 10
56.90329740710001
 20
228.5136052701
 30
0.0
 11
39.70336759759993
 21
228.5136052701
 31
0.0
  0
ARC
  5
12C
330
2
100
AcDbEntity
  8
0
  6
PHANTOM
 62
     3
100
AcDbCircle
 10
53.45336759759994
 20
213.5136357877
 30
0.0
 40
2.75
100
AcDbArc
 50
271.4022831433999
 51
89.99998201389994
  0
LINE
  5
12D
330
2
100
AcDbEntity
  8
0
  6
PHANTOM
 62
     3
100
AcDbLine
 10
39.70336759759993
 20
221.5136052700998
 30
0.0
 11
56.90329740710001
 21
221.5136052700998
 31
0.0
  0
LINE
  5
12E
330
2
100
AcDbEntity
  8
0
  6
PHANTOM
 62
     3
100
AcDbLine
 10
39.70336759759993
 20
205.5136663052
 30
0.0
 11
56.90329740710001
 21
205.5136663052
 31
0.0
  0
LINE
  5
12F
330
2
100
AcDbEntity
  8
0
  6
CENTER
 62
     3
100
AcDbLine
 10
34.41965201799995
 20
213.5135747525
 30
0.0
 11
223.9139117512999
 21
213.5135747525
 31
0.0
  0
ARC
  5
130
330
2
100
AcDbEntity
  8
0
  6
PHANTOM
 62
     3
100
AcDbCircle
 10
50.95336759759994
 20
213.5136357877
 30
0.0
 40
2.75
100
AcDbArc
 50
89.99998201389999
 51
268.5970798276998
  0
ARC
  5
131
330
2
100
AcDbEntity
  8
0
  6
PHANTOM
 62
     3
100
AcDbCircle
 10
40.95336759759994
 20
213.5136357877
 30
0.0
 40
2.75
100
AcDbArc
 50
271.43501341
 51
89.99998201389994
  0
LINE
  5
132
330
2
100
AcDbEntity
  8
0
  6
PHANTOM
 62
     3
100
AcDbLine
 10
39.70336759759993
 20
198.5136663052
 30
0.0
 11
39.70336759759993
 21
228.5136052701
 31
0.0
  0
LINE
  5
133
330
2
100
AcDbEntity
  8
0
  6
PHANTOM
 62
     3
100
AcDbLine
 10
41.02224577139997
 20
210.7645207974
 30
0.0
 11
39.70336759759993
 21
210.7645207974
 31
0.0
  0
LINE
  5
134
330
2
100
AcDbEntity
  8
0
  6
PHANTOM
 62
     3
100
AcDbLine
 10
53.52071989250004
 20
210.7644902799
 30
0.0
 11
50.88610685540004
 21
210.7644902799
 31
0.0
  0
LINE
  5
135
330
2
100
AcDbEntity
  8
0
  6
PHANTOM
 62
     3
100
AcDbLine
 10
40.88595426750003
 20
216.2044927213
 30
0.0
 11
39.70336759759993
 21
216.2044927213
 31
0.0
  0
LINE
  5
136
330
2
100
AcDbEntity
  8
0
  6
PHANTOM
 62
     3
100
AcDbLine
 10
50.88720548819996
 20
216.2044927213
 30
0.0
 11
53.38751066399993
 21
216.2044927213
 31
0.0
  0
LINE
  5
137
330
2
100
AcDbEntity
  8
0
 62
     3
100
AcDbLine
 10
184.3032272166998
 20
243.5134831997999
 30
0.0
 11
186.3032577342998
 21
243.5134831997999
 31
0.0
  0
LINE
  5
138
330
2
100
AcDbEntity
  8
0
 62
     3
100
AcDbLine
 10
186.3032577342998
 20
240.0134831997998
 30
0.0
 11
184.3032272166998
 21
240.0134831997998
 31
0.0
  0
LINE
  5
139
330
2
100
AcDbEntity
  8
0
 62
     3
100
AcDbLine
 10
186.3032577342998
 20
233.5134526822
 30
0.0
 11
184.3032272166998
 21
233.5134526822
 31
0.0
  0
LINE
  5
13A
330
2
100
AcDbEntity
  8
0
 62
     3
100
AcDbLine
 10
186.3032577342998
 20
193.5136968227999
 30
0.0
 11
184.3032272166998
 21
193.5136968227999
 31
0.0
  0
LINE
  5
13B
330
2
100
AcDbEntity
  8
0
 62
     3
100
AcDbLine
 10
186.3032577342998
 20
187.0136663052
 30
0.0
 11
184.3032272166998
 21
187.0136663052
 31
0.0
  0
LINE
  5
13C
330
2
100
AcDbEntity
  8
0
 62
     3
100
AcDbLine
 10
184.3032272166998
 20
183.5136663052
 30
0.0
 11
186.3032577342998
 21
183.5136663052
 31
0.0
  0
LINE
  5
13D
330
2
100
AcDbEntity
  8
0
  6
PHANTOM
 62
     3
100
AcDbLine
 10
71.30330656239998
 20
171.0136968228
 30
0.0
 11
186.3032577342998
 21
171.0136968228
 31
0.0
  0
LINE
  5
13E
330
2
100
AcDbEntity
  8
0
  6
PHANTOM
 62
     3
100
AcDbLine
 10
71.30330656239998
 20
256.0134526822
 30
0.0
 11
186.3032577342998
 21
256.0134526822
 31
0.0
  0
LINE
  5
13F
330
2
100
AcDbEntity
  8
0
 62
     3
100
AcDbLine
 10
186.3032577342998
 20
258.5135137174
 30
0.0
 11
71.30330656239998
 21
258.5135137174
 31
0.0
  0
LINE
  5
140
330
2
100
AcDbEntity
  8
0
 62
     3
100
AcDbLine
 10
186.3032577342998
 20
168.5136357877
 30
0.0
 11
71.30330656239998
 21
168.5136357877
 31
0.0
  0
LINE
  5
141
330
2
100
AcDbEntity
  8
0
 62
     3
100
AcDbLine
 10
173.8032821482998
 20
235.6636373134999
 30
0.0
 11
173.8032821482998
 21
237.3636342618
 31
0.0
  0
LINE
  5
142
330
2
100
AcDbEntity
  8
0
 62
     3
100
AcDbLine
 10
169.9532760447999
 20
237.3636342618
 30
0.0
 11
169.9532760447999
 21
235.6636373134999
 31
0.0
  0
LINE
  5
143
330
2
100
AcDbEntity
  8
0
 62
     3
100
AcDbLine
 10
161.6532882518999
 20
237.3636342618
 30
0.0
 11
161.6532882518999
 21
235.6636373134999
 31
0.0
  0
ARC
  5
144
330
2
100
AcDbEntity
  8
0
 62
     3
100
AcDbCircle
 10
162.7872833079998
 20
233.6636373134999
 30
0.0
 40
2.0
100
AcDbArc
 50
0.0
 51
89.99998201389999
  0
LINE
  5
145
330
2
100
AcDbEntity
  8
0
 62
     3
100
AcDbLine
 10
157.8032821483
 20
235.6636373134999
 30
0.0
 11
157.8032821483
 21
237.3636342618
 31
0.0
  0
ARC
  5
146
330
2
100
AcDbEntity
  8
0
 62
     3
100
AcDbCircle
 10
168.8192809887
 20
233.6636373134999
 30
0.0
 40
2.0
100
AcDbArc
 50
90.0000179861
 51
180.0
  0
LINE
  5
147
330
2
100
AcDbEntity
  8
0
 62
     3
100
AcDbLine
 10
136.8032821483
 20
235.6636373134999
 30
0.0
 11
136.8032821483
 21
237.3636342618
 31
0.0
  0
LINE
  5
148
330
2
100
AcDbEntity
  8
0
 62
     3
100
AcDbLine
 10
132.9532760447999
 20
237.3636342618
 30
0.0
 11
132.9532760447999
 21
235.6636373134999
 31
0.0
  0
ARC
  5
149
330
2
100
AcDbEntity
  8
0
 62
     3
100
AcDbCircle
 10
131.8192809886999
 20
233.6636373134999
 30
0.0
 40
2.0
100
AcDbArc
 50
90.0000179861
 51
180.0
  0
LINE
  5
14A
330
2
100
AcDbEntity
  8
0
 62
     3
100
AcDbLine
 10
120.8032821483
 20
235.6636373134999
 30
0.0
 11
120.8032821483
 21
237.3636342618
 31
0.0
  0
LINE
  5
14B
330
2
100
AcDbEntity
  8
0
 62
     3
100
AcDbLine
 10
124.6532882519
 20
237.3636342618
 30
0.0
 11
124.6532882519
 21
235.6636373134999
 31
0.0
  0
ARC
  5
14C
330
2
100
AcDbEntity
  8
0
 62
     3
100
AcDbCircle
 10
125.7872833079999
 20
233.6636373134999
 30
0.0
 40
2.0
100
AcDbArc
 50
0.0
 51
89.99998201389999
  0
LINE
  5
14D
330
2
100
AcDbEntity
  8
0
 62
     3
100
AcDbLine
 10
99.80328214830002
 20
235.6636373134999
 30
0.0
 11
99.80328214830002
 21
237.3636342618
 31
0.0
  0
LINE
  5
14E
330
2
100
AcDbEntity
  8
0
 62
     3
100
AcDbLine
 10
95.95327604479995
 20
237.3636342618
 30
0.0
 11
95.95327604479995
 21
235.6636373134999
 31
0.0
  0
LINE
  5
14F
330
2
100
AcDbEntity
  8
0
 62
     3
100
AcDbLine
 10
87.65328825190001
 20
237.3636342618
 30
0.0
 11
87.65328825190001
 21
235.6636373134999
 31
0.0
  0
ARC
  5
150
330
2
100
AcDbEntity
  8
0
 62
     3
100
AcDbCircle
 10
88.78728330799999
 20
233.6636373134999
 30
0.0
 40
2.0
100
AcDbArc
 50
0.0
 51
89.99998201389999
  0
ARC
  5
151
330
2
100
AcDbEntity
  8
0
 62
     3
100
AcDbCircle
 10
94.81928098870005
 20
233.6636373134999
 30
0.0
 40
2.0
100
AcDbArc
 50
90.0000179861
 51
180.0
  0
LINE
  5
152
330
2
100
AcDbEntity
  8
0
 62
     3
100
AcDbLine
 10
108.3032821483
 20
217.7136174770999
 30
0.0
 11
108.3032821483
 21
258.5136663051998
 31
0.0
  0
LINE
  5
153
330
2
100
AcDbEntity
  8
0
 62
     3
100
AcDbLine
 10
109.3032516307999
 20
220.5134831997999
 30
0.0
 11
109.3032516307999
 21
248.5134526822
 31
0.0
  0
LINE
  5
154
330
2
100
AcDbEntity
  8
0
 62
     3
100
AcDbLine
 10
111.3032272167
 20
220.5134526821999
 30
0.0
 11
111.3032272167
 21
248.5134526822
 31
0.0
  0
LINE
  5
155
330
2
100
AcDbEntity
  8
0
 62
     3
100
AcDbLine
 10
112.3032577342997
 20
258.5136968227997
 30
0.0
 11
112.3032577342997
 21
217.7136479947
 31
0.0
  0
LINE
  5
156
330
2
100
AcDbEntity
  8
0
  6
CENTER
 62
     3
100
AcDbLine
 10
91.80328214830002
 20
162.5758000943
 30
0.0
 11
91.80328214830002
 21
263.8226873013
 31
0.0
  0
LINE
  5
157
330
2
100
AcDbEntity
  8
0
 62
     3
100
AcDbLine
 10
182.3032821482998
 20
223.5136357876998
 30
0.0
 11
182.3032821482998
 21
258.5136663051998
 31
0.0
  0
LINE
  5
158
330
2
100
AcDbEntity
  8
0
 62
     3
100
AcDbLine
 10
149.3032821483
 20
217.7136174770999
 30
0.0
 11
149.3032821483
 21
258.5136663051998
 31
0.0
  0
LINE
  5
159
330
2
100
AcDbEntity
  8
0
 62
     3
100
AcDbLine
 10
148.3033126658999
 20
220.5134831997999
 30
0.0
 11
148.3033126658999
 21
248.5134526822
 31
0.0
  0
LINE
  5
15A
330
2
100
AcDbEntity
  8
0
 62
     3
100
AcDbLine
 10
149.3032516308
 20
258.5135747525
 30
0.0
 11
149.3032516308
 21
223.5134831997999
 31
0.0
  0
LINE
  5
15B
330
2
100
AcDbEntity
  8
0
 62
     3
100
AcDbLine
 10
146.3033370799998
 20
220.5134526821999
 30
0.0
 11
146.3033370799998
 21
248.5134526822
 31
0.0
  0
LINE
  5
15C
330
2
100
AcDbEntity
  8
0
 62
     3
100
AcDbLine
 10
145.3033065624
 20
258.5136968227997
 30
0.0
 11
145.3033065624
 21
217.7136479947
 31
0.0
  0
LINE
  5
15D
330
2
100
AcDbEntity
  8
0
 62
     3
100
AcDbLine
 10
119.0033260532
 20
236.5135404891999
 30
0.0
 11
123.9032991237999
 21
228.0265341241
 31
0.0
  0
LINE
  5
15E
330
2
100
AcDbEntity
  8
0
 62
     3
100
AcDbLine
 10
138.6032382435
 20
236.5135404891999
 30
0.0
 11
133.7032651728
 21
228.0265341241
 31
0.0
  0
CIRCLE
  5
15F
330
2
100
AcDbEntity
  8
0
 62
     3
100
AcDbCircle
 10
128.8032821483
 20
236.5136357877
 30
0.0
 40
8.249992370599999
  0
CIRCLE
  5
160
330
2
100
AcDbEntity
  8
0
 62
     3
100
AcDbCircle
 10
128.8032821483
 20
236.5136357877
 30
0.0
 40
10.5
  0
LINE
  5
161
330
2
100
AcDbEntity
  8
0
 62
     3
100
AcDbLine
 10
108.3033065623999
 20
258.5136968227997
 30
0.0
 11
108.3033065623999
 21
217.7136479947
 31
0.0
  0
LINE
  5
162
330
2
100
AcDbEntity
  8
0
 62
     3
100
AcDbLine
 10
109.3033370799999
 20
220.5134526821999
 30
0.0
 11
109.3033370799999
 21
248.5134526822
 31
0.0
  0
LINE
  5
163
330
2
100
AcDbEntity
  8
0
 62
     3
100
AcDbLine
 10
112.3032516307999
 20
258.5135747525
 30
0.0
 11
112.3032516307999
 21
223.5134831997999
 31
0.0
  0
LINE
  5
164
330
2
100
AcDbEntity
  8
0
 62
     3
100
AcDbLine
 10
111.3033126658999
 20
220.5134831997999
 30
0.0
 11
111.3033126658999
 21
248.5134526822
 31
0.0
  0
LINE
  5
165
330
2
100
AcDbEntity
  8
0
 62
     3
100
AcDbLine
 10
112.3032821483
 20
217.7136174770999
 30
0.0
 11
112.3032821483
 21
258.5136663051998
 31
0.0
  0
LINE
  5
166
330
2
100
AcDbEntity
  8
0
 62
     3
100
AcDbLine
 10
145.3032821483
 20
217.7136174770999
 30
0.0
 11
145.3032821483
 21
258.5136663051998
 31
0.0
  0
LINE
  5
167
330
2
100
AcDbEntity
  8
0
 62
     3
100
AcDbLine
 10
146.3032516308
 20
220.5134831997999
 30
0.0
 11
146.3032516308
 21
248.5134526822
 31
0.0
  0
LINE
  5
168
330
2
100
AcDbEntity
  8
0
 62
     3
100
AcDbLine
 10
148.3032272167
 20
220.5134526821999
 30
0.0
 11
148.3032272167
 21
248.5134526822
 31
0.0
  0
LINE
  5
169
330
2
100
AcDbEntity
  8
0
 62
     3
100
AcDbLine
 10
149.3032577342999
 20
258.5136968227997
 30
0.0
 11
149.3032577342999
 21
217.7136479947
 31
0.0
  0
LINE
  5
16A
330
2
100
AcDbEntity
  8
0
 62
     3
100
AcDbLine
 10
184.3032272166998
 20
220.5135747524999
 30
0.0
 11
184.3032272166998
 21
248.5135137174
 31
0.0
  0
LINE
  5
16B
330
2
100
AcDbEntity
  8
0
 62
     3
100
AcDbLine
 10
101.6032382434999
 20
236.5135404891999
 30
0.0
 11
96.70326517280001
 21
228.0265341241
 31
0.0
  0
LINE
  5
16C
330
2
100
AcDbEntity
  8
0
  6
CENTER
 62
     3
100
AcDbLine
 10
165.8032821482999
 20
163.5134831997999
 30
0.0
 11
165.8032821482999
 21
263.5136663052
 31
0.0
  0
CIRCLE
  5
16D
330
2
100
AcDbEntity
  8
0
 62
     3
100
AcDbCircle
 10
165.8032821482999
 20
236.5136357877
 30
0.0
 40
10.5
  0
CIRCLE
  5
16E
330
2
100
AcDbEntity
  8
0
 62
     3
100
AcDbCircle
 10
165.8032821482999
 20
236.5136357877
 30
0.0
 40
8.249992370599999
  0
LINE
  5
16F
330
2
100
AcDbEntity
  8
0
 62
     3
100
AcDbLine
 10
175.6032382434999
 20
236.5135404891999
 30
0.0
 11
170.7032651728
 21
228.0265341241
 31
0.0
  0
LINE
  5
170
330
2
100
AcDbEntity
  8
0
 62
     3
100
AcDbLine
 10
156.0033260532
 20
236.5135404891999
 30
0.0
 11
160.9032991237999
 21
228.0265341241
 31
0.0
  0
LINE
  5
171
330
2
100
AcDbEntity
  8
0
 62
     3
100
AcDbLine
 10
83.80328214830001
 20
235.6636373134999
 30
0.0
 11
83.80328214830001
 21
237.3636342618
 31
0.0
  0
LINE
  5
172
330
2
100
AcDbEntity
  8
0
  6
PHANTOM
 62
     3
100
AcDbLine
 10
69.30330656239998
 20
234.0135747525
 30
0.0
 11
69.30330656239998
 21
236.5135747525
 31
0.0
  0
LINE
  5
173
330
2
100
AcDbEntity
  8
0
  6
PHANTOM
 62
     3
100
AcDbLine
 10
58.90329740710001
 20
236.5135747525
 30
0.0
 11
58.90329740710001
 21
234.0135747525
 31
0.0
  0
LINE
  5
174
330
2
100
AcDbEntity
  8
0
  6
PHANTOM
 62
     3
100
AcDbLine
 10
56.90329740710001
 20
190.5135747525
 30
0.0
 11
56.90329740710001
 21
236.5135747525
 31
0.0
  0
LINE
  5
175
330
2
100
AcDbEntity
  8
0
  6
PHANTOM
 62
     3
100
AcDbLine
 10
71.30330656239998
 20
190.5135747525
 30
0.0
 11
71.30330656239998
 21
236.5135747525
 31
0.0
  0
LINE
  5
176
330
2
100
AcDbEntity
  8
0
 62
     3
100
AcDbLine
 10
71.30330656239998
 20
258.5136968227997
 30
0.0
 11
71.30330656239998
 21
217.7136479947
 31
0.0
  0
LINE
  5
177
330
2
100
AcDbEntity
  8
0
 62
     3
100
AcDbLine
 10
75.30325163079995
 20
258.5135747525
 30
0.0
 11
75.30325163079995
 21
223.5134831997999
 31
0.0
  0
LINE
  5
178
330
2
100
AcDbEntity
  8
0
 62
     3
100
AcDbLine
 10
75.30328214829996
 20
223.5136357876998
 30
0.0
 11
75.30328214829996
 21
258.5136663051998
 31
0.0
  0
LINE
  5
179
330
2
100
AcDbEntity
  8
0
 62
     3
100
AcDbLine
 10
73.30333708000002
 20
220.5135747524999
 30
0.0
 11
73.30333708000002
 21
248.5135137174
 31
0.0
  0
CIRCLE
  5
17A
330
2
100
AcDbEntity
  8
0
 62
     3
100
AcDbCircle
 10
91.80328214830002
 20
236.5136357877
 30
0.0
 40
10.5
  0
CIRCLE
  5
17B
330
2
100
AcDbEntity
  8
0
 62
     3
100
AcDbCircle
 10
91.80328214830002
 20
236.5136357877
 30
0.0
 40
8.249992370599999
  0
LINE
  5
17C
330
2
100
AcDbEntity
  8
0
 62
     3
100
AcDbLine
 10
82.00332605319998
 20
236.5135404891999
 30
0.0
 11
86.90329912379997
 21
228.0265341241
 31
0.0
  0
LINE
  5
17D
330
2
100
AcDbEntity
  8
0
 62
     3
100
AcDbLine
 10
112.3032821483
 20
208.5135137174
 30
0.0
 11
145.3032150096998
 21
208.5135137174
 31
0.0
  0
LINE
  5
17E
330
2
100
AcDbEntity
  8
0
 62
     3
100
AcDbLine
 10
119.0033260532
 20
190.5136090158
 30
0.0
 11
123.9032991237999
 21
199.000615381
 31
0.0
  0
LINE
  5
17F
330
2
100
AcDbEntity
  8
0
 62
     3
100
AcDbLine
 10
112.3032821483
 20
218.5136357877
 30
0.0
 11
145.3032150096998
 21
218.5136357877
 31
0.0
  0
LINE
  5
180
330
2
100
AcDbEntity
  8
0
 62
     3
100
AcDbLine
 10
113.8032516307999
 20
178.5135442349
 30
0.0
 11
143.8033431834999
 21
178.5135442349
 31
0.0
  0
LINE
  5
181
330
2
100
AcDbEntity
  8
0
 62
     3
100
AcDbLine
 10
113.8032516307999
 20
179.5135442349
 30
0.0
 11
143.8033431834999
 21
179.5135442349
 31
0.0
  0
CIRCLE
  5
182
330
2
100
AcDbEntity
  8
0
 62
     3
100
AcDbCircle
 10
128.8032821483
 20
190.5135137174
 30
0.0
 40
10.5
  0
LINE
  5
183
330
2
100
AcDbEntity
  8
0
 62
     3
100
AcDbLine
 10
121.4252303005998
 20
182.354946039
 30
0.0
 11
112.3032362947999
 21
190.6041222159999
 31
0.0
  0
LINE
  5
184
330
2
100
AcDbEntity
  8
0
 62
     3
100
AcDbLine
 10
123.9032846765
 20
182.0265162561
 30
0.0
 11
119.0032760337999
 21
190.5135627889
 31
0.0
  0
LINE
  5
185
330
2
100
AcDbEntity
  8
0
 62
     3
100
AcDbLine
 10
95.95327604479995
 20
189.6635152432
 30
0.0
 11
95.95327604479995
 21
191.3635121915
 31
0.0
  0
LINE
  5
186
330
2
100
AcDbEntity
  8
0
 62
     3
100
AcDbLine
 10
99.80328214830002
 20
191.3635121915
 30
0.0
 11
99.80328214830002
 21
189.6635152432
 31
0.0
  0
ARC
  5
187
330
2
100
AcDbEntity
  8
0
 62
     3
100
AcDbCircle
 10
88.78728330799999
 20
187.6635152432
 30
0.0
 40
2.0
100
AcDbArc
 50
0.0
 51
89.99998201389999
  0
LINE
  5
188
330
2
100
AcDbEntity
  8
0
 62
     3
100
AcDbLine
 10
87.65328825190001
 20
189.6635152432
 30
0.0
 11
87.65328825190001
 21
191.3635121915
 31
0.0
  0
ARC
  5
189
330
2
100
AcDbEntity
  8
0
 62
     3
100
AcDbCircle
 10
94.81928098870005
 20
187.6635152432
 30
0.0
 40
2.0
100
AcDbArc
 50
90.0000179861
 51
180.0
  0
LINE
  5
18A
330
2
100
AcDbEntity
  8
0
 62
     3
100
AcDbLine
 10
112.3032821483
 20
209.3135320278999
 30
0.0
 11
112.3032821483
 21
168.5134831997999
 31
0.0
  0
LINE
  5
18B
330
2
100
AcDbEntity
  8
0
 62
     3
100
AcDbLine
 10
111.3033126658999
 20
206.5136663052
 30
0.0
 11
111.3033126658999
 21
178.5136968228
 31
0.0
  0
LINE
  5
18C
330
2
100
AcDbEntity
  8
0
 62
     3
100
AcDbLine
 10
112.3032516307999
 20
168.5135747525
 30
0.0
 11
112.3032516307999
 21
203.5136663052
 31
0.0
  0
LINE
  5
18D
330
2
100
AcDbEntity
  8
0
 62
     3
100
AcDbLine
 10
109.3033370799999
 20
206.5136968227998
 30
0.0
 11
109.3033370799999
 21
178.5136968228
 31
0.0
  0
LINE
  5
18E
330
2
100
AcDbEntity
  8
0
 62
     3
100
AcDbLine
 10
108.3033065623999
 20
168.5134526821999
 30
0.0
 11
108.3033065623999
 21
209.3135015102999
 31
0.0
  0
LINE
  5
18F
330
2
100
AcDbEntity
  8
0
 62
     3
100
AcDbLine
 10
112.3032577342997
 20
168.5134526821999
 30
0.0
 11
112.3032577342997
 21
209.3135015102999
 31
0.0
  0
LINE
  5
190
330
2
100
AcDbEntity
  8
0
 62
     3
100
AcDbLine
 10
111.3032272167
 20
206.5136968227998
 30
0.0
 11
111.3032272167
 21
178.5136968228
 31
0.0
  0
LINE
  5
191
330
2
100
AcDbEntity
  8
0
 62
     3
100
AcDbLine
 10
109.3032516307999
 20
206.5136663052
 30
0.0
 11
109.3032516307999
 21
178.5136968228
 31
0.0
  0
LINE
  5
192
330
2
100
AcDbEntity
  8
0
 62
     3
100
AcDbLine
 10
108.3032821483
 20
209.3135320278999
 30
0.0
 11
108.3032821483
 21
168.5134831997999
 31
0.0
  0
LINE
  5
193
330
2
100
AcDbEntity
  8
0
 62
     3
100
AcDbLine
 10
99.18133399609995
 20
182.354946039
 30
0.0
 11
108.3033280019
 21
190.6041222159999
 31
0.0
  0
LINE
  5
194
330
2
100
AcDbEntity
  8
0
 62
     3
100
AcDbLine
 10
96.70327962019996
 20
182.0265162561
 30
0.0
 11
101.6032882628999
 21
190.5135627889
 31
0.0
  0
LINE
  5
195
330
2
100
AcDbEntity
  8
0
 62
     3
100
AcDbLine
 10
83.80328214830001
 20
191.3635121915
 30
0.0
 11
83.80328214830001
 21
189.6635152432
 31
0.0
  0
LINE
  5
196
330
2
100
AcDbEntity
  8
0
 62
     3
100
AcDbLine
 10
75.30328214829996
 20
203.5135137174
 30
0.0
 11
75.30328214829996
 21
168.5134831997999
 31
0.0
  0
LINE
  5
197
330
2
100
AcDbEntity
  8
0
 62
     3
100
AcDbLine
 10
75.30325163079995
 20
168.5135747525
 30
0.0
 11
75.30325163079995
 21
203.5136663052
 31
0.0
  0
LINE
  5
198
330
2
100
AcDbEntity
  8
0
 62
     3
100
AcDbLine
 10
73.30333708000002
 20
206.5135747525
 30
0.0
 11
73.30333708000002
 21
178.5136357877
 31
0.0
  0
LINE
  5
199
330
2
100
AcDbEntity
  8
0
 62
     3
100
AcDbLine
 10
71.30330656239998
 20
168.5134526821999
 30
0.0
 11
71.30330656239998
 21
217.7134954068
 31
0.0
  0
LINE
  5
19A
330
2
100
AcDbEntity
  8
0
 62
     3
100
AcDbLine
 10
84.4252303006
 20
182.354946039
 30
0.0
 11
75.30323629479994
 21
190.6041222159999
 31
0.0
  0
LINE
  5
19B
330
2
100
AcDbEntity
  8
0
 62
     3
100
AcDbLine
 10
86.90328467649997
 20
182.0265162561
 30
0.0
 11
82.00327603379998
 21
190.5135627889
 31
0.0
  0
CIRCLE
  5
19C
330
2
100
AcDbEntity
  8
0
 62
     3
100
AcDbCircle
 10
91.80328214830002
 20
190.5135137174
 30
0.0
 40
8.249992370599999
  0
CIRCLE
  5
19D
330
2
100
AcDbEntity
  8
0
 62
     3
100
AcDbCircle
 10
91.80328214830002
 20
190.5135137174
 30
0.0
 40
10.5
  0
LINE
  5
19E
330
2
100
AcDbEntity
  8
0
 62
     3
100
AcDbLine
 10
86.90328062249994
 20
182.0264836880998
 30
0.0
 11
96.70328367419999
 21
182.0264836880998
 31
0.0
  0
LINE
  5
19F
330
2
100
AcDbEntity
  8
0
 62
     3
100
AcDbLine
 10
76.80325163079995
 20
179.5135442349
 30
0.0
 11
106.8033431834999
 21
179.5135442349
 31
0.0
  0
LINE
  5
1A0
330
2
100
AcDbEntity
  8
0
 62
     3
100
AcDbLine
 10
76.80325163079995
 20
178.5135442349
 30
0.0
 11
106.8033431834999
 21
178.5135442349
 31
0.0
  0
LINE
  5
1A1
330
2
100
AcDbEntity
  8
0
 62
     3
100
AcDbLine
 10
83.80328214830001
 20
189.6635152432
 30
0.0
 11
88.78728330799999
 21
189.6635152432
 31
0.0
  0
ARC
  5
1A2
330
2
100
AcDbEntity
  8
0
 62
     3
100
AcDbCircle
 10
91.80328214830002
 20
190.5135137174
 30
0.0
 40
11.0
100
AcDbArc
 50
227.8764363834
 51
312.1235636165998
  0
LINE
  5
1A3
330
2
100
AcDbEntity
  8
0
 62
     3
100
AcDbLine
 10
71.30330656239998
 20
187.0136663052
 30
0.0
 11
73.30333708000002
 21
187.0136663052
 31
0.0
  0
LINE
  5
1A4
330
2
100
AcDbEntity
  8
0
 62
     3
100
AcDbLine
 10
73.30333708000002
 20
183.5136663052
 30
0.0
 11
71.30330656239998
 21
183.5136663052
 31
0.0
  0
LINE
  5
1A5
330
2
100
AcDbEntity
  8
0
 62
     3
100
AcDbLine
 10
76.80325163079995
 20
189.2136174771
 30
0.0
 11
76.80325163079995
 21
168.5138494107
 31
0.0
  0
LINE
  5
1A6
330
2
100
AcDbEntity
  8
0
 62
     3
100
AcDbLine
 10
75.30328214829996
 20
168.5136052700999
 30
0.0
 11
73.30331266589997
 21
168.5136052700999
 31
0.0
  0
LINE
  5
1A7
330
2
100
AcDbEntity
  8
0
 62
     3
100
AcDbLine
 10
73.30339970469992
 20
178.5136597751
 30
0.0
 11
75.30333866960003
 21
178.5136445162
 31
0.0
  0
LINE
  5
1A8
330
2
100
AcDbEntity
  8
0
 62
     3
100
AcDbLine
 10
75.30328214829996
 20
183.5136968228
 30
0.0
 11
73.30331266589997
 21
183.5136968228
 31
0.0
  0
LINE
  5
1A9
330
2
100
AcDbEntity
  8
0
 62
     3
100
AcDbLine
 10
91.80331266589993
 20
168.5134831997999
 30
0.0
 11
91.80331266589993
 21
179.5136052700998
 31
0.0
  0
LINE
  5
1AA
330
2
100
AcDbEntity
  8
0
 62
     3
100
AcDbLine
 10
99.80328214830002
 20
189.6635152432
 30
0.0
 11
94.81928098870005
 21
189.6635152432
 31
0.0
  0
LINE
  5
1AB
330
2
100
AcDbEntity
  8
0
 62
     3
100
AcDbLine
 10
92.81928861809996
 20
186.3635198208999
 30
0.0
 11
90.78727567860001
 21
186.3635198208999
 31
0.0
  0
LINE
  5
1AC
330
2
100
AcDbEntity
  8
0
 62
     3
100
AcDbLine
 10
90.787283308
 20
186.3635198208999
 30
0.0
 11
90.787283308
 21
187.6635152432
 31
0.0
  0
LINE
  5
1AD
330
2
100
AcDbEntity
  8
0
 62
     3
100
AcDbLine
 10
92.81928098870002
 20
186.3635198208999
 30
0.0
 11
92.81928098870002
 21
187.6635152432
 31
0.0
  0
LINE
  5
1AE
330
2
100
AcDbEntity
  8
0
 62
     3
100
AcDbLine
 10
113.8032516307999
 20
189.2136174771
 30
0.0
 11
113.8032516307999
 21
168.5138494107
 31
0.0
  0
LINE
  5
1AF
330
2
100
AcDbEntity
  8
0
 62
     3
100
AcDbLine
 10
106.8033126658999
 20
189.2136174771
 30
0.0
 11
106.8033126658999
 21
168.5138494107
 31
0.0
  0
LINE
  5
1B0
330
2
100
AcDbEntity
  8
0
 62
     3
100
AcDbLine
 10
112.3032821483
 20
168.5136052700999
 30
0.0
 11
110.3033126658999
 21
168.5136052700999
 31
0.0
  0
LINE
  5
1B1
330
2
100
AcDbEntity
  8
0
 62
     3
100
AcDbLine
 10
111.8033126658999
 20
178.5137273404
 30
0.0
 11
111.8033126658999
 21
172.5190068814
 31
0.0
  0
LINE
  5
1B2
330
2
100
AcDbEntity
  8
0
 62
     3
100
AcDbLine
 10
108.8033370799999
 20
178.5136968228
 30
0.0
 11
108.8033370799999
 21
172.5189763638
 31
0.0
  0
LINE
  5
1B3
330
2
100
AcDbEntity
  8
0
 62
     3
100
AcDbLine
 10
111.8032272166999
 20
178.5136968228
 30
0.0
 11
111.8032272166999
 21
172.5189763638
 31
0.0
  0
LINE
  5
1B4
330
2
100
AcDbEntity
  8
0
 62
     3
100
AcDbLine
 10
108.8032516308
 20
178.5137273404
 30
0.0
 11
108.8032516308
 21
172.5190068814
 31
0.0
  0
LINE
  5
1B5
330
2
100
AcDbEntity
  8
0
 62
     3
100
AcDbLine
 10
107.3032760447999
 20
168.5136052700999
 30
0.0
 11
105.3032760447998
 21
168.5136052700999
 31
0.0
  0
LINE
  5
1B6
330
2
100
AcDbEntity
  8
0
 62
     3
100
AcDbLine
 10
108.3032821483
 20
168.5136052700999
 30
0.0
 11
110.3032516307999
 21
168.5136052700999
 31
0.0
  0
LINE
  5
1B7
330
2
100
AcDbEntity
  8
0
 62
     3
100
AcDbLine
 10
108.8032516308
 20
172.5190068814
 30
0.0
 11
110.3032516307999
 21
172.5190068814
 31
0.0
  0
LINE
  5
1B8
330
2
100
AcDbEntity
  8
0
 62
     3
100
AcDbLine
 10
111.8033126658999
 20
172.5190068814
 30
0.0
 11
110.3033126658999
 21
172.5190068814
 31
0.0
  0
LINE
  5
1B9
330
2
100
AcDbEntity
  8
0
 62
     3
100
AcDbLine
 10
108.8033370799999
 20
172.5189763638
 30
0.0
 11
111.8032272166999
 21
172.5189763638
 31
0.0
  0
LINE
  5
1BA
330
2
100
AcDbEntity
  8
0
 62
     3
100
AcDbLine
 10
108.8032516308
 20
178.5137273404
 30
0.0
 11
110.3032516307999
 21
178.5137273404
 31
0.0
  0
LINE
  5
1BB
330
2
100
AcDbEntity
  8
0
 62
     3
100
AcDbLine
 10
108.8032516308
 20
176.5137578579999
 30
0.0
 11
110.3032516307999
 21
176.5137578579999
 31
0.0
  0
LINE
  5
1BC
330
2
100
AcDbEntity
  8
0
 62
     3
100
AcDbLine
 10
111.8033126658999
 20
176.5137578579999
 30
0.0
 11
110.3033126658999
 21
176.5137578579999
 31
0.0
  0
LINE
  5
1BD
330
2
100
AcDbEntity
  8
0
 62
     3
100
AcDbLine
 10
111.8033126658999
 20
178.5137273404
 30
0.0
 11
110.3033126658999
 21
178.5137273404
 31
0.0
  0
LINE
  5
1BE
330
2
100
AcDbEntity
  8
0
 62
     3
100
AcDbLine
 10
108.8032516308
 20
178.5136968228
 30
0.0
 11
111.8033126658999
 21
178.5136968228
 31
0.0
  0
LINE
  5
1BF
330
2
100
AcDbEntity
  8
0
 62
     3
100
AcDbLine
 10
108.8032516308
 20
176.5137273404
 30
0.0
 11
111.8033126658999
 21
176.5137273404
 31
0.0
  0
LINE
  5
1C0
330
2
100
AcDbEntity
  8
0
 62
     3
100
AcDbLine
 10
112.3032821483
 20
183.5136968228
 30
0.0
 11
110.3033126658999
 21
183.5136968228
 31
0.0
  0
LINE
  5
1C1
330
2
100
AcDbEntity
  8
0
 62
     3
100
AcDbLine
 10
108.3033065623999
 20
183.5136663052
 30
0.0
 11
112.3032577342997
 21
183.5136663052
 31
0.0
  0
LINE
  5
1C2
330
2
100
AcDbEntity
  8
0
 62
     3
100
AcDbLine
 10
108.3032821483
 20
183.5136968228
 30
0.0
 11
110.3032516307999
 21
183.5136968228
 31
0.0
  0
LINE
  5
1C3
330
2
100
AcDbEntity
  8
0
 62
     3
100
AcDbLine
 10
110.3032516307999
 20
187.0136968227999
 30
0.0
 11
109.3032516307999
 21
187.0136968227999
 31
0.0
  0
LINE
  5
1C4
330
2
100
AcDbEntity
  8
0
 62
     3
100
AcDbLine
 10
110.3033126658999
 20
187.0136968227999
 30
0.0
 11
111.3033126658999
 21
187.0136968227999
 31
0.0
  0
LINE
  5
1C5
330
2
100
AcDbEntity
  8
0
 62
     3
100
AcDbLine
 10
111.3032272167
 20
187.0136663052
 30
0.0
 11
109.3033370799999
 21
187.0136663052
 31
0.0
  0
LINE
  5
1C6
330
2
100
AcDbEntity
  8
0
 62
     3
100
AcDbLine
 10
96.70328367419999
 20
228.0265828701999
 30
0.0
 11
86.90328062249994
 21
228.0265828701999
 31
0.0
  0
LINE
  5
1C7
330
2
100
AcDbEntity
  8
0
 62
     3
100
AcDbLine
 10
96.70328367419999
 20
199.0005666348
 30
0.0
 11
86.90328062249994
 21
199.0005666348
 31
0.0
  0
LINE
  5
1C8
330
2
100
AcDbEntity
  8
0
 62
     3
100
AcDbLine
 10
89.8032821483
 20
190.5135747525
 30
0.0
 11
73.3033065624
 21
190.5135747525
 31
0.0
  0
LINE
  5
1C9
330
2
100
AcDbEntity
  8
0
 62
     3
100
AcDbLine
 10
76.30330276629995
 20
218.5136357877
 30
0.0
 11
108.3032150096999
 21
218.5136357877
 31
0.0
  0
LINE
  5
1CA
330
2
100
AcDbEntity
  8
0
 62
     3
100
AcDbLine
 10
76.30330276629995
 20
208.5135137174
 30
0.0
 11
108.3032150096999
 21
208.5135137174
 31
0.0
  0
LINE
  5
1CB
330
2
100
AcDbEntity
  8
0
 62
     3
100
AcDbLine
 10
83.80328214830001
 20
235.6636373134999
 30
0.0
 11
88.78728330799999
 21
235.6636373134999
 31
0.0
  0
LINE
  5
1CC
330
2
100
AcDbEntity
  8
0
 62
     3
100
AcDbLine
 10
83.80328214830001
 20
191.3635121915
 30
0.0
 11
88.78728330799999
 21
191.3635121915
 31
0.0
  0
LINE
  5
1CD
330
2
100
AcDbEntity
  8
0
 62
     3
100
AcDbLine
 10
73.30333708000002
 20
217.7135869595
 30
0.0
 11
73.30333708000002
 21
209.3135625454999
 31
0.0
  0
CIRCLE
  5
1CE
330
2
100
AcDbEntity
  8
0
  6
PHANTOM
 62
     3
100
AcDbCircle
 10
64.10329435540001
 20
213.5135747525
 30
0.0
 40
1.75
  0
CIRCLE
  5
1CF
330
2
100
AcDbEntity
  8
0
  6
PHANTOM
 62
     3
100
AcDbCircle
 10
64.10329435540001
 20
213.5135747525
 30
0.0
 40
2.0
  0
LINE
  5
1D0
330
2
100
AcDbEntity
  8
0
 62
     3
100
AcDbLine
 10
71.30330656239998
 20
193.5136968227999
 30
0.0
 11
73.30333708000002
 21
193.5136968227999
 31
0.0
  0
CIRCLE
  5
1D1
330
2
100
AcDbEntity
  8
0
  6
PHANTOM
 62
     3
100
AcDbCircle
 10
64.10329435540001
 20
200.0135747524999
 30
0.0
 40
3.5
  0
LINE
  5
1D2
330
2
100
AcDbEntity
  8
0
  6
PHANTOM
 62
     3
100
AcDbLine
 10
61.98197752689996
 20
197.8920616246
 30
0.0
 11
66.22461778379999
 21
202.1347029543
 31
0.0
  0
LINE
  5
1D3
330
2
100
AcDbEntity
  8
0
 62
     3
100
AcDbLine
 10
67.30330656239998
 20
190.5135747525
 30
0.0
 11
60.90329740710001
 21
190.5135747525
 31
0.0
  0
LINE
  5
1D4
330
2
100
AcDbEntity
  8
0
  6
PHANTOM
 62
     3
100
AcDbLine
 10
71.30330656239998
 20
193.0135747525
 30
0.0
 11
56.90329740710001
 21
193.0135747525
 31
0.0
  0
LINE
  5
1D5
330
2
100
AcDbEntity
  8
0
  6
PHANTOM
 62
     3
100
AcDbLine
 10
58.90329740710001
 20
193.0135747525
 30
0.0
 11
58.90329740710001
 21
190.5135747525
 31
0.0
  0
LINE
  5
1D6
330
2
100
AcDbEntity
  8
0
  6
PHANTOM
 62
     3
100
AcDbLine
 10
58.90329740710001
 20
190.5135747525
 30
0.0
 11
56.90329740710001
 21
190.5135747525
 31
0.0
  0
LINE
  5
1D7
330
2
100
AcDbEntity
  8
0
  6
PHANTOM
 62
     3
100
AcDbLine
 10
69.30330656239998
 20
190.5135747525
 30
0.0
 11
69.30330656239998
 21
193.0135747525
 31
0.0
  0
LINE
  5
1D8
330
2
100
AcDbEntity
  8
0
  6
PHANTOM
 62
     3
100
AcDbLine
 10
71.30330656239998
 20
190.5135747525
 30
0.0
 11
69.30330656239998
 21
190.5135747525
 31
0.0
  0
LINE
  5
1D9
330
2
100
AcDbEntity
  8
0
  6
PHANTOM
 62
     3
100
AcDbLine
 10
64.81042272019999
 20
199.3062765187
 30
0.0
 11
63.39620942049997
 21
200.7204904144999
 31
0.0
  0
LINE
  5
1DA
330
2
100
AcDbEntity
  8
0
 62
     3
100
AcDbLine
 10
82.00332605319998
 20
190.5136090158
 30
0.0
 11
86.90329912379997
 21
199.000615381
 31
0.0
  0
ARC
  5
1DB
330
2
100
AcDbEntity
  8
0
 62
     3
100
AcDbCircle
 10
80.30322111319998
 20
203.5135137174
 30
0.0
 40
5.0
100
AcDbArc
 50
89.99998201389999
 51
143.1284949963
  0
LINE
  5
1DC
330
2
100
AcDbEntity
  8
0
 62
     3
100
AcDbLine
 10
76.30330176229995
 20
209.3136031313999
 30
0.0
 11
76.30330653070001
 21
205.5135848209
 31
0.0
  0
ARC
  5
1DD
330
2
100
AcDbEntity
  8
0
 62
     3
100
AcDbCircle
 10
80.30322111319998
 20
203.5135137174
 30
0.0
 40
5.0
100
AcDbArc
 50
156.419913707
 51
179.7521101232
  0
LINE
  5
1DE
330
2
100
AcDbEntity
  8
0
 62
     3
100
AcDbLine
 10
73.30348966790002
 20
206.5134526822
 30
0.0
 11
76.30339811509998
 21
206.5134526822
 31
0.0
  0
LINE
  5
1DF
330
2
100
AcDbEntity
  8
0
 62
     3
100
AcDbLine
 10
73.30333708000002
 20
205.5135747525
 30
0.0
 11
76.30324552719992
 21
205.5135747525
 31
0.0
  0
LINE
  5
1E0
330
2
100
AcDbEntity
  8
0
 62
     3
100
AcDbLine
 10
75.30328214829996
 20
205.5136663052
 30
0.0
 11
74.30331266589995
 21
205.5136663052
 31
0.0
  0
LINE
  5
1E1
330
2
100
AcDbEntity
  8
0
 62
     3
100
AcDbLine
 10
74.30331266589995
 20
206.5136663052
 30
0.0
 11
75.30328214829996
 21
206.5136663052
 31
0.0
  0
LINE
  5
1E2
330
2
100
AcDbEntity
  8
0
 62
     3
100
AcDbLine
 10
73.30358122059998
 20
209.3133794399999
 30
0.0
 11
76.30348966790002
 21
209.3133794399999
 31
0.0
  0
LINE
  5
1E3
330
2
100
AcDbEntity
  8
0
 62
     3
100
AcDbLine
 10
71.30330656239998
 20
233.5134526822
 30
0.0
 11
73.30333708000002
 21
233.5134526822
 31
0.0
  0
CIRCLE
  5
1E4
330
2
100
AcDbEntity
  8
0
  6
PHANTOM
 62
     3
100
AcDbCircle
 10
64.10329435540001
 20
227.0135747524999
 30
0.0
 40
3.5
  0
LINE
  5
1E5
330
2
100
AcDbEntity
  8
0
  6
PHANTOM
 62
     3
100
AcDbLine
 10
71.30330656239998
 20
234.0135747525
 30
0.0
 11
56.90329740710001
 21
234.0135747525
 31
0.0
  0
LINE
  5
1E6
330
2
100
AcDbEntity
  8
0
  6
PHANTOM
 62
     3
100
AcDbLine
 10
61.98198490259994
 20
224.8920590566999
 30
0.0
 11
66.22462515949997
 21
229.1347003864
 31
0.0
  0
LINE
  5
1E7
330
2
100
AcDbEntity
  8
0
  6
PHANTOM
 62
     3
100
AcDbLine
 10
64.81042841009998
 20
226.3062631611999
 30
0.0
 11
63.39621511029998
 21
227.720477057
 31
0.0
  0
ARC
  5
1E8
330
2
100
AcDbEntity
  8
0
 62
     3
100
AcDbCircle
 10
80.30322111319998
 20
223.5136357876998
 30
0.0
 40
5.0
100
AcDbArc
 50
216.8715050037
 51
270.0000179861
  0
LINE
  5
1E9
330
2
100
AcDbEntity
  8
0
 62
     3
100
AcDbLine
 10
76.30330176229995
 20
217.7135463736
 30
0.0
 11
76.30330653070001
 21
221.5135646840999
 31
0.0
  0
LINE
  5
1EA
330
2
100
AcDbEntity
  8
0
 62
     3
100
AcDbLine
 10
73.30358122059998
 20
217.7137700649999
 30
0.0
 11
76.30348966790002
 21
217.7137700649999
 31
0.0
  0
ARC
  5
1EB
330
2
100
AcDbEntity
  8
0
 62
     3
100
AcDbCircle
 10
80.30322111319998
 20
223.5136357876998
 30
0.0
 40
5.0
100
AcDbArc
 50
180.2478898767999
 51
203.5789416008
  0
LINE
  5
1EC
330
2
100
AcDbEntity
  8
0
 62
     3
100
AcDbLine
 10
73.30333708000002
 20
221.5135747525
 30
0.0
 11
76.30324552719992
 21
221.5135747525
 31
0.0
  0
LINE
  5
1ED
330
2
100
AcDbEntity
  8
0
 62
     3
100
AcDbLine
 10
73.30348966790002
 20
220.5136968227999
 30
0.0
 11
76.30339811509998
 21
220.5136968227999
 31
0.0
  0
LINE
  5
1EE
330
2
100
AcDbEntity
  8
0
 62
     3
100
AcDbLine
 10
74.30331266589995
 20
220.5134831997999
 30
0.0
 11
75.30328214829996
 21
220.5134831997999
 31
0.0
  0
LINE
  5
1EF
330
2
100
AcDbEntity
  8
0
 62
     3
100
AcDbLine
 10
75.30328214829996
 20
221.5134831997999
 30
0.0
 11
74.30331266589995
 21
221.5134831997999
 31
0.0
  0
ARC
  5
1F0
330
2
100
AcDbEntity
  8
0
 62
     3
100
AcDbCircle
 10
103.3033431834997
 20
203.5135137174
 30
0.0
 40
5.0
100
AcDbArc
 50
0.2478898768
 51
90.0000179861
  0
LINE
  5
1F1
330
2
100
AcDbEntity
  8
0
 62
     3
100
AcDbLine
 10
99.80328214830002
 20
191.3635121915
 30
0.0
 11
94.81928098870005
 21
191.3635121915
 31
0.0
  0
LINE
  5
1F2
330
2
100
AcDbEntity
  8
0
 62
     3
100
AcDbLine
 10
92.81928861809996
 20
194.6635152432
 30
0.0
 11
90.78727567860001
 21
194.6635152432
 31
0.0
  0
LINE
  5
1F3
330
2
100
AcDbEntity
  8
0
 62
     3
100
AcDbLine
 10
90.787283308
 20
193.3635121914998
 30
0.0
 11
90.787283308
 21
194.6635152432
 31
0.0
  0
ARC
  5
1F4
330
2
100
AcDbEntity
  8
0
 62
     3
100
AcDbCircle
 10
88.78728330799999
 20
193.3635121914998
 30
0.0
 40
2.0
100
AcDbArc
 50
270.0000179861
 51
0.0
  0
LINE
  5
1F5
330
2
100
AcDbEntity
  8
0
 62
     3
100
AcDbLine
 10
92.81928098870002
 20
193.3635121914998
 30
0.0
 11
92.81928098870002
 21
194.6635152432
 31
0.0
  0
ARC
  5
1F6
330
2
100
AcDbEntity
  8
0
 62
     3
100
AcDbCircle
 10
94.81928098870005
 20
193.3635121914998
 30
0.0
 40
2.0
100
AcDbArc
 50
180.0
 51
269.9999820138998
  0
LINE
  5
1F7
330
2
100
AcDbEntity
  8
0
 62
     3
100
AcDbLine
 10
101.6032382434999
 20
190.5136090158
 30
0.0
 11
96.70326517280001
 21
199.000615381
 31
0.0
  0
LINE
  5
1F8
330
2
100
AcDbEntity
  8
0
 62
     3
100
AcDbLine
 10
110.3032516307999
 20
193.5137273404
 30
0.0
 11
109.3032516307999
 21
193.5137273404
 31
0.0
  0
LINE
  5
1F9
330
2
100
AcDbEntity
  8
0
 62
     3
100
AcDbLine
 10
110.3033126658999
 20
193.5137273404
 30
0.0
 11
111.3033126658999
 21
193.5137273404
 31
0.0
  0
LINE
  5
1FA
330
2
100
AcDbEntity
  8
0
 62
     3
100
AcDbLine
 10
111.3032272167
 20
193.5136968227999
 30
0.0
 11
109.3033370799999
 21
193.5136968227999
 31
0.0
  0
LINE
  5
1FB
330
2
100
AcDbEntity
  8
0
 62
     3
100
AcDbLine
 10
108.3032821483
 20
209.3136540981999
 30
0.0
 11
112.3032821483
 21
209.3136540981999
 31
0.0
  0
LINE
  5
1FC
330
2
100
AcDbEntity
  8
0
 62
     3
100
AcDbLine
 10
111.3033126658999
 20
206.5136663052
 30
0.0
 11
112.3032821483
 21
206.5136663052
 31
0.0
  0
LINE
  5
1FD
330
2
100
AcDbEntity
  8
0
 62
     3
100
AcDbLine
 10
111.3032272167
 20
206.5136968227998
 30
0.0
 11
112.3032577342997
 21
206.5136968227998
 31
0.0
  0
LINE
  5
1FE
330
2
100
AcDbEntity
  8
0
 62
     3
100
AcDbLine
 10
111.3032272167
 20
205.5136663052
 30
0.0
 11
112.3032821483
 21
205.5136663052
 31
0.0
  0
ARC
  5
1FF
330
2
100
AcDbEntity
  8
0
 62
     3
100
AcDbCircle
 10
117.3032211131999
 20
203.5135137174
 30
0.0
 40
5.0
100
AcDbArc
 50
89.99998201389999
 51
179.7521101232
  0
LINE
  5
200
330
2
100
AcDbEntity
  8
0
 62
     3
100
AcDbLine
 10
109.3033370799999
 20
206.5136968227998
 30
0.0
 11
108.3033065623999
 21
206.5136968227998
 31
0.0
  0
LINE
  5
201
330
2
100
AcDbEntity
  8
0
 62
     3
100
AcDbLine
 10
109.3032516307999
 20
206.5136663052
 30
0.0
 11
108.3032821483
 21
206.5136663052
 31
0.0
  0
LINE
  5
202
330
2
100
AcDbEntity
  8
0
 62
     3
100
AcDbLine
 10
108.3032821483
 20
205.5136663052
 30
0.0
 11
109.3033370799999
 21
205.5136663052
 31
0.0
  0
ARC
  5
203
330
2
100
AcDbEntity
  8
0
 62
     3
100
AcDbCircle
 10
103.3033431834997
 20
223.5136357876998
 30
0.0
 40
5.0
100
AcDbArc
 50
269.9999820138998
 51
359.7521101232
  0
LINE
  5
204
330
2
100
AcDbEntity
  8
0
 62
     3
100
AcDbLine
 10
99.80328214830002
 20
235.6636373134999
 30
0.0
 11
94.81928098870005
 21
235.6636373134999
 31
0.0
  0
LINE
  5
205
330
2
100
AcDbEntity
  8
0
 62
     3
100
AcDbLine
 10
92.81928861809996
 20
232.3636342618
 30
0.0
 11
90.78727567860001
 21
232.3636342618
 31
0.0
  0
LINE
  5
206
330
2
100
AcDbEntity
  8
0
 62
     3
100
AcDbLine
 10
90.787283308
 20
233.6636373134999
 30
0.0
 11
90.787283308
 21
232.3636342618
 31
0.0
  0
LINE
  5
207
330
2
100
AcDbEntity
  8
0
 62
     3
100
AcDbLine
 10
92.81928098870002
 20
233.6636373134999
 30
0.0
 11
92.81928098870002
 21
232.3636342618
 31
0.0
  0
LINE
  5
208
330
2
100
AcDbEntity
  8
0
 62
     3
100
AcDbLine
 10
111.3032272167
 20
220.5134526821999
 30
0.0
 11
112.3032577342997
 21
220.5134526821999
 31
0.0
  0
LINE
  5
209
330
2
100
AcDbEntity
  8
0
 62
     3
100
AcDbLine
 10
111.3033126658999
 20
220.5134831997999
 30
0.0
 11
112.3032821483
 21
220.5134831997999
 31
0.0
  0
LINE
  5
20A
330
2
100
AcDbEntity
  8
0
 62
     3
100
AcDbLine
 10
112.3032821483
 20
221.5134831997999
 30
0.0
 11
111.3032272167
 21
221.5134831997999
 31
0.0
  0
LINE
  5
20B
330
2
100
AcDbEntity
  8
0
 62
     3
100
AcDbLine
 10
112.3032821483
 20
217.7134954068
 30
0.0
 11
108.3032821483
 21
217.7134954068
 31
0.0
  0
ARC
  5
20C
330
2
100
AcDbEntity
  8
0
 62
     3
100
AcDbCircle
 10
117.3032211131999
 20
223.5136357876998
 30
0.0
 40
5.0
100
AcDbArc
 50
180.2478898767999
 51
270.0000179861
  0
LINE
  5
20D
330
2
100
AcDbEntity
  8
0
 62
     3
100
AcDbLine
 10
109.3032516307999
 20
220.5134831997999
 30
0.0
 11
108.3032821483
 21
220.5134831997999
 31
0.0
  0
LINE
  5
20E
330
2
100
AcDbEntity
  8
0
 62
     3
100
AcDbLine
 10
109.3033370799999
 20
220.5134526821999
 30
0.0
 11
108.3033065623999
 21
220.5134526821999
 31
0.0
  0
LINE
  5
20F
330
2
100
AcDbEntity
  8
0
 62
     3
100
AcDbLine
 10
109.3033370799999
 20
221.5134831997999
 30
0.0
 11
108.3032821483
 21
221.5134831997999
 31
0.0
  0
LINE
  5
210
330
2
100
AcDbEntity
  8
0
 62
     3
100
AcDbLine
 10
110.3032516307999
 20
233.5134221646
 30
0.0
 11
109.3032516307999
 21
233.5134221646
 31
0.0
  0
LINE
  5
211
330
2
100
AcDbEntity
  8
0
 62
     3
100
AcDbLine
 10
109.3033370799999
 20
233.5134526822
 30
0.0
 11
111.3032272167
 21
233.5134526822
 31
0.0
  0
LINE
  5
212
330
2
100
AcDbEntity
  8
0
 62
     3
100
AcDbLine
 10
110.3033126658999
 20
233.5134221646
 30
0.0
 11
111.3033126658999
 21
233.5134221646
 31
0.0
  0
LINE
  5
213
330
2
100
AcDbEntity
  8
0
 62
     3
100
AcDbLine
 10
169.9532760447999
 20
189.6635152432
 30
0.0
 11
169.9532760447999
 21
191.3635121915
 31
0.0
  0
LINE
  5
214
330
2
100
AcDbEntity
  8
0
 62
     3
100
AcDbLine
 10
173.8032821482998
 20
191.3635121915
 30
0.0
 11
173.8032821482998
 21
189.6635152432
 31
0.0
  0
ARC
  5
215
330
2
100
AcDbEntity
  8
0
 62
     3
100
AcDbCircle
 10
162.7872833079998
 20
187.6635152432
 30
0.0
 40
2.0
100
AcDbArc
 50
0.0
 51
89.99998201389999
  0
LINE
  5
216
330
2
100
AcDbEntity
  8
0
 62
     3
100
AcDbLine
 10
161.6532882518999
 20
189.6635152432
 30
0.0
 11
161.6532882518999
 21
191.3635121915
 31
0.0
  0
LINE
  5
217
330
2
100
AcDbEntity
  8
0
 62
     3
100
AcDbLine
 10
157.8032821483
 20
191.3635121915
 30
0.0
 11
157.8032821483
 21
189.6635152432
 31
0.0
  0
ARC
  5
218
330
2
100
AcDbEntity
  8
0
 62
     3
100
AcDbCircle
 10
168.8192809887
 20
187.6635152432
 30
0.0
 40
2.0
100
AcDbArc
 50
90.0000179861
 51
180.0
  0
LINE
  5
219
330
2
100
AcDbEntity
  8
0
 62
     3
100
AcDbLine
 10
182.3032821482998
 20
203.5135137174
 30
0.0
 11
182.3032821482998
 21
168.5134831997999
 31
0.0
  0
LINE
  5
21A
330
2
100
AcDbEntity
  8
0
 62
     3
100
AcDbLine
 10
184.3032272166998
 20
206.5135747525
 30
0.0
 11
184.3032272166998
 21
178.5136357877
 31
0.0
  0
LINE
  5
21B
330
2
100
AcDbEntity
  8
0
 62
     3
100
AcDbLine
 10
160.9032846764999
 20
182.0265162561
 30
0.0
 11
156.0032760337999
 21
190.5135627889
 31
0.0
  0
LINE
  5
21C
330
2
100
AcDbEntity
  8
0
 62
     3
100
AcDbLine
 10
173.1813339960998
 20
182.354946039
 30
0.0
 11
182.3033280018997
 21
190.6041222159999
 31
0.0
  0
LINE
  5
21D
330
2
100
AcDbEntity
  8
0
 62
     3
100
AcDbLine
 10
170.7032796201999
 20
182.0265162561
 30
0.0
 11
175.6032882628999
 21
190.5135627889
 31
0.0
  0
CIRCLE
  5
21E
330
2
100
AcDbEntity
  8
0
 62
     3
100
AcDbCircle
 10
165.8032821482999
 20
190.5135137174
 30
0.0
 40
8.249992370599999
  0
CIRCLE
  5
21F
330
2
100
AcDbEntity
  8
0
 62
     3
100
AcDbCircle
 10
165.8032821482999
 20
190.5135137174
 30
0.0
 40
10.5
  0
LINE
  5
220
330
2
100
AcDbEntity
  8
0
 62
     3
100
AcDbLine
 10
136.8032821483
 20
191.3635121915
 30
0.0
 11
136.8032821483
 21
189.6635152432
 31
0.0
  0
ARC
  5
221
330
2
100
AcDbEntity
  8
0
 62
     3
100
AcDbCircle
 10
131.8192809886999
 20
187.6635152432
 30
0.0
 40
2.0
100
AcDbArc
 50
90.0000179861
 51
180.0
  0
LINE
  5
222
330
2
100
AcDbEntity
  8
0
 62
     3
100
AcDbLine
 10
132.9532760447999
 20
189.6635152432
 30
0.0
 11
132.9532760447999
 21
191.3635121915
 31
0.0
  0
LINE
  5
223
330
2
100
AcDbEntity
  8
0
 62
     3
100
AcDbLine
 10
124.6532882519
 20
189.6635152432
 30
0.0
 11
124.6532882519
 21
191.3635121915
 31
0.0
  0
LINE
  5
224
330
2
100
AcDbEntity
  8
0
 62
     3
100
AcDbLine
 10
120.8032821483
 20
191.3635121915
 30
0.0
 11
120.8032821483
 21
189.6635152432
 31
0.0
  0
ARC
  5
225
330
2
100
AcDbEntity
  8
0
 62
     3
100
AcDbCircle
 10
125.7872833079999
 20
187.6635152432
 30
0.0
 40
2.0
100
AcDbArc
 50
0.0
 51
89.99998201389999
  0
LINE
  5
226
330
2
100
AcDbEntity
  8
0
 62
     3
100
AcDbLine
 10
149.3032577342999
 20
168.5134526821999
 30
0.0
 11
149.3032577342999
 21
209.3135015102999
 31
0.0
  0
LINE
  5
227
330
2
100
AcDbEntity
  8
0
 62
     3
100
AcDbLine
 10
148.3032272167
 20
206.5136968227998
 30
0.0
 11
148.3032272167
 21
178.5136968228
 31
0.0
  0
LINE
  5
228
330
2
100
AcDbEntity
  8
0
 62
     3
100
AcDbLine
 10
146.3032516308
 20
206.5136663052
 30
0.0
 11
146.3032516308
 21
178.5136968228
 31
0.0
  0
LINE
  5
229
330
2
100
AcDbEntity
  8
0
 62
     3
100
AcDbLine
 10
145.3032821483
 20
209.3135320278999
 30
0.0
 11
145.3032821483
 21
168.5134831997999
 31
0.0
  0
CIRCLE
  5
22A
330
2
100
AcDbEntity
  8
0
 62
     3
100
AcDbCircle
 10
128.8032821483
 20
190.5135137174
 30
0.0
 40
8.249992370599999
  0
LINE
  5
22B
330
2
100
AcDbEntity
  8
0
 62
     3
100
AcDbLine
 10
133.7032796201997
 20
182.0265162561
 30
0.0
 11
138.6032882628999
 21
190.5135627889
 31
0.0
  0
LINE
  5
22C
330
2
100
AcDbEntity
  8
0
 62
     3
100
AcDbLine
 10
136.1813339960999
 20
182.354946039
 30
0.0
 11
145.3033280019
 21
190.6041222159999
 31
0.0
  0
LINE
  5
22D
330
2
100
AcDbEntity
  8
0
 62
     3
100
AcDbLine
 10
145.3033065624
 20
168.5134526821999
 30
0.0
 11
145.3033065624
 21
209.3135015102999
 31
0.0
  0
LINE
  5
22E
330
2
100
AcDbEntity
  8
0
 62
     3
100
AcDbLine
 10
146.3033370799998
 20
206.5136968227998
 30
0.0
 11
146.3033370799998
 21
178.5136968228
 31
0.0
  0
LINE
  5
22F
330
2
100
AcDbEntity
  8
0
 62
     3
100
AcDbLine
 10
149.3032516308
 20
168.5135747525
 30
0.0
 11
149.3032516308
 21
203.5136663052
 31
0.0
  0
LINE
  5
230
330
2
100
AcDbEntity
  8
0
 62
     3
100
AcDbLine
 10
148.3033126658999
 20
206.5136663052
 30
0.0
 11
148.3033126658999
 21
178.5136968228
 31
0.0
  0
LINE
  5
231
330
2
100
AcDbEntity
  8
0
 62
     3
100
AcDbLine
 10
149.3032821483
 20
209.3135320278999
 30
0.0
 11
149.3032821483
 21
168.5134831997999
 31
0.0
  0
LINE
  5
232
330
2
100
AcDbEntity
  8
0
 62
     3
100
AcDbLine
 10
158.4252303006
 20
182.354946039
 30
0.0
 11
149.3032362947998
 21
190.6041222159999
 31
0.0
  0
LINE
  5
233
330
2
100
AcDbEntity
  8
0
 62
     3
100
AcDbLine
 10
150.8032516307999
 20
179.5135442349
 30
0.0
 11
180.8033431834999
 21
179.5135442349
 31
0.0
  0
LINE
  5
234
330
2
100
AcDbEntity
  8
0
 62
     3
100
AcDbLine
 10
150.8032516307999
 20
178.5135442349
 30
0.0
 11
180.8033431834999
 21
178.5135442349
 31
0.0
  0
LINE
  5
235
330
2
100
AcDbEntity
  8
0
 62
     3
100
AcDbLine
 10
136.8032821483
 20
189.6635152432
 30
0.0
 11
131.8192809886999
 21
189.6635152432
 31
0.0
  0
LINE
  5
236
330
2
100
AcDbEntity
  8
0
 62
     3
100
AcDbLine
 10
128.8033126658999
 20
168.5134831997999
 30
0.0
 11
128.8033126658999
 21
179.5136052700998
 31
0.0
  0
LINE
  5
237
330
2
100
AcDbEntity
  8
0
 62
     3
100
AcDbLine
 10
129.8192886180999
 20
186.3635198208999
 30
0.0
 11
127.7872756785999
 21
186.3635198208999
 31
0.0
  0
LINE
  5
238
330
2
100
AcDbEntity
  8
0
 62
     3
100
AcDbLine
 10
123.9032806224999
 20
182.0264836880998
 30
0.0
 11
133.7032836742
 21
182.0264836880998
 31
0.0
  0
ARC
  5
239
330
2
100
AcDbEntity
  8
0
 62
     3
100
AcDbCircle
 10
128.8032821483
 20
190.5135137174
 30
0.0
 40
11.0
100
AcDbArc
 50
227.8764363834
 51
312.1235636165998
  0
LINE
  5
23A
330
2
100
AcDbEntity
  8
0
 62
     3
100
AcDbLine
 10
120.8032821483
 20
189.6635152432
 30
0.0
 11
125.7872833079999
 21
189.6635152432
 31
0.0
  0
LINE
  5
23B
330
2
100
AcDbEntity
  8
0
 62
     3
100
AcDbLine
 10
127.7872833079999
 20
186.3635198208999
 30
0.0
 11
127.7872833079999
 21
187.6635152432
 31
0.0
  0
LINE
  5
23C
330
2
100
AcDbEntity
  8
0
 62
     3
100
AcDbLine
 10
129.8192809887
 20
186.3635198208999
 30
0.0
 11
129.8192809887
 21
187.6635152432
 31
0.0
  0
LINE
  5
23D
330
2
100
AcDbEntity
  8
0
 62
     3
100
AcDbLine
 10
143.8033126658999
 20
189.2136174771
 30
0.0
 11
143.8033126658999
 21
168.5138494107
 31
0.0
  0
LINE
  5
23E
330
2
100
AcDbEntity
  8
0
 62
     3
100
AcDbLine
 10
150.8032516307999
 20
189.2136174771
 30
0.0
 11
150.8032516307999
 21
168.5138494107
 31
0.0
  0
LINE
  5
23F
330
2
100
AcDbEntity
  8
0
 62
     3
100
AcDbLine
 10
144.3032760448
 20
168.5136052700999
 30
0.0
 11
142.3032760447999
 21
168.5136052700999
 31
0.0
  0
LINE
  5
240
330
2
100
AcDbEntity
  8
0
 62
     3
100
AcDbLine
 10
148.8032272167
 20
178.5136968228
 30
0.0
 11
148.8032272167
 21
172.5189763638
 31
0.0
  0
LINE
  5
241
330
2
100
AcDbEntity
  8
0
 62
     3
100
AcDbLine
 10
145.8032516307999
 20
178.5137273404
 30
0.0
 11
145.8032516307999
 21
172.5190068814
 31
0.0
  0
LINE
  5
242
330
2
100
AcDbEntity
  8
0
 62
     3
100
AcDbLine
 10
145.8033370799998
 20
178.5136968228
 30
0.0
 11
145.8033370799998
 21
172.5189763638
 31
0.0
  0
LINE
  5
243
330
2
100
AcDbEntity
  8
0
 62
     3
100
AcDbLine
 10
148.8033126658999
 20
178.5137273404
 30
0.0
 11
148.8033126658999
 21
172.5190068814
 31
0.0
  0
LINE
  5
244
330
2
100
AcDbEntity
  8
0
 62
     3
100
AcDbLine
 10
148.8032272167
 20
172.5189763638
 30
0.0
 11
145.8033370799998
 21
172.5189763638
 31
0.0
  0
LINE
  5
245
330
2
100
AcDbEntity
  8
0
 62
     3
100
AcDbLine
 10
149.3032821483
 20
168.5136052700999
 30
0.0
 11
147.3033126658999
 21
168.5136052700999
 31
0.0
  0
LINE
  5
246
330
2
100
AcDbEntity
  8
0
 62
     3
100
AcDbLine
 10
148.8033126658999
 20
172.5190068814
 30
0.0
 11
147.3033126658999
 21
172.5190068814
 31
0.0
  0
LINE
  5
247
330
2
100
AcDbEntity
  8
0
 62
     3
100
AcDbLine
 10
145.3032821483
 20
168.5136052700999
 30
0.0
 11
147.3032516307999
 21
168.5136052700999
 31
0.0
  0
LINE
  5
248
330
2
100
AcDbEntity
  8
0
 62
     3
100
AcDbLine
 10
145.8032516307999
 20
172.5190068814
 30
0.0
 11
147.3032516307999
 21
172.5190068814
 31
0.0
  0
LINE
  5
249
330
2
100
AcDbEntity
  8
0
 62
     3
100
AcDbLine
 10
148.8033126658999
 20
178.5136968228
 30
0.0
 11
145.8032516307999
 21
178.5136968228
 31
0.0
  0
LINE
  5
24A
330
2
100
AcDbEntity
  8
0
 62
     3
100
AcDbLine
 10
148.8033126658999
 20
178.5137273404
 30
0.0
 11
147.3033126658999
 21
178.5137273404
 31
0.0
  0
LINE
  5
24B
330
2
100
AcDbEntity
  8
0
 62
     3
100
AcDbLine
 10
148.8033126658999
 20
176.5137273404
 30
0.0
 11
145.8032516307999
 21
176.5137273404
 31
0.0
  0
LINE
  5
24C
330
2
100
AcDbEntity
  8
0
 62
     3
100
AcDbLine
 10
148.8033126658999
 20
176.5137578579999
 30
0.0
 11
147.3033126658999
 21
176.5137578579999
 31
0.0
  0
LINE
  5
24D
330
2
100
AcDbEntity
  8
0
 62
     3
100
AcDbLine
 10
145.8032516307999
 20
178.5137273404
 30
0.0
 11
147.3032516307999
 21
178.5137273404
 31
0.0
  0
LINE
  5
24E
330
2
100
AcDbEntity
  8
0
 62
     3
100
AcDbLine
 10
145.8032516307999
 20
176.5137578579999
 30
0.0
 11
147.3032516307999
 21
176.5137578579999
 31
0.0
  0
LINE
  5
24F
330
2
100
AcDbEntity
  8
0
 62
     3
100
AcDbLine
 10
149.3032577342999
 20
183.5136663052
 30
0.0
 11
145.3033065624
 21
183.5136663052
 31
0.0
  0
LINE
  5
250
330
2
100
AcDbEntity
  8
0
 62
     3
100
AcDbLine
 10
149.3032821483
 20
183.5136968228
 30
0.0
 11
147.3033126658999
 21
183.5136968228
 31
0.0
  0
LINE
  5
251
330
2
100
AcDbEntity
  8
0
 62
     3
100
AcDbLine
 10
145.3032821483
 20
183.5136968228
 30
0.0
 11
147.3032516307999
 21
183.5136968228
 31
0.0
  0
LINE
  5
252
330
2
100
AcDbEntity
  8
0
 62
     3
100
AcDbLine
 10
147.3032516307999
 20
187.0136968227999
 30
0.0
 11
146.3032516308
 21
187.0136968227999
 31
0.0
  0
LINE
  5
253
330
2
100
AcDbEntity
  8
0
 62
     3
100
AcDbLine
 10
146.3033370799998
 20
187.0136663052
 30
0.0
 11
148.3032272167
 21
187.0136663052
 31
0.0
  0
LINE
  5
254
330
2
100
AcDbEntity
  8
0
 62
     3
100
AcDbLine
 10
147.3033126658999
 20
187.0136968227999
 30
0.0
 11
148.3033126658999
 21
187.0136968227999
 31
0.0
  0
LINE
  5
255
330
2
100
AcDbEntity
  8
0
 62
     3
100
AcDbLine
 10
173.8032821482998
 20
189.6635152432
 30
0.0
 11
168.8192809887
 21
189.6635152432
 31
0.0
  0
ARC
  5
256
330
2
100
AcDbEntity
  8
0
 62
     3
100
AcDbCircle
 10
165.8032821482999
 20
190.5135137174
 30
0.0
 40
11.0
100
AcDbArc
 50
227.8764363834
 51
312.1235636165998
  0
LINE
  5
257
330
2
100
AcDbEntity
  8
0
 62
     3
100
AcDbLine
 10
160.9032806224998
 20
182.0264836880998
 30
0.0
 11
170.7032836741998
 21
182.0264836880998
 31
0.0
  0
LINE
  5
258
330
2
100
AcDbEntity
  8
0
 62
     3
100
AcDbLine
 10
165.8033126658999
 20
168.5134831997999
 30
0.0
 11
165.8033126658999
 21
179.5136052700998
 31
0.0
  0
LINE
  5
259
330
2
100
AcDbEntity
  8
0
 62
     3
100
AcDbLine
 10
157.8032821483
 20
189.6635152432
 30
0.0
 11
162.7872833079998
 21
189.6635152432
 31
0.0
  0
LINE
  5
25A
330
2
100
AcDbEntity
  8
0
 62
     3
100
AcDbLine
 10
166.8192886181
 20
186.3635198208999
 30
0.0
 11
164.7872756786
 21
186.3635198208999
 31
0.0
  0
LINE
  5
25B
330
2
100
AcDbEntity
  8
0
 62
     3
100
AcDbLine
 10
164.7872833079999
 20
186.3635198208999
 30
0.0
 11
164.7872833079999
 21
187.6635152432
 31
0.0
  0
LINE
  5
25C
330
2
100
AcDbEntity
  8
0
 62
     3
100
AcDbLine
 10
166.8192809887
 20
186.3635198208999
 30
0.0
 11
166.8192809887
 21
187.6635152432
 31
0.0
  0
LINE
  5
25D
330
2
100
AcDbEntity
  8
0
 62
     3
100
AcDbLine
 10
180.8033126658999
 20
189.2136174771
 30
0.0
 11
180.8033126658999
 21
168.5138494107
 31
0.0
  0
LINE
  5
25E
330
2
100
AcDbEntity
  8
0
 62
     3
100
AcDbLine
 10
184.3031645918999
 20
178.5136597751
 30
0.0
 11
182.3032256270999
 21
178.5136445162
 31
0.0
  0
LINE
  5
25F
330
2
100
AcDbEntity
  8
0
 62
     3
100
AcDbLine
 10
182.3032821482998
 20
183.5136968228
 30
0.0
 11
184.3032516307999
 21
183.5136968228
 31
0.0
  0
ARC
  5
260
330
2
100
AcDbEntity
  8
0
 62
     3
100
AcDbCircle
 10
154.3032211131998
 20
203.5135137174
 30
0.0
 40
5.0
100
AcDbArc
 50
89.99998201389999
 51
179.7521101232
  0
ARC
  5
261
330
2
100
AcDbEntity
  8
0
 62
     3
100
AcDbCircle
 10
154.3032211131998
 20
223.5136357876998
 30
0.0
 40
5.0
100
AcDbArc
 50
180.2478898767999
 51
270.0000179861
  0
LINE
  5
262
330
2
100
AcDbEntity
  8
0
 62
     3
100
AcDbLine
 10
149.3032821483
 20
218.5136357877
 30
0.0
 11
181.3032615303999
 21
218.5136357877
 31
0.0
  0
LINE
  5
263
330
2
100
AcDbEntity
  8
0
 62
     3
100
AcDbLine
 10
149.3032821483
 20
208.5135137174
 30
0.0
 11
181.3032615303999
 21
208.5135137174
 31
0.0
  0
LINE
  5
264
330
2
100
AcDbEntity
  8
0
 62
     3
100
AcDbLine
 10
136.8032821483
 20
191.3635121915
 30
0.0
 11
131.8192809886999
 21
191.3635121915
 31
0.0
  0
LINE
  5
265
330
2
100
AcDbEntity
  8
0
 62
     3
100
AcDbLine
 10
138.6032382435
 20
190.5136090158
 30
0.0
 11
133.7032651728
 21
199.000615381
 31
0.0
  0
LINE
  5
266
330
2
100
AcDbEntity
  8
0
 62
     3
100
AcDbLine
 10
133.7032836742
 20
199.0005666348
 30
0.0
 11
123.9032806224999
 21
199.0005666348
 31
0.0
  0
LINE
  5
267
330
2
100
AcDbEntity
  8
0
 62
     3
100
AcDbLine
 10
129.8192886180999
 20
194.6635152432
 30
0.0
 11
127.7872756785999
 21
194.6635152432
 31
0.0
  0
LINE
  5
268
330
2
100
AcDbEntity
  8
0
 62
     3
100
AcDbLine
 10
120.8032821483
 20
191.3635121915
 30
0.0
 11
125.7872833079999
 21
191.3635121915
 31
0.0
  0
LINE
  5
269
330
2
100
AcDbEntity
  8
0
 62
     3
100
AcDbLine
 10
127.7872833079999
 20
193.3635121914998
 30
0.0
 11
127.7872833079999
 21
194.6635152432
 31
0.0
  0
ARC
  5
26A
330
2
100
AcDbEntity
  8
0
 62
     3
100
AcDbCircle
 10
125.7872833079999
 20
193.3635121914998
 30
0.0
 40
2.0
100
AcDbArc
 50
270.0000179861
 51
0.0
  0
LINE
  5
26B
330
2
100
AcDbEntity
  8
0
 62
     3
100
AcDbLine
 10
129.8192809887
 20
193.3635121914998
 30
0.0
 11
129.8192809887
 21
194.6635152432
 31
0.0
  0
ARC
  5
26C
330
2
100
AcDbEntity
  8
0
 62
     3
100
AcDbCircle
 10
131.8192809886999
 20
193.3635121914998
 30
0.0
 40
2.0
100
AcDbArc
 50
180.0
 51
269.9999820138998
  0
LINE
  5
26D
330
2
100
AcDbEntity
  8
0
 62
     3
100
AcDbLine
 10
147.3032516307999
 20
193.5137273404
 30
0.0
 11
146.3032516308
 21
193.5137273404
 31
0.0
  0
LINE
  5
26E
330
2
100
AcDbEntity
  8
0
 62
     3
100
AcDbLine
 10
146.3033370799998
 20
193.5136968227999
 30
0.0
 11
148.3032272167
 21
193.5136968227999
 31
0.0
  0
LINE
  5
26F
330
2
100
AcDbEntity
  8
0
 62
     3
100
AcDbLine
 10
147.3033126658999
 20
193.5137273404
 30
0.0
 11
148.3033126658999
 21
193.5137273404
 31
0.0
  0
ARC
  5
270
330
2
100
AcDbEntity
  8
0
 62
     3
100
AcDbCircle
 10
140.3033431834999
 20
203.5135137174
 30
0.0
 40
5.0
100
AcDbArc
 50
0.2478898768
 51
90.0000179861
  0
LINE
  5
271
330
2
100
AcDbEntity
  8
0
 62
     3
100
AcDbLine
 10
148.3032272167
 20
206.5136968227998
 30
0.0
 11
149.3032577342999
 21
206.5136968227998
 31
0.0
  0
LINE
  5
272
330
2
100
AcDbEntity
  8
0
 62
     3
100
AcDbLine
 10
148.3033126658999
 20
206.5136663052
 30
0.0
 11
149.3032821483
 21
206.5136663052
 31
0.0
  0
LINE
  5
273
330
2
100
AcDbEntity
  8
0
 62
     3
100
AcDbLine
 10
149.3032821483
 20
205.5136663052
 30
0.0
 11
148.3032272167
 21
205.5136663052
 31
0.0
  0
LINE
  5
274
330
2
100
AcDbEntity
  8
0
 62
     3
100
AcDbLine
 10
146.3032516308
 20
206.5136663052
 30
0.0
 11
145.3032821483
 21
206.5136663052
 31
0.0
  0
LINE
  5
275
330
2
100
AcDbEntity
  8
0
 62
     3
100
AcDbLine
 10
146.3033370799998
 20
206.5136968227998
 30
0.0
 11
145.3033065624
 21
206.5136968227998
 31
0.0
  0
LINE
  5
276
330
2
100
AcDbEntity
  8
0
 62
     3
100
AcDbLine
 10
146.3033370799998
 20
205.5136663052
 30
0.0
 11
145.3032821483
 21
205.5136663052
 31
0.0
  0
LINE
  5
277
330
2
100
AcDbEntity
  8
0
 62
     3
100
AcDbLine
 10
149.3032821483
 20
209.3136540981999
 30
0.0
 11
145.3032821483
 21
209.3136540981999
 31
0.0
  0
LINE
  5
278
330
2
100
AcDbEntity
  8
0
 62
     3
100
AcDbLine
 10
136.8032821483
 20
235.6636373134999
 30
0.0
 11
131.8192809886999
 21
235.6636373134999
 31
0.0
  0
LINE
  5
279
330
2
100
AcDbEntity
  8
0
 62
     3
100
AcDbLine
 10
129.8192886180999
 20
232.3636342618
 30
0.0
 11
127.7872756785999
 21
232.3636342618
 31
0.0
  0
LINE
  5
27A
330
2
100
AcDbEntity
  8
0
 62
     3
100
AcDbLine
 10
133.7032836742
 20
228.0265828701999
 30
0.0
 11
123.9032806224999
 21
228.0265828701999
 31
0.0
  0
LINE
  5
27B
330
2
100
AcDbEntity
  8
0
 62
     3
100
AcDbLine
 10
120.8032821483
 20
235.6636373134999
 30
0.0
 11
125.7872833079999
 21
235.6636373134999
 31
0.0
  0
LINE
  5
27C
330
2
100
AcDbEntity
  8
0
 62
     3
100
AcDbLine
 10
127.7872833079999
 20
233.6636373134999
 30
0.0
 11
127.7872833079999
 21
232.3636342618
 31
0.0
  0
LINE
  5
27D
330
2
100
AcDbEntity
  8
0
 62
     3
100
AcDbLine
 10
129.8192809887
 20
233.6636373134999
 30
0.0
 11
129.8192809887
 21
232.3636342618
 31
0.0
  0
ARC
  5
27E
330
2
100
AcDbEntity
  8
0
 62
     3
100
AcDbCircle
 10
140.3033431834999
 20
223.5136357876998
 30
0.0
 40
5.0
100
AcDbArc
 50
269.9999820138998
 51
359.7521101232
  0
LINE
  5
27F
330
2
100
AcDbEntity
  8
0
 62
     3
100
AcDbLine
 10
145.3032821483
 20
217.7134954068
 30
0.0
 11
149.3032821483
 21
217.7134954068
 31
0.0
  0
LINE
  5
280
330
2
100
AcDbEntity
  8
0
 62
     3
100
AcDbLine
 10
148.3033126658999
 20
220.5134831997999
 30
0.0
 11
149.3032821483
 21
220.5134831997999
 31
0.0
  0
LINE
  5
281
330
2
100
AcDbEntity
  8
0
 62
     3
100
AcDbLine
 10
148.3032272167
 20
221.5134831997999
 30
0.0
 11
149.3032821483
 21
221.5134831997999
 31
0.0
  0
LINE
  5
282
330
2
100
AcDbEntity
  8
0
 62
     3
100
AcDbLine
 10
148.3032272167
 20
220.5134526821999
 30
0.0
 11
149.3032577342999
 21
220.5134526821999
 31
0.0
  0
LINE
  5
283
330
2
100
AcDbEntity
  8
0
 62
     3
100
AcDbLine
 10
146.3033370799998
 20
220.5134526821999
 30
0.0
 11
145.3033065624
 21
220.5134526821999
 31
0.0
  0
LINE
  5
284
330
2
100
AcDbEntity
  8
0
 62
     3
100
AcDbLine
 10
145.3032821483
 20
221.5134831997999
 30
0.0
 11
146.3033370799998
 21
221.5134831997999
 31
0.0
  0
LINE
  5
285
330
2
100
AcDbEntity
  8
0
 62
     3
100
AcDbLine
 10
146.3032516308
 20
220.5134831997999
 30
0.0
 11
145.3032821483
 21
220.5134831997999
 31
0.0
  0
LINE
  5
286
330
2
100
AcDbEntity
  8
0
 62
     3
100
AcDbLine
 10
147.3032516307999
 20
233.5134221646
 30
0.0
 11
146.3032516308
 21
233.5134221646
 31
0.0
  0
LINE
  5
287
330
2
100
AcDbEntity
  8
0
 62
     3
100
AcDbLine
 10
147.3033126658999
 20
233.5134221646
 30
0.0
 11
148.3033126658999
 21
233.5134221646
 31
0.0
  0
LINE
  5
288
330
2
100
AcDbEntity
  8
0
 62
     3
100
AcDbLine
 10
148.3032272167
 20
233.5134526822
 30
0.0
 11
146.3033370799998
 21
233.5134526822
 31
0.0
  0
LINE
  5
289
330
2
100
AcDbEntity
  8
0
 62
     3
100
AcDbLine
 10
184.3032272166998
 20
217.7135869595
 30
0.0
 11
184.3032272166998
 21
209.3135625454999
 31
0.0
  0
LINE
  5
28A
330
2
100
AcDbEntity
  8
0
 62
     3
100
AcDbLine
 10
173.8032821482998
 20
191.3635121915
 30
0.0
 11
168.8192809887
 21
191.3635121915
 31
0.0
  0
LINE
  5
28B
330
2
100
AcDbEntity
  8
0
 62
     3
100
AcDbLine
 10
170.7032836741998
 20
199.0005666348
 30
0.0
 11
160.9032806224998
 21
199.0005666348
 31
0.0
  0
LINE
  5
28C
330
2
100
AcDbEntity
  8
0
 62
     3
100
AcDbLine
 10
157.8032821483
 20
191.3635121915
 30
0.0
 11
162.7872833079998
 21
191.3635121915
 31
0.0
  0
LINE
  5
28D
330
2
100
AcDbEntity
  8
0
 62
     3
100
AcDbLine
 10
156.0033260532
 20
190.5136090158
 30
0.0
 11
160.9032991237999
 21
199.000615381
 31
0.0
  0
LINE
  5
28E
330
2
100
AcDbEntity
  8
0
 62
     3
100
AcDbLine
 10
166.8192886181
 20
194.6635152432
 30
0.0
 11
164.7872756786
 21
194.6635152432
 31
0.0
  0
ARC
  5
28F
330
2
100
AcDbEntity
  8
0
 62
     3
100
AcDbCircle
 10
162.7872833079998
 20
193.3635121914998
 30
0.0
 40
2.0
100
AcDbArc
 50
270.0000179861
 51
0.0
  0
LINE
  5
290
330
2
100
AcDbEntity
  8
0
 62
     3
100
AcDbLine
 10
164.7872833079999
 20
193.3635121914998
 30
0.0
 11
164.7872833079999
 21
194.6635152432
 31
0.0
  0
LINE
  5
291
330
2
100
AcDbEntity
  8
0
 62
     3
100
AcDbLine
 10
166.8192809887
 20
193.3635121914998
 30
0.0
 11
166.8192809887
 21
194.6635152432
 31
0.0
  0
ARC
  5
292
330
2
100
AcDbEntity
  8
0
 62
     3
100
AcDbCircle
 10
168.8192809887
 20
193.3635121914998
 30
0.0
 40
2.0
100
AcDbArc
 50
180.0
 51
269.9999820138998
  0
LINE
  5
293
330
2
100
AcDbEntity
  8
0
 62
     3
100
AcDbLine
 10
175.6032382434999
 20
190.5136090158
 30
0.0
 11
170.7032651728
 21
199.000615381
 31
0.0
  0
LINE
  5
294
330
2
100
AcDbEntity
  8
0
 62
     3
100
AcDbLine
 10
181.3032625343999
 20
209.3136031313999
 30
0.0
 11
181.3032577659999
 21
205.5135848209
 31
0.0
  0
ARC
  5
295
330
2
100
AcDbEntity
  8
0
 62
     3
100
AcDbCircle
 10
177.3033431834999
 20
203.5135137174
 30
0.0
 40
5.0
100
AcDbArc
 50
36.8715050037
 51
90.0000179861
  0
ARC
  5
296
330
2
100
AcDbEntity
  8
0
 62
     3
100
AcDbCircle
 10
177.3033431834999
 20
203.5135137174
 30
0.0
 40
5.0
100
AcDbArc
 50
0.2478898768
 51
23.5789416008
  0
LINE
  5
297
330
2
100
AcDbEntity
  8
0
 62
     3
100
AcDbLine
 10
184.3032272166998
 20
205.5135747525
 30
0.0
 11
181.3033187693999
 21
205.5135747525
 31
0.0
  0
LINE
  5
298
330
2
100
AcDbEntity
  8
0
 62
     3
100
AcDbLine
 10
184.3030746287998
 20
206.5134526822
 30
0.0
 11
181.3031661814999
 21
206.5134526822
 31
0.0
  0
LINE
  5
299
330
2
100
AcDbEntity
  8
0
 62
     3
100
AcDbLine
 10
184.3029830761
 20
209.3133794399999
 30
0.0
 11
181.3030746287998
 21
209.3133794399999
 31
0.0
  0
LINE
  5
29A
330
2
100
AcDbEntity
  8
0
 62
     3
100
AcDbLine
 10
173.8032821482998
 20
235.6636373134999
 30
0.0
 11
168.8192809887
 21
235.6636373134999
 31
0.0
  0
LINE
  5
29B
330
2
100
AcDbEntity
  8
0
 62
     3
100
AcDbLine
 10
170.7032836741998
 20
228.0265828701999
 30
0.0
 11
160.9032806224998
 21
228.0265828701999
 31
0.0
  0
LINE
  5
29C
330
2
100
AcDbEntity
  8
0
 62
     3
100
AcDbLine
 10
157.8032821483
 20
235.6636373134999
 30
0.0
 11
162.7872833079998
 21
235.6636373134999
 31
0.0
  0
LINE
  5
29D
330
2
100
AcDbEntity
  8
0
 62
     3
100
AcDbLine
 10
166.8192886181
 20
232.3636342618
 30
0.0
 11
164.7872756786
 21
232.3636342618
 31
0.0
  0
LINE
  5
29E
330
2
100
AcDbEntity
  8
0
 62
     3
100
AcDbLine
 10
164.7872833079999
 20
233.6636373134999
 30
0.0
 11
164.7872833079999
 21
232.3636342618
 31
0.0
  0
LINE
  5
29F
330
2
100
AcDbEntity
  8
0
 62
     3
100
AcDbLine
 10
166.8192809887
 20
233.6636373134999
 30
0.0
 11
166.8192809887
 21
232.3636342618
 31
0.0
  0
ARC
  5
2A0
330
2
100
AcDbEntity
  8
0
 62
     3
100
AcDbCircle
 10
177.3033431834999
 20
223.5136357876998
 30
0.0
 40
5.0
100
AcDbArc
 50
269.9999820138998
 51
323.1284949962998
  0
LINE
  5
2A1
330
2
100
AcDbEntity
  8
0
 62
     3
100
AcDbLine
 10
181.3032625343999
 20
217.7135463736
 30
0.0
 11
181.3032577659999
 21
221.5135646840999
 31
0.0
  0
LINE
  5
2A2
330
2
100
AcDbEntity
  8
0
 62
     3
100
AcDbLine
 10
184.3029830761
 20
217.7137700649999
 30
0.0
 11
181.3030746287998
 21
217.7137700649999
 31
0.0
  0
LINE
  5
2A3
330
2
100
AcDbEntity
  8
0
 62
     3
100
AcDbLine
 10
182.3032821482998
 20
221.5134831997999
 30
0.0
 11
183.3032516307999
 21
221.5134831997999
 31
0.0
  0
LINE
  5
2A4
330
2
100
AcDbEntity
  8
0
 62
     3
100
AcDbLine
 10
183.3032516307999
 20
220.5134831997999
 30
0.0
 11
182.3032821482998
 21
220.5134831997999
 31
0.0
  0
ARC
  5
2A5
330
2
100
AcDbEntity
  8
0
 62
     3
100
AcDbCircle
 10
177.3033431834999
 20
223.5136357876998
 30
0.0
 40
5.0
100
AcDbArc
 50
336.419913707
 51
359.7521101232
  0
LINE
  5
2A6
330
2
100
AcDbEntity
  8
0
 62
     3
100
AcDbLine
 10
184.3030746287998
 20
220.5136968227999
 30
0.0
 11
181.3031661814999
 21
220.5136968227999
 31
0.0
  0
LINE
  5
2A7
330
2
100
AcDbEntity
  8
0
 62
     3
100
AcDbLine
 10
184.3032272166998
 20
221.5135747525
 30
0.0
 11
181.3033187693999
 21
221.5135747525
 31
0.0
  0
LINE
  5
2A8
330
2
100
AcDbEntity
  8
0
 62
     3
100
AcDbLine
 10
123.9032846765
 20
245.000633249
 30
0.0
 11
119.0032760337999
 21
236.5135867161
 31
0.0
  0
LINE
  5
2A9
330
2
100
AcDbEntity
  8
0
 62
     3
100
AcDbLine
 10
113.8032516307999
 20
247.5136052701
 30
0.0
 11
143.8033431834999
 21
247.5136052701
 31
0.0
  0
LINE
  5
2AA
330
2
100
AcDbEntity
  8
0
 62
     3
100
AcDbLine
 10
113.8032516307999
 20
248.5136052700998
 30
0.0
 11
143.8033431834999
 21
248.5136052700998
 31
0.0
  0
LINE
  5
2AB
330
2
100
AcDbEntity
  8
0
 62
     3
100
AcDbLine
 10
121.4252303005998
 20
244.6722034661
 30
0.0
 11
112.3032362947999
 21
236.4230272891
 31
0.0
  0
LINE
  5
2AC
330
2
100
AcDbEntity
  8
0
 62
     3
100
AcDbLine
 10
86.90328062249994
 20
245.0006658169999
 30
0.0
 11
96.70328367419999
 21
245.0006658169999
 31
0.0
  0
LINE
  5
2AD
330
2
100
AcDbEntity
  8
0
 62
     3
100
AcDbLine
 10
73.3033065624
 20
236.5135747525
 30
0.0
 11
89.8032821483
 21
236.5135747525
 31
0.0
  0
LINE
  5
2AE
330
2
100
AcDbEntity
  8
0
 62
     3
100
AcDbLine
 10
76.80325163079995
 20
248.5136052700998
 30
0.0
 11
106.8033431834999
 21
248.5136052700998
 31
0.0
  0
LINE
  5
2AF
330
2
100
AcDbEntity
  8
0
 62
     3
100
AcDbLine
 10
76.80325163079995
 20
247.5136052701
 30
0.0
 11
106.8033431834999
 21
247.5136052701
 31
0.0
  0
ARC
  5
2B0
330
2
100
AcDbEntity
  8
0
 62
     3
100
AcDbCircle
 10
91.80328214830002
 20
236.5136357877
 30
0.0
 40
11.0
100
AcDbArc
 50
47.87643638339999
 51
132.1235636166
  0
LINE
  5
2B1
330
2
100
AcDbEntity
  8
0
 62
     3
100
AcDbLine
 10
83.80328214830001
 20
237.3636342618
 30
0.0
 11
88.78728330799999
 21
237.3636342618
 31
0.0
  0
LINE
  5
2B2
330
2
100
AcDbEntity
  8
0
 62
     3
100
AcDbLine
 10
73.30333708000002
 20
243.5134831997999
 30
0.0
 11
71.30330656239998
 21
243.5134831997999
 31
0.0
  0
LINE
  5
2B3
330
2
100
AcDbEntity
  8
0
 62
     3
100
AcDbLine
 10
71.30330656239998
 20
240.0134831997998
 30
0.0
 11
73.30333708000002
 21
240.0134831997998
 31
0.0
  0
LINE
  5
2B4
330
2
100
AcDbEntity
  8
0
 62
     3
100
AcDbLine
 10
60.90329740710001
 20
236.5135747525
 30
0.0
 11
67.30330656239998
 21
236.5135747525
 31
0.0
  0
LINE
  5
2B5
330
2
100
AcDbEntity
  8
0
  6
PHANTOM
 62
     3
100
AcDbLine
 10
56.90329740710001
 20
236.5135747525
 30
0.0
 11
58.90329740710001
 21
236.5135747525
 31
0.0
  0
LINE
  5
2B6
330
2
100
AcDbEntity
  8
0
  6
PHANTOM
 62
     3
100
AcDbLine
 10
69.30330656239998
 20
236.5135747525
 30
0.0
 11
71.30330656239998
 21
236.5135747525
 31
0.0
  0
LINE
  5
2B7
330
2
100
AcDbEntity
  8
0
 62
     3
100
AcDbLine
 10
76.80325163079995
 20
237.8135320279
 30
0.0
 11
76.80325163079995
 21
258.5133000943
 31
0.0
  0
LINE
  5
2B8
330
2
100
AcDbEntity
  8
0
 62
     3
100
AcDbLine
 10
84.4252303006
 20
244.6722034661
 30
0.0
 11
75.30323629479994
 21
236.4230272891
 31
0.0
  0
LINE
  5
2B9
330
2
100
AcDbEntity
  8
0
 62
     3
100
AcDbLine
 10
75.30328214829996
 20
243.5134526822
 30
0.0
 11
73.30331266589997
 21
243.5134526822
 31
0.0
  0
LINE
  5
2BA
330
2
100
AcDbEntity
  8
0
 62
     3
100
AcDbLine
 10
86.90328467649997
 20
245.000633249
 30
0.0
 11
82.00327603379998
 21
236.5135867161
 31
0.0
  0
LINE
  5
2BB
330
2
100
AcDbEntity
  8
0
 62
     3
100
AcDbLine
 10
73.30339970469992
 20
248.5134897299
 30
0.0
 11
75.30333866960003
 21
248.5135049888
 31
0.0
  0
LINE
  5
2BC
330
2
100
AcDbEntity
  8
0
 62
     3
100
AcDbLine
 10
75.30328214829996
 20
258.5135442348998
 30
0.0
 11
73.30331266589997
 21
258.5135442348998
 31
0.0
  0
LINE
  5
2BD
330
2
100
AcDbEntity
  8
0
 62
     3
100
AcDbLine
 10
99.18133399609995
 20
244.6722034661
 30
0.0
 11
108.3033280019
 21
236.4230272891
 31
0.0
  0
LINE
  5
2BE
330
2
100
AcDbEntity
  8
0
 62
     3
100
AcDbLine
 10
91.80331266589993
 20
258.5136663051998
 30
0.0
 11
91.80331266589993
 21
247.5135442349
 31
0.0
  0
LINE
  5
2BF
330
2
100
AcDbEntity
  8
0
 62
     3
100
AcDbLine
 10
99.80328214830002
 20
237.3636342618
 30
0.0
 11
94.81928098870005
 21
237.3636342618
 31
0.0
  0
LINE
  5
2C0
330
2
100
AcDbEntity
  8
0
 62
     3
100
AcDbLine
 10
92.81928861809996
 20
240.6636296841999
 30
0.0
 11
90.78727567860001
 21
240.6636296841999
 31
0.0
  0
LINE
  5
2C1
330
2
100
AcDbEntity
  8
0
 62
     3
100
AcDbLine
 10
90.787283308
 20
240.6636296841999
 30
0.0
 11
90.787283308
 21
239.3636342618
 31
0.0
  0
ARC
  5
2C2
330
2
100
AcDbEntity
  8
0
 62
     3
100
AcDbCircle
 10
88.78728330799999
 20
239.3636342618
 30
0.0
 40
2.0
100
AcDbArc
 50
270.0000179861
 51
0.0
  0
LINE
  5
2C3
330
2
100
AcDbEntity
  8
0
 62
     3
100
AcDbLine
 10
92.81928098870002
 20
240.6636296841999
 30
0.0
 11
92.81928098870002
 21
239.3636342618
 31
0.0
  0
ARC
  5
2C4
330
2
100
AcDbEntity
  8
0
 62
     3
100
AcDbCircle
 10
94.81928098870005
 20
239.3636342618
 30
0.0
 40
2.0
100
AcDbArc
 50
180.0
 51
269.9999820138998
  0
LINE
  5
2C5
330
2
100
AcDbEntity
  8
0
 62
     3
100
AcDbLine
 10
96.70327962019996
 20
245.000633249
 30
0.0
 11
101.6032882628999
 21
236.5135867161
 31
0.0
  0
LINE
  5
2C6
330
2
100
AcDbEntity
  8
0
 62
     3
100
AcDbLine
 10
106.8033126658999
 20
237.8135320279
 30
0.0
 11
106.8033126658999
 21
258.5133000943
 31
0.0
  0
LINE
  5
2C7
330
2
100
AcDbEntity
  8
0
 62
     3
100
AcDbLine
 10
113.8032516307999
 20
237.8135320279
 30
0.0
 11
113.8032516307999
 21
258.5133000943
 31
0.0
  0
LINE
  5
2C8
330
2
100
AcDbEntity
  8
0
 62
     3
100
AcDbLine
 10
112.3032577342997
 20
243.5134831997999
 30
0.0
 11
108.3033065623999
 21
243.5134831997999
 31
0.0
  0
LINE
  5
2C9
330
2
100
AcDbEntity
  8
0
 62
     3
100
AcDbLine
 10
112.3032821483
 20
243.5134526822
 30
0.0
 11
110.3033126658999
 21
243.5134526822
 31
0.0
  0
LINE
  5
2CA
330
2
100
AcDbEntity
  8
0
 62
     3
100
AcDbLine
 10
110.3032516307999
 20
240.0134526822
 30
0.0
 11
109.3032516307999
 21
240.0134526822
 31
0.0
  0
LINE
  5
2CB
330
2
100
AcDbEntity
  8
0
 62
     3
100
AcDbLine
 10
109.3033370799999
 20
240.0134831997998
 30
0.0
 11
111.3032272167
 21
240.0134831997998
 31
0.0
  0
LINE
  5
2CC
330
2
100
AcDbEntity
  8
0
 62
     3
100
AcDbLine
 10
110.3033126658999
 20
240.0134526822
 30
0.0
 11
111.3033126658999
 21
240.0134526822
 31
0.0
  0
LINE
  5
2CD
330
2
100
AcDbEntity
  8
0
 62
     3
100
AcDbLine
 10
108.3032821483
 20
243.5134526822
 30
0.0
 11
110.3032516307999
 21
243.5134526822
 31
0.0
  0
LINE
  5
2CE
330
2
100
AcDbEntity
  8
0
 62
     3
100
AcDbLine
 10
112.3032821483
 20
258.5135442348998
 30
0.0
 11
110.3033126658999
 21
258.5135442348998
 31
0.0
  0
LINE
  5
2CF
330
2
100
AcDbEntity
  8
0
 62
     3
100
AcDbLine
 10
108.8032516308
 20
248.5134221646
 30
0.0
 11
108.8032516308
 21
254.5081426235999
 31
0.0
  0
LINE
  5
2D0
330
2
100
AcDbEntity
  8
0
 62
     3
100
AcDbLine
 10
111.8032272166999
 20
248.5134526822
 30
0.0
 11
111.8032272166999
 21
254.5081731411999
 31
0.0
  0
LINE
  5
2D1
330
2
100
AcDbEntity
  8
0
 62
     3
100
AcDbLine
 10
108.8033370799999
 20
248.5134526822
 30
0.0
 11
108.8033370799999
 21
254.5081731411999
 31
0.0
  0
LINE
  5
2D2
330
2
100
AcDbEntity
  8
0
 62
     3
100
AcDbLine
 10
111.8033126658999
 20
248.5134221646
 30
0.0
 11
111.8033126658999
 21
254.5081426235999
 31
0.0
  0
LINE
  5
2D3
330
2
100
AcDbEntity
  8
0
 62
     3
100
AcDbLine
 10
108.8032516308
 20
250.513391647
 30
0.0
 11
110.3032516307999
 21
250.513391647
 31
0.0
  0
LINE
  5
2D4
330
2
100
AcDbEntity
  8
0
 62
     3
100
AcDbLine
 10
108.8032516308
 20
248.5134221646
 30
0.0
 11
110.3032516307999
 21
248.5134221646
 31
0.0
  0
LINE
  5
2D5
330
2
100
AcDbEntity
  8
0
 62
     3
100
AcDbLine
 10
111.8033126658999
 20
248.5134526822
 30
0.0
 11
108.8032516308
 21
248.5134526822
 31
0.0
  0
LINE
  5
2D6
330
2
100
AcDbEntity
  8
0
 62
     3
100
AcDbLine
 10
111.8033126658999
 20
250.5134221646
 30
0.0
 11
108.8032516308
 21
250.5134221646
 31
0.0
  0
LINE
  5
2D7
330
2
100
AcDbEntity
  8
0
 62
     3
100
AcDbLine
 10
111.8033126658999
 20
248.5134221646
 30
0.0
 11
110.3033126658999
 21
248.5134221646
 31
0.0
  0
LINE
  5
2D8
330
2
100
AcDbEntity
  8
0
 62
     3
100
AcDbLine
 10
111.8033126658999
 20
250.513391647
 30
0.0
 11
110.3033126658999
 21
250.513391647
 31
0.0
  0
LINE
  5
2D9
330
2
100
AcDbEntity
  8
0
 62
     3
100
AcDbLine
 10
107.3032760447999
 20
258.5135442348998
 30
0.0
 11
105.3032760447998
 21
258.5135442348998
 31
0.0
  0
LINE
  5
2DA
330
2
100
AcDbEntity
  8
0
 62
     3
100
AcDbLine
 10
108.8032516308
 20
254.5081426235999
 30
0.0
 11
110.3032516307999
 21
254.5081426235999
 31
0.0
  0
LINE
  5
2DB
330
2
100
AcDbEntity
  8
0
 62
     3
100
AcDbLine
 10
108.3032821483
 20
258.5135442348998
 30
0.0
 11
110.3032516307999
 21
258.5135442348998
 31
0.0
  0
LINE
  5
2DC
330
2
100
AcDbEntity
  8
0
 62
     3
100
AcDbLine
 10
111.8032272166999
 20
254.5081731411999
 30
0.0
 11
108.8033370799999
 21
254.5081731411999
 31
0.0
  0
LINE
  5
2DD
330
2
100
AcDbEntity
  8
0
 62
     3
100
AcDbLine
 10
111.8033126658999
 20
254.5081426235999
 30
0.0
 11
110.3033126658999
 21
254.5081426235999
 31
0.0
  0
LINE
  5
2DE
330
2
100
AcDbEntity
  8
0
 62
     3
100
AcDbLine
 10
158.4252303006
 20
244.6722034661
 30
0.0
 11
149.3032362947998
 21
236.4230272891
 31
0.0
  0
LINE
  5
2DF
330
2
100
AcDbEntity
  8
0
 62
     3
100
AcDbLine
 10
150.8032516307999
 20
248.5136052700998
 30
0.0
 11
180.8033431834999
 21
248.5136052700998
 31
0.0
  0
LINE
  5
2E0
330
2
100
AcDbEntity
  8
0
 62
     3
100
AcDbLine
 10
150.8032516307999
 20
247.5136052701
 30
0.0
 11
180.8033431834999
 21
247.5136052701
 31
0.0
  0
LINE
  5
2E1
330
2
100
AcDbEntity
  8
0
 62
     3
100
AcDbLine
 10
136.1813339960999
 20
244.6722034661
 30
0.0
 11
145.3033280019
 21
236.4230272891
 31
0.0
  0
LINE
  5
2E2
330
2
100
AcDbEntity
  8
0
 62
     3
100
AcDbLine
 10
133.7032796201997
 20
245.000633249
 30
0.0
 11
138.6032882628999
 21
236.5135867161
 31
0.0
  0
LINE
  5
2E3
330
2
100
AcDbEntity
  8
0
 62
     3
100
AcDbLine
 10
136.8032821483
 20
237.3636342618
 30
0.0
 11
131.8192809886999
 21
237.3636342618
 31
0.0
  0
LINE
  5
2E4
330
2
100
AcDbEntity
  8
0
 62
     3
100
AcDbLine
 10
128.8033126658999
 20
247.5135442349
 30
0.0
 11
128.8033126658999
 21
258.5136663051998
 31
0.0
  0
LINE
  5
2E5
330
2
100
AcDbEntity
  8
0
 62
     3
100
AcDbLine
 10
123.9032806224999
 20
245.0006658169999
 30
0.0
 11
133.7032836742
 21
245.0006658169999
 31
0.0
  0
LINE
  5
2E6
330
2
100
AcDbEntity
  8
0
 62
     3
100
AcDbLine
 10
129.8192886180999
 20
240.6636296841999
 30
0.0
 11
127.7872756785999
 21
240.6636296841999
 31
0.0
  0
ARC
  5
2E7
330
2
100
AcDbEntity
  8
0
 62
     3
100
AcDbCircle
 10
128.8032821483
 20
236.5136357877
 30
0.0
 40
11.0
100
AcDbArc
 50
47.87643638339999
 51
132.1235636166
  0
LINE
  5
2E8
330
2
100
AcDbEntity
  8
0
 62
     3
100
AcDbLine
 10
120.8032821483
 20
237.3636342618
 30
0.0
 11
125.7872833079999
 21
237.3636342618
 31
0.0
  0
LINE
  5
2E9
330
2
100
AcDbEntity
  8
0
 62
     3
100
AcDbLine
 10
127.7872833079999
 20
240.6636296841999
 30
0.0
 11
127.7872833079999
 21
239.3636342618
 31
0.0
  0
ARC
  5
2EA
330
2
100
AcDbEntity
  8
0
 62
     3
100
AcDbCircle
 10
125.7872833079999
 20
239.3636342618
 30
0.0
 40
2.0
100
AcDbArc
 50
270.0000179861
 51
0.0
  0
LINE
  5
2EB
330
2
100
AcDbEntity
  8
0
 62
     3
100
AcDbLine
 10
129.8192809887
 20
240.6636296841999
 30
0.0
 11
129.8192809887
 21
239.3636342618
 31
0.0
  0
ARC
  5
2EC
330
2
100
AcDbEntity
  8
0
 62
     3
100
AcDbCircle
 10
131.8192809886999
 20
239.3636342618
 30
0.0
 40
2.0
100
AcDbArc
 50
180.0
 51
269.9999820138998
  0
LINE
  5
2ED
330
2
100
AcDbEntity
  8
0
 62
     3
100
AcDbLine
 10
150.8032516307999
 20
237.8135320279
 30
0.0
 11
150.8032516307999
 21
258.5133000943
 31
0.0
  0
LINE
  5
2EE
330
2
100
AcDbEntity
  8
0
 62
     3
100
AcDbLine
 10
143.8033126658999
 20
237.8135320279
 30
0.0
 11
143.8033126658999
 21
258.5133000943
 31
0.0
  0
LINE
  5
2EF
330
2
100
AcDbEntity
  8
0
 62
     3
100
AcDbLine
 10
147.3032516307999
 20
240.0134526822
 30
0.0
 11
146.3032516308
 21
240.0134526822
 31
0.0
  0
LINE
  5
2F0
330
2
100
AcDbEntity
  8
0
 62
     3
100
AcDbLine
 10
147.3033126658999
 20
240.0134526822
 30
0.0
 11
148.3033126658999
 21
240.0134526822
 31
0.0
  0
LINE
  5
2F1
330
2
100
AcDbEntity
  8
0
 62
     3
100
AcDbLine
 10
148.3032272167
 20
240.0134831997998
 30
0.0
 11
146.3033370799998
 21
240.0134831997998
 31
0.0
  0
LINE
  5
2F2
330
2
100
AcDbEntity
  8
0
 62
     3
100
AcDbLine
 10
149.3032821483
 20
243.5134526822
 30
0.0
 11
147.3033126658999
 21
243.5134526822
 31
0.0
  0
LINE
  5
2F3
330
2
100
AcDbEntity
  8
0
 62
     3
100
AcDbLine
 10
145.3033065624
 20
243.5134831997999
 30
0.0
 11
149.3032577342999
 21
243.5134831997999
 31
0.0
  0
LINE
  5
2F4
330
2
100
AcDbEntity
  8
0
 62
     3
100
AcDbLine
 10
145.3032821483
 20
243.5134526822
 30
0.0
 11
147.3032516307999
 21
243.5134526822
 31
0.0
  0
LINE
  5
2F5
330
2
100
AcDbEntity
  8
0
 62
     3
100
AcDbLine
 10
144.3032760448
 20
258.5135442348998
 30
0.0
 11
142.3032760447999
 21
258.5135442348998
 31
0.0
  0
LINE
  5
2F6
330
2
100
AcDbEntity
  8
0
 62
     3
100
AcDbLine
 10
148.8033126658999
 20
248.5134221646
 30
0.0
 11
148.8033126658999
 21
254.5081426235999
 31
0.0
  0
LINE
  5
2F7
330
2
100
AcDbEntity
  8
0
 62
     3
100
AcDbLine
 10
145.8033370799998
 20
248.5134526822
 30
0.0
 11
145.8033370799998
 21
254.5081731411999
 31
0.0
  0
LINE
  5
2F8
330
2
100
AcDbEntity
  8
0
 62
     3
100
AcDbLine
 10
145.8032516307999
 20
248.5134221646
 30
0.0
 11
145.8032516307999
 21
254.5081426235999
 31
0.0
  0
LINE
  5
2F9
330
2
100
AcDbEntity
  8
0
 62
     3
100
AcDbLine
 10
148.8032272167
 20
248.5134526822
 30
0.0
 11
148.8032272167
 21
254.5081731411999
 31
0.0
  0
LINE
  5
2FA
330
2
100
AcDbEntity
  8
0
 62
     3
100
AcDbLine
 10
148.8033126658999
 20
250.513391647
 30
0.0
 11
147.3033126658999
 21
250.513391647
 31
0.0
  0
LINE
  5
2FB
330
2
100
AcDbEntity
  8
0
 62
     3
100
AcDbLine
 10
148.8033126658999
 20
248.5134221646
 30
0.0
 11
147.3033126658999
 21
248.5134221646
 31
0.0
  0
LINE
  5
2FC
330
2
100
AcDbEntity
  8
0
 62
     3
100
AcDbLine
 10
145.8032516307999
 20
250.5134221646
 30
0.0
 11
148.8033126658999
 21
250.5134221646
 31
0.0
  0
LINE
  5
2FD
330
2
100
AcDbEntity
  8
0
 62
     3
100
AcDbLine
 10
145.8032516307999
 20
248.5134526822
 30
0.0
 11
148.8033126658999
 21
248.5134526822
 31
0.0
  0
LINE
  5
2FE
330
2
100
AcDbEntity
  8
0
 62
     3
100
AcDbLine
 10
145.8032516307999
 20
250.513391647
 30
0.0
 11
147.3032516307999
 21
250.513391647
 31
0.0
  0
LINE
  5
2FF
330
2
100
AcDbEntity
  8
0
 62
     3
100
AcDbLine
 10
145.8032516307999
 20
248.5134221646
 30
0.0
 11
147.3032516307999
 21
248.5134221646
 31
0.0
  0
LINE
  5
300
330
2
100
AcDbEntity
  8
0
 62
     3
100
AcDbLine
 10
148.8033126658999
 20
254.5081426235999
 30
0.0
 11
147.3033126658999
 21
254.5081426235999
 31
0.0
  0
LINE
  5
301
330
2
100
AcDbEntity
  8
0
 62
     3
100
AcDbLine
 10
149.3032821483
 20
258.5135442348998
 30
0.0
 11
147.3033126658999
 21
258.5135442348998
 31
0.0
  0
LINE
  5
302
330
2
100
AcDbEntity
  8
0
 62
     3
100
AcDbLine
 10
145.8033370799998
 20
254.5081731411999
 30
0.0
 11
148.8032272167
 21
254.5081731411999
 31
0.0
  0
LINE
  5
303
330
2
100
AcDbEntity
  8
0
 62
     3
100
AcDbLine
 10
145.8032516307999
 20
254.5081426235999
 30
0.0
 11
147.3032516307999
 21
254.5081426235999
 31
0.0
  0
LINE
  5
304
330
2
100
AcDbEntity
  8
0
 62
     3
100
AcDbLine
 10
145.3032821483
 20
258.5135442348998
 30
0.0
 11
147.3032516307999
 21
258.5135442348998
 31
0.0
  0
LINE
  5
305
330
2
100
AcDbEntity
  8
0
 62
     3
100
AcDbLine
 10
173.8032821482998
 20
237.3636342618
 30
0.0
 11
168.8192809887
 21
237.3636342618
 31
0.0
  0
LINE
  5
306
330
2
100
AcDbEntity
  8
0
 62
     3
100
AcDbLine
 10
160.9032806224998
 20
245.0006658169999
 30
0.0
 11
170.7032836741998
 21
245.0006658169999
 31
0.0
  0
ARC
  5
307
330
2
100
AcDbEntity
  8
0
 62
     3
100
AcDbCircle
 10
165.8032821482999
 20
236.5136357877
 30
0.0
 40
11.0
100
AcDbArc
 50
47.87643638339999
 51
132.1235636166
  0
LINE
  5
308
330
2
100
AcDbEntity
  8
0
 62
     3
100
AcDbLine
 10
165.8033126658999
 20
247.5135442349
 30
0.0
 11
165.8033126658999
 21
258.5136663051998
 31
0.0
  0
LINE
  5
309
330
2
100
AcDbEntity
  8
0
 62
     3
100
AcDbLine
 10
157.8032821483
 20
237.3636342618
 30
0.0
 11
162.7872833079998
 21
237.3636342618
 31
0.0
  0
LINE
  5
30A
330
2
100
AcDbEntity
  8
0
 62
     3
100
AcDbLine
 10
160.9032846764999
 20
245.000633249
 30
0.0
 11
156.0032760337999
 21
236.5135867161
 31
0.0
  0
LINE
  5
30B
330
2
100
AcDbEntity
  8
0
 62
     3
100
AcDbLine
 10
166.8192886181
 20
240.6636296841999
 30
0.0
 11
164.7872756786
 21
240.6636296841999
 31
0.0
  0
ARC
  5
30C
330
2
100
AcDbEntity
  8
0
 62
     3
100
AcDbCircle
 10
162.7872833079998
 20
239.3636342618
 30
0.0
 40
2.0
100
AcDbArc
 50
270.0000179861
 51
0.0
  0
LINE
  5
30D
330
2
100
AcDbEntity
  8
0
 62
     3
100
AcDbLine
 10
164.7872833079999
 20
240.6636296841999
 30
0.0
 11
164.7872833079999
 21
239.3636342618
 31
0.0
  0
LINE
  5
30E
330
2
100
AcDbEntity
  8
0
 62
     3
100
AcDbLine
 10
166.8192809887
 20
240.6636296841999
 30
0.0
 11
166.8192809887
 21
239.3636342618
 31
0.0
  0
ARC
  5
30F
330
2
100
AcDbEntity
  8
0
 62
     3
100
AcDbCircle
 10
168.8192809887
 20
239.3636342618
 30
0.0
 40
2.0
100
AcDbArc
 50
180.0
 51
269.9999820138998
  0
LINE
  5
310
330
2
100
AcDbEntity
  8
0
 62
     3
100
AcDbLine
 10
180.8033126658999
 20
237.8135320279
 30
0.0
 11
180.8033126658999
 21
258.5133000943
 31
0.0
  0
LINE
  5
311
330
2
100
AcDbEntity
  8
0
 62
     3
100
AcDbLine
 10
173.1813339960998
 20
244.6722034661
 30
0.0
 11
182.3033280018997
 21
236.4230272891
 31
0.0
  0
LINE
  5
312
330
2
100
AcDbEntity
  8
0
 62
     3
100
AcDbLine
 10
170.7032796201999
 20
245.000633249
 30
0.0
 11
175.6032882628999
 21
236.5135867161
 31
0.0
  0
LINE
  5
313
330
2
100
AcDbEntity
  8
0
 62
     3
100
AcDbLine
 10
182.3032821482998
 20
243.5134526822
 30
0.0
 11
184.3032516307999
 21
243.5134526822
 31
0.0
  0
LINE
  5
314
330
2
100
AcDbEntity
  8
0
 62
     3
100
AcDbLine
 10
184.3031645918999
 20
248.5134897299
 30
0.0
 11
182.3032256270999
 21
248.5135049888
 31
0.0
  0
LINE
  5
315
330
2
100
AcDbEntity
  8
0
  6
PHANTOM
 62
     3
100
AcDbLine
 10
300.8032629031998
 20
234.0136191716
 30
0.0
 11
303.3032547674999
 21
236.5136110359999
 31
0.0
  0
LINE
  5
316
330
2
100
AcDbEntity
  8
0
 62
     3
100
AcDbLine
 10
258.0033404647
 20
240.0134317563
 30
0.0
 11
265.8033086936999
 21
233.5134485491999
 31
0.0
  0
LINE
  5
317
330
2
100
AcDbEntity
  8
0
  6
PHANTOM
 62
     3
100
AcDbLine
 10
256.5032333201999
 20
185.060053024
 30
0.0
 11
256.5032333201999
 21
241.9671880337999
 31
0.0
  0
LINE
  5
318
330
2
100
AcDbEntity
  8
0
  6
PHANTOM
 62
     3
100
AcDbLine
 10
258.0032333201998
 20
184.5136357876998
 30
0.0
 11
258.0032333201998
 21
242.5136052700998
 31
0.0
  0
LINE
  5
319
330
2
100
AcDbEntity
  8
0
  6
PHANTOM
 62
     3
100
AcDbLine
 10
198.7032668894999
 20
236.5135747525
 30
0.0
 11
198.7032668894999
 21
234.0135747525
 31
0.0
  0
LINE
  5
31A
330
2
100
AcDbEntity
  8
0
  6
PHANTOM
 62
     3
100
AcDbLine
 10
188.3032577342998
 20
234.0135747525
 30
0.0
 11
188.3032577342998
 21
236.5135747525
 31
0.0
  0
LINE
  5
31B
330
2
100
AcDbEntity
  8
0
  6
PHANTOM
 62
     3
100
AcDbLine
 10
186.3032577342998
 20
190.5135747525
 30
0.0
 11
186.3032577342998
 21
236.5135747525
 31
0.0
  0
LINE
  5
31C
330
2
100
AcDbEntity
  8
0
  6
PHANTOM
 62
     3
100
AcDbLine
 10
200.7032668894999
 20
190.5135747525
 30
0.0
 11
200.7032668894999
 21
236.5135747525
 31
0.0
  0
LINE
  5
31D
330
2
100
AcDbEntity
  8
0
 62
     3
100
AcDbLine
 10
186.3032577342998
 20
258.5136968227997
 30
0.0
 11
186.3032577342998
 21
217.7136479947
 31
0.0
  0
LINE
  5
31E
330
2
100
AcDbEntity
  8
0
 62
     3
100
AcDbLine
 10
186.3032577342998
 20
168.5134526821999
 30
0.0
 11
186.3032577342998
 21
217.7134954068
 31
0.0
  0
LINE
  5
31F
330
2
100
AcDbEntity
  8
0
  6
PHANTOM
 62
     3
100
AcDbLine
 10
216.7706405467999
 20
216.2044927213
 30
0.0
 11
217.9532272167
 21
216.2044927213
 31
0.0
  0
LINE
  5
320
330
2
100
AcDbEntity
  8
0
  6
PHANTOM
 62
     3
100
AcDbLine
 10
216.6343490428999
 20
210.7645207974
 30
0.0
 11
217.9532272167
 21
210.7645207974
 31
0.0
  0
LINE
  5
321
330
2
100
AcDbEntity
  8
0
  6
PHANTOM
 62
     3
100
AcDbLine
 10
217.9532272167
 20
221.5136052700998
 30
0.0
 11
200.7032668894999
 21
221.5136052700998
 31
0.0
  0
LINE
  5
322
330
2
100
AcDbEntity
  8
0
  6
PHANTOM
 62
     3
100
AcDbLine
 10
217.9532272167
 20
205.5136663052
 30
0.0
 11
200.7032668894999
 21
205.5136663052
 31
0.0
  0
LINE
  5
323
330
2
100
AcDbEntity
  8
0
  6
PHANTOM
 62
     3
100
AcDbLine
 10
200.7032668894999
 20
228.5136052701
 30
0.0
 11
217.9532272167
 21
228.5136052701
 31
0.0
  0
LINE
  5
324
330
2
100
AcDbEntity
  8
0
  6
PHANTOM
 62
     3
100
AcDbLine
 10
200.7032668894999
 20
198.5136663052
 30
0.0
 11
217.9532272167
 21
198.5136663052
 31
0.0
  0
ARC
  5
325
330
2
100
AcDbEntity
  8
0
  6
PHANTOM
 62
     3
100
AcDbCircle
 10
204.2032272166999
 20
213.5136357877
 30
0.0
 40
2.75
100
AcDbArc
 50
89.99998201389999
 51
268.5977355259
  0
ARC
  5
326
330
2
100
AcDbEntity
  8
0
  6
PHANTOM
 62
     3
100
AcDbCircle
 10
206.7032272166998
 20
213.5136357877
 30
0.0
 40
2.75
100
AcDbArc
 50
271.4028842000999
 51
89.99998201389994
  0
CIRCLE
  5
327
330
2
100
AcDbEntity
  8
0
  6
PHANTOM
 62
     3
100
AcDbCircle
 10
193.5032699412998
 20
213.5135747525
 30
0.0
 40
2.0
  0
CIRCLE
  5
328
330
2
100
AcDbEntity
  8
0
  6
PHANTOM
 62
     3
100
AcDbCircle
 10
193.5032699412998
 20
213.5135747525
 30
0.0
 40
1.75
  0
ARC
  5
329
330
2
100
AcDbEntity
  8
0
  6
PHANTOM
 62
     3
100
AcDbCircle
 10
216.7032272166999
 20
213.5136357877
 30
0.0
 40
2.75
100
AcDbArc
 50
89.99998201389999
 51
268.5650052593999
  0
LINE
  5
32A
330
2
100
AcDbEntity
  8
0
  6
PHANTOM
 62
     3
100
AcDbLine
 10
195.6245867696999
 20
197.8920616246
 30
0.0
 11
191.3819465129
 21
202.1347029543
 31
0.0
  0
CIRCLE
  5
32B
330
2
100
AcDbEntity
  8
0
  6
PHANTOM
 62
     3
100
AcDbCircle
 10
193.5032699412998
 20
200.0135747524999
 30
0.0
 40
3.5
  0
LINE
  5
32C
330
2
100
AcDbEntity
  8
0
  6
PHANTOM
 62
     3
100
AcDbLine
 10
192.7961415763999
 20
199.3062765187
 30
0.0
 11
194.2103548761999
 21
200.7204904144999
 31
0.0
  0
LINE
  5
32D
330
2
100
AcDbEntity
  8
0
  6
PHANTOM
 62
     3
100
AcDbLine
 10
186.3032577342998
 20
193.0135747525
 30
0.0
 11
200.7032668894999
 21
193.0135747525
 31
0.0
  0
LINE
  5
32E
330
2
100
AcDbEntity
  8
0
  6
PHANTOM
 62
     3
100
AcDbLine
 10
188.3032577342998
 20
190.5135747525
 30
0.0
 11
188.3032577342998
 21
193.0135747525
 31
0.0
  0
LINE
  5
32F
330
2
100
AcDbEntity
  8
0
  6
PHANTOM
 62
     3
100
AcDbLine
 10
186.3032577342998
 20
190.5135747525
 30
0.0
 11
188.3032577342998
 21
190.5135747525
 31
0.0
  0
LINE
  5
330
330
2
100
AcDbEntity
  8
0
  6
PHANTOM
 62
     3
100
AcDbLine
 10
198.7032668894999
 20
193.0135747525
 30
0.0
 11
198.7032668894999
 21
190.5135747525
 31
0.0
  0
LINE
  5
331
330
2
100
AcDbEntity
  8
0
  6
PHANTOM
 62
     3
100
AcDbLine
 10
198.7032668894999
 20
190.5135747525
 30
0.0
 11
200.7032668894999
 21
190.5135747525
 31
0.0
  0
LINE
  5
332
330
2
100
AcDbEntity
  8
0
  6
PHANTOM
 62
     3
100
AcDbLine
 10
204.1358749217998
 20
210.7644902799
 30
0.0
 11
206.7704879588998
 21
210.7644902799
 31
0.0
  0
CIRCLE
  5
333
330
2
100
AcDbEntity
  8
0
  6
PHANTOM
 62
     3
100
AcDbCircle
 10
193.5032699412998
 20
227.0135747524999
 30
0.0
 40
3.5
  0
LINE
  5
334
330
2
100
AcDbEntity
  8
0
  6
PHANTOM
 62
     3
100
AcDbLine
 10
186.3032577342998
 20
234.0135747525
 30
0.0
 11
200.7032668894999
 21
234.0135747525
 31
0.0
  0
LINE
  5
335
330
2
100
AcDbEntity
  8
0
  6
PHANTOM
 62
     3
100
AcDbLine
 10
192.7961358865999
 20
226.3062631611999
 30
0.0
 11
194.2103491863999
 21
227.720477057
 31
0.0
  0
LINE
  5
336
330
2
100
AcDbEntity
  8
0
  6
PHANTOM
 62
     3
100
AcDbLine
 10
195.6245793939999
 20
224.8920590566999
 30
0.0
 11
191.3819391371999
 21
229.1347003864
 31
0.0
  0
LINE
  5
337
330
2
100
AcDbEntity
  8
0
  6
PHANTOM
 62
     3
100
AcDbLine
 10
206.7693893260998
 20
216.2044927213
 30
0.0
 11
204.2690841503
 21
216.2044927213
 31
0.0
  0
LINE
  5
338
330
2
100
AcDbEntity
  8
0
  6
PHANTOM
 62
     3
100
AcDbLine
 10
217.9532272167
 20
198.5136663052
 30
0.0
 11
217.9532272167
 21
228.5136052701
 31
0.0
  0
LINE
  5
339
330
2
100
AcDbEntity
  8
0
 62
     3
100
AcDbLine
 10
265.8033604744998
 20
193.5135838252
 30
0.0
 11
258.0037433039998
 21
187.0138942766999
 31
0.0
  0
LINE
  5
33A
330
2
100
AcDbEntity
  8
0
 62
     3
100
AcDbLine
 10
262.8032821482999
 20
174.5136663052
 30
0.0
 11
267.8032821483
 21
174.5136663052
 31
0.0
  0
ARC
  5
33B
330
2
100
AcDbEntity
  8
0
  6
PHANTOM
 62
     3
100
AcDbCircle
 10
258.0032943553998
 20
177.9838201138
 30
0.0
 40
5.699998855599999
100
AcDbArc
 50
139.9696459817
 51
179.9999640277999
  0
ARC
  5
33C
330
2
100
AcDbEntity
  8
0
  6
PHANTOM
 62
     3
100
AcDbCircle
 10
258.0033248728998
 20
177.9838201138
 30
0.0
 40
4.199998855599997
100
AcDbArc
 50
139.9695913401999
 51
179.9999093863
  0
LINE
  5
33D
330
2
100
AcDbEntity
  8
0
 62
     3
100
AcDbLine
 10
258.0033718884997
 20
183.5135238668997
 30
0.0
 11
253.8035174603999
 21
178.5137119008
 31
0.0
  0
ARC
  5
33E
330
2
100
AcDbEntity
  8
0
 62
     3
100
AcDbCircle
 10
258.0032333201998
 20
176.5136968228
 30
0.0
 40
4.0
100
AcDbArc
 50
267.0585013974
 51
297.6650708418
  0
ARC
  5
33F
330
2
100
AcDbEntity
  8
0
  6
PHANTOM
 62
     3
100
AcDbCircle
 10
258.0032943553998
 20
176.7137090299
 30
0.0
 40
5.699998855599999
100
AcDbArc
 50
180.0
 51
299.6828726471998
  0
ARC
  5
340
330
2
100
AcDbEntity
  8
0
  6
PHANTOM
 62
     3
100
AcDbCircle
 10
258.0032943553998
 20
176.7137090299
 30
0.0
 40
4.199998855599997
100
AcDbArc
 50
176.4779360011999
 51
267.2024644822
  0
LINE
  5
341
330
2
100
AcDbEntity
  8
0
 62
     3
100
AcDbLine
 10
253.8037035033999
 20
176.5139525688999
 30
0.0
 11
257.7984333365999
 21
172.5192045522
 31
0.0
  0
LINE
  5
342
330
2
100
AcDbEntity
  8
0
  6
PHANTOM
 62
     3
100
AcDbLine
 10
252.3032821483
 20
176.7137090299
 30
0.0
 11
252.3032821483
 21
177.9837895963
 31
0.0
  0
LINE
  5
343
330
2
100
AcDbEntity
  8
0
 62
     3
100
AcDbLine
 10
253.8033431834999
 20
176.5137273404
 30
0.0
 11
253.8033431834999
 21
178.5136968228
 31
0.0
  0
LINE
  5
344
330
2
100
AcDbEntity
  8
0
  6
PHANTOM
 62
     3
100
AcDbLine
 10
262.8488420070999
 20
172.8220462516
 30
0.0
 11
260.5658892705998
 21
171.6252431298999
 31
0.0
  0
LINE
  5
345
330
2
100
AcDbEntity
  8
0
  6
PHANTOM
 62
     3
100
AcDbLine
 10
262.8488149784
 20
172.8220320822
 30
0.0
 11
262.1433778665998
 21
174.1676833056
 31
0.0
  0
LINE
  5
346
330
2
100
AcDbEntity
  8
0
 62
     3
100
AcDbLine
 10
262.8036081007
 20
174.5137989270999
 30
0.0
 11
259.8609386755999
 21
172.9711494024
 31
0.0
  0
LINE
  5
347
330
2
100
AcDbEntity
  8
0
  6
PHANTOM
 62
     3
100
AcDbLine
 10
256.5032861728998
 20
185.059961954
 30
0.0
 11
253.6388113464
 21
181.6498829241
 31
0.0
  0
LINE
  5
348
330
2
100
AcDbEntity
  8
0
  6
PHANTOM
 62
     3
100
AcDbLine
 10
258.0032938905
 20
184.513565994
 30
0.0
 11
254.7873672212999
 21
180.6850931460997
 31
0.0
  0
LINE
  5
349
330
2
100
AcDbEntity
  8
0
 62
     3
100
AcDbLine
 10
258.0032943553998
 20
187.0136357876998
 30
0.0
 11
258.0032943553998
 21
183.5136357876998
 31
0.0
  0
LINE
  5
34A
330
2
100
AcDbEntity
  8
0
 62
     3
100
AcDbLine
 10
267.8032821483
 20
174.5136357877
 30
0.0
 11
267.8032821483
 21
172.5136357877
 31
0.0
  0
ARC
  5
34B
330
2
100
AcDbEntity
  8
0
 62
     3
100
AcDbCircle
 10
271.8031905955999
 20
172.5136968228
 30
0.0
 40
4.0
100
AcDbArc
 50
179.9999093863
 51
269.9998914002
  0
LINE
  5
34C
330
2
100
AcDbEntity
  8
0
 62
     3
100
AcDbLine
 10
310.8531783885998
 20
187.0644780728
 30
0.0
 11
306.7531722851
 21
187.0644780728
 31
0.0
  0
LINE
  5
34D
330
2
100
AcDbEntity
  8
0
 62
     3
100
AcDbLine
 10
306.7531722851
 20
179.9630681606999
 30
0.0
 11
310.8531783885998
 21
179.9630681606999
 31
0.0
  0
CIRCLE
  5
34E
330
2
100
AcDbEntity
  8
0
 62
     3
100
AcDbCircle
 10
308.8031905955998
 20
183.5136968228
 30
0.0
 40
2.25
  0
LINE
  5
34F
330
2
100
AcDbEntity
  8
0
 62
     3
100
AcDbLine
 10
306.7532821582
 20
187.0643116729
 30
0.0
 11
304.7032882557997
 21
183.5136321456
 31
0.0
  0
LINE
  5
350
330
2
100
AcDbEntity
  8
0
 62
     3
100
AcDbLine
 10
304.7032348199998
 20
183.5137087613
 30
0.0
 11
306.7532223685998
 21
179.9630255683
 31
0.0
  0
LINE
  5
351
330
2
100
AcDbEntity
  8
0
 62
     3
100
AcDbLine
 10
312.9031806416997
 20
183.5136662345
 30
0.0
 11
310.8531938262998
 21
187.0643496718
 31
0.0
  0
LINE
  5
352
330
2
100
AcDbEntity
  8
0
 62
     3
100
AcDbLine
 10
310.8532788024
 20
179.9628639807
 30
0.0
 11
312.9032872304998
 21
183.5135701813999
 31
0.0
  0
LINE
  5
353
330
2
100
AcDbEntity
  8
0
  6
PHANTOM
 62
     3
100
AcDbLine
 10
284.3032668894998
 20
198.5136510465
 30
0.0
 11
274.7032455272
 21
198.5136510465
 31
0.0
  0
LINE
  5
354
330
2
100
AcDbEntity
  8
0
  6
PHANTOM
 62
     3
100
AcDbLine
 10
284.3032668894998
 20
201.5136357877
 30
0.0
 11
274.7032455272
 21
201.5136357877
 31
0.0
  0
LINE
  5
355
330
2
100
AcDbEntity
  8
0
  6
PHANTOM
 62
     3
100
AcDbLine
 10
284.3032668894998
 20
202.0136357876999
 30
0.0
 11
274.703260786
 21
202.0136357876999
 31
0.0
  0
LINE
  5
356
330
2
100
AcDbEntity
  8
0
  6
PHANTOM
 62
     3
100
AcDbLine
 10
284.3032668894998
 20
198.0136357876998
 30
0.0
 11
274.703260786
 21
198.0136357876998
 31
0.0
  0
LINE
  5
357
330
2
100
AcDbEntity
  8
0
  6
PHANTOM
 62
     3
100
AcDbLine
 10
274.7032455272
 20
228.5136205289
 30
0.0
 11
284.3032668894998
 21
228.5136205289
 31
0.0
  0
LINE
  5
358
330
2
100
AcDbEntity
  8
0
  6
PHANTOM
 62
     3
100
AcDbLine
 10
274.7032455272
 20
225.5136357876998
 30
0.0
 11
284.3032668894998
 21
225.5136357876998
 31
0.0
  0
LINE
  5
359
330
2
100
AcDbEntity
  8
0
  6
PHANTOM
 62
     3
100
AcDbLine
 10
274.703260786
 20
225.0136357876999
 30
0.0
 11
284.3032668894998
 21
225.0136357876999
 31
0.0
  0
LINE
  5
35A
330
2
100
AcDbEntity
  8
0
  6
PHANTOM
 62
     3
100
AcDbLine
 10
274.703260786
 20
229.0136357876999
 30
0.0
 11
284.3032668894998
 21
229.0136357876999
 31
0.0
  0
LINE
  5
35B
330
2
100
AcDbEntity
  8
0
 62
     3
100
AcDbLine
 10
265.8032821483
 20
233.5136052700998
 30
0.0
 11
265.8032821483
 21
193.5136663052
 31
0.0
  0
LINE
  5
35C
330
2
100
AcDbEntity
  8
0
  6
PHANTOM
 62
     3
100
AcDbLine
 10
274.703260786
 20
196.5136357877
 30
0.0
 11
274.703260786
 21
203.5136357877
 31
0.0
  0
ARC
  5
35D
330
2
100
AcDbEntity
  8
0
  6
PHANTOM
 62
     3
100
AcDbCircle
 10
281.1032546825
 20
200.0136357876999
 30
0.0
 40
9.0
100
AcDbArc
 50
165.1679803444
 51
194.8320383248999
  0
LINE
  5
35E
330
2
100
AcDbEntity
  8
0
  6
PHANTOM
 62
     3
100
AcDbLine
 10
272.1032478875999
 20
200.0136259174
 30
0.0
 11
273.6032477088
 21
202.6117022608999
 31
0.0
  0
LINE
  5
35F
330
2
100
AcDbEntity
  8
0
  6
PHANTOM
 62
     3
100
AcDbLine
 10
273.7223917159997
 20
196.5994484119
 30
0.0
 11
274.7032337038999
 21
196.5136359016
 31
0.0
  0
LINE
  5
360
330
2
100
AcDbEntity
  8
0
  6
PHANTOM
 62
     3
100
AcDbLine
 10
272.1032060755998
 20
200.0136502143999
 30
0.0
 11
272.6032060159
 21
199.1476247665
 31
0.0
  0
ARC
  5
361
330
2
100
AcDbEntity
  8
0
  6
PHANTOM
 62
     3
100
AcDbCircle
 10
273.8531631298
 20
198.0937444302
 30
0.0
 40
1.5
100
AcDbArc
 50
194.8319836834
 51
264.9999923478
  0
LINE
  5
362
330
2
100
AcDbEntity
  8
0
  6
PHANTOM
 62
     3
100
AcDbLine
 10
273.7223923421999
 20
203.4278198383
 30
0.0
 11
274.7032343301999
 21
203.5136323486999
 31
0.0
  0
ARC
  5
363
330
2
100
AcDbEntity
  8
0
  6
PHANTOM
 62
     3
100
AcDbCircle
 10
273.8531631298
 20
201.9335424038998
 30
0.0
 40
1.5
100
AcDbArc
 50
95.00000583100002
 51
165.1679803444
  0
ARC
  5
364
330
2
100
AcDbEntity
  8
0
  6
PHANTOM
 62
     3
100
AcDbCircle
 10
273.8531631298
 20
225.0937291715
 30
0.0
 40
1.5
100
AcDbArc
 50
194.8319836834
 51
264.9999923478
  0
LINE
  5
365
330
2
100
AcDbEntity
  8
0
  6
PHANTOM
 62
     3
100
AcDbLine
 10
273.6032473092998
 20
224.4155668471
 30
0.0
 11
272.1032474880999
 21
227.0136431907
 31
0.0
  0
LINE
  5
366
330
2
100
AcDbEntity
  8
0
  6
PHANTOM
 62
     3
100
AcDbLine
 10
274.703260786
 20
223.5136357876998
 30
0.0
 11
274.703260786
 21
230.5136357877
 31
0.0
  0
LINE
  5
367
330
2
100
AcDbEntity
  8
0
  6
PHANTOM
 62
     3
100
AcDbLine
 10
274.7032580205
 20
223.5136399102
 30
0.0
 11
273.7224160325999
 21
223.5994524206
 31
0.0
  0
LINE
  5
368
330
2
100
AcDbEntity
  8
0
  6
PHANTOM
 62
     3
100
AcDbLine
 10
274.7032569455999
 20
230.5136251463
 30
0.0
 11
273.7224149576998
 21
230.4278126359
 31
0.0
  0
ARC
  5
369
330
2
100
AcDbEntity
  8
0
  6
PHANTOM
 62
     3
100
AcDbCircle
 10
273.8531631298
 20
228.9335271450998
 30
0.0
 40
1.5
100
AcDbArc
 50
94.99999558569999
 51
165.1679803444
  0
ARC
  5
36A
330
2
100
AcDbEntity
  8
0
  6
PHANTOM
 62
     3
100
AcDbCircle
 10
281.1032546825
 20
227.0136357876999
 30
0.0
 40
9.0
100
AcDbArc
 50
165.1679257029
 51
194.8319836834
  0
LINE
  5
36B
330
2
100
AcDbEntity
  8
0
  6
PHANTOM
 62
     3
100
AcDbLine
 10
272.6032613177999
 20
227.8796478824
 30
0.0
 11
272.1032613774
 21
227.0136224345
 31
0.0
  0
LINE
  5
36C
330
2
100
AcDbEntity
  8
0
 62
     3
100
AcDbLine
 10
314.3032211131998
 20
206.9906255338
 30
0.0
 11
314.3032211131998
 21
220.0366765591999
 31
0.0
  0
LINE
  5
36D
330
2
100
AcDbEntity
  8
0
  6
PHANTOM
 62
     3
100
AcDbLine
 10
309.703260786
 20
216.2851964566
 30
0.0
 11
309.703260786
 21
210.7420751187
 31
0.0
  0
ARC
  5
36E
330
2
100
AcDbEntity
  8
0
 62
     3
100
AcDbCircle
 10
307.8031905955997
 20
213.5136052700999
 30
0.0
 40
3.25
100
AcDbArc
 50
305.7773485705999
 51
54.22265142939999
  0
LINE
  5
36F
330
2
100
AcDbEntity
  8
0
  6
PHANTOM
 62
     3
100
AcDbLine
 10
301.3032668894997
 20
216.7136327359
 30
0.0
 11
301.3032668894997
 21
210.3136388394
 31
0.0
  0
LINE
  5
370
330
2
100
AcDbEntity
  8
0
  6
PHANTOM
 62
     3
100
AcDbLine
 10
293.3032516307998
 20
216.7136327359
 30
0.0
 11
293.3032516307998
 21
210.3136388394
 31
0.0
  0
LINE
  5
371
330
2
100
AcDbEntity
  8
0
  6
PHANTOM
 62
     3
100
AcDbLine
 10
292.8032516307998
 20
210.3136388394
 30
0.0
 11
292.8032516307998
 21
216.7136327359
 31
0.0
  0
LINE
  5
372
330
2
100
AcDbEntity
  8
0
  6
PHANTOM
 62
     3
100
AcDbLine
 10
291.203260786
 20
210.3136388394
 30
0.0
 11
291.203260786
 21
216.7136327359
 31
0.0
  0
LINE
  5
373
330
2
100
AcDbEntity
  8
0
  6
PHANTOM
 62
     3
100
AcDbLine
 10
289.7032607859998
 20
210.3136388394
 30
0.0
 11
289.7032607859998
 21
216.7136327359
 31
0.0
  0
LINE
  5
374
330
2
100
AcDbEntity
  8
0
  6
PHANTOM
 62
     3
100
AcDbLine
 10
284.3032668894998
 20
193.0136357877
 30
0.0
 11
284.3032668894998
 21
234.0136357876998
 31
0.0
  0
LINE
  5
375
330
2
100
AcDbEntity
  8
0
  6
PHANTOM
 62
     3
100
AcDbLine
 10
301.3032668894997
 20
210.3136388394
 30
0.0
 11
289.7032607859998
 21
210.3136388394
 31
0.0
  0
LINE
  5
376
330
2
100
AcDbEntity
  8
0
  6
PHANTOM
 62
     3
100
AcDbLine
 10
300.8032668894998
 20
193.0136357877
 30
0.0
 11
284.3032668894998
 21
193.0136357877
 31
0.0
  0
LINE
  5
377
330
2
100
AcDbEntity
  8
0
  6
PHANTOM
 62
     3
100
AcDbLine
 10
310.2031948806
 20
200.2136298347
 30
0.0
 11
312.5032022196998
 21
202.5136362045
 31
0.0
  0
LINE
  5
378
330
2
100
AcDbEntity
  8
0
  6
PHANTOM
 62
     3
100
AcDbLine
 10
303.8032516308
 20
200.5136357876998
 30
0.0
 11
303.8032516308
 21
205.5136357877
 31
0.0
  0
LINE
  5
379
330
2
100
AcDbEntity
  8
0
  6
PHANTOM
 62
     3
100
AcDbLine
 10
305.3032516307998
 20
200.5136357876998
 30
0.0
 11
305.3032516307998
 21
205.5136357877
 31
0.0
  0
LINE
  5
37A
330
2
100
AcDbEntity
  8
0
  6
PHANTOM
 62
     3
100
AcDbLine
 10
303.8032516308
 20
198.7775670620997
 30
0.0
 11
303.8032516308
 21
205.7636357877
 31
0.0
  0
LINE
  5
37B
330
2
100
AcDbEntity
  8
0
  6
PHANTOM
 62
     3
100
AcDbLine
 10
302.8032058543999
 20
201.0136510465
 30
0.0
 11
302.8032058543999
 21
205.7636510465
 31
0.0
  0
LINE
  5
37C
330
2
100
AcDbEntity
  8
0
  6
PHANTOM
 62
     3
100
AcDbLine
 10
305.3032668894998
 20
201.0136510465
 30
0.0
 11
305.3032668894998
 21
205.2636357877
 31
0.0
  0
LINE
  5
37D
330
2
100
AcDbEntity
  8
0
 62
     3
100
AcDbLine
 10
303.8032516308
 20
205.7636357877
 30
0.0
 11
303.8032516308
 21
200.443658981
 31
0.0
  0
LINE
  5
37E
330
2
100
AcDbEntity
  8
0
  6
PHANTOM
 62
     3
100
AcDbLine
 10
310.203260786
 20
200.2136479947
 30
0.0
 11
306.1032546824999
 21
200.2136479947
 31
0.0
  0
LINE
  5
37F
330
2
100
AcDbEntity
  8
0
 62
     3
100
AcDbLine
 10
306.1032394236998
 20
198.1436711881
 30
0.0
 11
311.8032211131998
 21
198.1436711881
 31
0.0
  0
LINE
  5
380
330
2
100
AcDbEntity
  8
0
  6
PHANTOM
 62
     3
100
AcDbLine
 10
309.5032638378
 20
198.0136357876998
 30
0.0
 11
305.8032668894998
 21
198.0136357876998
 31
0.0
  0
LINE
  5
381
330
2
100
AcDbEntity
  8
0
  6
PHANTOM
 62
     3
100
AcDbLine
 10
303.3032399317999
 20
190.5136633553
 30
0.0
 11
300.8032480675
 21
193.0136552197
 31
0.0
  0
ARC
  5
382
330
2
100
AcDbEntity
  8
0
  6
PHANTOM
 62
     3
100
AcDbCircle
 10
305.8032668894998
 20
201.0136357877
 30
0.0
 40
3.0
100
AcDbArc
 50
179.9999820138999
 51
269.9999640277999
  0
ARC
  5
383
330
2
100
AcDbEntity
  8
0
  6
PHANTOM
 62
     3
100
AcDbCircle
 10
305.8032516307998
 20
200.5136357876998
 30
0.0
 40
2.0
100
AcDbArc
 50
179.9999820138999
 51
269.9999640277999
  0
ARC
  5
384
330
2
100
AcDbEntity
  8
0
  6
PHANTOM
 62
     3
100
AcDbCircle
 10
305.8032516307998
 20
200.5136357876998
 30
0.0
 40
0.5
100
AcDbArc
 50
179.9999820138999
 51
269.9999640277999
  0
LINE
  5
385
330
2
100
AcDbEntity
  8
0
  6
PHANTOM
 62
     3
100
AcDbLine
 10
306.1032048510999
 20
200.2136461941999
 30
0.0
 11
305.3031996859997
 21
201.0136514266998
 31
0.0
  0
ARC
  5
386
330
2
100
AcDbEntity
  8
0
 62
     3
100
AcDbCircle
 10
306.1031783885998
 20
200.4435979459
 30
0.0
 40
2.2999992371
100
AcDbArc
 50
180.0000359722
 51
269.9999087031
  0
LINE
  5
387
330
2
100
AcDbEntity
  8
0
  6
PHANTOM
 62
     3
100
AcDbLine
 10
312.203260786
 20
195.8636418912
 30
0.0
 11
310.3032516308
 21
195.8636418912
 31
0.0
  0
LINE
  5
388
330
2
100
AcDbEntity
  8
0
 62
     3
100
AcDbLine
 10
311.8030372893
 20
198.1436410824
 30
0.0
 11
310.8029714901998
 21
197.1435752831999
 31
0.0
  0
LINE
  5
389
330
2
100
AcDbEntity
  8
0
 62
     3
100
AcDbLine
 10
310.8032516308
 20
197.1437017056
 30
0.0
 11
310.8032516308
 21
195.8636418912
 31
0.0
  0
LINE
  5
38A
330
2
100
AcDbEntity
  8
0
  6
PHANTOM
 62
     3
100
AcDbLine
 10
310.0032638377998
 20
196.1636449429
 30
0.0
 11
310.0032638377998
 21
197.5136357877
 31
0.0
  0
ARC
  5
38B
330
2
100
AcDbEntity
  8
0
  6
PHANTOM
 62
     3
100
AcDbCircle
 10
310.3032516308
 20
196.1636449429
 30
0.0
 40
0.2999999522999999
100
AcDbArc
 50
179.9999820138999
 51
269.9999640277999
  0
ARC
  5
38C
330
2
100
AcDbEntity
  8
0
  6
PHANTOM
 62
     3
100
AcDbCircle
 10
309.5032638378
 20
197.5136357877
 30
0.0
 40
0.5
100
AcDbArc
 50
0.000017986089343
 51
90.0
  0
LINE
  5
38D
330
2
100
AcDbEntity
  8
0
 62
     3
100
AcDbLine
 10
310.0032638377998
 20
197.1437017056
 30
0.0
 11
310.8032516308
 21
197.1437017056
 31
0.0
  0
ARC
  5
38E
330
2
100
AcDbEntity
  8
0
  6
PHANTOM
 62
     3
100
AcDbCircle
 10
312.203260786
 20
196.1636449429
 30
0.0
 40
0.2999999522999999
100
AcDbArc
 50
270.0000359722
 51
0.0000179861000493
  0
ARC
  5
38F
330
2
100
AcDbEntity
  8
0
  6
PHANTOM
 62
     3
100
AcDbCircle
 10
313.0032638377997
 20
197.7136479947
 30
0.0
 40
0.5
100
AcDbArc
 50
90.0
 51
179.9999820138999
  0
LINE
  5
390
330
2
100
AcDbEntity
  8
0
  6
PHANTOM
 62
     3
100
AcDbLine
 10
312.5032638377998
 20
196.1636449429
 30
0.0
 11
312.5032638377998
 21
197.7136479947
 31
0.0
  0
LINE
  5
391
330
2
100
AcDbEntity
  8
0
 62
     3
100
AcDbLine
 10
311.8032211131998
 20
198.1436406704999
 30
0.0
 11
311.8032211131998
 21
195.8636724088
 31
0.0
  0
LINE
  5
392
330
2
100
AcDbEntity
  8
0
 62
     3
100
AcDbLine
 10
311.8032211131998
 20
195.8636724088
 30
0.0
 11
312.203260786
 21
195.8636724088
 31
0.0
  0
LINE
  5
393
330
2
100
AcDbEntity
  8
0
  6
PHANTOM
 62
     3
100
AcDbLine
 10
304.8032668894998
 20
205.7636357877
 30
0.0
 11
302.8032668894998
 21
205.7636357877
 31
0.0
  0
ARC
  5
394
330
2
100
AcDbEntity
  8
0
  6
PHANTOM
 62
     3
100
AcDbCircle
 10
304.8032668894998
 20
205.2636357877
 30
0.0
 40
0.5
100
AcDbArc
 50
0.000017986089343
 51
90.0
  0
LINE
  5
395
330
2
100
AcDbEntity
  8
0
  6
PHANTOM
 62
     3
100
AcDbLine
 10
305.3032516307998
 20
205.5136357877
 30
0.0
 11
303.8032516308
 21
205.5136357877
 31
0.0
  0
LINE
  5
396
330
2
100
AcDbEntity
  8
0
  6
PHANTOM
 62
     3
100
AcDbLine
 10
310.2890158898
 20
209.3278543647
 30
0.0
 11
312.5032238033998
 21
207.1136464509998
 31
0.0
  0
ARC
  5
397
330
2
100
AcDbEntity
  8
0
 62
     3
100
AcDbCircle
 10
314.6031783885998
 20
206.9905644986
 30
0.0
 40
0.2999999522999999
100
AcDbArc
 50
179.9996908202999
 51
265.4258503168
  0
LINE
  5
398
330
2
100
AcDbEntity
  8
0
 62
     3
100
AcDbLine
 10
314.3030293708998
 20
204.5136765075
 30
0.0
 11
314.8804536798998
 21
205.5137314618999
 31
0.0
  0
LINE
  5
399
330
2
100
AcDbEntity
  8
0
 62
     3
100
AcDbLine
 10
315.1691933354998
 20
203.0136181058
 30
0.0
 11
314.3031806589998
 21
204.5135958557
 31
0.0
  0
LINE
  5
39A
330
2
100
AcDbEntity
  8
0
  6
PHANTOM
 62
     3
100
AcDbLine
 10
312.5032638377998
 20
207.1136418911998
 30
0.0
 11
312.5032638377998
 21
202.5136357876998
 31
0.0
  0
LINE
  5
39B
330
2
100
AcDbEntity
  8
0
 62
     3
100
AcDbLine
 10
314.8806442089
 20
205.5137273404
 30
0.0
 11
312.5032638377998
 21
205.5137273404
 31
0.0
  0
LINE
  5
39C
330
2
100
AcDbEntity
  8
0
 62
     3
100
AcDbLine
 10
314.3032211131998
 20
204.5136663052
 30
0.0
 11
312.5032638377998
 21
204.5136663052
 31
0.0
  0
ARC
  5
39D
330
2
100
AcDbEntity
  8
0
  6
PHANTOM
 62
     3
100
AcDbCircle
 10
311.703260786
 20
210.7420751187
 30
0.0
 40
2.0
100
AcDbArc
 50
179.9999820138999
 51
224.9999457000999
  0
LINE
  5
39E
330
2
100
AcDbEntity
  8
0
  6
PHANTOM
 62
     3
100
AcDbLine
 10
284.3032668894998
 20
234.0136357876998
 30
0.0
 11
300.8032668894998
 21
234.0136357876998
 31
0.0
  0
LINE
  5
39F
330
2
100
AcDbEntity
  8
0
  6
PHANTOM
 62
     3
100
AcDbLine
 10
289.7032607859998
 20
216.7136327359
 30
0.0
 11
301.3032668894997
 21
216.7136327359
 31
0.0
  0
LINE
  5
3A0
330
2
100
AcDbEntity
  8
0
  6
PHANTOM
 62
     3
100
AcDbLine
 10
312.5032476894999
 20
224.5136277442
 30
0.0
 11
310.2032403503999
 21
226.8136341139
 31
0.0
  0
LINE
  5
3A1
330
2
100
AcDbEntity
  8
0
  6
PHANTOM
 62
     3
100
AcDbLine
 10
305.3032516307998
 20
221.7636357877
 30
0.0
 11
305.3032516307998
 21
226.0136357877
 31
0.0
  0
LINE
  5
3A2
330
2
100
AcDbEntity
  8
0
  6
PHANTOM
 62
     3
100
AcDbLine
 10
305.3032516307998
 20
226.5136357877
 30
0.0
 11
305.3032516307998
 21
221.7636357877
 31
0.0
  0
LINE
  5
3A3
330
2
100
AcDbEntity
  8
0
  6
PHANTOM
 62
     3
100
AcDbLine
 10
303.8032516308
 20
221.2636357876998
 30
0.0
 11
303.8032516308
 21
228.2496892545
 31
0.0
  0
LINE
  5
3A4
330
2
100
AcDbEntity
  8
0
  6
PHANTOM
 62
     3
100
AcDbLine
 10
302.803236372
 20
221.2636205288998
 30
0.0
 11
302.803236372
 21
226.0136205289
 31
0.0
  0
LINE
  5
3A5
330
2
100
AcDbEntity
  8
0
 62
     3
100
AcDbLine
 10
303.8032516308
 20
226.5836431118998
 30
0.0
 11
303.8032516308
 21
221.2636357876998
 31
0.0
  0
LINE
  5
3A6
330
2
100
AcDbEntity
  8
0
  6
PHANTOM
 62
     3
100
AcDbLine
 10
302.8032668894998
 20
221.2636357876998
 30
0.0
 11
304.8032668894998
 21
221.2636357876998
 31
0.0
  0
ARC
  5
3A7
330
2
100
AcDbEntity
  8
0
  6
PHANTOM
 62
     3
100
AcDbCircle
 10
304.8032668894998
 20
221.7636357877
 30
0.0
 40
0.5
100
AcDbArc
 50
269.9999640277999
 51
0.0000006831999766
  0
LINE
  5
3A8
330
2
100
AcDbEntity
  8
0
  6
PHANTOM
 62
     3
100
AcDbLine
 10
303.8032516308
 20
221.5136357876998
 30
0.0
 11
305.2362795914
 21
221.5136357876998
 31
0.0
  0
LINE
  5
3A9
330
2
100
AcDbEntity
  8
0
  6
PHANTOM
 62
     3
100
AcDbLine
 10
312.503234593
 20
219.9136319863999
 30
0.0
 11
310.2890266793997
 21
217.6994240727
 31
0.0
  0
ARC
  5
3AA
330
2
100
AcDbEntity
  8
0
  6
PHANTOM
 62
     3
100
AcDbCircle
 10
311.703260786
 20
216.2851964566
 30
0.0
 40
2.0
100
AcDbArc
 50
135.0000012521998
 51
179.9999820138999
  0
ARC
  5
3AB
330
2
100
AcDbEntity
  8
0
 62
     3
100
AcDbCircle
 10
314.6031783885998
 20
220.0366460415998
 30
0.0
 40
0.2999999522999999
100
AcDbArc
 50
94.57391381429999
 51
180.0000186692997
  0
LINE
  5
3AC
330
2
100
AcDbEntity
  8
0
 62
     3
100
AcDbLine
 10
314.3032930132998
 20
222.5135070647
 30
0.0
 11
315.1693210518
 21
224.0135111404
 31
0.0
  0
LINE
  5
3AD
330
2
100
AcDbEntity
  8
0
 62
     3
100
AcDbLine
 10
314.8804120733998
 20
221.5133933174
 30
0.0
 11
314.3030182837
 21
222.5133954147
 31
0.0
  0
LINE
  5
3AE
330
2
100
AcDbEntity
  8
0
  6
PHANTOM
 62
     3
100
AcDbLine
 10
312.5032638377998
 20
224.5136357877
 30
0.0
 11
312.5032638377998
 21
219.9136296841999
 31
0.0
  0
LINE
  5
3AF
330
2
100
AcDbEntity
  8
0
 62
     3
100
AcDbLine
 10
312.5032638377998
 20
221.5135747525
 30
0.0
 11
314.8806136912998
 21
221.5135747525
 31
0.0
  0
LINE
  5
3B0
330
2
100
AcDbEntity
  8
0
 62
     3
100
AcDbLine
 10
312.5032638377998
 20
222.5136357877
 30
0.0
 11
314.3032211131998
 21
222.5136357877
 31
0.0
  0
LINE
  5
3B1
330
2
100
AcDbEntity
  8
0
  6
PHANTOM
 62
     3
100
AcDbLine
 10
306.1032394236998
 20
226.8136235806
 30
0.0
 11
310.203260786
 21
226.8136235806
 31
0.0
  0
LINE
  5
3B2
330
2
100
AcDbEntity
  8
0
 62
     3
100
AcDbLine
 10
311.8032211131998
 20
228.8836614224
 30
0.0
 11
306.1032394236998
 21
228.8836614224
 31
0.0
  0
LINE
  5
3B3
330
2
100
AcDbEntity
  8
0
  6
PHANTOM
 62
     3
100
AcDbLine
 10
305.8032668894998
 20
229.0136357876999
 30
0.0
 11
309.5032638378
 21
229.0136357876999
 31
0.0
  0
ARC
  5
3B4
330
2
100
AcDbEntity
  8
0
  6
PHANTOM
 62
     3
100
AcDbCircle
 10
305.8032668894998
 20
226.0136357877
 30
0.0
 40
3.0
100
AcDbArc
 50
90.0
 51
179.9999820138999
  0
ARC
  5
3B5
330
2
100
AcDbEntity
  8
0
  6
PHANTOM
 62
     3
100
AcDbCircle
 10
305.8032516307998
 20
226.5136357877
 30
0.0
 40
2.0
100
AcDbArc
 50
90.0
 51
179.9999820138999
  0
ARC
  5
3B6
330
2
100
AcDbEntity
  8
0
  6
PHANTOM
 62
     3
100
AcDbCircle
 10
305.8032516307998
 20
226.5136357877
 30
0.0
 40
0.5
100
AcDbArc
 50
90.0
 51
179.9999820138999
  0
LINE
  5
3B7
330
2
100
AcDbEntity
  8
0
  6
PHANTOM
 62
     3
100
AcDbLine
 10
305.3032390213997
 20
226.013633317
 30
0.0
 11
306.1032323853997
 21
226.8136287715
 31
0.0
  0
ARC
  5
3B8
330
2
100
AcDbEntity
  8
0
 62
     3
100
AcDbCircle
 10
306.1031783885998
 20
226.5836125943
 30
0.0
 40
2.2999992371
100
AcDbArc
 50
89.99998201389999
 51
179.9999640277999
  0
LINE
  5
3B9
330
2
100
AcDbEntity
  8
0
  6
PHANTOM
 62
     3
100
AcDbLine
 10
310.0032638377998
 20
229.5136357876998
 30
0.0
 11
310.0032638377998
 21
230.8636266324
 31
0.0
  0
LINE
  5
3BA
330
2
100
AcDbEntity
  8
0
  6
PHANTOM
 62
     3
100
AcDbLine
 10
312.5032638377998
 20
229.3136235806
 30
0.0
 11
312.5032638377998
 21
230.8636266324
 31
0.0
  0
LINE
  5
3BB
330
2
100
AcDbEntity
  8
0
 62
     3
100
AcDbLine
 10
310.8032211132
 20
231.1636296841999
 30
0.0
 11
310.8032211132
 21
229.8835698697
 31
0.0
  0
LINE
  5
3BC
330
2
100
AcDbEntity
  8
0
 62
     3
100
AcDbLine
 10
311.8032211131998
 20
231.1635991665998
 30
0.0
 11
311.8032211131998
 21
228.8836309049
 31
0.0
  0
LINE
  5
3BD
330
2
100
AcDbEntity
  8
0
 62
     3
100
AcDbLine
 10
310.8031225444999
 20
229.8833221733
 30
0.0
 11
311.8031236060999
 21
228.8833211116998
 31
0.0
  0
ARC
  5
3BE
330
2
100
AcDbEntity
  8
0
  6
PHANTOM
 62
     3
100
AcDbCircle
 10
309.5032638378
 20
229.5136357876998
 30
0.0
 40
0.5
100
AcDbArc
 50
269.9999640277999
 51
0.0000006831999766
  0
LINE
  5
3BF
330
2
100
AcDbEntity
  8
0
 62
     3
100
AcDbLine
 10
310.8032211132
 20
229.8836003872998
 30
0.0
 11
310.0032638377998
 21
229.8836003872998
 31
0.0
  0
ARC
  5
3C0
330
2
100
AcDbEntity
  8
0
  6
PHANTOM
 62
     3
100
AcDbCircle
 10
313.0032638377997
 20
229.3136235806
 30
0.0
 40
0.5
100
AcDbArc
 50
179.9999820138999
 51
269.9999640277999
  0
LINE
  5
3C1
330
2
100
AcDbEntity
  8
0
  6
PHANTOM
 62
     3
100
AcDbLine
 10
310.3032516308
 20
231.1636296841999
 30
0.0
 11
312.203260786
 21
231.1636296841999
 31
0.0
  0
ARC
  5
3C2
330
2
100
AcDbEntity
  8
0
  6
PHANTOM
 62
     3
100
AcDbCircle
 10
310.3032516308
 20
230.8636266324
 30
0.0
 40
0.2999999522999999
100
AcDbArc
 50
90.0
 51
179.9999820138999
  0
ARC
  5
3C3
330
2
100
AcDbEntity
  8
0
  6
PHANTOM
 62
     3
100
AcDbCircle
 10
312.203260786
 20
230.8636266324
 30
0.0
 40
0.2999999522999999
100
AcDbArc
 50
0.000017986089343
 51
90.0
  0
LINE
  5
3C4
330
2
100
AcDbEntity
  8
0
 62
     3
100
AcDbLine
 10
312.203260786
 20
231.1636296841999
 30
0.0
 11
311.8032211131998
 21
231.1636296841999
 31
0.0
  0
LINE
  5
3C5
330
2
100
AcDbEntity
  8
0
  6
PHANTOM
 62
     3
100
AcDbLine
 10
188.3032577342998
 20
236.5135747525
 30
0.0
 11
186.3032577342998
 21
236.5135747525
 31
0.0
  0
LINE
  5
3C6
330
2
100
AcDbEntity
  8
0
  6
PHANTOM
 62
     3
100
AcDbLine
 10
200.7032668894999
 20
236.5135747525
 30
0.0
 11
198.7032668894999
 21
236.5135747525
 31
0.0
  0
ARC
  5
3C7
330
2
100
AcDbEntity
  8
0
 62
     3
100
AcDbCircle
 10
271.8032211131999
 20
254.5135747525
 30
0.0
 40
4.0
100
AcDbArc
 50
89.99998201389999
 51
179.9998547448
  0
LINE
  5
3C8
330
2
100
AcDbEntity
  8
0
 62
     3
100
AcDbLine
 10
267.8032821483
 20
252.5136052700998
 30
0.0
 11
262.8032821482999
 21
252.5136052700998
 31
0.0
  0
ARC
  5
3C9
330
2
100
AcDbEntity
  8
0
  6
PHANTOM
 62
     3
100
AcDbCircle
 10
258.0032943553998
 20
249.0435124966999
 30
0.0
 40
5.699998855599999
100
AcDbArc
 50
179.9999640277999
 51
220.0302820739
  0
ARC
  5
3CA
330
2
100
AcDbEntity
  8
0
  6
PHANTOM
 62
     3
100
AcDbCircle
 10
258.0033248728998
 20
249.0435124966999
 30
0.0
 40
4.199998855599997
100
AcDbArc
 50
180.0000906136999
 51
220.0304086597999
  0
LINE
  5
3CB
330
2
100
AcDbEntity
  8
0
 62
     3
100
AcDbLine
 10
253.8033333684999
 20
248.5134931809999
 30
0.0
 11
258.0033444368999
 21
243.5134934970999
 31
0.0
  0
LINE
  5
3CC
330
2
100
AcDbEntity
  8
0
 62
     3
100
AcDbLine
 10
258.0032943553998
 20
243.5136052700999
 30
0.0
 11
258.0032943553998
 21
240.0136052700998
 31
0.0
  0
LINE
  5
3CD
330
2
100
AcDbEntity
  8
0
  6
PHANTOM
 62
     3
100
AcDbLine
 10
253.6387987991
 20
245.3771621872
 30
0.0
 11
256.5032932543
 21
241.9670595243998
 31
0.0
  0
LINE
  5
3CE
330
2
100
AcDbEntity
  8
0
  6
PHANTOM
 62
     3
100
AcDbLine
 10
254.7873743919998
 20
246.3419285977999
 30
0.0
 11
258.0032814324999
 21
242.5134788193
 31
0.0
  0
ARC
  5
3CF
330
2
100
AcDbEntity
  8
0
 62
     3
100
AcDbCircle
 10
258.0032333201998
 20
250.5135442349
 30
0.0
 40
4.0
100
AcDbArc
 50
62.33487451670001
 51
92.94138931959995
  0
ARC
  5
3D0
330
2
100
AcDbEntity
  8
0
  6
PHANTOM
 62
     3
100
AcDbCircle
 10
258.0032943553998
 20
250.3136235806
 30
0.0
 40
5.699998855599999
100
AcDbArc
 50
62.3349105674
 51
179.8537979795999
  0
LINE
  5
3D1
330
2
100
AcDbEntity
  8
0
 62
     3
100
AcDbLine
 10
257.7980513092
 20
254.5082413759
 30
0.0
 11
253.8033211391999
 21
250.5134936959
 31
0.0
  0
ARC
  5
3D2
330
2
100
AcDbEntity
  8
0
  6
PHANTOM
 62
     3
100
AcDbCircle
 10
258.0032943553998
 20
250.3136235806
 30
0.0
 40
4.199998855599997
100
AcDbArc
 50
92.7974635734
 51
180.2167269113
  0
LINE
  5
3D3
330
2
100
AcDbEntity
  8
0
 62
     3
100
AcDbLine
 10
253.8033126658999
 20
248.5136052700998
 30
0.0
 11
253.8033126658999
 21
250.5135747525
 31
0.0
  0
LINE
  5
3D4
330
2
100
AcDbEntity
  8
0
  6
PHANTOM
 62
     3
100
AcDbLine
 10
252.3032821483
 20
249.0434514614999
 30
0.0
 11
252.3032821483
 21
250.5135442349
 31
0.0
  0
LINE
  5
3D5
330
2
100
AcDbEntity
  8
0
  6
PHANTOM
 62
     3
100
AcDbLine
 10
262.1435190925998
 20
252.8593810206
 30
0.0
 11
262.8489172391999
 21
254.2049579162
 31
0.0
  0
LINE
  5
3D6
330
2
100
AcDbEntity
  8
0
 62
     3
100
AcDbLine
 10
259.8605467814
 20
254.0561945576
 30
0.0
 11
262.8033243213999
 21
252.5134881572999
 31
0.0
  0
LINE
  5
3D7
330
2
100
AcDbEntity
  8
0
  6
PHANTOM
 62
     3
100
AcDbLine
 10
260.6481142461999
 20
255.3587297456999
 30
0.0
 11
262.8489314085998
 21
254.2049849449
 31
0.0
  0
LINE
  5
3D8
330
2
100
AcDbEntity
  8
0
 62
     3
100
AcDbLine
 10
267.8032821483
 20
254.5136052700998
 30
0.0
 11
267.8032821483
 21
252.5136052700998
 31
0.0
  0
LINE
  5
3D9
330
2
100
AcDbEntity
  8
0
 62
     3
100
AcDbLine
 10
310.8531783885998
 20
247.0643254849
 30
0.0
 11
306.7531722851
 21
247.0643254849
 31
0.0
  0
LINE
  5
3DA
330
2
100
AcDbEntity
  8
0
 62
     3
100
AcDbLine
 10
306.7531722851
 20
239.9629460904
 30
0.0
 11
310.8531783885998
 21
239.9629460904
 31
0.0
  0
CIRCLE
  5
3DB
330
2
100
AcDbEntity
  8
0
 62
     3
100
AcDbCircle
 10
308.8031905955998
 20
243.5135747524999
 30
0.0
 40
2.25
  0
LINE
  5
3DC
330
2
100
AcDbEntity
  8
0
 62
     3
100
AcDbLine
 10
304.7031909229998
 20
243.5134267372998
 30
0.0
 11
306.7531784715999
 21
239.9627435443999
 31
0.0
  0
LINE
  5
3DD
330
2
100
AcDbEntity
  8
0
 62
     3
100
AcDbLine
 10
306.7532636585998
 20
247.0641629241
 30
0.0
 11
304.7032697561998
 21
243.5134833966999
 31
0.0
  0
LINE
  5
3DE
330
2
100
AcDbEntity
  8
0
 62
     3
100
AcDbLine
 10
310.8533192225998
 20
239.9627649864
 30
0.0
 11
312.9033210525
 21
243.5134750972
 31
0.0
  0
LINE
  5
3DF
330
2
100
AcDbEntity
  8
0
 62
     3
100
AcDbLine
 10
312.903205927
 20
243.5134271776
 30
0.0
 11
310.8532125133999
 21
247.0641069492998
 31
0.0
  0
ARC
  5
3E0
330
2
100
AcDbEntity
  8
0
  6
PHANTOM
 62
     3
100
AcDbCircle
 10
315.3032668894998
 20
235.0136357877
 30
0.0
 40
1.5
100
AcDbArc
 50
0.000017986089343
 51
90.0
  0
LINE
  5
3E1
330
2
100
AcDbEntity
  8
0
 62
     3
100
AcDbLine
 10
318.8032211132
 20
258.5136052700998
 30
0.0
 11
318.8032211132
 21
230.0136357877
 31
0.0
  0
LINE
  5
3EC
330
2
100
AcDbEntity
  8
0
 62
     3
100
AcDbLine
 10
318.8032211132
 20
197.0136357876998
 30
0.0
 11
318.8032211132
 21
168.5136357877
 31
0.0
  0
LINE
  5
3ED
330
2
100
AcDbEntity
  8
0
  6
PHANTOM
 62
     3
100
AcDbLine
 10
317.3032516307998
 20
200.5136357876998
 30
0.0
 11
317.3032516307998
 21
226.5136357877
 31
0.0
  0
LINE
  5
3EE
330
2
100
AcDbEntity
  8
0
  6
PHANTOM
 62
     3
100
AcDbLine
 10
318.8032516308
 20
200.5136357876998
 30
0.0
 11
318.8032516308
 21
226.5136357877
 31
0.0
  0
LINE
  5
3EF
330
2
100
AcDbEntity
  8
0
  6
PHANTOM
 62
     3
100
AcDbLine
 10
316.8032668895
 20
197.2136479947
 30
0.0
 11
316.8032668895
 21
192.0136357877
 31
0.0
  0
ARC
  5
3F0
330
2
100
AcDbEntity
  8
0
  6
PHANTOM
 62
     3
100
AcDbCircle
 10
315.3032668894998
 20
192.0136357877
 30
0.0
 40
1.5
100
AcDbArc
 50
270.0000359722
 51
0.0000179861000493
  0
ARC
  5
3F1
330
2
100
AcDbEntity
  8
0
  6
PHANTOM
 62
     3
100
AcDbCircle
 10
316.8032516308
 20
200.5136357876998
 30
0.0
 40
0.5
100
AcDbArc
 50
269.9999640277999
 51
359.9999460416999
  0
ARC
  5
3F2
330
2
100
AcDbEntity
  8
0
  6
PHANTOM
 62
     3
100
AcDbCircle
 10
315.8032668894998
 20
197.2136479947
 30
0.0
 40
1.0
100
AcDbArc
 50
0.000017986089343
 51
90.0
  0
LINE
  5
3F3
330
2
100
AcDbEntity
  8
0
 62
     3
100
AcDbLine
 10
316.8031504932
 20
198.1436410824
 30
0.0
 11
316.5444549025
 21
197.8849454917
 31
0.0
  0
LINE
  5
3F4
330
2
100
AcDbEntity
  8
0
 62
     3
100
AcDbLine
 10
316.1707677192
 20
198.1436711881
 30
0.0
 11
316.8032211132
 21
198.1436711881
 31
0.0
  0
LINE
  5
3F5
330
2
100
AcDbEntity
  8
0
 62
     3
100
AcDbLine
 10
316.8032211132
 20
198.1436406704999
 30
0.0
 11
316.8032211132
 21
197.0136357876998
 31
0.0
  0
ARC
  5
3F6
330
2
100
AcDbEntity
  8
0
  6
PHANTOM
 62
     3
100
AcDbCircle
 10
316.8032516308
 20
200.5136357876998
 30
0.0
 40
2.0
100
AcDbArc
 50
269.9999640277999
 51
359.9999460416999
  0
LINE
  5
3F7
330
2
100
AcDbEntity
  8
0
 62
     3
100
AcDbLine
 10
316.8032668895
 20
196.0137273404
 30
0.0
 11
318.8032516308
 21
196.0137273404
 31
0.0
  0
LINE
  5
3F8
330
2
100
AcDbEntity
  8
0
 62
     3
100
AcDbLine
 10
316.8032211132
 20
197.0136663052
 30
0.0
 11
318.8032211132
 21
197.0136663052
 31
0.0
  0
ARC
  5
3F9
330
2
100
AcDbEntity
  8
0
 62
     3
100
AcDbCircle
 10
315.8031905955998
 20
204.0136357876998
 30
0.0
 40
1.0
100
AcDbArc
 50
270.0001272691
 51
0.000072627600094
  0
LINE
  5
3FA
330
2
100
AcDbEntity
  8
0
 62
     3
100
AcDbLine
 10
315.7466110057999
 20
204.0137273403999
 30
0.0
 11
316.8030074900998
 21
204.0137273403999
 31
0.0
  0
LINE
  5
3FB
330
2
100
AcDbEntity
  8
0
 62
     3
100
AcDbLine
 10
316.8032211132
 20
204.0136663052
 30
0.0
 11
316.8032211132
 21
206.5136663052
 31
0.0
  0
ARC
  5
3FC
330
2
100
AcDbEntity
  8
0
 62
     3
100
AcDbCircle
 10
315.8031905955998
 20
223.0136052700999
 30
0.0
 40
1.0
100
AcDbArc
 50
0.0
 51
89.99992737239997
  0
LINE
  5
3FD
330
2
100
AcDbEntity
  8
0
 62
     3
100
AcDbLine
 10
316.8032211132
 20
220.5136357877
 30
0.0
 11
316.8032211132
 21
223.0136357876999
 31
0.0
  0
LINE
  5
3FE
330
2
100
AcDbEntity
  8
0
 62
     3
100
AcDbLine
 10
316.8029769726
 20
223.0135747525
 30
0.0
 11
315.7465804881998
 21
223.0135747525
 31
0.0
  0
LINE
  5
3FF
330
2
100
AcDbEntity
  8
0
  6
PHANTOM
 62
     3
100
AcDbLine
 10
316.8032668895
 20
235.0136357877
 30
0.0
 11
316.8032668895
 21
229.8136235806
 31
0.0
  0
ARC
  5
400
330
2
100
AcDbEntity
  8
0
  6
PHANTOM
 62
     3
100
AcDbCircle
 10
316.8032516308
 20
226.5136357877
 30
0.0
 40
0.5
100
AcDbArc
 50
0.000017986089343
 51
90.0
  0
ARC
  5
401
330
2
100
AcDbEntity
  8
0
  6
PHANTOM
 62
     3
100
AcDbCircle
 10
315.8032668894998
 20
229.8136235806
 30
0.0
 40
1.0
100
AcDbArc
 50
269.9999640277999
 51
0.0000006831999766
  0
LINE
  5
402
330
2
100
AcDbEntity
  8
0
 62
     3
100
AcDbLine
 10
316.8032211132
 20
228.8836614224
 30
0.0
 11
316.1709221415
 21
228.8836614224
 31
0.0
  0
LINE
  5
403
330
2
100
AcDbEntity
  8
0
 62
     3
100
AcDbLine
 10
316.5443693946
 20
229.1422316854
 30
0.0
 11
316.8031936515999
 21
228.8834074284999
 31
0.0
  0
LINE
  5
404
330
2
100
AcDbEntity
  8
0
 62
     3
100
AcDbLine
 10
316.8032211132
 20
229.8136235806
 30
0.0
 11
316.8032211132
 21
228.8836309049
 31
0.0
  0
ARC
  5
405
330
2
100
AcDbEntity
  8
0
  6
PHANTOM
 62
     3
100
AcDbCircle
 10
316.8032516308
 20
226.5136357877
 30
0.0
 40
2.0
100
AcDbArc
 50
0.000017986089343
 51
90.0
  0
LINE
  5
406
330
2
100
AcDbEntity
  8
0
 62
     3
100
AcDbLine
 10
318.8032211132
 20
230.0136357877
 30
0.0
 11
316.8032211132
 21
230.0136357877
 31
0.0
  0
LINE
  5
407
330
2
100
AcDbEntity
  8
0
 62
     3
100
AcDbLine
 10
318.8032211132
 20
231.0135747524999
 30
0.0
 11
316.8032668895
 21
231.0135747524999
 31
0.0
  0
TEXT
  5
42B
330
2
100
AcDbEntity
  8
0
 62
     7
100
AcDbText
 10
356.0
 20
85.00000295524989
 30
0.0
 40
2.999994089499998
  1
BN200BW3
 11
356.0
 21
86.49999999999989
 31
0.0
100
AcDbText
 73
     2
  0
ENDSEC
  0
SECTION
  2
OBJECTS
  0
DICTIONARY
  5
7
330
0
100
AcDbDictionary
281
     1
  3
ACAD_GROUP
350
1F
  3
ACAD_LAYOUT
350
B
  3
ACAD_MLINESTYLE
350
20
  3
ACAD_PLOTSETTINGS
350
21
  3
ACAD_PLOTSTYLENAME
350
421
  3
AcDbVariableDictionary
350
42C
1001
ACAD
1000
TREAT_AS_HARD
1070
     0
  0
DICTIONARY
  5
419
330
2
100
AcDbDictionary
281
     1
  3
ACAD_LAYOUTSELFREF
350
41A
  0
DICTIONARY
  5
41B
330
C
100
AcDbDictionary
281
     1
  3
ACAD_LAYOUTSELFREF
350
41C
  0
DICTIONARY
  5
1F
102
{ACAD_REACTORS
330
7
102
}
330
7
100
AcDbDictionary
281
     1
1001
ACAD
1000
TREAT_AS_HARD
1070
     0
  0
DICTIONARY
  5
B
102
{ACAD_REACTORS
330
7
102
}
330
7
100
AcDbDictionary
281
     1
  3
Model
350
423
  3
ﾚｲｱｳﾄ1
350
424
1001
ACAD
1000
TREAT_AS_HARD
1070
     0
  0
DICTIONARY
  5
20
102
{ACAD_REACTORS
330
7
102
}
330
7
100
AcDbDictionary
281
     1
  3
STANDARD
350
22
1001
ACAD
1000
TREAT_AS_HARD
1070
     0
  0
DICTIONARY
  5
21
102
{ACAD_REACTORS
330
7
102
}
330
7
100
AcDbDictionary
281
     1
1001
ACAD
1000
TREAT_AS_HARD
1070
     0
  0
ACDBDICTIONARYWDFLT
  5
421
102
{ACAD_REACTORS
330
7
102
}
330
7
100
AcDbDictionary
281
     1
  3
Normal
350
422
100
AcDbDictionaryWithDefault
340
422
  0
DICTIONARY
  5
42C
102
{ACAD_REACTORS
330
7
102
}
330
7
100
AcDbDictionary
281
     1
  3
DIMASSOC
350
42D
  0
XRECORD
  5
41A
102
{ACAD_REACTORS
330
419
102
}
330
419
100
AcDbXrecord
280
     1
340
2
  0
XRECORD
  5
41C
102
{ACAD_REACTORS
330
41B
102
}
330
41B
100
AcDbXrecord
280
     1
340
C
  0
LAYOUT
  5
423
102
{ACAD_REACTORS
330
B
102
}
330
B
100
AcDbPlotSettings
  1

  2
C:\Program Files\AutoCAD 2002\plotters\DWF ePlot (optimized for plotting).pc3
  4

  6

 40
0.0
 41
0.0
 42
0.0
 43
0.0
 44
0.0
 45
0.0
 46
0.0
 47
0.0
 48
0.0
 49
0.0
140
0.0
141
0.0
142
1.0
143
1.0
 70
  1712
 72
     0
 73
     0
 74
     0
  7

 75
     0
147
1.0
148
0.0
149
0.0
100
AcDbLayout
  1
Model
 70
     1
 71
     0
 10
0.0
 20
0.0
 11
12.0
 21
9.0
 12
0.0
 22
0.0
 32
0.0
 14
0.0
 24
0.0
 34
0.0
 15
0.0
 25
0.0
 35
0.0
146
0.0
 13
0.0
 23
0.0
 33
0.0
 16
1.0
 26
0.0
 36
0.0
 17
0.0
 27
1.0
 37
0.0
 76
     0
330
2
  0
LAYOUT
  5
424
102
{ACAD_REACTORS
330
B
102
}
330
B
100
AcDbPlotSettings
  1

  2
C:\Program Files\AutoCAD 2002\plotters\DWF ePlot (optimized for plotting).pc3
  4

  6

 40
0.0
 41
0.0
 42
0.0
 43
0.0
 44
0.0
 45
0.0
 46
0.0
 47
0.0
 48
0.0
 49
0.0
140
0.0
141
0.0
142
1.0
143
1.0
 70
   688
 72
     0
 73
     0
 74
     5
  7

 75
    16
147
1.0
148
0.0
149
0.0
100
AcDbLayout
  1
ﾚｲｱｳﾄ1
 70
     1
 71
     1
 10
0.0
 20
0.0
 11
12.0
 21
9.0
 12
0.0
 22
0.0
 32
0.0
 14
1.000000000000000E+20
 24
1.000000000000000E+20
 34
1.000000000000000E+20
 15
-1.000000000000000E+20
 25
-1.000000000000000E+20
 35
-1.000000000000000E+20
146
0.0
 13
0.0
 23
0.0
 33
0.0
 16
1.0
 26
0.0
 36
0.0
 17
0.0
 27
1.0
 37
0.0
 76
     0
330
C
  0
MLINESTYLE
  5
22
102
{ACAD_REACTORS
330
20
102
}
330
20
100
AcDbMlineStyle
  2
STANDARD
 70
     0
  3

 62
   256
 51
90.0
 52
90.0
 71
     2
 49
0.5
 62
   256
  6
BYLAYER
 49
-0.5
 62
   256
  6
BYLAYER
  0
ACDBPLACEHOLDER
  5
422
102
{ACAD_REACTORS
330
421
102
}
330
421
  0
DICTIONARYVAR
  5
42D
102
{ACAD_REACTORS
330
42C
102
}
330
42C
100
DictionaryVariables
280
     0
  1
1
  0
ENDSEC
  0
EOF
