  0
SECTION
  2
HEADER
  9
$ACADVER
  1
AC1015
  9
$ACADMAINTVER
 70
    13
  9
$DWGCODEPAGE
  3
ANSI_932
  9
$INSBASE
 10
0.0
 20
0.0
 30
0.0
  9
$EXTMIN
 10
-0.0056150461890638
 20
-0.0006582124108263
 30
-0.0000000349181948
  9
$EXTMAX
 10
210.0157391227531
 20
297.0040689820632
 30
0.0000000814935747
  9
$LIMMIN
 10
-187.2246520995999
 20
-3.174999999999998
  9
$LIMMAX
 10
3.174999999999998
 20
291.2585876465
  9
$ORTHOMODE
 70
     0
  9
$REGENMODE
 70
     1
  9
$FILLMODE
 70
     1
  9
$QTEXTMODE
 70
     0
  9
$MIRRTEXT
 70
     0
  9
$LTSCALE
 40
1.0
  9
$ATTMODE
 70
     1
  9
$TEXTSIZE
 40
2.999994039499997
  9
$TRACEWID
 40
0.05
  9
$TEXTSTYLE
  7
STANDARD
  9
$CLAYER
  8
0
  9
$CELTYPE
  6
ByLayer
  9
$CECOLOR
 62
   256
  9
$CELTSCALE
 40
1.0
  9
$DISPSILH
 70
     0
  9
$DIMSCALE
 40
1.0
  9
$DIMASZ
 40
1.9727878465
  9
$DIMEXO
 40
2.539999961899999
  9
$DIMDLI
 40
0.38
  9
$DIMRND
 40
0.0
  9
$DIMDLE
 40
0.0
  9
$DIMEXE
 40
3.809999942799997
  9
$DIMTP
 40
0.0
  9
$DIMTM
 40
0.0
  9
$DIMTXT
 40
2.999994039499997
  9
$DIMCEN
 40
0.09
  9
$DIMTSZ
 40
0.0
  9
$DIMTOL
 70
     0
  9
$DIMLIM
 70
     0
  9
$DIMTIH
 70
     0
  9
$DIMTOH
 70
     1
  9
$DIMSE1
 70
     0
  9
$DIMSE2
 70
     0
  9
$DIMTAD
 70
     0
  9
$DIMZIN
 70
     0
  9
$DIMBLK
  1

  9
$DIMASO
 70
     1
  9
$DIMSHO
 70
     0
  9
$DIMPOST
  1

  9
$DIMAPOST
  1

  9
$DIMALT
 70
     0
  9
$DIMALTD
 70
     2
  9
$DIMALTF
 40
25.4
  9
$DIMLFAC
 40
1.0
  9
$DIMTOFL
 70
     0
  9
$DIMTVP
 40
0.0
  9
$DIMTIX
 70
     0
  9
$DIMSOXD
 70
     0
  9
$DIMSAH
 70
     0
  9
$DIMBLK1
  1

  9
$DIMBLK2
  1

  9
$DIMSTYLE
  2
Standard
  9
$DIMCLRD
 70
     0
  9
$DIMCLRE
 70
     0
  9
$DIMCLRT
 70
     0
  9
$DIMTFAC
 40
1.0
  9
$DIMGAP
 40
0.09
  9
$DIMJUST
 70
     0
  9
$DIMSD1
 70
     0
  9
$DIMSD2
 70
     0
  9
$DIMTOLJ
 70
     1
  9
$DIMTZIN
 70
     0
  9
$DIMALTZ
 70
     0
  9
$DIMALTTZ
 70
     0
  9
$DIMUPT
 70
     0
  9
$DIMDEC
 70
     4
  9
$DIMTDEC
 70
     4
  9
$DIMALTU
 70
     2
  9
$DIMALTTD
 70
     2
  9
$DIMTXSTY
  7
STANDARD
  9
$DIMAUNIT
 70
     0
  9
$DIMADEC
 70
     0
  9
$DIMALTRND
 40
0.0
  9
$DIMAZIN
 70
     0
  9
$DIMDSEP
 70
    46
  9
$DIMATFIT
 70
     3
  9
$DIMFRAC
 70
     0
  9
$DIMLDRBLK
  1

  9
$DIMLUNIT
 70
     2
  9
$DIMLWD
 70
    -2
  9
$DIMLWE
 70
    -2
  9
$DIMTMOVE
 70
     0
  9
$LUNITS
 70
     2
  9
$LUPREC
 70
     3
  9
$SKETCHINC
 40
0.1
  9
$FILLETRAD
 40
0.0625
  9
$AUNITS
 70
     0
  9
$AUPREC
 70
     0
  9
$MENU
  1
ACAD
  9
$ELEVATION
 40
0.0
  9
$PELEVATION
 40
0.0
  9
$THICKNESS
 40
0.0
  9
$LIMCHECK
 70
     0
  9
$CHAMFERA
 40
0.0
  9
$CHAMFERB
 40
0.0
  9
$CHAMFERC
 40
0.0
  9
$CHAMFERD
 40
0.0
  9
$SKPOLY
 70
     0
  9
$TDCREATE
 40
2453377.940312500
  9
$TDUCREATE
 40
2453377.565312500
  9
$TDUPDATE
 40
2453390.637425671
  9
$TDUUPDATE
 40
2453390.262425671
  9
$TDINDWG
 40
0.0017303125
  9
$TDUSRTIMER
 40
0.0017301273
  9
$USRTIMER
 70
     1
  9
$ANGBASE
 50
0.0
  9
$ANGDIR
 70
     0
  9
$PDMODE
 70
     0
  9
$PDSIZE
 40
0.0
  9
$PLINEWID
 40
0.0
  9
$SPLFRAME
 70
     0
  9
$SPLINETYPE
 70
     6
  9
$SPLINESEGS
 70
     8
  9
$HANDSEED
  5
4BF
  9
$SURFTAB1
 70
     6
  9
$SURFTAB2
 70
     6
  9
$SURFTYPE
 70
     6
  9
$SURFU
 70
     6
  9
$SURFV
 70
     6
  9
$UCSBASE
  2

  9
$UCSNAME
  2

  9
$UCSORG
 10
0.0
 20
0.0
 30
0.0
  9
$UCSXDIR
 10
1.0
 20
0.0
 30
0.0
  9
$UCSYDIR
 10
0.0
 20
1.0
 30
0.0
  9
$UCSORTHOREF
  2

  9
$UCSORTHOVIEW
 70
     0
  9
$UCSORGTOP
 10
0.0
 20
0.0
 30
0.0
  9
$UCSORGBOTTOM
 10
0.0
 20
0.0
 30
0.0
  9
$UCSORGLEFT
 10
0.0
 20
0.0
 30
0.0
  9
$UCSORGRIGHT
 10
0.0
 20
0.0
 30
0.0
  9
$UCSORGFRONT
 10
0.0
 20
0.0
 30
0.0
  9
$UCSORGBACK
 10
0.0
 20
0.0
 30
0.0
  9
$PUCSBASE
  2

  9
$PUCSNAME
  2

  9
$PUCSORG
 10
0.0
 20
0.0
 30
0.0
  9
$PUCSXDIR
 10
1.0
 20
0.0
 30
0.0
  9
$PUCSYDIR
 10
0.0
 20
1.0
 30
0.0
  9
$PUCSORTHOREF
  2

  9
$PUCSORTHOVIEW
 70
     0
  9
$PUCSORGTOP
 10
0.0
 20
0.0
 30
0.0
  9
$PUCSORGBOTTOM
 10
0.0
 20
0.0
 30
0.0
  9
$PUCSORGLEFT
 10
0.0
 20
0.0
 30
0.0
  9
$PUCSORGRIGHT
 10
0.0
 20
0.0
 30
0.0
  9
$PUCSORGFRONT
 10
0.0
 20
0.0
 30
0.0
  9
$PUCSORGBACK
 10
0.0
 20
0.0
 30
0.0
  9
$USERI1
 70
    24
  9
$USERI2
 70
     0
  9
$USERI3
 70
     0
  9
$USERI4
 70
     0
  9
$USERI5
 70
     0
  9
$USERR1
 40
0.0
  9
$USERR2
 40
0.0
  9
$USERR3
 40
0.0
  9
$USERR4
 40
0.0
  9
$USERR5
 40
0.0
  9
$WORLDVIEW
 70
     1
  9
$SHADEDGE
 70
     3
  9
$SHADEDIF
 70
    70
  9
$TILEMODE
 70
     1
  9
$MAXACTVP
 70
    64
  9
$PINSBASE
 10
0.0
 20
0.0
 30
0.0
  9
$PLIMCHECK
 70
     0
  9
$PEXTMIN
 10
1.000000000000000E+20
 20
1.000000000000000E+20
 30
1.000000000000000E+20
  9
$PEXTMAX
 10
-1.000000000000000E+20
 20
-1.000000000000000E+20
 30
-1.000000000000000E+20
  9
$PLIMMIN
 10
0.0
 20
0.0
  9
$PLIMMAX
 10
12.0
 20
9.0
  9
$UNITMODE
 70
     0
  9
$VISRETAIN
 70
     1
  9
$PLINEGEN
 70
     0
  9
$PSLTSCALE
 70
     1
  9
$TREEDEPTH
 70
  3020
  9
$CMLSTYLE
  2
Standard
  9
$CMLJUST
 70
     0
  9
$CMLSCALE
 40
1.0
  9
$PROXYGRAPHICS
 70
     1
  9
$MEASUREMENT
 70
     0
  9
$CELWEIGHT
370
    -1
  9
$ENDCAPS
280
     0
  9
$JOINSTYLE
280
     0
  9
$LWDISPLAY
290
     0
  9
$INSUNITS
 70
     0
  9
$HYPERLINKBASE
  1

  9
$STYLESHEET
  1

  9
$XEDIT
290
     1
  9
$CEPSNTYPE
380
     0
  9
$PSTYLEMODE
290
     1
  9
$FINGERPRINTGUID
  2
{9B0A5158-1071-4A97-B8C1-76BDE558AB73}
  9
$VERSIONGUID
  2
{F8B70D80-527B-44D2-A6AD-6B59B25E24D9}
  9
$EXTNAMES
290
     1
  9
$PSVPSCALE
 40
0.0
  9
$OLESTARTUP
290
     0
  0
ENDSEC
  0
SECTION
  2
CLASSES
  0
CLASS
  1
ACDBDICTIONARYWDFLT
  2
AcDbDictionaryWithDefault
  3
AutoCAD 2000
 90
        0
280
     0
281
     0
  0
CLASS
  1
ACDBPLACEHOLDER
  2
AcDbPlaceHolder
  3
AutoCAD 2000
 90
        0
280
     0
281
     0
  0
CLASS
  1
LAYOUT
  2
AcDbLayout
  3
AutoCAD 2000
 90
        0
280
     0
281
     0
  0
CLASS
  1
DICTIONARYVAR
  2
AcDbDictionaryVar
  3
AutoCAD 2000
 90
        0
280
     0
281
     0
  0
ENDSEC
  0
SECTION
  2
TABLES
  0
TABLE
  2
VPORT
  5
19
330
0
100
AcDbSymbolTable
 70
     2
  0
VPORT
  5
4BE
330
19
100
AcDbSymbolTableRecord
100
AcDbViewportTableRecord
  2
*Active
 70
     0
 10
0.0
 20
0.0
 11
1.0
 21
1.0
 12
105.005062038282
 22
148.5017053848262
 13
0.0
 23
0.0
 14
1.0
 24
1.0
 15
0.0
 25
0.0
 16
0.0
 26
0.0
 36
1.0
 17
0.0
 27
0.0
 37
0.0
 40
301.34056262797
 41
2.407317073170731
 42
50.0
 43
0.0
 44
0.0
 50
0.0
 51
0.0
 71
     0
 72
   100
 73
     1
 74
     1
 75
     0
 76
     0
 77
     0
 78
     0
281
     0
 65
     1
110
0.0
120
0.0
130
0.0
111
1.0
121
0.0
131
0.0
112
0.0
122
1.0
132
0.0
 79
     0
146
0.0
  0
ENDTAB
  0
TABLE
  2
LTYPE
  5
14
330
0
100
AcDbSymbolTable
 70
     3
  0
LTYPE
  5
15
330
14
100
AcDbSymbolTableRecord
100
AcDbLinetypeTableRecord
  2
ByBlock
 70
     0
  3

 72
    65
 73
     0
 40
0.0
  0
LTYPE
  5
16
330
14
100
AcDbSymbolTableRecord
100
AcDbLinetypeTableRecord
  2
ByLayer
 70
     0
  3

 72
    65
 73
     0
 40
0.0
  0
LTYPE
  5
8
330
14
100
AcDbSymbolTableRecord
100
AcDbLinetypeTableRecord
  2
Continuous
 70
     0
  3
Solid line
 72
    65
 73
     0
 40
0.0
  0
LTYPE
  5
3D
330
14
100
AcDbSymbolTableRecord
100
AcDbLinetypeTableRecord
  2
CENTER
 70
     0
  3
Center
 72
    65
 73
     4
 40
9.100006759199999
 49
6.5000119209
 74
     0
 49
-0.7999984026000001
 74
     0
 49
0.9999980329999999
 74
     0
 49
-0.7999984026000001
 74
     0
  0
LTYPE
  5
2D
330
14
100
AcDbSymbolTableRecord
100
AcDbLinetypeTableRecord
  2
PHANTOM
 70
     0
  3
Phantom
 72
    65
 73
     6
 40
9.499981462999999
 49
4.799990654
 74
     0
 49
-0.8999982475999999
 74
     0
 49
0.9999980329999999
 74
     0
 49
-0.8999982475999999
 74
     0
 49
0.9999980329999999
 74
     0
 49
-0.8999982475999999
 74
     0
  0
ENDTAB
  0
TABLE
  2
LAYER
  5
10
330
0
100
AcDbSymbolTable
 70
     1
  0
LAYER
  5
4
330
10
100
AcDbSymbolTableRecord
100
AcDbLayerTableRecord
  2
0
 70
     0
 62
     7
  6
Continuous
370
    -3
390
5
  0
ENDTAB
  0
TABLE
  2
STYLE
  5
11
330
0
100
AcDbSymbolTable
 70
     1
  0
STYLE
  5
12
330
11
100
AcDbSymbolTableRecord
100
AcDbTextStyleTableRecord
  2
STANDARD
 70
     0
 40
0.0
 41
1.0
 50
0.0
 71
     0
 42
2.999994039499997
  3
romans.shx
  4
bigfont.shx
  0
ENDTAB
  0
TABLE
  2
VIEW
  5
17
330
0
100
AcDbSymbolTable
 70
     0
  0
ENDTAB
  0
TABLE
  2
UCS
  5
18
330
0
100
AcDbSymbolTable
 70
     0
  0
ENDTAB
  0
TABLE
  2
APPID
  5
1B
330
0
100
AcDbSymbolTable
 70
     1
  0
APPID
  5
1C
330
1B
100
AcDbSymbolTableRecord
100
AcDbRegAppTableRecord
  2
ACAD
 70
     0
  0
ENDTAB
  0
TABLE
  2
DIMSTYLE
  5
1D
330
0
100
AcDbSymbolTable
 70
     1
100
AcDbDimStyleTable
 71
     0
  0
DIMSTYLE
105
23
330
1D
100
AcDbSymbolTableRecord
100
AcDbDimStyleTableRecord
  2
Standard
 70
     0
340
12
  0
ENDTAB
  0
TABLE
  2
BLOCK_RECORD
  5
1
330
0
100
AcDbSymbolTable
 70
     1
  0
BLOCK_RECORD
  5
2
330
1
100
AcDbSymbolTableRecord
100
AcDbBlockTableRecord
  2
*Model_Space
340
A
  0
BLOCK_RECORD
  5
C
330
1
100
AcDbSymbolTableRecord
100
AcDbBlockTableRecord
  2
*Paper_Space
340
F
  0
ENDTAB
  0
ENDSEC
  0
SECTION
  2
BLOCKS
  0
BLOCK
  5
3
330
2
100
AcDbEntity
  8
0
100
AcDbBlockBegin
  2
*Model_Space
 70
     0
 10
0.0
 20
0.0
 30
0.0
  3
*Model_Space
  1

  0
ENDBLK
  5
9
330
2
100
AcDbEntity
  8
0
100
AcDbBlockEnd
  0
BLOCK
  5
D
330
C
100
AcDbEntity
 67
     1
  8
0
100
AcDbBlockBegin
  2
*Paper_Space
 70
     0
 10
0.0
 20
0.0
 30
0.0
  3
*Paper_Space
  1

  0
ENDBLK
  5
E
330
C
100
AcDbEntity
 67
     1
  8
0
100
AcDbBlockEnd
  0
ENDSEC
  0
SECTION
  2
ENTITIES
  0
LINE
  5
24
330
2
100
AcDbEntity
  8
0
 62
     3
100
AcDbLine
 10
176.6287323739
 20
194.3280446766
 30
0.0
 11
176.3400589729999
 21
193.8280476883999
 31
0.0
  0
LINE
  5
25
330
2
100
AcDbEntity
  8
0
 62
     3
100
AcDbLine
 10
176.3400762009997
 20
193.8280542376
 30
0.0
 11
174.2216682503998
 21
197.4972450632998
 31
0.0
  0
ARC
  5
26
330
2
100
AcDbEntity
  8
0
 62
     3
100
AcDbCircle
 10
174.5513632003999
 20
194.5530448581999
 30
0.0
 40
0.5999999046
100
AcDbArc
 50
270.0007283258
 51
29.99968323100006
  0
ARC
  5
27
330
2
100
AcDbEntity
  8
0
 62
     3
100
AcDbCircle
 10
166.2216818038999
 20
194.5530448581999
 30
0.0
 40
0.5999999046
100
AcDbArc
 50
179.9999640277999
 51
269.9999460416999
  0
LINE
  5
28
330
2
100
AcDbEntity
  8
0
 62
     3
100
AcDbLine
 10
171.1216604416
 20
193.9530387547
 30
0.0
 11
171.1216604416
 21
201.9530234958999
 31
0.0
  0
LINE
  5
29
330
2
100
AcDbEntity
  8
0
 62
     3
100
AcDbLine
 10
178.6216405319999
 20
193.8280129135
 30
0.0
 11
179.1216410627999
 21
194.3280134443
 31
0.0
  0
LINE
  5
2A
330
2
100
AcDbEntity
  8
0
100
AcDbLine
 10
210.0
 20
0.0
 30
0.0
 11
210.0
 21
297.0
 31
0.0
  0
LINE
  5
2B
330
2
100
AcDbEntity
  8
0
 62
     3
100
AcDbLine
 10
164.6216451827999
 20
184.0530448581999
 30
0.0
 11
164.6216451827999
 21
211.8530173923999
 31
0.0
  0
LINE
  5
2C
330
2
100
AcDbEntity
  8
0
  6
PHANTOM
 62
     3
100
AcDbLine
 10
163.8216573897999
 20
184.053060117
 30
0.0
 11
163.8216573897999
 21
211.8530021335999
 31
0.0
  0
LINE
  5
2E
330
2
100
AcDbEntity
  8
0
 62
     3
100
AcDbLine
 10
185.6216604415999
 20
183.9530387547
 30
0.0
 11
185.6216604415999
 21
211.9530234958999
 31
0.0
  0
LINE
  5
2F
330
2
100
AcDbEntity
  8
0
 62
     3
100
AcDbLine
 10
186.1216604416
 20
183.9530387547
 30
0.0
 11
186.1216604416
 21
211.9530234958999
 31
0.0
  0
LINE
  5
30
330
2
100
AcDbEntity
  8
0
 62
     3
100
AcDbLine
 10
179.1216604416
 20
183.9530387547
 30
0.0
 11
179.1216604416
 21
194.3280540135
 31
0.0
  0
LINE
  5
31
330
2
100
AcDbEntity
  8
0
 62
     3
100
AcDbLine
 10
164.6216604415999
 20
183.9530387547
 30
0.0
 11
164.6216604415999
 21
211.9530234958999
 31
0.0
  0
LINE
  5
32
330
2
100
AcDbEntity
  8
0
 62
     3
100
AcDbLine
 10
117.4620937303999
 20
194.3529899804999
 30
0.0
 11
116.9620950118999
 21
193.8529876373999
 31
0.0
  0
LINE
  5
33
330
2
100
AcDbEntity
  8
0
 62
     3
100
AcDbLine
 10
39.96223394239999
 20
193.8528415228
 30
0.0
 11
39.46211653879996
 21
194.3529625518999
 31
0.0
  0
LINE
  5
34
330
2
100
AcDbEntity
  8
0
100
AcDbLine
 10
0.0
 20
297.0
 30
0.0
 11
0.0
 21
0.0
 31
0.0
  0
LINE
  5
35
330
2
100
AcDbEntity
  8
0
 62
     3
100
AcDbLine
 10
59.76207181859999
 20
182.9529777195
 30
0.0
 11
59.76207181859999
 21
194.9529624607
 31
0.0
  0
LINE
  5
36
330
2
100
AcDbEntity
  8
0
 62
     3
100
AcDbLine
 10
66.46206876679997
 20
182.9529777195
 30
0.0
 11
66.46206876679997
 21
194.9529624607
 31
0.0
  0
LINE
  5
37
330
2
100
AcDbEntity
  8
0
 62
     3
100
AcDbLine
 10
58.46209928439998
 20
182.9529777195
 30
0.0
 11
58.46209928439998
 21
194.9529777195
 31
0.0
  0
LINE
  5
38
330
2
100
AcDbEntity
  8
0
 62
     3
100
AcDbLine
 10
51.76208707729998
 20
182.9529929782997
 30
0.0
 11
51.76208707729998
 21
194.9529777195
 31
0.0
  0
LINE
  5
39
330
2
100
AcDbEntity
  8
0
 62
     3
100
AcDbLine
 10
50.46211454319998
 20
182.9529929782997
 30
0.0
 11
50.46211454319998
 21
194.7529960301
 31
0.0
  0
LINE
  5
3A
330
2
100
AcDbEntity
  8
0
  6
PHANTOM
 62
     3
100
AcDbLine
 10
48.96209928439998
 20
213.7529960301
 30
0.0
 11
48.96209928439998
 21
182.1530814793
 31
0.0
  0
LINE
  5
3B
330
2
100
AcDbEntity
  8
0
  6
PHANTOM
 62
     3
100
AcDbLine
 10
107.9620687667999
 20
213.7529960301
 30
0.0
 11
107.9620687667999
 21
182.1530814793
 31
0.0
  0
LINE
  5
3C
330
2
100
AcDbEntity
  8
0
  6
CENTER
 62
     3
100
AcDbLine
 10
113.4620687667998
 20
210.0328574803
 30
0.0
 11
113.4620687667998
 21
185.6856895114999
 31
0.0
  0
LINE
  5
3E
330
2
100
AcDbEntity
  8
0
 62
     3
100
AcDbLine
 10
116.9620687667999
 20
211.9530082370999
 30
0.0
 11
116.9620687667999
 21
183.9530387547
 31
0.0
  0
LINE
  5
3F
330
2
100
AcDbEntity
  8
0
 62
     3
100
AcDbLine
 10
109.4620687667999
 20
212.9530082370999
 30
0.0
 11
109.4620687667999
 21
182.9530387547
 31
0.0
  0
LINE
  5
40
330
2
100
AcDbEntity
  8
0
 62
     3
100
AcDbLine
 10
117.4620687667998
 20
211.9530082370999
 30
0.0
 11
117.4620687667998
 21
183.9530387547
 31
0.0
  0
LINE
  5
41
330
2
100
AcDbEntity
  8
0
 62
     3
100
AcDbLine
 10
39.96209928439998
 20
183.9530082370998
 30
0.0
 11
39.96209928439998
 21
211.9529777195
 31
0.0
  0
LINE
  5
42
330
2
100
AcDbEntity
  8
0
 62
     3
100
AcDbLine
 10
47.46209928439998
 20
182.9530082370999
 30
0.0
 11
47.46209928439998
 21
212.9529777195
 31
0.0
  0
LINE
  5
43
330
2
100
AcDbEntity
  8
0
 62
     3
100
AcDbLine
 10
50.46209928439998
 20
182.9530082370999
 30
0.0
 11
50.46209928439998
 21
212.9529777195
 31
0.0
  0
LINE
  5
44
330
2
100
AcDbEntity
  8
0
 62
     3
100
AcDbLine
 10
39.46209928440001
 20
183.9530082370998
 30
0.0
 11
39.46209928440001
 21
211.9529929782999
 31
0.0
  0
LINE
  5
45
330
2
100
AcDbEntity
  8
0
 62
     3
100
AcDbLine
 10
50.46208402559995
 20
182.9530082370999
 30
0.0
 11
50.46208402559995
 21
212.9530082370999
 31
0.0
  0
LINE
  5
46
330
2
100
AcDbEntity
  8
0
 62
     3
100
AcDbLine
 10
67.76207181859999
 20
182.9529929782997
 30
0.0
 11
67.76207181859999
 21
194.9529777195
 31
0.0
  0
LINE
  5
47
330
2
100
AcDbEntity
  8
0
 62
     3
100
AcDbLine
 10
74.46206876679998
 20
182.9529929782997
 30
0.0
 11
74.46206876679998
 21
194.9529929782999
 31
0.0
  0
LINE
  5
48
330
2
100
AcDbEntity
  8
0
 62
     3
100
AcDbLine
 10
82.46202299039998
 20
182.9529624607
 30
0.0
 11
82.46202299039998
 21
194.9529624607
 31
0.0
  0
LINE
  5
49
330
2
100
AcDbEntity
  8
0
 62
     3
100
AcDbLine
 10
75.76202604219997
 20
182.9529624607
 30
0.0
 11
75.76202604219997
 21
194.9529472018999
 31
0.0
  0
LINE
  5
4A
330
2
100
AcDbEntity
  8
0
  6
CENTER
 62
     3
100
AcDbLine
 10
43.46209928439998
 20
210.0328574803
 30
0.0
 11
43.46209928439998
 21
185.6856895114999
 31
0.0
  0
LINE
  5
4B
330
2
100
AcDbEntity
  8
0
 62
     3
100
AcDbLine
 10
99.76190397190004
 20
182.9529014256
 30
0.0
 11
99.76190397190004
 21
194.9528861667999
 31
0.0
  0
LINE
  5
4C
330
2
100
AcDbEntity
  8
0
 62
     3
100
AcDbLine
 10
106.4619009200999
 20
182.9529014256
 30
0.0
 11
106.4619009200999
 21
194.9528861667999
 31
0.0
  0
LINE
  5
4D
330
2
100
AcDbEntity
  8
0
 62
     3
100
AcDbLine
 10
91.76194974819997
 20
182.9529166844
 30
0.0
 11
91.76194974819997
 21
194.9529014256
 31
0.0
  0
LINE
  5
4E
330
2
100
AcDbEntity
  8
0
 62
     3
100
AcDbLine
 10
98.46194669649998
 20
182.9529166844
 30
0.0
 11
98.46194669649998
 21
194.9529014256
 31
0.0
  0
LINE
  5
4F
330
2
100
AcDbEntity
  8
0
 62
     3
100
AcDbLine
 10
83.76198026579999
 20
182.9529319431
 30
0.0
 11
83.76198026579999
 21
194.9529166844
 31
0.0
  0
LINE
  5
50
330
2
100
AcDbEntity
  8
0
 62
     3
100
AcDbLine
 10
90.46197721409999
 20
182.9529319431
 30
0.0
 11
90.46197721409999
 21
194.9529319430999
 31
0.0
  0
TEXT
  5
51
330
2
100
AcDbEntity
  8
0
 62
     5
100
AcDbText
 10
145.0
 20
10.0
 30
0.0
 40
5.0
  1
ＭＡ４-Ｂ００６３８Ｂ
 41
0.8418911459846414
 72
     5
 11
199.0413935612998
 21
10.0
 31
0.0
100
AcDbText
  0
LINE
  5
52
330
2
100
AcDbEntity
  8
0
100
AcDbLine
 10
0.0
 20
0.0
 30
0.0
 11
210.0
 21
0.0
 31
0.0
  0
LINE
  5
53
330
2
100
AcDbEntity
  8
0
 62
     3
100
AcDbLine
 10
86.40484786409997
 20
188.6458361166999
 30
0.0
 11
87.81906140229997
 21
190.0600496548999
 31
0.0
  0
LINE
  5
54
330
2
100
AcDbEntity
  8
0
 62
     3
100
AcDbLine
 10
85.71197721409999
 20
192.6909232762
 30
0.0
 11
88.51198026579998
 21
192.6909232762
 31
0.0
  0
LINE
  5
55
330
2
100
AcDbEntity
  8
0
 62
     3
100
AcDbLine
 10
85.71197721409999
 20
186.0149589206999
 30
0.0
 11
88.51198026579998
 21
186.0149589206999
 31
0.0
  0
LINE
  5
56
330
2
100
AcDbEntity
  8
0
 62
     3
100
AcDbLine
 10
86.24606587899995
 20
132.1585822770999
 30
0.0
 11
87.11209126729997
 21
132.6585822770999
 31
0.0
  0
ARC
  5
57
330
2
100
AcDbEntity
  8
0
 62
     3
100
AcDbCircle
 10
87.11207792209998
 20
125.6586051608999
 30
0.0
 40
7.0
100
AcDbArc
 50
73.7429843175
 51
106.2569797102999
  0
LINE
  5
58
330
2
100
AcDbEntity
  8
0
 62
     3
100
AcDbLine
 10
86.11207225710002
 20
130.6585934689999
 30
0.0
 11
87.11207331869998
 21
129.6585924073999
 31
0.0
  0
LINE
  5
59
330
2
100
AcDbEntity
  8
0
 62
     3
100
AcDbLine
 10
89.86207792209999
 20
130.6586051608999
 30
0.0
 11
84.36207792209998
 21
130.6586051608999
 31
0.0
  0
LINE
  5
5A
330
2
100
AcDbEntity
  8
0
 62
     3
100
AcDbLine
 10
90.46208402560001
 20
129.6586051608999
 30
0.0
 11
83.76208707729999
 21
129.6586051608999
 31
0.0
  0
LINE
  5
5B
330
2
100
AcDbEntity
  8
0
 62
     3
100
AcDbLine
 10
90.46208402560001
 20
127.1586051609
 30
0.0
 11
84.26207181859998
 21
127.1586051609
 31
0.0
  0
LINE
  5
5C
330
2
100
AcDbEntity
  8
0
 62
     3
100
AcDbLine
 10
90.46208402560001
 20
128.1586051608999
 30
0.0
 11
83.76207181859999
 21
128.1586051608999
 31
0.0
  0
LINE
  5
5D
330
2
100
AcDbEntity
  8
0
 62
     3
100
AcDbLine
 10
90.46208402560001
 20
122.3085990574
 30
0.0
 11
83.76207181859999
 21
122.3085990574
 31
0.0
  0
LINE
  5
5E
330
2
100
AcDbEntity
  8
0
 62
     3
100
AcDbLine
 10
90.46208402560001
 20
121.3084617283
 30
0.0
 11
83.76207181859999
 21
121.3084617283
 31
0.0
  0
LINE
  5
5F
330
2
100
AcDbEntity
  8
0
 62
     3
100
AcDbLine
 10
90.46208402560001
 20
134.3085990573999
 30
0.0
 11
83.76207181859999
 21
134.3085990573999
 31
0.0
  0
LINE
  5
60
330
2
100
AcDbEntity
  8
0
 62
     3
100
AcDbLine
 10
83.76198026579999
 20
185.8529868748
 30
0.0
 11
90.46197721409999
 21
185.8529868748
 31
0.0
  0
LINE
  5
61
330
2
100
AcDbEntity
  8
0
 62
     3
100
AcDbLine
 10
83.76198026579999
 20
184.4530082370999
 30
0.0
 11
90.46197721409999
 21
184.4530082370999
 31
0.0
  0
LINE
  5
62
330
2
100
AcDbEntity
  8
0
 62
     3
100
AcDbLine
 10
83.76198026579999
 20
183.9530082370998
 30
0.0
 11
90.46197721409999
 21
183.9530082370998
 31
0.0
  0
LINE
  5
63
330
2
100
AcDbEntity
  8
0
 62
     3
100
AcDbLine
 10
82.46200773159998
 20
182.9529319431
 30
0.0
 11
90.46197721409999
 21
182.9529319431
 31
0.0
  0
LINE
  5
64
330
2
100
AcDbEntity
  8
0
  6
PHANTOM
 62
     3
100
AcDbLine
 10
49.16208097380001
 20
133.1959129001999
 30
0.0
 11
107.7620870772999
 21
133.1959129001999
 31
0.0
  0
LINE
  5
65
330
2
100
AcDbEntity
  8
0
  6
PHANTOM
 62
     3
100
AcDbLine
 10
49.16208097380001
 20
137.108617368
 30
0.0
 11
107.7620870772999
 21
137.108617368
 31
0.0
  0
LINE
  5
66
330
2
100
AcDbEntity
  8
0
 62
     3
100
AcDbLine
 10
40.46208402559995
 20
115.8086143161999
 30
0.0
 11
116.4620840255998
 21
115.8086143161999
 31
0.0
  0
LINE
  5
67
330
2
100
AcDbEntity
  8
0
 62
     3
100
AcDbLine
 10
39.96208402559997
 20
114.8086143161999
 30
0.0
 11
116.9621232534999
 21
114.8086143161999
 31
0.0
  0
LINE
  5
68
330
2
100
AcDbEntity
  8
0
  6
PHANTOM
 62
     3
100
AcDbLine
 10
107.9620687667999
 20
182.1530814793
 30
0.0
 11
48.96209928439998
 21
182.1530814793
 31
0.0
  0
CIRCLE
  5
69
330
2
100
AcDbEntity
  8
0
 62
     3
100
AcDbCircle
 10
87.11197111049997
 20
189.3529410984
 30
0.0
 40
2.75
  0
LINE
  5
6A
330
2
100
AcDbEntity
  8
0
 62
     3
100
AcDbLine
 10
88.52616817129998
 20
187.9387293477
 30
0.0
 11
85.69775188459997
 21
190.7671456343999
 31
0.0
  0
LINE
  5
6B
330
2
100
AcDbEntity
  8
0
 62
     3
100
AcDbLine
 10
56.51207649089997
 20
192.6909926751
 30
0.0
 11
57.85585413059999
 21
192.5363558069
 31
0.0
  0
LINE
  5
6C
330
2
100
AcDbEntity
  8
0
 62
     3
100
AcDbLine
 10
57.85585876839997
 20
186.1696796887999
 30
0.0
 11
56.51208112869998
 21
186.0150428205997
 31
0.0
  0
LINE
  5
6D
330
2
100
AcDbEntity
  8
0
 62
     3
100
AcDbLine
 10
51.76208707729998
 20
185.8530479099
 30
0.0
 11
58.46208402559998
 21
185.8530479099
 31
0.0
  0
LINE
  5
6E
330
2
100
AcDbEntity
  8
0
 62
     3
100
AcDbLine
 10
51.76208707729998
 20
184.4530692721999
 30
0.0
 11
58.46208402559998
 21
184.4530692721999
 31
0.0
  0
LINE
  5
6F
330
2
100
AcDbEntity
  8
0
 62
     3
100
AcDbLine
 10
51.76208707729998
 20
183.9530692722
 30
0.0
 11
58.46208402559998
 21
183.9530692722
 31
0.0
  0
LINE
  5
70
330
2
100
AcDbEntity
  8
0
 62
     3
100
AcDbLine
 10
50.46211454319998
 20
182.9529929782997
 30
0.0
 11
58.46208402559998
 21
182.9529929782997
 31
0.0
  0
ARC
  5
71
330
2
100
AcDbEntity
  8
0
 62
     3
100
AcDbCircle
 10
55.11207792209996
 20
125.6586051608999
 30
0.0
 40
7.0
100
AcDbArc
 50
73.7429843175
 51
106.2569797102999
  0
LINE
  5
72
330
2
100
AcDbEntity
  8
0
 62
     3
100
AcDbLine
 10
56.84413319809999
 20
131.6585762958
 30
0.0
 11
55.11208242159998
 21
132.6585762958
 31
0.0
  0
LINE
  5
73
330
2
100
AcDbEntity
  8
0
 62
     3
100
AcDbLine
 10
57.46208377009998
 20
128.3585686689
 30
0.0
 11
56.66222249039998
 21
128.1586033735999
 31
0.0
  0
LINE
  5
74
330
2
100
AcDbEntity
  8
0
 62
     3
100
AcDbLine
 10
57.46206876679997
 20
128.3586021092
 30
0.0
 11
56.46206876679997
 21
128.3586021092
 31
0.0
  0
LINE
  5
75
330
2
100
AcDbEntity
  8
0
 62
     3
100
AcDbLine
 10
56.76208707729998
 20
128.6586051608999
 30
0.0
 11
55.91208097380001
 21
128.6586051608999
 31
0.0
  0
LINE
  5
76
330
2
100
AcDbEntity
  8
0
 62
     3
100
AcDbLine
 10
57.86207792209999
 20
130.6586051608999
 30
0.0
 11
52.36207792209999
 21
130.6586051608999
 31
0.0
  0
LINE
  5
77
330
2
100
AcDbEntity
  8
0
 62
     3
100
AcDbLine
 10
58.46208402559998
 20
129.6586051608999
 30
0.0
 11
51.76208707729998
 21
129.6586051608999
 31
0.0
  0
LINE
  5
78
330
2
100
AcDbEntity
  8
0
 62
     3
100
AcDbLine
 10
58.46208402559998
 20
127.1586051609
 30
0.0
 11
52.26207181859999
 21
127.1586051609
 31
0.0
  0
LINE
  5
79
330
2
100
AcDbEntity
  8
0
 62
     3
100
AcDbLine
 10
58.46208402559998
 20
128.1586051608999
 30
0.0
 11
51.76207181859999
 21
128.1586051608999
 31
0.0
  0
LINE
  5
7A
330
2
100
AcDbEntity
  8
0
 62
     3
100
AcDbLine
 10
58.46208402559998
 20
122.3085990574
 30
0.0
 11
51.76207181859999
 21
122.3085990574
 31
0.0
  0
LINE
  5
7B
330
2
100
AcDbEntity
  8
0
 62
     3
100
AcDbLine
 10
58.46208402559998
 20
121.3084617283
 30
0.0
 11
51.76207181859999
 21
121.3084617283
 31
0.0
  0
LINE
  5
7C
330
2
100
AcDbEntity
  8
0
 62
     3
100
AcDbLine
 10
58.46208402559998
 20
134.3085990573999
 30
0.0
 11
51.76207181859999
 21
134.3085990573999
 31
0.0
  0
CIRCLE
  5
7D
330
2
100
AcDbEntity
  8
0
 62
     3
100
AcDbCircle
 10
55.11207792209996
 20
189.3530021335999
 30
0.0
 40
2.75
  0
LINE
  5
7E
330
2
100
AcDbEntity
  8
0
 62
     3
100
AcDbLine
 10
40.46208402559995
 20
121.3085990574
 30
0.0
 11
48.76208707729995
 21
121.3085990574
 31
0.0
  0
LINE
  5
7F
330
2
100
AcDbEntity
  8
0
 62
     3
100
AcDbLine
 10
39.96208402559997
 20
122.3086143161999
 30
0.0
 11
48.76208707729995
 21
122.3086143161999
 31
0.0
  0
LINE
  5
80
330
2
100
AcDbEntity
  8
0
 62
     3
100
AcDbLine
 10
39.96208402559997
 20
124.6901755955
 30
0.0
 11
47.46208402559995
 21
124.6901755955
 31
0.0
  0
LINE
  5
81
330
2
100
AcDbEntity
  8
0
 62
     3
100
AcDbLine
 10
39.96208402559997
 20
126.7086234715
 30
0.0
 11
47.46208402559995
 21
126.7086234715
 31
0.0
  0
LINE
  5
82
330
2
100
AcDbEntity
  8
0
 62
     3
100
AcDbLine
 10
39.96208402559997
 20
122.3086143161999
 30
0.0
 11
39.96208402559997
 21
126.7086234715
 31
0.0
  0
LINE
  5
83
330
2
100
AcDbEntity
  8
0
 62
     3
100
AcDbLine
 10
39.46208402559998
 20
115.3086143161999
 30
0.0
 11
39.46208402559998
 21
126.2085624363
 31
0.0
  0
LINE
  5
84
330
2
100
AcDbEntity
  8
0
 62
     3
100
AcDbLine
 10
40.46208402559995
 20
115.8086143161999
 30
0.0
 11
40.46208402559995
 21
121.3085990574
 31
0.0
  0
LINE
  5
85
330
2
100
AcDbEntity
  8
0
 62
     3
100
AcDbLine
 10
39.71210715819998
 20
115.0585790660999
 30
0.0
 11
40.46210255959997
 21
115.8085744674999
 31
0.0
  0
LINE
  5
86
330
2
100
AcDbEntity
  8
0
 62
     3
100
AcDbLine
 10
39.96209936079998
 20
114.8085683724
 30
0.0
 11
39.46209874569996
 21
115.3085688610999
 31
0.0
  0
LINE
  5
87
330
2
100
AcDbEntity
  8
0
 62
     3
100
AcDbLine
 10
40.46211481939997
 20
121.3085292366
 30
0.0
 11
39.46210767289997
 21
121.8085328099
 31
0.0
  0
LINE
  5
88
330
2
100
AcDbEntity
  8
0
 62
     3
100
AcDbLine
 10
39.46208262449997
 20
124.1900886113999
 30
0.0
 11
39.96208159589997
 21
124.6900907017
 31
0.0
  0
LINE
  5
89
330
2
100
AcDbEntity
  8
0
 62
     3
100
AcDbLine
 10
39.46210634439998
 20
121.8085005755
 30
0.0
 11
39.96210329269996
 21
122.3085047309
 31
0.0
  0
LINE
  5
8A
330
2
100
AcDbEntity
  8
0
 62
     3
100
AcDbLine
 10
39.46209188019997
 20
126.2085553171
 30
0.0
 11
39.96209127309998
 21
126.7085569859
 31
0.0
  0
LINE
  5
8B
330
2
100
AcDbEntity
  8
0
 62
     3
100
AcDbLine
 10
52.26207181859999
 20
127.9586082126999
 30
0.0
 11
52.26207181859999
 21
122.3085990574
 31
0.0
  0
LINE
  5
8C
330
2
100
AcDbEntity
  8
0
 62
     3
100
AcDbLine
 10
48.76208707729995
 20
121.3085990574
 30
0.0
 11
48.76208707729995
 21
130.4086204196999
 31
0.0
  0
LINE
  5
8D
330
2
100
AcDbEntity
  8
0
 62
     3
100
AcDbLine
 10
47.46208402559995
 20
122.3086143161999
 30
0.0
 11
47.46208402559995
 21
136.3086143162
 31
0.0
  0
LINE
  5
8E
330
2
100
AcDbEntity
  8
0
 62
     3
100
AcDbLine
 10
51.76207181859999
 20
136.3086143162
 30
0.0
 11
51.76207181859999
 21
121.3084617283
 31
0.0
  0
LINE
  5
8F
330
2
100
AcDbEntity
  8
0
 62
     3
100
AcDbLine
 10
50.46208402559995
 20
136.3086295749999
 30
0.0
 11
50.46208402559995
 21
114.8085990573999
 31
0.0
  0
LINE
  5
90
330
2
100
AcDbEntity
  8
0
 62
     3
100
AcDbLine
 10
49.16208097380001
 20
131.9785972263999
 30
0.0
 11
50.46208402559995
 21
131.9785972263999
 31
0.0
  0
LINE
  5
91
330
2
100
AcDbEntity
  8
0
 62
     3
100
AcDbLine
 10
49.16208097380001
 20
133.0786033298999
 30
0.0
 11
50.46208402559995
 21
133.0786033298999
 31
0.0
  0
LINE
  5
92
330
2
100
AcDbEntity
  8
0
 62
     3
100
AcDbLine
 10
49.16208097380001
 20
133.9286094333999
 30
0.0
 11
50.46208402559995
 21
133.9286094333999
 31
0.0
  0
LINE
  5
93
330
2
100
AcDbEntity
  8
0
 62
     3
100
AcDbLine
 10
47.46208402559995
 20
135.2086082126999
 30
0.0
 11
50.46208402559995
 21
135.2086082126999
 31
0.0
  0
LINE
  5
94
330
2
100
AcDbEntity
  8
0
 62
     3
100
AcDbLine
 10
47.46208402559995
 20
136.3086143162
 30
0.0
 11
51.76207181859999
 21
136.3086143162
 31
0.0
  0
LINE
  5
95
330
2
100
AcDbEntity
  8
0
  6
PHANTOM
 62
     3
100
AcDbLine
 10
49.16208097380001
 20
137.108617368
 30
0.0
 11
49.16208097380001
 21
133.1959129001999
 31
0.0
  0
LINE
  5
96
330
2
100
AcDbEntity
  8
0
 62
     3
100
AcDbLine
 10
47.46208402559995
 20
130.4086204196999
 30
0.0
 11
48.76208707729995
 21
130.4086204196999
 31
0.0
  0
LINE
  5
97
330
2
100
AcDbEntity
  8
0
 62
     3
100
AcDbLine
 10
49.16208097380001
 20
131.9785972263999
 30
0.0
 11
49.16208097380001
 21
135.2086082126999
 31
0.0
  0
ARC
  5
98
330
2
100
AcDbEntity
  8
0
 62
     3
100
AcDbCircle
 10
53.43240568089996
 20
131.4186912205
 30
0.0
 40
1.0
100
AcDbArc
 50
106.2569797102999
 51
174.9999923478
  0
LINE
  5
99
330
2
100
AcDbEntity
  8
0
 62
     3
100
AcDbLine
 10
53.46210344519994
 20
128.6586087931
 30
0.0
 11
52.14100186499999
 21
128.2182431214
 31
0.0
  0
LINE
  5
9A
330
2
100
AcDbEntity
  8
0
 62
     3
100
AcDbLine
 10
53.46211101809996
 20
129.6585900818999
 30
0.0
 11
52.14100985279998
 21
129.2182230821
 31
0.0
  0
LINE
  5
9B
330
2
100
AcDbEntity
  8
0
 62
     3
100
AcDbLine
 10
52.36209923729996
 20
130.658585119
 30
0.0
 11
52.43622334059995
 21
131.5058279339999
 31
0.0
  0
ARC
  5
9C
330
2
100
AcDbEntity
  8
0
 62
     3
100
AcDbCircle
 10
52.07774564669998
 20
128.4079795506
 30
0.0
 40
0.1999999881
100
AcDbArc
 50
201.8016719538
 51
288.4351356880998
  0
ARC
  5
9D
330
2
100
AcDbEntity
  8
0
 62
     3
100
AcDbCircle
 10
52.07774564669998
 20
129.4079795506
 30
0.0
 40
0.1999999881
100
AcDbArc
 50
201.8017812367999
 51
288.4350264049998
  0
LINE
  5
9E
330
2
100
AcDbEntity
  8
0
 62
     3
100
AcDbLine
 10
51.96208402559998
 20
128.4086051608999
 30
0.0
 11
51.96208402559998
 21
128.9086051608999
 31
0.0
  0
LINE
  5
9F
330
2
100
AcDbEntity
  8
0
 62
     3
100
AcDbLine
 10
51.89205042519995
 20
128.3337014125
 30
0.0
 11
51.76208895559998
 21
128.6586027714
 31
0.0
  0
LINE
  5
A0
330
2
100
AcDbEntity
  8
0
 62
     3
100
AcDbLine
 10
51.89206038519998
 20
129.3336916145999
 30
0.0
 11
51.76209362399998
 21
129.6586072869
 31
0.0
  0
LINE
  5
A1
330
2
100
AcDbEntity
  8
0
 62
     3
100
AcDbLine
 10
51.76208707729998
 20
128.6586051608999
 30
0.0
 11
51.76208707729998
 21
129.6586051608999
 31
0.0
  0
LINE
  5
A2
330
2
100
AcDbEntity
  8
0
 62
     3
100
AcDbLine
 10
52.26207181859999
 20
127.9586082126999
 30
0.0
 11
51.76207181859999
 21
127.9586082126999
 31
0.0
  0
LINE
  5
A3
330
2
100
AcDbEntity
  8
0
 62
     3
100
AcDbLine
 10
52.41208097379999
 20
130.6586051608999
 30
0.0
 11
52.41208097379999
 21
129.6586051608999
 31
0.0
  0
LINE
  5
A4
330
2
100
AcDbEntity
  8
0
 62
     3
100
AcDbLine
 10
55.61207792209998
 20
129.1586051608999
 30
0.0
 11
54.61207792209996
 21
129.1586051608999
 31
0.0
  0
LINE
  5
A5
330
2
100
AcDbEntity
  8
0
 62
     3
100
AcDbLine
 10
54.11207470109997
 20
130.6585867254999
 30
0.0
 11
55.11207576269999
 21
129.6585856639
 31
0.0
  0
LINE
  5
A6
330
2
100
AcDbEntity
  8
0
 62
     3
100
AcDbLine
 10
54.61207792209996
 20
129.6586051608999
 30
0.0
 11
54.61207792209996
 21
129.1586051608999
 31
0.0
  0
LINE
  5
A7
330
2
100
AcDbEntity
  8
0
 62
     3
100
AcDbLine
 10
53.76208707729995
 20
128.1586051608999
 30
0.0
 11
53.76208707729995
 21
128.6586051608999
 31
0.0
  0
LINE
  5
A8
330
2
100
AcDbEntity
  8
0
 62
     3
100
AcDbLine
 10
54.3120901291
 20
128.6586051608999
 30
0.0
 11
53.46208402559998
 21
128.6586051608999
 31
0.0
  0
LINE
  5
A9
330
2
100
AcDbEntity
  8
0
 62
     3
100
AcDbLine
 10
54.3120901291
 20
128.1586051608999
 30
0.0
 11
54.3120901291
 21
128.6586051608999
 31
0.0
  0
LINE
  5
AA
330
2
100
AcDbEntity
  8
0
 62
     3
100
AcDbLine
 10
56.46208402559998
 20
128.1586051608999
 30
0.0
 11
56.46208402559998
 21
128.6586051608999
 31
0.0
  0
LINE
  5
AB
330
2
100
AcDbEntity
  8
0
 62
     3
100
AcDbLine
 10
55.91208097380001
 20
128.1586051608999
 30
0.0
 11
55.91208097380001
 21
128.6586051608999
 31
0.0
  0
LINE
  5
AC
330
2
100
AcDbEntity
  8
0
 62
     3
100
AcDbLine
 10
55.61207792209998
 20
129.6586051608999
 30
0.0
 11
55.61207792209998
 21
129.1586051608999
 31
0.0
  0
LINE
  5
AD
330
2
100
AcDbEntity
  8
0
 62
     3
100
AcDbLine
 10
56.11206603469998
 20
129.6585964535
 30
0.0
 11
55.11207576269999
 21
130.6585867254999
 31
0.0
  0
LINE
  5
AE
330
2
100
AcDbEntity
  8
0
 62
     3
100
AcDbLine
 10
54.24607830329998
 20
132.1585889528
 30
0.0
 11
55.11210369149996
 21
132.6585889528
 31
0.0
  0
LINE
  5
AF
330
2
100
AcDbEntity
  8
0
 62
     3
100
AcDbLine
 10
39.96209928439998
 20
193.8530021335999
 30
0.0
 11
47.46209928439998
 21
193.8530021335999
 31
0.0
  0
LINE
  5
B0
330
2
100
AcDbEntity
  8
0
  6
CENTER
 62
     3
100
AcDbLine
 10
40.04481717989998
 20
188.9530387546997
 30
0.0
 11
47.10498258519999
 21
188.9530387546997
 31
0.0
  0
LINE
  5
B1
330
2
100
AcDbEntity
  8
0
 62
     3
100
AcDbLine
 10
39.96209928439998
 20
183.9530082370998
 30
0.0
 11
47.46209928439998
 21
183.9530082370998
 31
0.0
  0
LINE
  5
B2
330
2
100
AcDbEntity
  8
0
 62
     3
100
AcDbLine
 10
40.46209928439998
 20
182.9530082370999
 30
0.0
 11
50.46209928439998
 21
182.9530082370999
 31
0.0
  0
ARC
  5
B3
330
2
100
AcDbEntity
  8
0
 62
     3
100
AcDbCircle
 10
42.61209318089996
 20
188.9530387546997
 30
0.0
 40
2.149999618499998
100
AcDbArc
 50
89.99998201389999
 51
269.9999460416999
  0
LINE
  5
B4
330
2
100
AcDbEntity
  8
0
 62
     3
100
AcDbLine
 10
39.46213245969997
 20
183.9529925501
 30
0.0
 11
40.46209154299998
 21
182.9530358268998
 31
0.0
  0
LINE
  5
B5
330
2
100
AcDbEntity
  8
0
 62
     3
100
AcDbLine
 10
39.46213269439999
 20
183.9530335839999
 30
0.0
 11
39.96213269439996
 21
183.9530259545999
 31
0.0
  0
LINE
  5
B6
330
2
100
AcDbEntity
  8
0
 62
     3
100
AcDbLine
 10
47.46209928439998
 20
184.0530143405999
 30
0.0
 11
50.46209928439998
 21
184.0530143405999
 31
0.0
  0
ARC
  5
B7
330
2
100
AcDbEntity
  8
0
 62
     3
100
AcDbCircle
 10
44.31210538789997
 20
188.9530387546997
 30
0.0
 40
2.149999618499998
100
AcDbArc
 50
270.0000726275999
 51
89.99998201389994
  0
LINE
  5
B8
330
2
100
AcDbEntity
  8
0
 62
     3
100
AcDbLine
 10
42.61209318089996
 20
186.8029990818
 30
0.0
 11
44.31210538789997
 21
186.8029990818
 31
0.0
  0
LINE
  5
B9
330
2
100
AcDbEntity
  8
0
 62
     3
100
AcDbLine
 10
42.61209318089996
 20
191.1030021336
 30
0.0
 11
44.31210538789997
 21
191.1030021336
 31
0.0
  0
LINE
  5
BA
330
2
100
AcDbEntity
  8
0
 62
     3
100
AcDbLine
 10
53.22757997029999
 20
192.2064738619999
 30
0.0
 11
52.25858795399997
 21
191.2374823358
 31
0.0
  0
LINE
  5
BB
330
2
100
AcDbEntity
  8
0
 62
     3
100
AcDbLine
 10
52.36830828779995
 20
192.5363451086
 30
0.0
 11
53.7120859275
 21
192.6909819768
 31
0.0
  0
LINE
  5
BC
330
2
100
AcDbEntity
  8
0
 62
     3
100
AcDbLine
 10
52.25859540959999
 20
187.4684897525999
 30
0.0
 11
53.22758742579998
 21
186.4994982263999
 31
0.0
  0
LINE
  5
BD
330
2
100
AcDbEntity
  8
0
 62
     3
100
AcDbLine
 10
53.71207780079998
 20
186.0150232013998
 30
0.0
 11
52.36828500229996
 21
186.1696618139999
 31
0.0
  0
LINE
  5
BE
330
2
100
AcDbEntity
  8
0
 62
     3
100
AcDbLine
 10
51.77409574429995
 20
187.9530082370999
 30
0.0
 11
51.77409574429995
 21
190.7529960301
 31
0.0
  0
LINE
  5
BF
330
2
100
AcDbEntity
  8
0
 62
     3
100
AcDbLine
 10
51.92873814329999
 20
186.6092291258
 30
0.0
 11
51.77409945009998
 21
187.9530219241999
 31
0.0
  0
LINE
  5
C0
330
2
100
AcDbEntity
  8
0
 62
     3
100
AcDbLine
 10
52.26208707729995
 20
184.4530692721999
 30
0.0
 11
52.26208707729995
 21
185.8530479099
 31
0.0
  0
ARC
  5
C1
330
2
100
AcDbEntity
  8
0
 62
     3
100
AcDbCircle
 10
52.42546293179998
 20
186.6663871432999
 30
0.0
 40
0.5
100
AcDbArc
 50
186.5645034627
 51
263.4355504954999
  0
LINE
  5
C2
330
2
100
AcDbEntity
  8
0
 62
     3
100
AcDbLine
 10
51.77411100309999
 20
189.8530021336
 30
0.0
 11
52.4079305832
 21
189.8530021336
 31
0.0
  0
LINE
  5
C3
330
2
100
AcDbEntity
  8
0
 62
     3
100
AcDbLine
 10
51.77411100309999
 20
188.8530173924
 30
0.0
 11
52.4079305832
 21
188.8530173924
 31
0.0
  0
LINE
  5
C4
330
2
100
AcDbEntity
  8
0
 62
     3
100
AcDbLine
 10
51.77409968339998
 20
190.7529877047998
 30
0.0
 11
51.92873837669998
 21
192.0967805033
 31
0.0
  0
ARC
  5
C5
330
2
100
AcDbEntity
  8
0
 62
     3
100
AcDbCircle
 10
52.42546293179998
 20
192.0396323826
 30
0.0
 40
0.5
100
AcDbArc
 50
96.56444950450001
 51
173.4354965372999
  0
LINE
  5
C6
330
2
100
AcDbEntity
  8
0
 62
     3
100
AcDbLine
 10
56.5262852548
 20
187.9387940852
 30
0.0
 11
53.69785817839996
 21
190.7672211615999
 31
0.0
  0
LINE
  5
C7
330
2
100
AcDbEntity
  8
0
 62
     3
100
AcDbLine
 10
53.71208402559995
 20
186.0150199558
 30
0.0
 11
56.51208707729995
 21
186.0150199558
 31
0.0
  0
LINE
  5
C8
330
2
100
AcDbEntity
  8
0
 62
     3
100
AcDbLine
 10
54.61207792209996
 20
186.0150199558
 30
0.0
 11
54.61207792209996
 21
186.6488395359
 31
0.0
  0
LINE
  5
C9
330
2
100
AcDbEntity
  8
0
 62
     3
100
AcDbLine
 10
55.61210843959997
 20
186.0150046970999
 30
0.0
 11
55.61210843959997
 21
186.6488242771
 31
0.0
  0
LINE
  5
CA
330
2
100
AcDbEntity
  8
0
 62
     3
100
AcDbLine
 10
54.40496494749999
 20
188.6459008543
 30
0.0
 11
55.81917848569998
 21
190.0601143924999
 31
0.0
  0
LINE
  5
CB
330
2
100
AcDbEntity
  8
0
 62
     3
100
AcDbLine
 10
53.71208402559995
 20
192.6909843112999
 30
0.0
 11
56.51208707729995
 21
192.6909843112999
 31
0.0
  0
LINE
  5
CC
330
2
100
AcDbEntity
  8
0
 62
     3
100
AcDbLine
 10
54.61212369839995
 20
192.6909690525
 30
0.0
 11
54.61212369839995
 21
192.0571494724
 31
0.0
  0
LINE
  5
CD
330
2
100
AcDbEntity
  8
0
 62
     3
100
AcDbLine
 10
55.61210843959997
 20
192.6909690525
 30
0.0
 11
55.61210843959997
 21
192.0571494724
 31
0.0
  0
ARC
  5
CE
330
2
100
AcDbEntity
  8
0
 62
     3
100
AcDbCircle
 10
71.11207792209999
 20
125.6586051608999
 30
0.0
 40
7.0
100
AcDbArc
 50
73.7429843175
 51
106.2569797102999
  0
LINE
  5
CF
330
2
100
AcDbEntity
  8
0
 62
     3
100
AcDbLine
 10
72.84414020049997
 20
131.6585720043
 30
0.0
 11
71.11208942399994
 21
132.6585720043
 31
0.0
  0
LINE
  5
D0
330
2
100
AcDbEntity
  8
0
 62
     3
100
AcDbLine
 10
73.86207792209998
 20
130.6586051608999
 30
0.0
 11
68.36207792209998
 21
130.6586051608999
 31
0.0
  0
LINE
  5
D1
330
2
100
AcDbEntity
  8
0
 62
     3
100
AcDbLine
 10
74.46208402559998
 20
134.3085990573999
 30
0.0
 11
67.76207181859999
 21
134.3085990573999
 31
0.0
  0
LINE
  5
D2
330
2
100
AcDbEntity
  8
0
 62
     3
100
AcDbLine
 10
71.61207792209999
 20
129.1586051608999
 30
0.0
 11
70.61207792209998
 21
129.1586051608999
 31
0.0
  0
LINE
  5
D3
330
2
100
AcDbEntity
  8
0
 62
     3
100
AcDbLine
 10
74.46208402559998
 20
129.6586051608999
 30
0.0
 11
67.76208707729998
 21
129.6586051608999
 31
0.0
  0
LINE
  5
D4
330
2
100
AcDbEntity
  8
0
 62
     3
100
AcDbLine
 10
74.46208402559998
 20
127.1586051609
 30
0.0
 11
68.26207181859999
 21
127.1586051609
 31
0.0
  0
LINE
  5
D5
330
2
100
AcDbEntity
  8
0
 62
     3
100
AcDbLine
 10
74.46208402559998
 20
128.1586051608999
 30
0.0
 11
67.76207181859999
 21
128.1586051608999
 31
0.0
  0
LINE
  5
D6
330
2
100
AcDbEntity
  8
0
 62
     3
100
AcDbLine
 10
74.46208402559998
 20
122.3085990574
 30
0.0
 11
67.76207181859999
 21
122.3085990574
 31
0.0
  0
LINE
  5
D7
330
2
100
AcDbEntity
  8
0
 62
     3
100
AcDbLine
 10
74.46208402559998
 20
121.3084617283
 30
0.0
 11
67.76207181859999
 21
121.3084617283
 31
0.0
  0
LINE
  5
D8
330
2
100
AcDbEntity
  8
0
 62
     3
100
AcDbLine
 10
72.11208302009999
 20
129.6585964535
 30
0.0
 11
71.11208195849997
 21
130.6585975150999
 31
0.0
  0
LINE
  5
D9
330
2
100
AcDbEntity
  8
0
 62
     3
100
AcDbLine
 10
68.26207181859999
 20
127.9586082126999
 30
0.0
 11
68.26207181859999
 21
122.3085990574
 31
0.0
  0
LINE
  5
DA
330
2
100
AcDbEntity
  8
0
 62
     3
100
AcDbLine
 10
67.76207181859999
 20
136.3086143162
 30
0.0
 11
67.76207181859999
 21
121.3084617283
 31
0.0
  0
LINE
  5
DB
330
2
100
AcDbEntity
  8
0
 62
     3
100
AcDbLine
 10
60.26207181859999
 20
127.9586082126999
 30
0.0
 11
60.26207181859999
 21
122.3085990574
 31
0.0
  0
LINE
  5
DC
330
2
100
AcDbEntity
  8
0
 62
     3
100
AcDbLine
 10
66.46208402559998
 20
136.3086143162
 30
0.0
 11
66.46208402559998
 21
114.8085990573999
 31
0.0
  0
LINE
  5
DD
330
2
100
AcDbEntity
  8
0
 62
     3
100
AcDbLine
 10
59.76207181859999
 20
136.3086143162
 30
0.0
 11
59.76207181859999
 21
121.3084617283
 31
0.0
  0
LINE
  5
DE
330
2
100
AcDbEntity
  8
0
 62
     3
100
AcDbLine
 10
58.46208402559998
 20
136.3086143162
 30
0.0
 11
58.46208402559998
 21
114.8085990573999
 31
0.0
  0
LINE
  5
DF
330
2
100
AcDbEntity
  8
0
 62
     3
100
AcDbLine
 10
66.46208402559998
 20
122.3085990574
 30
0.0
 11
59.76207181859999
 21
122.3085990574
 31
0.0
  0
LINE
  5
E0
330
2
100
AcDbEntity
  8
0
 62
     3
100
AcDbLine
 10
66.46208402559998
 20
121.3084617283
 30
0.0
 11
59.76207181859999
 21
121.3084617283
 31
0.0
  0
ARC
  5
E1
330
2
100
AcDbEntity
  8
0
 62
     3
100
AcDbCircle
 10
63.11207792209998
 20
125.6586051608999
 30
0.0
 40
7.0
100
AcDbArc
 50
73.7429843175
 51
106.2569797102999
  0
LINE
  5
E2
330
2
100
AcDbEntity
  8
0
 62
     3
100
AcDbLine
 10
64.84413669929998
 20
131.65857415
 30
0.0
 11
63.11208592279996
 21
132.65857415
 31
0.0
  0
LINE
  5
E3
330
2
100
AcDbEntity
  8
0
 62
     3
100
AcDbLine
 10
65.86207792209998
 20
130.6586051608999
 30
0.0
 11
60.36207792209999
 21
130.6586051608999
 31
0.0
  0
LINE
  5
E4
330
2
100
AcDbEntity
  8
0
 62
     3
100
AcDbLine
 10
64.76208707729998
 20
128.6586051608999
 30
0.0
 11
63.91208097379996
 21
128.6586051608999
 31
0.0
  0
LINE
  5
E5
330
2
100
AcDbEntity
  8
0
 62
     3
100
AcDbLine
 10
66.46208402559998
 20
127.1586051609
 30
0.0
 11
60.26207181859999
 21
127.1586051609
 31
0.0
  0
LINE
  5
E6
330
2
100
AcDbEntity
  8
0
 62
     3
100
AcDbLine
 10
66.46208402559998
 20
129.6586051608999
 30
0.0
 11
59.76208707729995
 21
129.6586051608999
 31
0.0
  0
LINE
  5
E7
330
2
100
AcDbEntity
  8
0
 62
     3
100
AcDbLine
 10
66.46208402559998
 20
128.1586051608999
 30
0.0
 11
59.76207181859999
 21
128.1586051608999
 31
0.0
  0
LINE
  5
E8
330
2
100
AcDbEntity
  8
0
 62
     3
100
AcDbLine
 10
66.46208402559998
 20
134.3085990573999
 30
0.0
 11
59.76207181859999
 21
134.3085990573999
 31
0.0
  0
ARC
  5
E9
330
2
100
AcDbEntity
  8
0
 62
     3
100
AcDbCircle
 10
61.43240568089996
 20
131.4186912205
 30
0.0
 40
1.0
100
AcDbArc
 50
106.2569797102999
 51
174.9999923478
  0
LINE
  5
EA
330
2
100
AcDbEntity
  8
0
 62
     3
100
AcDbLine
 10
61.46209745689998
 20
128.6586053249999
 30
0.0
 11
60.14099587659998
 21
128.2182396533
 31
0.0
  0
LINE
  5
EB
330
2
100
AcDbEntity
  8
0
 62
     3
100
AcDbLine
 10
61.46210518049997
 20
129.6585946056
 30
0.0
 11
60.14100401529998
 21
129.2182276057999
 31
0.0
  0
LINE
  5
EC
330
2
100
AcDbEntity
  8
0
 62
     3
100
AcDbLine
 10
60.36209956649997
 20
130.6585745853
 30
0.0
 11
60.43622366989999
 21
131.5058174003
 31
0.0
  0
LINE
  5
ED
330
2
100
AcDbEntity
  8
0
 62
     3
100
AcDbLine
 10
57.78797041009998
 20
131.5058281283999
 30
0.0
 11
57.86209451349998
 21
130.6585853135
 31
0.0
  0
LINE
  5
EE
330
2
100
AcDbEntity
  8
0
 62
     3
100
AcDbLine
 10
58.26208707729995
 20
128.9086051608999
 30
0.0
 11
58.26208707729995
 21
128.4086051608999
 31
0.0
  0
LINE
  5
EF
330
2
100
AcDbEntity
  8
0
 62
     3
100
AcDbLine
 10
58.46208589009996
 20
128.6585762765
 30
0.0
 11
58.33211912889999
 21
128.3336606042
 31
0.0
  0
LINE
  5
F0
330
2
100
AcDbEntity
  8
0
 62
     3
100
AcDbLine
 10
58.46207586219998
 20
129.6585701632
 30
0.0
 11
58.33211476799997
 21
129.3336686582999
 31
0.0
  0
LINE
  5
F1
330
2
100
AcDbEntity
  8
0
 62
     3
100
AcDbLine
 10
58.08317685829999
 20
128.2182211723999
 30
0.0
 11
56.76207569299998
 21
128.6585881721
 31
0.0
  0
LINE
  5
F2
330
2
100
AcDbEntity
  8
0
 62
     3
100
AcDbLine
 10
58.08316717009995
 20
129.2182258711
 30
0.0
 11
56.76208048049997
 21
129.6585880455999
 31
0.0
  0
ARC
  5
F3
330
2
100
AcDbEntity
  8
0
 62
     3
100
AcDbCircle
 10
58.14642545619998
 20
128.4079795506
 30
0.0
 40
0.1999999881
100
AcDbArc
 50
251.5648456426
 51
338.198384509
  0
ARC
  5
F4
330
2
100
AcDbEntity
  8
0
 62
     3
100
AcDbCircle
 10
58.14642545619998
 20
129.4079795506
 30
0.0
 40
0.1999999881
100
AcDbArc
 50
251.5649549256
 51
338.1982205843998
  0
LINE
  5
F5
330
2
100
AcDbEntity
  8
0
 62
     3
100
AcDbLine
 10
57.96208431879998
 20
127.1585673659
 30
0.0
 11
58.46208468099996
 21
126.6585666243999
 31
0.0
  0
LINE
  5
F6
330
2
100
AcDbEntity
  8
0
 62
     3
100
AcDbLine
 10
57.8120901291
 20
129.6586051608999
 30
0.0
 11
57.8120901291
 21
130.6586051608999
 31
0.0
  0
LINE
  5
F7
330
2
100
AcDbEntity
  8
0
 62
     3
100
AcDbLine
 10
60.41208097380001
 20
130.6586051608999
 30
0.0
 11
60.41208097380001
 21
129.6586051608999
 31
0.0
  0
LINE
  5
F8
330
2
100
AcDbEntity
  8
0
 62
     3
100
AcDbLine
 10
59.96208402559995
 20
128.4086051608999
 30
0.0
 11
59.96208402559995
 21
128.9086051608999
 31
0.0
  0
LINE
  5
F9
330
2
100
AcDbEntity
  8
0
 62
     3
100
AcDbLine
 10
59.89205544319998
 20
128.3337012353999
 30
0.0
 11
59.76209397359998
 21
128.6586025943
 31
0.0
  0
LINE
  5
FA
330
2
100
AcDbEntity
  8
0
 62
     3
100
AcDbLine
 10
59.89205964759998
 20
129.3336963960999
 30
0.0
 11
59.76209855339996
 21
129.658597901
 31
0.0
  0
LINE
  5
FB
330
2
100
AcDbEntity
  8
0
 62
     3
100
AcDbLine
 10
59.76208707729995
 20
128.6586051608999
 30
0.0
 11
59.76208707729995
 21
129.6586051608999
 31
0.0
  0
ARC
  5
FC
330
2
100
AcDbEntity
  8
0
 62
     3
100
AcDbCircle
 10
60.07774564669998
 20
128.4079795506
 30
0.0
 40
0.1999999881
100
AcDbArc
 50
201.8016719538
 51
288.4351356880998
  0
ARC
  5
FD
330
2
100
AcDbEntity
  8
0
 62
     3
100
AcDbCircle
 10
60.07774564669998
 20
129.4079795506
 30
0.0
 40
0.1999999881
100
AcDbArc
 50
201.8017812367999
 51
288.4350264049998
  0
LINE
  5
FE
330
2
100
AcDbEntity
  8
0
 62
     3
100
AcDbLine
 10
60.26207181859999
 20
127.9586082126999
 30
0.0
 11
59.76207181859999
 21
127.9586082126999
 31
0.0
  0
LINE
  5
FF
330
2
100
AcDbEntity
  8
0
 62
     3
100
AcDbLine
 10
59.76207181859999
 20
136.3086143162
 30
0.0
 11
58.46208402559998
 21
136.3086143162
 31
0.0
  0
ARC
  5
100
330
2
100
AcDbEntity
  8
0
 62
     3
100
AcDbCircle
 10
56.79176542209996
 20
131.4186912205
 30
0.0
 40
1.0
100
AcDbArc
 50
5.000005831000001
 51
73.7429843175
  0
LINE
  5
101
330
2
100
AcDbEntity
  8
0
 62
     3
100
AcDbLine
 10
62.31209012909999
 20
128.6586051608999
 30
0.0
 11
61.46208402559998
 21
128.6586051608999
 31
0.0
  0
LINE
  5
102
330
2
100
AcDbEntity
  8
0
 62
     3
100
AcDbLine
 10
62.11207240420003
 20
130.6585975150999
 30
0.0
 11
63.11207346579999
 21
129.6585964535
 31
0.0
  0
LINE
  5
103
330
2
100
AcDbEntity
  8
0
 62
     3
100
AcDbLine
 10
61.76208707729998
 20
128.1586051608999
 30
0.0
 11
61.76208707729998
 21
128.6586051608999
 31
0.0
  0
LINE
  5
104
330
2
100
AcDbEntity
  8
0
 62
     3
100
AcDbLine
 10
63.91208097379996
 20
128.1586051608999
 30
0.0
 11
63.91208097379996
 21
128.6586051608999
 31
0.0
  0
LINE
  5
105
330
2
100
AcDbEntity
  8
0
 62
     3
100
AcDbLine
 10
62.31209012909999
 20
128.1586051608999
 30
0.0
 11
62.31209012909999
 21
128.6586051608999
 31
0.0
  0
LINE
  5
106
330
2
100
AcDbEntity
  8
0
 62
     3
100
AcDbLine
 10
63.61207792209999
 20
129.1586051608999
 30
0.0
 11
62.61207792209996
 21
129.1586051608999
 31
0.0
  0
LINE
  5
107
330
2
100
AcDbEntity
  8
0
 62
     3
100
AcDbLine
 10
62.61207792209996
 20
129.6586051608999
 30
0.0
 11
62.61207792209996
 21
129.1586051608999
 31
0.0
  0
LINE
  5
108
330
2
100
AcDbEntity
  8
0
 62
     3
100
AcDbLine
 10
63.61207792209999
 20
129.6586051608999
 30
0.0
 11
63.61207792209999
 21
129.1586051608999
 31
0.0
  0
LINE
  5
109
330
2
100
AcDbEntity
  8
0
 62
     3
100
AcDbLine
 10
64.11207452739998
 20
129.6585964535
 30
0.0
 11
63.11207346579999
 21
130.6585975150999
 31
0.0
  0
LINE
  5
10A
330
2
100
AcDbEntity
  8
0
 62
     3
100
AcDbLine
 10
62.24606858999999
 20
132.1585834691999
 30
0.0
 11
63.11209397819999
 21
132.6585834691999
 31
0.0
  0
ARC
  5
10B
330
2
100
AcDbEntity
  8
0
 62
     3
100
AcDbCircle
 10
68.07774564669995
 20
128.4079795506
 30
0.0
 40
0.1999999881
100
AcDbArc
 50
201.8016719538
 51
288.4351356880998
  0
ARC
  5
10C
330
2
100
AcDbEntity
  8
0
 62
     3
100
AcDbCircle
 10
68.07774564669995
 20
129.4079795506
 30
0.0
 40
0.1999999881
100
AcDbArc
 50
201.8017812367999
 51
288.4350264049998
  0
LINE
  5
10D
330
2
100
AcDbEntity
  8
0
 62
     3
100
AcDbLine
 10
67.89206046119997
 20
128.3337010582999
 30
0.0
 11
67.7620989916
 21
128.6586024171999
 31
0.0
  0
LINE
  5
10E
330
2
100
AcDbEntity
  8
0
 62
     3
100
AcDbLine
 10
67.89206457709997
 20
129.3336870102
 30
0.0
 11
67.76209781589997
 21
129.6586026825
 31
0.0
  0
LINE
  5
10F
330
2
100
AcDbEntity
  8
0
 62
     3
100
AcDbLine
 10
68.26207181859999
 20
127.9586082126999
 30
0.0
 11
67.76207181859999
 21
127.9586082126999
 31
0.0
  0
LINE
  5
110
330
2
100
AcDbEntity
  8
0
 62
     3
100
AcDbLine
 10
65.78797073939998
 20
131.5058386620999
 30
0.0
 11
65.86209617259996
 21
130.6585806462999
 31
0.0
  0
LINE
  5
111
330
2
100
AcDbEntity
  8
0
 62
     3
100
AcDbLine
 10
65.96208168469999
 20
127.1585744465999
 30
0.0
 11
66.46208204689997
 21
126.6585737051
 31
0.0
  0
LINE
  5
112
330
2
100
AcDbEntity
  8
0
 62
     3
100
AcDbLine
 10
66.08317584599999
 20
128.2182311244999
 30
0.0
 11
64.7620891565
 21
128.658593299
 31
0.0
  0
LINE
  5
113
330
2
100
AcDbEntity
  8
0
 62
     3
100
AcDbLine
 10
66.08317580829998
 20
129.2182165222
 30
0.0
 11
64.76208911879999
 21
129.6585786967
 31
0.0
  0
LINE
  5
114
330
2
100
AcDbEntity
  8
0
 62
     3
100
AcDbLine
 10
64.46208402559998
 20
128.1586051608999
 30
0.0
 11
64.46208402559998
 21
128.6586051608999
 31
0.0
  0
LINE
  5
115
330
2
100
AcDbEntity
  8
0
 62
     3
100
AcDbLine
 10
65.46208430859997
 20
128.358561036
 30
0.0
 11
64.66222302899999
 21
128.1585957406999
 31
0.0
  0
LINE
  5
116
330
2
100
AcDbEntity
  8
0
 62
     3
100
AcDbLine
 10
65.46206876679997
 20
128.3586021092
 30
0.0
 11
64.46206876679998
 21
128.3586021092
 31
0.0
  0
LINE
  5
117
330
2
100
AcDbEntity
  8
0
 62
     3
100
AcDbLine
 10
65.8120901291
 20
129.6586051608999
 30
0.0
 11
65.8120901291
 21
130.6586051608999
 31
0.0
  0
LINE
  5
118
330
2
100
AcDbEntity
  8
0
 62
     3
100
AcDbLine
 10
67.76208707729998
 20
128.6586051608999
 30
0.0
 11
67.76208707729998
 21
129.6586051608999
 31
0.0
  0
ARC
  5
119
330
2
100
AcDbEntity
  8
0
 62
     3
100
AcDbCircle
 10
66.14642545619995
 20
128.4079795506
 30
0.0
 40
0.1999999881
100
AcDbArc
 50
251.5648456426
 51
338.198384509
  0
ARC
  5
11A
330
2
100
AcDbEntity
  8
0
 62
     3
100
AcDbCircle
 10
66.14642545619995
 20
129.4079795506
 30
0.0
 40
0.1999999881
100
AcDbArc
 50
251.5649549256
 51
338.1982205843998
  0
LINE
  5
11B
330
2
100
AcDbEntity
  8
0
 62
     3
100
AcDbLine
 10
66.26208707729998
 20
128.9086051608999
 30
0.0
 11
66.26208707729998
 21
128.4086051608999
 31
0.0
  0
LINE
  5
11C
330
2
100
AcDbEntity
  8
0
 62
     3
100
AcDbLine
 10
66.46208515249998
 20
128.6585714949999
 30
0.0
 11
66.3321240583
 21
128.3336699901
 31
0.0
  0
LINE
  5
11D
330
2
100
AcDbEntity
  8
0
 62
     3
100
AcDbLine
 10
66.46208079159999
 20
129.6585795490999
 30
0.0
 11
66.33211403039999
 21
129.3336638768
 31
0.0
  0
ARC
  5
11E
330
2
100
AcDbEntity
  8
0
 62
     3
100
AcDbCircle
 10
64.79176542209998
 20
131.4186912205
 30
0.0
 40
1.0
100
AcDbArc
 50
5.000005831000001
 51
73.7429843175
  0
LINE
  5
11F
330
2
100
AcDbEntity
  8
0
 62
     3
100
AcDbLine
 10
67.76207181859999
 20
136.3086143162
 30
0.0
 11
66.46208402559998
 21
136.3086143162
 31
0.0
  0
LINE
  5
120
330
2
100
AcDbEntity
  8
0
 62
     3
100
AcDbLine
 10
68.3621012257
 20
130.6585792525
 30
0.0
 11
68.43622532899999
 21
131.5058220674999
 31
0.0
  0
LINE
  5
121
330
2
100
AcDbEntity
  8
0
 62
     3
100
AcDbLine
 10
70.3120901291
 20
128.6586051608999
 30
0.0
 11
69.46208402559998
 21
128.6586051608999
 31
0.0
  0
LINE
  5
122
330
2
100
AcDbEntity
  8
0
 62
     3
100
AcDbLine
 10
67.96208402559995
 20
128.4086051608999
 30
0.0
 11
67.96208402559995
 21
128.9086051608999
 31
0.0
  0
LINE
  5
123
330
2
100
AcDbEntity
  8
0
 62
     3
100
AcDbLine
 10
69.46209146859999
 20
128.6586018568
 30
0.0
 11
68.1409898883
 21
128.2182361850999
 31
0.0
  0
LINE
  5
124
330
2
100
AcDbEntity
  8
0
 62
     3
100
AcDbLine
 10
69.46209934299997
 20
129.6585991292
 30
0.0
 11
68.14099817769997
 21
129.2182321294999
 31
0.0
  0
LINE
  5
125
330
2
100
AcDbEntity
  8
0
 62
     3
100
AcDbLine
 10
68.41208097379999
 20
130.6586051608999
 30
0.0
 11
68.41208097379999
 21
129.6586051608999
 31
0.0
  0
LINE
  5
126
330
2
100
AcDbEntity
  8
0
 62
     3
100
AcDbLine
 10
69.76208707729998
 20
128.1586051608999
 30
0.0
 11
69.76208707729998
 21
128.6586051608999
 31
0.0
  0
LINE
  5
127
330
2
100
AcDbEntity
  8
0
 62
     3
100
AcDbLine
 10
70.3120901291
 20
128.1586051608999
 30
0.0
 11
70.3120901291
 21
128.6586051608999
 31
0.0
  0
LINE
  5
128
330
2
100
AcDbEntity
  8
0
 62
     3
100
AcDbLine
 10
70.61207792209998
 20
129.6586051608999
 30
0.0
 11
70.61207792209998
 21
129.1586051608999
 31
0.0
  0
LINE
  5
129
330
2
100
AcDbEntity
  8
0
 62
     3
100
AcDbLine
 10
70.11208089699997
 20
130.6585975150999
 30
0.0
 11
71.11208195849997
 21
129.6585964535
 31
0.0
  0
ARC
  5
12A
330
2
100
AcDbEntity
  8
0
 62
     3
100
AcDbCircle
 10
69.43240568089996
 20
131.4186912205
 30
0.0
 40
1.0
100
AcDbArc
 50
106.2569797102999
 51
174.9999923478
  0
LINE
  5
12B
330
2
100
AcDbEntity
  8
0
 62
     3
100
AcDbLine
 10
70.24607209109999
 20
132.158585615
 30
0.0
 11
71.11209747940001
 21
132.658585615
 31
0.0
  0
LINE
  5
12C
330
2
100
AcDbEntity
  8
0
 62
     3
100
AcDbLine
 10
84.26207181859998
 20
127.9586082126999
 30
0.0
 11
84.26207181859998
 21
122.3085990574
 31
0.0
  0
LINE
  5
12D
330
2
100
AcDbEntity
  8
0
 62
     3
100
AcDbLine
 10
83.76207181859999
 20
136.3086143162
 30
0.0
 11
83.76207181859999
 21
121.3084617283
 31
0.0
  0
LINE
  5
12E
330
2
100
AcDbEntity
  8
0
 62
     3
100
AcDbLine
 10
76.26207181859999
 20
127.9586082126999
 30
0.0
 11
76.26207181859999
 21
122.3085990574
 31
0.0
  0
LINE
  5
12F
330
2
100
AcDbEntity
  8
0
 62
     3
100
AcDbLine
 10
75.76207181859999
 20
136.3086143162
 30
0.0
 11
75.76207181859999
 21
121.3084617283
 31
0.0
  0
LINE
  5
130
330
2
100
AcDbEntity
  8
0
 62
     3
100
AcDbLine
 10
82.46208402559998
 20
136.3086143162
 30
0.0
 11
82.46208402559998
 21
114.8085990573999
 31
0.0
  0
LINE
  5
131
330
2
100
AcDbEntity
  8
0
 62
     3
100
AcDbLine
 10
74.46208402559998
 20
136.3086143162
 30
0.0
 11
74.46208402559998
 21
114.8085990573999
 31
0.0
  0
LINE
  5
132
330
2
100
AcDbEntity
  8
0
 62
     3
100
AcDbLine
 10
82.46208402559998
 20
121.3084617283
 30
0.0
 11
75.76207181859999
 21
121.3084617283
 31
0.0
  0
LINE
  5
133
330
2
100
AcDbEntity
  8
0
 62
     3
100
AcDbLine
 10
82.46208402559998
 20
122.3085990574
 30
0.0
 11
75.76207181859999
 21
122.3085990574
 31
0.0
  0
LINE
  5
134
330
2
100
AcDbEntity
  8
0
 62
     3
100
AcDbLine
 10
81.86207792209998
 20
130.6586051608999
 30
0.0
 11
76.36207792209998
 21
130.6586051608999
 31
0.0
  0
LINE
  5
135
330
2
100
AcDbEntity
  8
0
 62
     3
100
AcDbLine
 10
78.24606587899999
 20
132.1585822770999
 30
0.0
 11
79.1120912673
 21
132.6585822770999
 31
0.0
  0
ARC
  5
136
330
2
100
AcDbEntity
  8
0
 62
     3
100
AcDbCircle
 10
79.11207792209999
 20
125.6586051608999
 30
0.0
 40
7.0
100
AcDbArc
 50
73.7429843175
 51
106.2569797102999
  0
LINE
  5
137
330
2
100
AcDbEntity
  8
0
 62
     3
100
AcDbLine
 10
79.61207792209998
 20
129.1586051608999
 30
0.0
 11
78.61207792209999
 21
129.1586051608999
 31
0.0
  0
LINE
  5
138
330
2
100
AcDbEntity
  8
0
 62
     3
100
AcDbLine
 10
78.11207225709998
 20
130.6585934689999
 30
0.0
 11
79.11207331869997
 21
129.6585924073999
 31
0.0
  0
LINE
  5
139
330
2
100
AcDbEntity
  8
0
 62
     3
100
AcDbLine
 10
82.46208402559998
 20
134.3085990573999
 30
0.0
 11
75.76207181859999
 21
134.3085990573999
 31
0.0
  0
LINE
  5
13A
330
2
100
AcDbEntity
  8
0
 62
     3
100
AcDbLine
 10
82.46208402559998
 20
128.1586051608999
 30
0.0
 11
75.76207181859999
 21
128.1586051608999
 31
0.0
  0
LINE
  5
13B
330
2
100
AcDbEntity
  8
0
 62
     3
100
AcDbLine
 10
82.46208402559998
 20
127.1586051609
 30
0.0
 11
76.26207181859999
 21
127.1586051609
 31
0.0
  0
LINE
  5
13C
330
2
100
AcDbEntity
  8
0
 62
     3
100
AcDbLine
 10
82.46208402559998
 20
129.6586051608999
 30
0.0
 11
75.76208707729998
 21
129.6586051608999
 31
0.0
  0
LINE
  5
13D
330
2
100
AcDbEntity
  8
0
 62
     3
100
AcDbLine
 10
75.76207181859999
 20
136.3086143162
 30
0.0
 11
74.46208402559998
 21
136.3086143162
 31
0.0
  0
LINE
  5
13E
330
2
100
AcDbEntity
  8
0
 62
     3
100
AcDbLine
 10
73.78797239849999
 20
131.5058339949999
 30
0.0
 11
73.86209783169999
 21
130.6585759791999
 31
0.0
  0
LINE
  5
13F
330
2
100
AcDbEntity
  8
0
 62
     3
100
AcDbLine
 10
74.08317000849999
 20
128.2182266008
 30
0.0
 11
72.76208331889998
 21
128.6585887753
 31
0.0
  0
LINE
  5
140
330
2
100
AcDbEntity
  8
0
 62
     3
100
AcDbLine
 10
74.08317479599998
 20
129.2182264742999
 30
0.0
 11
72.76208810649999
 21
129.6585886488
 31
0.0
  0
LINE
  5
141
330
2
100
AcDbEntity
  8
0
 62
     3
100
AcDbLine
 10
73.46206634309999
 20
128.3585645055
 30
0.0
 11
72.66220506349998
 21
128.1585992102
 31
0.0
  0
LINE
  5
142
330
2
100
AcDbEntity
  8
0
 62
     3
100
AcDbLine
 10
73.46206876679997
 20
128.3586021092
 30
0.0
 11
72.46206876679997
 21
128.3586021092
 31
0.0
  0
LINE
  5
143
330
2
100
AcDbEntity
  8
0
 62
     3
100
AcDbLine
 10
72.46208402559995
 20
128.1586051608999
 30
0.0
 11
72.46208402559995
 21
128.6586051608999
 31
0.0
  0
LINE
  5
144
330
2
100
AcDbEntity
  8
0
 62
     3
100
AcDbLine
 10
71.91208097379998
 20
128.1586051608999
 30
0.0
 11
71.91208097379998
 21
128.6586051608999
 31
0.0
  0
LINE
  5
145
330
2
100
AcDbEntity
  8
0
 62
     3
100
AcDbLine
 10
71.61207792209999
 20
129.6586051608999
 30
0.0
 11
71.61207792209999
 21
129.1586051608999
 31
0.0
  0
LINE
  5
146
330
2
100
AcDbEntity
  8
0
 62
     3
100
AcDbLine
 10
72.76208707729998
 20
128.6586051608999
 30
0.0
 11
71.91208097379998
 21
128.6586051608999
 31
0.0
  0
ARC
  5
147
330
2
100
AcDbEntity
  8
0
 62
     3
100
AcDbCircle
 10
74.14642545619995
 20
128.4079795506
 30
0.0
 40
0.1999999881
100
AcDbArc
 50
251.5648456426
 51
338.198384509
  0
ARC
  5
148
330
2
100
AcDbEntity
  8
0
 62
     3
100
AcDbCircle
 10
74.14642545619995
 20
129.4079795506
 30
0.0
 40
0.1999999881
100
AcDbArc
 50
251.5649549256
 51
338.1982205843998
  0
LINE
  5
149
330
2
100
AcDbEntity
  8
0
 62
     3
100
AcDbLine
 10
74.26208707729998
 20
128.9086051608999
 30
0.0
 11
74.26208707729998
 21
128.4086051608999
 31
0.0
  0
LINE
  5
14A
330
2
100
AcDbEntity
  8
0
 62
     3
100
AcDbLine
 10
74.46209008189999
 20
128.6585808808999
 30
0.0
 11
74.33212332069999
 21
128.3336652085999
 31
0.0
  0
LINE
  5
14B
330
2
100
AcDbEntity
  8
0
 62
     3
100
AcDbLine
 10
74.46208005399999
 20
129.6585747675999
 30
0.0
 11
74.3321189598
 21
129.3336732627
 31
0.0
  0
LINE
  5
14C
330
2
100
AcDbEntity
  8
0
 62
     3
100
AcDbLine
 10
73.96208984029994
 20
127.1585707377
 30
0.0
 11
74.46209020249998
 21
126.6585699961999
 31
0.0
  0
LINE
  5
14D
330
2
100
AcDbEntity
  8
0
 62
     3
100
AcDbLine
 10
73.8120901291
 20
129.6586051608999
 30
0.0
 11
73.8120901291
 21
130.6586051608999
 31
0.0
  0
ARC
  5
14E
330
2
100
AcDbEntity
  8
0
 62
     3
100
AcDbCircle
 10
72.79176542209999
 20
131.4186912205
 30
0.0
 40
1.0
100
AcDbArc
 50
5.000005831000001
 51
73.7429843175
  0
LINE
  5
14F
330
2
100
AcDbEntity
  8
0
 62
     3
100
AcDbLine
 10
76.36208801329996
 20
130.6585747158
 30
0.0
 11
76.43621211659999
 21
131.5058175308
 31
0.0
  0
LINE
  5
150
330
2
100
AcDbEntity
  8
0
 62
     3
100
AcDbLine
 10
77.4620924932
 20
129.6585937007999
 30
0.0
 11
76.14100580369998
 21
129.2182315263
 31
0.0
  0
LINE
  5
151
330
2
100
AcDbEntity
  8
0
 62
     3
100
AcDbLine
 10
77.46209396769998
 20
128.6585997458
 30
0.0
 11
76.14099238739999
 21
128.2182340741
 31
0.0
  0
LINE
  5
152
330
2
100
AcDbEntity
  8
0
 62
     3
100
AcDbLine
 10
76.26207181859999
 20
127.9586082126999
 30
0.0
 11
75.76207181859999
 21
127.9586082126999
 31
0.0
  0
LINE
  5
153
330
2
100
AcDbEntity
  8
0
 62
     3
100
AcDbLine
 10
75.76208707729998
 20
128.6586051608999
 30
0.0
 11
75.76208707729998
 21
129.6586051608999
 31
0.0
  0
LINE
  5
154
330
2
100
AcDbEntity
  8
0
 62
     3
100
AcDbLine
 10
75.89206310189999
 20
129.3336965731999
 30
0.0
 11
75.76210200769998
 21
129.6585980781
 31
0.0
  0
LINE
  5
155
330
2
100
AcDbEntity
  8
0
 62
     3
100
AcDbLine
 10
75.8920563298
 20
128.3336950372
 30
0.0
 11
75.76208919309999
 21
128.6586105635
 31
0.0
  0
LINE
  5
156
330
2
100
AcDbEntity
  8
0
 62
     3
100
AcDbLine
 10
75.96208402559998
 20
128.4086051608999
 30
0.0
 11
75.96208402559998
 21
128.9086051608999
 31
0.0
  0
ARC
  5
157
330
2
100
AcDbEntity
  8
0
 62
     3
100
AcDbCircle
 10
76.07774564669998
 20
129.4079795506
 30
0.0
 40
0.1999999881
100
AcDbArc
 50
201.8017812367999
 51
288.4350264049998
  0
ARC
  5
158
330
2
100
AcDbEntity
  8
0
 62
     3
100
AcDbCircle
 10
76.07774564669998
 20
128.4079795506
 30
0.0
 40
0.1999999881
100
AcDbArc
 50
201.8016719538
 51
288.4351356880998
  0
LINE
  5
159
330
2
100
AcDbEntity
  8
0
 62
     3
100
AcDbLine
 10
76.41208097379998
 20
130.6586051608999
 30
0.0
 11
76.41208097379998
 21
129.6586051608999
 31
0.0
  0
LINE
  5
15A
330
2
100
AcDbEntity
  8
0
 62
     3
100
AcDbLine
 10
78.61207792209999
 20
129.6586051608999
 30
0.0
 11
78.61207792209999
 21
129.1586051608999
 31
0.0
  0
LINE
  5
15B
330
2
100
AcDbEntity
  8
0
 62
     3
100
AcDbLine
 10
78.3120901291
 20
128.1586051608999
 30
0.0
 11
78.3120901291
 21
128.6586051608999
 31
0.0
  0
LINE
  5
15C
330
2
100
AcDbEntity
  8
0
 62
     3
100
AcDbLine
 10
78.3120901291
 20
128.6586051608999
 30
0.0
 11
77.46208402559995
 21
128.6586051608999
 31
0.0
  0
LINE
  5
15D
330
2
100
AcDbEntity
  8
0
 62
     3
100
AcDbLine
 10
77.76208707729998
 20
128.1586051608999
 30
0.0
 11
77.76208707729998
 21
128.6586051608999
 31
0.0
  0
ARC
  5
15E
330
2
100
AcDbEntity
  8
0
 62
     3
100
AcDbCircle
 10
77.43240568089993
 20
131.4186912205
 30
0.0
 40
1.0
100
AcDbArc
 50
106.2569797102999
 51
174.9999923478
  0
LINE
  5
15F
330
2
100
AcDbEntity
  8
0
 62
     3
100
AcDbLine
 10
83.76207181859999
 20
136.3086143162
 30
0.0
 11
82.46208402559998
 21
136.3086143162
 31
0.0
  0
LINE
  5
160
330
2
100
AcDbEntity
  8
0
 62
     3
100
AcDbLine
 10
81.78795918609996
 20
131.5058385315999
 30
0.0
 11
81.86208461929997
 21
130.6585805158999
 31
0.0
  0
LINE
  5
161
330
2
100
AcDbEntity
  8
0
 62
     3
100
AcDbLine
 10
81.46206876679997
 20
128.3586021092
 30
0.0
 11
80.46206876679997
 21
128.3586021092
 31
0.0
  0
LINE
  5
162
330
2
100
AcDbEntity
  8
0
 62
     3
100
AcDbLine
 10
81.46206371929997
 20
128.3585640429
 30
0.0
 11
80.66220243969997
 21
128.1585987476
 31
0.0
  0
LINE
  5
163
330
2
100
AcDbEntity
  8
0
 62
     3
100
AcDbLine
 10
82.08316312089994
 20
129.2182174268999
 30
0.0
 11
80.7620764314
 21
129.6585796013999
 31
0.0
  0
LINE
  5
164
330
2
100
AcDbEntity
  8
0
 62
     3
100
AcDbLine
 10
82.08317763439998
 20
128.218227204
 30
0.0
 11
80.76207646909995
 21
128.6585942037
 31
0.0
  0
LINE
  5
165
330
2
100
AcDbEntity
  8
0
 62
     3
100
AcDbLine
 10
80.46208402559996
 20
128.1586051608999
 30
0.0
 11
80.46208402559996
 21
128.6586051608999
 31
0.0
  0
LINE
  5
166
330
2
100
AcDbEntity
  8
0
 62
     3
100
AcDbLine
 10
79.61207792209998
 20
129.6586051608999
 30
0.0
 11
79.61207792209998
 21
129.1586051608999
 31
0.0
  0
LINE
  5
167
330
2
100
AcDbEntity
  8
0
 62
     3
100
AcDbLine
 10
79.91208097379999
 20
128.1586051608999
 30
0.0
 11
79.91208097379999
 21
128.6586051608999
 31
0.0
  0
LINE
  5
168
330
2
100
AcDbEntity
  8
0
 62
     3
100
AcDbLine
 10
80.76208707729998
 20
128.6586051608999
 30
0.0
 11
79.91208097379999
 21
128.6586051608999
 31
0.0
  0
LINE
  5
169
330
2
100
AcDbEntity
  8
0
 62
     3
100
AcDbLine
 10
80.11207438029998
 20
129.6585924073999
 30
0.0
 11
79.11207331869997
 21
130.6585934689999
 31
0.0
  0
LINE
  5
16A
330
2
100
AcDbEntity
  8
0
 62
     3
100
AcDbLine
 10
82.46208424589998
 20
129.658579372
 30
0.0
 11
82.33211748469996
 21
129.3336636996999
 31
0.0
  0
LINE
  5
16B
330
2
100
AcDbEntity
  8
0
 62
     3
100
AcDbLine
 10
82.46207443939997
 20
128.6585769848999
 30
0.0
 11
82.33211334519998
 21
128.33367548
 31
0.0
  0
LINE
  5
16C
330
2
100
AcDbEntity
  8
0
 62
     3
100
AcDbLine
 10
82.26208707729998
 20
128.9086051608999
 30
0.0
 11
82.26208707729998
 21
128.4086051608999
 31
0.0
  0
LINE
  5
16D
330
2
100
AcDbEntity
  8
0
 62
     3
100
AcDbLine
 10
81.81209012910001
 20
129.6586051608999
 30
0.0
 11
81.81209012910001
 21
130.6586051608999
 31
0.0
  0
LINE
  5
16E
330
2
100
AcDbEntity
  8
0
 62
     3
100
AcDbLine
 10
81.96206569039999
 20
127.1585660172
 30
0.0
 11
82.46206605259997
 21
126.6585652756999
 31
0.0
  0
ARC
  5
16F
330
2
100
AcDbEntity
  8
0
 62
     3
100
AcDbCircle
 10
82.14642545619998
 20
129.4079795506
 30
0.0
 40
0.1999999881
100
AcDbArc
 50
251.5649549256
 51
338.1982205843998
  0
ARC
  5
170
330
2
100
AcDbEntity
  8
0
 62
     3
100
AcDbCircle
 10
82.14642545619998
 20
128.4079795506
 30
0.0
 40
0.1999999881
100
AcDbArc
 50
251.5648456426
 51
338.198384509
  0
LINE
  5
171
330
2
100
AcDbEntity
  8
0
 62
     3
100
AcDbLine
 10
80.84413398839998
 20
131.6585753420999
 30
0.0
 11
79.11208321189997
 21
132.6585753420999
 31
0.0
  0
ARC
  5
172
330
2
100
AcDbEntity
  8
0
 62
     3
100
AcDbCircle
 10
80.79176542209998
 20
131.4186912205
 30
0.0
 40
1.0
100
AcDbArc
 50
5.000005831000001
 51
73.7429843175
  0
LINE
  5
173
330
2
100
AcDbEntity
  8
0
 62
     3
100
AcDbLine
 10
84.3620880133
 20
130.6585747158
 30
0.0
 11
84.43621211660001
 21
131.5058175308
 31
0.0
  0
LINE
  5
174
330
2
100
AcDbEntity
  8
0
 62
     3
100
AcDbLine
 10
85.46209396769995
 20
128.6585997458
 30
0.0
 11
84.14099238739998
 21
128.2182340741
 31
0.0
  0
LINE
  5
175
330
2
100
AcDbEntity
  8
0
 62
     3
100
AcDbLine
 10
85.46209249319998
 20
129.6585937007999
 30
0.0
 11
84.14100580369998
 21
129.2182315263
 31
0.0
  0
ARC
  5
176
330
2
100
AcDbEntity
  8
0
 62
     3
100
AcDbCircle
 10
84.07774564669995
 20
128.4079795506
 30
0.0
 40
0.1999999881
100
AcDbArc
 50
201.8016719538
 51
288.4351356880998
  0
ARC
  5
177
330
2
100
AcDbEntity
  8
0
 62
     3
100
AcDbCircle
 10
84.07774564669995
 20
129.4079795506
 30
0.0
 40
0.1999999881
100
AcDbArc
 50
201.8017812367999
 51
288.4350264049998
  0
LINE
  5
178
330
2
100
AcDbEntity
  8
0
 62
     3
100
AcDbLine
 10
83.96208402559995
 20
128.4086051608999
 30
0.0
 11
83.96208402559995
 21
128.9086051608999
 31
0.0
  0
LINE
  5
179
330
2
100
AcDbEntity
  8
0
 62
     3
100
AcDbLine
 10
83.89205632979997
 20
128.3336950372
 30
0.0
 11
83.7620891931
 21
128.6586105635
 31
0.0
  0
LINE
  5
17A
330
2
100
AcDbEntity
  8
0
 62
     3
100
AcDbLine
 10
83.89206310189996
 20
129.3336965731999
 30
0.0
 11
83.76210200769998
 21
129.6585980781
 31
0.0
  0
LINE
  5
17B
330
2
100
AcDbEntity
  8
0
 62
     3
100
AcDbLine
 10
83.76208707729999
 20
128.6586051608999
 30
0.0
 11
83.76208707729999
 21
129.6586051608999
 31
0.0
  0
LINE
  5
17C
330
2
100
AcDbEntity
  8
0
 62
     3
100
AcDbLine
 10
84.26207181859998
 20
127.9586082126999
 30
0.0
 11
83.76207181859999
 21
127.9586082126999
 31
0.0
  0
LINE
  5
17D
330
2
100
AcDbEntity
  8
0
 62
     3
100
AcDbLine
 10
84.41208097379998
 20
130.6586051608999
 30
0.0
 11
84.41208097379998
 21
129.6586051608999
 31
0.0
  0
LINE
  5
17E
330
2
100
AcDbEntity
  8
0
 62
     3
100
AcDbLine
 10
86.3120901291
 20
128.1586051608999
 30
0.0
 11
86.3120901291
 21
128.6586051608999
 31
0.0
  0
LINE
  5
17F
330
2
100
AcDbEntity
  8
0
 62
     3
100
AcDbLine
 10
85.76208707730001
 20
128.1586051608999
 30
0.0
 11
85.76208707730001
 21
128.6586051608999
 31
0.0
  0
LINE
  5
180
330
2
100
AcDbEntity
  8
0
 62
     3
100
AcDbLine
 10
86.3120901291
 20
128.6586051608999
 30
0.0
 11
85.46208402559996
 21
128.6586051608999
 31
0.0
  0
ARC
  5
181
330
2
100
AcDbEntity
  8
0
 62
     3
100
AcDbCircle
 10
85.43240568089998
 20
131.4186912205
 30
0.0
 40
1.0
100
AcDbArc
 50
106.2569797102999
 51
174.9999923478
  0
LINE
  5
182
330
2
100
AcDbEntity
  8
0
 62
     3
100
AcDbLine
 10
70.40493941679994
 20
188.6458971519
 30
0.0
 11
71.81915295499996
 21
190.0601106901
 31
0.0
  0
LINE
  5
183
330
2
100
AcDbEntity
  8
0
 62
     3
100
AcDbLine
 10
69.71206876679997
 20
192.6909843112999
 30
0.0
 11
72.51207181859999
 21
192.6909843112999
 31
0.0
  0
LINE
  5
184
330
2
100
AcDbEntity
  8
0
 62
     3
100
AcDbLine
 10
69.71206876679997
 20
186.0150199558
 30
0.0
 11
72.51207181859999
 21
186.0150199558
 31
0.0
  0
LINE
  5
185
330
2
100
AcDbEntity
  8
0
 62
     3
100
AcDbLine
 10
67.76207181859999
 20
185.8530479099
 30
0.0
 11
74.46206876679998
 21
185.8530479099
 31
0.0
  0
LINE
  5
186
330
2
100
AcDbEntity
  8
0
 62
     3
100
AcDbLine
 10
67.76207181859999
 20
184.4530692721999
 30
0.0
 11
74.46206876679998
 21
184.4530692721999
 31
0.0
  0
LINE
  5
187
330
2
100
AcDbEntity
  8
0
 62
     3
100
AcDbLine
 10
67.76207181859999
 20
183.9530692722
 30
0.0
 11
74.46206876679998
 21
183.9530692722
 31
0.0
  0
LINE
  5
188
330
2
100
AcDbEntity
  8
0
 62
     3
100
AcDbLine
 10
66.46209928439998
 20
182.9529929782997
 30
0.0
 11
74.46206876679998
 21
182.9529929782997
 31
0.0
  0
CIRCLE
  5
189
330
2
100
AcDbEntity
  8
0
 62
     3
100
AcDbCircle
 10
71.11206266329998
 20
189.3530021335999
 30
0.0
 40
2.75
  0
LINE
  5
18A
330
2
100
AcDbEntity
  8
0
 62
     3
100
AcDbLine
 10
72.52625972409998
 20
187.9387903827998
 30
0.0
 11
69.69784343729997
 21
190.7672066696
 31
0.0
  0
LINE
  5
18B
330
2
100
AcDbEntity
  8
0
 62
     3
100
AcDbLine
 10
61.71206876679997
 20
192.6909690525
 30
0.0
 11
64.51207181859999
 21
192.6909690525
 31
0.0
  0
LINE
  5
18C
330
2
100
AcDbEntity
  8
0
 62
     3
100
AcDbLine
 10
61.71206876679997
 20
186.0150046970999
 30
0.0
 11
64.51207181859999
 21
186.0150046970999
 31
0.0
  0
LINE
  5
18D
330
2
100
AcDbEntity
  8
0
 62
     3
100
AcDbLine
 10
59.76207181859999
 20
185.8530326512
 30
0.0
 11
66.46206876679997
 21
185.8530326512
 31
0.0
  0
LINE
  5
18E
330
2
100
AcDbEntity
  8
0
 62
     3
100
AcDbLine
 10
59.76207181859999
 20
184.4530540135
 30
0.0
 11
66.46206876679997
 21
184.4530540135
 31
0.0
  0
LINE
  5
18F
330
2
100
AcDbEntity
  8
0
 62
     3
100
AcDbLine
 10
59.76207181859999
 20
183.9530540135
 30
0.0
 11
66.46206876679997
 21
183.9530540135
 31
0.0
  0
LINE
  5
190
330
2
100
AcDbEntity
  8
0
 62
     3
100
AcDbLine
 10
58.46209928439998
 20
182.9529777195
 30
0.0
 11
66.46206876679997
 21
182.9529777195
 31
0.0
  0
LINE
  5
191
330
2
100
AcDbEntity
  8
0
 62
     3
100
AcDbLine
 10
64.52627216829998
 20
187.9387725059999
 30
0.0
 11
61.69784509199999
 21
190.7671995823999
 31
0.0
  0
CIRCLE
  5
192
330
2
100
AcDbEntity
  8
0
 62
     3
100
AcDbCircle
 10
63.11206266329998
 20
189.3529868747999
 30
0.0
 40
2.75
  0
LINE
  5
193
330
2
100
AcDbEntity
  8
0
 62
     3
100
AcDbLine
 10
61.22756688379999
 20
192.2064718389998
 30
0.0
 11
60.25857486749998
 21
191.2374803128
 31
0.0
  0
LINE
  5
194
330
2
100
AcDbEntity
  8
0
 62
     3
100
AcDbLine
 10
60.36828419739999
 20
192.5363351137999
 30
0.0
 11
61.71209215459999
 21
192.6909754708
 31
0.0
  0
LINE
  5
195
330
2
100
AcDbEntity
  8
0
 62
     3
100
AcDbLine
 10
60.25857153349997
 20
187.4684809859999
 30
0.0
 11
61.22756354969999
 21
186.4994894599
 31
0.0
  0
LINE
  5
196
330
2
100
AcDbEntity
  8
0
 62
     3
100
AcDbLine
 10
61.71206538029998
 20
186.0150011343
 30
0.0
 11
60.36827258189996
 21
186.1696397468999
 31
0.0
  0
LINE
  5
197
330
2
100
AcDbEntity
  8
0
 62
     3
100
AcDbLine
 10
59.77408048549998
 20
187.9529929782998
 30
0.0
 11
59.77408048549998
 21
190.7529807713
 31
0.0
  0
LINE
  5
198
330
2
100
AcDbEntity
  8
0
 62
     3
100
AcDbLine
 10
58.45007535859997
 20
187.9530082370999
 30
0.0
 11
58.45007535859997
 21
190.7529960301
 31
0.0
  0
LINE
  5
199
330
2
100
AcDbEntity
  8
0
 62
     3
100
AcDbLine
 10
58.46208402559998
 20
182.9529929782997
 30
0.0
 11
58.46208402559998
 21
189.2530418064
 31
0.0
  0
LINE
  5
19A
330
2
100
AcDbEntity
  8
0
 62
     3
100
AcDbLine
 10
58.4500556225
 20
187.9530055034999
 30
0.0
 11
58.29541692930002
 21
186.6092127051
 31
0.0
  0
LINE
  5
19B
330
2
100
AcDbEntity
  8
0
 62
     3
100
AcDbLine
 10
56.99656679699998
 20
186.4995010966
 30
0.0
 11
57.96555881319997
 21
187.4684926227
 31
0.0
  0
ARC
  5
19C
330
2
100
AcDbEntity
  8
0
 62
     3
100
AcDbCircle
 10
57.79870817109998
 20
186.6663871432999
 30
0.0
 40
0.5
100
AcDbArc
 50
276.5645401181
 51
353.4356076415
  0
LINE
  5
19D
330
2
100
AcDbEntity
  8
0
 62
     3
100
AcDbLine
 10
60.26207181859999
 20
184.4530540135
 30
0.0
 11
60.26207181859999
 21
185.8530326512
 31
0.0
  0
LINE
  5
19E
330
2
100
AcDbEntity
  8
0
 62
     3
100
AcDbLine
 10
59.92872926619998
 20
186.6092213491
 30
0.0
 11
59.77409231740001
 21
187.9529989887
 31
0.0
  0
ARC
  5
19F
330
2
100
AcDbEntity
  8
0
 62
     3
100
AcDbCircle
 10
60.42544767299998
 20
186.6663718845999
 30
0.0
 40
0.5
100
AcDbArc
 50
186.5645034627
 51
263.4355504954999
  0
LINE
  5
1A0
330
2
100
AcDbEntity
  8
0
 62
     3
100
AcDbLine
 10
58.29543185469995
 20
192.0967986683999
 30
0.0
 11
58.45007054789997
 21
190.7530058699
 31
0.0
  0
LINE
  5
1A1
330
2
100
AcDbEntity
  8
0
 62
     3
100
AcDbLine
 10
57.96556626879999
 20
191.2374794656997
 30
0.0
 11
56.99657425249998
 21
192.2064709917999
 31
0.0
  0
LINE
  5
1A2
330
2
100
AcDbEntity
  8
0
 62
     3
100
AcDbLine
 10
58.45007535859997
 20
189.8530021336
 30
0.0
 11
57.81625577849997
 21
189.8530021336
 31
0.0
  0
LINE
  5
1A3
330
2
100
AcDbEntity
  8
0
 62
     3
100
AcDbLine
 10
58.45007535859997
 20
188.8530021336
 30
0.0
 11
57.81624051969996
 21
188.8530021336
 31
0.0
  0
ARC
  5
1A4
330
2
100
AcDbEntity
  8
0
 62
     3
100
AcDbCircle
 10
57.79870817109998
 20
192.0396323826
 30
0.0
 40
0.5
100
AcDbArc
 50
6.564484565999999
 51
83.43551452339999
  0
LINE
  5
1A5
330
2
100
AcDbEntity
  8
0
 62
     3
100
AcDbLine
 10
59.77408906189999
 20
190.7529803227999
 30
0.0
 11
59.92872601069999
 21
192.0967579624999
 31
0.0
  0
LINE
  5
1A6
330
2
100
AcDbEntity
  8
0
 62
     3
100
AcDbLine
 10
59.77409574429998
 20
189.8529868747999
 30
0.0
 11
60.40791532439996
 21
189.8529868747999
 31
0.0
  0
LINE
  5
1A7
330
2
100
AcDbEntity
  8
0
 62
     3
100
AcDbLine
 10
59.77409574429998
 20
188.8530021336
 30
0.0
 11
60.40791532439996
 21
188.8530021336
 31
0.0
  0
ARC
  5
1A8
330
2
100
AcDbEntity
  8
0
 62
     3
100
AcDbCircle
 10
60.42544767299998
 20
192.0396171237999
 30
0.0
 40
0.5
100
AcDbArc
 50
96.56444950450001
 51
173.4354965372999
  0
LINE
  5
1A9
330
2
100
AcDbEntity
  8
0
 62
     3
100
AcDbLine
 10
63.61209318089996
 20
186.0150046970999
 30
0.0
 11
63.61209318089996
 21
186.6488242771
 31
0.0
  0
LINE
  5
1AA
330
2
100
AcDbEntity
  8
0
 62
     3
100
AcDbLine
 10
62.61206266329998
 20
186.0150046970999
 30
0.0
 11
62.61206266329998
 21
186.6488242771
 31
0.0
  0
LINE
  5
1AB
330
2
100
AcDbEntity
  8
0
 62
     3
100
AcDbLine
 10
63.61209318089996
 20
192.6909690525
 30
0.0
 11
63.61209318089996
 21
192.0571494724
 31
0.0
  0
LINE
  5
1AC
330
2
100
AcDbEntity
  8
0
 62
     3
100
AcDbLine
 10
62.61210843959998
 20
192.6909537937
 30
0.0
 11
62.61210843959998
 21
192.0571342137
 31
0.0
  0
LINE
  5
1AD
330
2
100
AcDbEntity
  8
0
 62
     3
100
AcDbLine
 10
62.40495186109999
 20
188.6458792751
 30
0.0
 11
63.81916539919996
 21
190.0600928133
 31
0.0
  0
ARC
  5
1AE
330
2
100
AcDbEntity
  8
0
 62
     3
100
AcDbCircle
 10
68.42544767299997
 20
192.0396323826
 30
0.0
 40
0.5
100
AcDbArc
 50
96.56444950450001
 51
173.4354965372999
  0
LINE
  5
1AF
330
2
100
AcDbEntity
  8
0
 62
     3
100
AcDbLine
 10
67.77409574429999
 20
189.8530021336
 30
0.0
 11
68.40791532439997
 21
189.8530021336
 31
0.0
  0
LINE
  5
1B0
330
2
100
AcDbEntity
  8
0
 62
     3
100
AcDbLine
 10
67.77409574429999
 20
188.8530021336
 30
0.0
 11
68.40791532439997
 21
188.8530021336
 31
0.0
  0
LINE
  5
1B1
330
2
100
AcDbEntity
  8
0
 62
     3
100
AcDbLine
 10
67.77408462629995
 20
190.7529958720999
 30
0.0
 11
67.92872157509998
 21
192.0967735117
 31
0.0
  0
ARC
  5
1B2
330
2
100
AcDbEntity
  8
0
 62
     3
100
AcDbCircle
 10
68.42544767299997
 20
186.6663871432999
 30
0.0
 40
0.5
100
AcDbArc
 50
186.5645034627
 51
263.4355504954999
  0
LINE
  5
1B3
330
2
100
AcDbEntity
  8
0
 62
     3
100
AcDbLine
 10
67.92872013829998
 20
186.6092351732
 30
0.0
 11
67.77408318949998
 21
187.9530128128999
 31
0.0
  0
LINE
  5
1B4
330
2
100
AcDbEntity
  8
0
 62
     3
100
AcDbLine
 10
66.4500600998
 20
187.9529929782998
 30
0.0
 11
66.4500600998
 21
190.7529807713
 31
0.0
  0
LINE
  5
1B5
330
2
100
AcDbEntity
  8
0
 62
     3
100
AcDbLine
 10
67.77408048549998
 20
187.9530082370999
 30
0.0
 11
67.77408048549998
 21
190.7529960301
 31
0.0
  0
ARC
  5
1B6
330
2
100
AcDbEntity
  8
0
 62
     3
100
AcDbCircle
 10
65.7986929123
 20
186.6663718845999
 30
0.0
 40
0.5
100
AcDbArc
 50
276.5645401181
 51
353.4356076415
  0
LINE
  5
1B7
330
2
100
AcDbEntity
  8
0
 62
     3
100
AcDbLine
 10
64.9965537105
 20
186.4994990735
 30
0.0
 11
65.96554572679997
 21
187.4684905997
 31
0.0
  0
LINE
  5
1B8
330
2
100
AcDbEntity
  8
0
 62
     3
100
AcDbLine
 10
65.85586673999998
 20
186.169658024
 30
0.0
 11
64.51207394149998
 21
186.0150194114
 31
0.0
  0
LINE
  5
1B9
330
2
100
AcDbEntity
  8
0
 62
     3
100
AcDbLine
 10
66.4500432566
 20
187.9529829628
 30
0.0
 11
66.29540630779999
 21
186.6092053230999
 31
0.0
  0
LINE
  5
1BA
330
2
100
AcDbEntity
  8
0
 62
     3
100
AcDbLine
 10
66.4500600998
 20
189.8529868747999
 30
0.0
 11
65.81624051969999
 21
189.8529868747999
 31
0.0
  0
LINE
  5
1BB
330
2
100
AcDbEntity
  8
0
 62
     3
100
AcDbLine
 10
66.4500600998
 20
188.8529868747999
 30
0.0
 11
65.81622526089995
 21
188.8529868747999
 31
0.0
  0
ARC
  5
1BC
330
2
100
AcDbEntity
  8
0
 62
     3
100
AcDbCircle
 10
65.7986929123
 20
192.0396171237999
 30
0.0
 40
0.5
100
AcDbArc
 50
6.564484565999999
 51
83.43551452339999
  0
LINE
  5
1BD
330
2
100
AcDbEntity
  8
0
 62
     3
100
AcDbLine
 10
65.96554239269997
 20
191.2374706990999
 30
0.0
 11
64.99655037649998
 21
192.2064622253
 31
0.0
  0
LINE
  5
1BE
330
2
100
AcDbEntity
  8
0
 62
     3
100
AcDbLine
 10
64.51206407039999
 20
192.6909706081
 30
0.0
 11
65.85584171009998
 21
192.5363337399
 31
0.0
  0
LINE
  5
1BF
330
2
100
AcDbEntity
  8
0
 62
     3
100
AcDbLine
 10
66.29542472199998
 20
192.0967757329
 30
0.0
 11
66.45006167079998
 21
190.7529980932
 31
0.0
  0
LINE
  5
1C0
330
2
100
AcDbEntity
  8
0
 62
     3
100
AcDbLine
 10
68.25856987889998
 20
187.4684941424
 30
0.0
 11
69.22756189509996
 21
186.4995026162
 31
0.0
  0
LINE
  5
1C1
330
2
100
AcDbEntity
  8
0
 62
     3
100
AcDbLine
 10
68.26207181859999
 20
184.4530692721999
 30
0.0
 11
68.26207181859999
 21
185.8530479099
 31
0.0
  0
LINE
  5
1C2
330
2
100
AcDbEntity
  8
0
 62
     3
100
AcDbLine
 10
69.71206078119999
 20
186.0150181047
 30
0.0
 11
68.36826798269999
 21
186.1696567173
 31
0.0
  0
LINE
  5
1C3
330
2
100
AcDbEntity
  8
0
 62
     3
100
AcDbLine
 10
70.61206266329998
 20
186.0150199558
 30
0.0
 11
70.61206266329998
 21
186.6488395359
 31
0.0
  0
LINE
  5
1C4
330
2
100
AcDbEntity
  8
0
 62
     3
100
AcDbLine
 10
69.22755443949998
 20
192.2064836466
 30
0.0
 11
68.25856242329999
 21
191.2374921204999
 31
0.0
  0
LINE
  5
1C5
330
2
100
AcDbEntity
  8
0
 62
     3
100
AcDbLine
 10
68.36829006469997
 20
192.5363492612999
 30
0.0
 11
69.71206770439997
 21
192.6909861294
 31
0.0
  0
LINE
  5
1C6
330
2
100
AcDbEntity
  8
0
 62
     3
100
AcDbLine
 10
70.61210843959997
 20
192.6909843112999
 30
0.0
 11
70.61210843959997
 21
192.0571647312
 31
0.0
  0
LINE
  5
1C7
330
2
100
AcDbEntity
  8
0
 62
     3
100
AcDbLine
 10
77.71202299039998
 20
192.6909537937
 30
0.0
 11
80.51202604219998
 21
192.6909537937
 31
0.0
  0
LINE
  5
1C8
330
2
100
AcDbEntity
  8
0
 62
     3
100
AcDbLine
 10
78.40489364039996
 20
188.6458666342999
 30
0.0
 11
79.8191071786
 21
190.0600801725
 31
0.0
  0
LINE
  5
1C9
330
2
100
AcDbEntity
  8
0
 62
     3
100
AcDbLine
 10
77.71202299039998
 20
186.0149894383
 30
0.0
 11
80.51202604219998
 21
186.0149894383
 31
0.0
  0
LINE
  5
1CA
330
2
100
AcDbEntity
  8
0
 62
     3
100
AcDbLine
 10
75.76202604219997
 20
183.9530387547
 30
0.0
 11
82.46202299039998
 21
183.9530387547
 31
0.0
  0
LINE
  5
1CB
330
2
100
AcDbEntity
  8
0
 62
     3
100
AcDbLine
 10
75.76202604219997
 20
184.4530387546999
 30
0.0
 11
82.46202299039998
 21
184.4530387546999
 31
0.0
  0
LINE
  5
1CC
330
2
100
AcDbEntity
  8
0
 62
     3
100
AcDbLine
 10
75.76202604219997
 20
185.8530173924
 30
0.0
 11
82.46202299039998
 21
185.8530173924
 31
0.0
  0
LINE
  5
1CD
330
2
100
AcDbEntity
  8
0
 62
     3
100
AcDbLine
 10
74.46205350799999
 20
182.9529624607
 30
0.0
 11
82.46202299039998
 21
182.9529624607
 31
0.0
  0
LINE
  5
1CE
330
2
100
AcDbEntity
  8
0
 62
     3
100
AcDbLine
 10
80.5262139477
 20
187.9387598652
 30
0.0
 11
77.69779766099998
 21
190.767176152
 31
0.0
  0
CIRCLE
  5
1CF
330
2
100
AcDbEntity
  8
0
 62
     3
100
AcDbCircle
 10
79.11201688689994
 20
189.3529716159999
 30
0.0
 40
2.75
  0
LINE
  5
1D0
330
2
100
AcDbEntity
  8
0
 62
     3
100
AcDbLine
 10
72.99655205589997
 20
186.4995000915999
 30
0.0
 11
73.96554407209999
 21
187.4684916177999
 31
0.0
  0
LINE
  5
1D1
330
2
100
AcDbEntity
  8
0
 62
     3
100
AcDbLine
 10
73.85584054529997
 20
186.1696838413999
 30
0.0
 11
72.51206290559998
 21
186.0150469731999
 31
0.0
  0
LINE
  5
1D2
330
2
100
AcDbEntity
  8
0
 62
     3
100
AcDbLine
 10
71.61209318089993
 20
186.0150199558
 30
0.0
 11
71.61209318089993
 21
186.6488395359
 31
0.0
  0
ARC
  5
1D3
330
2
100
AcDbEntity
  8
0
 62
     3
100
AcDbCircle
 10
73.7986929123
 20
186.6663871432999
 30
0.0
 40
0.5
100
AcDbArc
 50
276.5645401181
 51
353.4356076415
  0
LINE
  5
1D4
330
2
100
AcDbEntity
  8
0
 62
     3
100
AcDbLine
 10
74.45003882099996
 20
187.9529985119999
 30
0.0
 11
74.29540187219998
 21
186.6092208723
 31
0.0
  0
LINE
  5
1D5
330
2
100
AcDbEntity
  8
0
 62
     3
100
AcDbLine
 10
73.96555152769997
 20
191.2374946449999
 30
0.0
 11
72.9965595114
 21
192.2064861712
 31
0.0
  0
LINE
  5
1D6
330
2
100
AcDbEntity
  8
0
 62
     3
100
AcDbLine
 10
72.51205947119996
 20
192.6909875784
 30
0.0
 11
73.85583711089998
 21
192.5363507102
 31
0.0
  0
LINE
  5
1D7
330
2
100
AcDbEntity
  8
0
 62
     3
100
AcDbLine
 10
71.61209318089993
 20
192.6909843112999
 30
0.0
 11
71.61209318089993
 21
192.0571647312
 31
0.0
  0
ARC
  5
1D8
330
2
100
AcDbEntity
  8
0
 62
     3
100
AcDbCircle
 10
73.7986929123
 20
192.0396323826
 30
0.0
 40
0.5
100
AcDbArc
 50
6.564484565999999
 51
83.43551452339999
  0
LINE
  5
1D9
330
2
100
AcDbEntity
  8
0
 62
     3
100
AcDbLine
 10
74.4500600998
 20
189.8530021336
 30
0.0
 11
73.81624051969999
 21
189.8530021336
 31
0.0
  0
LINE
  5
1DA
330
2
100
AcDbEntity
  8
0
 62
     3
100
AcDbLine
 10
74.4500600998
 20
188.8530021336
 30
0.0
 11
73.81622526089998
 21
188.8530021336
 31
0.0
  0
LINE
  5
1DB
330
2
100
AcDbEntity
  8
0
 62
     3
100
AcDbLine
 10
74.29541559409995
 20
192.0967895570999
 30
0.0
 11
74.45005254289998
 21
190.7530119173999
 31
0.0
  0
LINE
  5
1DC
330
2
100
AcDbEntity
  8
0
 62
     3
100
AcDbLine
 10
75.77403470919998
 20
187.9529777195
 30
0.0
 11
75.77403470919998
 21
190.7529655125
 31
0.0
  0
LINE
  5
1DD
330
2
100
AcDbEntity
  8
0
 62
     3
100
AcDbLine
 10
77.71201500479998
 20
186.0149875871
 30
0.0
 11
76.36822220629998
 21
186.1696261996998
 31
0.0
  0
LINE
  5
1DE
330
2
100
AcDbEntity
  8
0
 62
     3
100
AcDbLine
 10
76.25852410249996
 20
187.4684636248
 30
0.0
 11
77.22751611879999
 21
186.4994720986
 31
0.0
  0
LINE
  5
1DF
330
2
100
AcDbEntity
  8
0
 62
     3
100
AcDbLine
 10
76.26202604219995
 20
184.4530387546999
 30
0.0
 11
76.26202604219995
 21
185.8530173924
 31
0.0
  0
LINE
  5
1E0
330
2
100
AcDbEntity
  8
0
 62
     3
100
AcDbLine
 10
75.92867436189997
 20
186.6092046556999
 30
0.0
 11
75.77403741309999
 21
187.9529822953
 31
0.0
  0
ARC
  5
1E1
330
2
100
AcDbEntity
  8
0
 62
     3
100
AcDbCircle
 10
76.42540189669998
 20
186.6663566257999
 30
0.0
 40
0.5
100
AcDbArc
 50
186.5645034627
 51
263.4355504954999
  0
LINE
  5
1E2
330
2
100
AcDbEntity
  8
0
 62
     3
100
AcDbLine
 10
78.61201688689994
 20
186.0149894383
 30
0.0
 11
78.61201688689994
 21
186.6488090183
 31
0.0
  0
LINE
  5
1E3
330
2
100
AcDbEntity
  8
0
 62
     3
100
AcDbLine
 10
76.36824428829999
 20
192.5363187437
 30
0.0
 11
77.71202192799998
 21
192.6909556118999
 31
0.0
  0
LINE
  5
1E4
330
2
100
AcDbEntity
  8
0
 62
     3
100
AcDbLine
 10
77.22750866319998
 20
192.2064531289999
 30
0.0
 11
76.25851664689998
 21
191.2374616029
 31
0.0
  0
LINE
  5
1E5
330
2
100
AcDbEntity
  8
0
 62
     3
100
AcDbLine
 10
75.77403884989999
 20
190.7529653545
 30
0.0
 11
75.92867579869997
 21
192.0967429942
 31
0.0
  0
LINE
  5
1E6
330
2
100
AcDbEntity
  8
0
 62
     3
100
AcDbLine
 10
75.77404996799998
 20
188.8529716159997
 30
0.0
 11
76.40786954799998
 21
188.8529716159997
 31
0.0
  0
LINE
  5
1E7
330
2
100
AcDbEntity
  8
0
 62
     3
100
AcDbLine
 10
75.77404996799998
 20
189.8529716159997
 30
0.0
 11
76.40786954799998
 21
189.8529716159997
 31
0.0
  0
ARC
  5
1E8
330
2
100
AcDbEntity
  8
0
 62
     3
100
AcDbCircle
 10
76.42540189669998
 20
192.039601865
 30
0.0
 40
0.5
100
AcDbArc
 50
96.56444950450001
 51
173.4354965372999
  0
LINE
  5
1E9
330
2
100
AcDbEntity
  8
0
 62
     3
100
AcDbLine
 10
78.61206266329998
 20
192.6909537937
 30
0.0
 11
78.61206266329998
 21
192.0571342137
 31
0.0
  0
LINE
  5
1EA
330
2
100
AcDbEntity
  8
0
 62
     3
100
AcDbLine
 10
81.855794769
 20
186.1696533237999
 30
0.0
 11
80.51201712929998
 21
186.0150164556
 31
0.0
  0
LINE
  5
1EB
330
2
100
AcDbEntity
  8
0
 62
     3
100
AcDbLine
 10
79.61204740449997
 20
186.0149894383
 30
0.0
 11
79.61204740449997
 21
186.6488090183
 31
0.0
  0
LINE
  5
1EC
330
2
100
AcDbEntity
  8
0
 62
     3
100
AcDbLine
 10
80.99650627949998
 20
186.4994695739998
 30
0.0
 11
81.96549829570001
 21
187.4684611002
 31
0.0
  0
LINE
  5
1ED
330
2
100
AcDbEntity
  8
0
 62
     3
100
AcDbLine
 10
82.44999304459998
 20
187.9529679944
 30
0.0
 11
82.2953560958
 21
186.6091903546999
 31
0.0
  0
ARC
  5
1EE
330
2
100
AcDbEntity
  8
0
 62
     3
100
AcDbCircle
 10
81.79864713589998
 20
186.6663566257999
 30
0.0
 40
0.5
100
AcDbArc
 50
276.5645401181
 51
353.4356076415
  0
LINE
  5
1EF
330
2
100
AcDbEntity
  8
0
 62
     3
100
AcDbLine
 10
80.5120136949
 20
192.6909570607999
 30
0.0
 11
81.85579133459999
 21
192.5363201927
 31
0.0
  0
LINE
  5
1F0
330
2
100
AcDbEntity
  8
0
 62
     3
100
AcDbLine
 10
79.61204740449997
 20
192.6909537937
 30
0.0
 11
79.61204740449997
 21
192.0571342137
 31
0.0
  0
LINE
  5
1F1
330
2
100
AcDbEntity
  8
0
 62
     3
100
AcDbLine
 10
81.96550575129998
 20
191.2374641275
 30
0.0
 11
80.99651373509997
 21
192.2064556536
 31
0.0
  0
LINE
  5
1F2
330
2
100
AcDbEntity
  8
0
 62
     3
100
AcDbLine
 10
82.29536981769999
 20
192.0967590395
 30
0.0
 11
82.45000676649999
 21
190.7529813998
 31
0.0
  0
LINE
  5
1F3
330
2
100
AcDbEntity
  8
0
 62
     3
100
AcDbLine
 10
82.45001432339998
 20
188.8529716159997
 30
0.0
 11
81.81617948459999
 21
188.8529716159997
 31
0.0
  0
LINE
  5
1F4
330
2
100
AcDbEntity
  8
0
 62
     3
100
AcDbLine
 10
82.45001432339998
 20
189.8529716159997
 30
0.0
 11
81.81619474339994
 21
189.8529716159997
 31
0.0
  0
ARC
  5
1F5
330
2
100
AcDbEntity
  8
0
 62
     3
100
AcDbCircle
 10
81.79864713589998
 20
192.039601865
 30
0.0
 40
0.5
100
AcDbArc
 50
6.564484565999999
 51
83.43551452339999
  0
LINE
  5
1F6
330
2
100
AcDbEntity
  8
0
 62
     3
100
AcDbLine
 10
83.7739889328
 20
187.9529472019
 30
0.0
 11
83.7739889328
 21
190.7529349948999
 31
0.0
  0
LINE
  5
1F7
330
2
100
AcDbEntity
  8
0
 62
     3
100
AcDbLine
 10
84.25847832609994
 20
187.4684331071998
 30
0.0
 11
85.22747034240001
 21
186.499441581
 31
0.0
  0
LINE
  5
1F8
330
2
100
AcDbEntity
  8
0
 62
     3
100
AcDbLine
 10
85.7119692284
 20
186.0149570695
 30
0.0
 11
84.36817642999997
 21
186.1695956820999
 31
0.0
  0
LINE
  5
1F9
330
2
100
AcDbEntity
  8
0
 62
     3
100
AcDbLine
 10
84.26198026579999
 20
184.4530082370999
 30
0.0
 11
84.26198026579999
 21
185.8529868748
 31
0.0
  0
LINE
  5
1FA
330
2
100
AcDbEntity
  8
0
 62
     3
100
AcDbLine
 10
83.92862858549998
 20
186.6091741381
 30
0.0
 11
83.77399163669997
 21
187.9529517777999
 31
0.0
  0
ARC
  5
1FB
330
2
100
AcDbEntity
  8
0
 62
     3
100
AcDbCircle
 10
84.42535612029997
 20
186.6663261081999
 30
0.0
 40
0.5
100
AcDbArc
 50
186.5645034627
 51
263.4355504954999
  0
LINE
  5
1FC
330
2
100
AcDbEntity
  8
0
 62
     3
100
AcDbLine
 10
85.22746288679996
 20
192.2064226114999
 30
0.0
 11
84.25847087059997
 21
191.2374310853
 31
0.0
  0
LINE
  5
1FD
330
2
100
AcDbEntity
  8
0
 62
     3
100
AcDbLine
 10
84.36819851199997
 20
192.5362882261
 30
0.0
 11
85.71197615170001
 21
192.6909250943
 31
0.0
  0
LINE
  5
1FE
330
2
100
AcDbEntity
  8
0
 62
     3
100
AcDbLine
 10
83.77399307349998
 20
190.7529348369
 30
0.0
 11
83.92863002229999
 21
192.0967124766
 31
0.0
  0
ARC
  5
1FF
330
2
100
AcDbEntity
  8
0
 62
     3
100
AcDbCircle
 10
84.42535612029997
 20
192.0395713473999
 30
0.0
 40
0.5
100
AcDbArc
 50
96.56444950450001
 51
173.4354965372999
  0
LINE
  5
200
330
2
100
AcDbEntity
  8
0
 62
     3
100
AcDbLine
 10
83.7740041916
 20
189.8529410984
 30
0.0
 11
84.4078237717
 21
189.8529410984
 31
0.0
  0
LINE
  5
201
330
2
100
AcDbEntity
  8
0
 62
     3
100
AcDbLine
 10
83.7740041916
 20
188.8529410984
 30
0.0
 11
84.4078237717
 21
188.8529410984
 31
0.0
  0
LINE
  5
202
330
2
100
AcDbEntity
  8
0
 62
     3
100
AcDbLine
 10
109.4620687667999
 20
193.8530326512
 30
0.0
 11
116.9620687667999
 21
193.8530326512
 31
0.0
  0
LINE
  5
203
330
2
100
AcDbEntity
  8
0
  6
CENTER
 62
     3
100
AcDbLine
 10
116.8793508712999
 20
188.9530387546997
 30
0.0
 11
109.8191854659999
 21
188.9530387546997
 31
0.0
  0
LINE
  5
204
330
2
100
AcDbEntity
  8
0
 62
     3
100
AcDbLine
 10
109.4620687667999
 20
183.9530387547
 30
0.0
 11
116.9620687667999
 21
183.9530387547
 31
0.0
  0
LINE
  5
205
330
2
100
AcDbEntity
  8
0
 62
     3
100
AcDbLine
 10
106.4620687667999
 20
182.9530387547
 30
0.0
 11
116.4620687667998
 21
182.9530387547
 31
0.0
  0
LINE
  5
206
330
2
100
AcDbEntity
  8
0
 62
     3
100
AcDbLine
 10
108.1620809738
 20
121.3085990574
 30
0.0
 11
116.4620840255998
 21
121.3085990574
 31
0.0
  0
LINE
  5
207
330
2
100
AcDbEntity
  8
0
 62
     3
100
AcDbLine
 10
108.1620809738
 20
122.3086143161999
 30
0.0
 11
116.9620840255997
 21
122.3086143161999
 31
0.0
  0
LINE
  5
208
330
2
100
AcDbEntity
  8
0
 62
     3
100
AcDbLine
 10
109.4620840256
 20
126.7086234715
 30
0.0
 11
116.9620840255997
 21
126.7086234715
 31
0.0
  0
LINE
  5
209
330
2
100
AcDbEntity
  8
0
 62
     3
100
AcDbLine
 10
109.4620840256
 20
124.6901755955
 30
0.0
 11
116.9620840255997
 21
124.6901755955
 31
0.0
  0
ARC
  5
20A
330
2
100
AcDbEntity
  8
0
 62
     3
100
AcDbCircle
 10
114.3120748702999
 20
188.9530387546997
 30
0.0
 40
2.149999618499998
100
AcDbArc
 50
270.0000726275999
 51
89.99998201389994
  0
LINE
  5
20B
330
2
100
AcDbEntity
  8
0
 62
     3
100
AcDbLine
 10
101.4620964668999
 20
128.6585976347
 30
0.0
 11
100.1409948865999
 21
128.2182319629999
 31
0.0
  0
LINE
  5
20C
330
2
100
AcDbEntity
  8
0
 62
     3
100
AcDbLine
 10
101.4620856433999
 20
129.6585882723999
 30
0.0
 11
100.1409989537999
 21
129.2182260979
 31
0.0
  0
ARC
  5
20D
330
2
100
AcDbEntity
  8
0
 62
     3
100
AcDbCircle
 10
103.1120779220999
 20
125.6586051608999
 30
0.0
 40
7.0
100
AcDbArc
 50
73.7429843175
 51
106.2569797102999
  0
LINE
  5
20E
330
2
100
AcDbEntity
  8
0
 62
     3
100
AcDbLine
 10
105.8620779220998
 20
130.6586051608999
 30
0.0
 11
100.3620779220999
 21
130.6586051608999
 31
0.0
  0
LINE
  5
20F
330
2
100
AcDbEntity
  8
0
 62
     3
100
AcDbLine
 10
106.4620840256
 20
129.6586051608999
 30
0.0
 11
99.76208707730002
 21
129.6586051608999
 31
0.0
  0
LINE
  5
210
330
2
100
AcDbEntity
  8
0
 62
     3
100
AcDbLine
 10
106.4620840256
 20
127.1586051609
 30
0.0
 11
100.2620718185999
 21
127.1586051609
 31
0.0
  0
LINE
  5
211
330
2
100
AcDbEntity
  8
0
 62
     3
100
AcDbLine
 10
106.4620840256
 20
128.1586051608999
 30
0.0
 11
99.76207181859997
 21
128.1586051608999
 31
0.0
  0
LINE
  5
212
330
2
100
AcDbEntity
  8
0
 62
     3
100
AcDbLine
 10
106.4620840256
 20
122.3085990574
 30
0.0
 11
99.76207181859997
 21
122.3085990574
 31
0.0
  0
LINE
  5
213
330
2
100
AcDbEntity
  8
0
 62
     3
100
AcDbLine
 10
106.4620840256
 20
121.3084617283
 30
0.0
 11
99.76207181859997
 21
121.3084617283
 31
0.0
  0
LINE
  5
214
330
2
100
AcDbEntity
  8
0
 62
     3
100
AcDbLine
 10
106.4620840256
 20
134.3085990573999
 30
0.0
 11
99.76207181859997
 21
134.3085990573999
 31
0.0
  0
LINE
  5
215
330
2
100
AcDbEntity
  8
0
 62
     3
100
AcDbLine
 10
100.2620718185999
 20
127.9586082126999
 30
0.0
 11
100.2620718185999
 21
122.3085990574
 31
0.0
  0
LINE
  5
216
330
2
100
AcDbEntity
  8
0
 62
     3
100
AcDbLine
 10
99.76207181859997
 20
136.3086143162
 30
0.0
 11
99.76207181859997
 21
121.3084617283
 31
0.0
  0
LINE
  5
217
330
2
100
AcDbEntity
  8
0
 62
     3
100
AcDbLine
 10
92.26207181859995
 20
127.9586082126999
 30
0.0
 11
92.26207181859995
 21
122.3085990574
 31
0.0
  0
LINE
  5
218
330
2
100
AcDbEntity
  8
0
 62
     3
100
AcDbLine
 10
91.76207181859998
 20
136.3086143162
 30
0.0
 11
91.76207181859998
 21
121.3084617283
 31
0.0
  0
LINE
  5
219
330
2
100
AcDbEntity
  8
0
 62
     3
100
AcDbLine
 10
98.46208402560002
 20
136.3086143162
 30
0.0
 11
98.46208402560002
 21
114.8085990573999
 31
0.0
  0
LINE
  5
21A
330
2
100
AcDbEntity
  8
0
 62
     3
100
AcDbLine
 10
90.46208402560001
 20
136.3086143162
 30
0.0
 11
90.46208402560001
 21
114.8085990573999
 31
0.0
  0
LINE
  5
21B
330
2
100
AcDbEntity
  8
0
 62
     3
100
AcDbLine
 10
98.46208402560002
 20
122.3085990574
 30
0.0
 11
91.76207181859998
 21
122.3085990574
 31
0.0
  0
LINE
  5
21C
330
2
100
AcDbEntity
  8
0
 62
     3
100
AcDbLine
 10
98.46208402560002
 20
121.3084617283
 30
0.0
 11
91.76207181859998
 21
121.3084617283
 31
0.0
  0
ARC
  5
21D
330
2
100
AcDbEntity
  8
0
 62
     3
100
AcDbCircle
 10
95.11207792209999
 20
125.6586051608999
 30
0.0
 40
7.0
100
AcDbArc
 50
73.7429843175
 51
106.2569797102999
  0
LINE
  5
21E
330
2
100
AcDbEntity
  8
0
 62
     3
100
AcDbLine
 10
94.31209012910001
 20
128.6586051608999
 30
0.0
 11
93.4620840256
 21
128.6586051608999
 31
0.0
  0
LINE
  5
21F
330
2
100
AcDbEntity
  8
0
 62
     3
100
AcDbLine
 10
97.86207792209999
 20
130.6586051608999
 30
0.0
 11
92.36207792209999
 21
130.6586051608999
 31
0.0
  0
LINE
  5
220
330
2
100
AcDbEntity
  8
0
 62
     3
100
AcDbLine
 10
98.46208402560002
 20
129.6586051608999
 30
0.0
 11
91.76208707730001
 21
129.6586051608999
 31
0.0
  0
LINE
  5
221
330
2
100
AcDbEntity
  8
0
 62
     3
100
AcDbLine
 10
98.46208402560002
 20
127.1586051609
 30
0.0
 11
92.26207181859995
 21
127.1586051609
 31
0.0
  0
LINE
  5
222
330
2
100
AcDbEntity
  8
0
 62
     3
100
AcDbLine
 10
98.46208402560002
 20
128.1586051608999
 30
0.0
 11
91.76207181859998
 21
128.1586051608999
 31
0.0
  0
LINE
  5
223
330
2
100
AcDbEntity
  8
0
 62
     3
100
AcDbLine
 10
98.46208402560002
 20
134.3085990573999
 30
0.0
 11
91.76207181859998
 21
134.3085990573999
 31
0.0
  0
ARC
  5
224
330
2
100
AcDbEntity
  8
0
 62
     3
100
AcDbCircle
 10
90.14642545619995
 20
128.4079795506
 30
0.0
 40
0.1999999881
100
AcDbArc
 50
251.5648456426
 51
338.198384509
  0
ARC
  5
225
330
2
100
AcDbEntity
  8
0
 62
     3
100
AcDbCircle
 10
90.14642545619995
 20
129.4079795506
 30
0.0
 40
0.1999999881
100
AcDbArc
 50
251.5649549256
 51
338.1982205843998
  0
LINE
  5
226
330
2
100
AcDbEntity
  8
0
 62
     3
100
AcDbLine
 10
89.96206569039998
 20
127.1585660172
 30
0.0
 11
90.4620660526
 21
126.6585652756999
 31
0.0
  0
LINE
  5
227
330
2
100
AcDbEntity
  8
0
 62
     3
100
AcDbLine
 10
89.78795918609998
 20
131.5058385315999
 30
0.0
 11
89.86208461929994
 21
130.6585805158999
 31
0.0
  0
LINE
  5
228
330
2
100
AcDbEntity
  8
0
 62
     3
100
AcDbLine
 10
88.76208707729999
 20
128.6586051608999
 30
0.0
 11
87.91208097379998
 21
128.6586051608999
 31
0.0
  0
LINE
  5
229
330
2
100
AcDbEntity
  8
0
 62
     3
100
AcDbLine
 10
87.91208097379998
 20
128.1586051608999
 30
0.0
 11
87.91208097379998
 21
128.6586051608999
 31
0.0
  0
LINE
  5
22A
330
2
100
AcDbEntity
  8
0
 62
     3
100
AcDbLine
 10
87.61207792209999
 20
129.1586051608999
 30
0.0
 11
86.61207792209998
 21
129.1586051608999
 31
0.0
  0
LINE
  5
22B
330
2
100
AcDbEntity
  8
0
 62
     3
100
AcDbLine
 10
86.61207792209998
 20
129.6586051608999
 30
0.0
 11
86.61207792209998
 21
129.1586051608999
 31
0.0
  0
LINE
  5
22C
330
2
100
AcDbEntity
  8
0
 62
     3
100
AcDbLine
 10
87.61207792209999
 20
129.6586051608999
 30
0.0
 11
87.61207792209999
 21
129.1586051608999
 31
0.0
  0
LINE
  5
22D
330
2
100
AcDbEntity
  8
0
 62
     3
100
AcDbLine
 10
88.11207438029999
 20
129.6585924073999
 30
0.0
 11
87.11207331869998
 21
130.6585934689999
 31
0.0
  0
LINE
  5
22E
330
2
100
AcDbEntity
  8
0
 62
     3
100
AcDbLine
 10
89.81209012909999
 20
129.6586051608999
 30
0.0
 11
89.81209012909999
 21
130.6586051608999
 31
0.0
  0
LINE
  5
22F
330
2
100
AcDbEntity
  8
0
 62
     3
100
AcDbLine
 10
88.4620840256
 20
128.1586051608999
 30
0.0
 11
88.4620840256
 21
128.6586051608999
 31
0.0
  0
LINE
  5
230
330
2
100
AcDbEntity
  8
0
 62
     3
100
AcDbLine
 10
89.46206371929998
 20
128.3585640429
 30
0.0
 11
88.66220243969999
 21
128.1585987476
 31
0.0
  0
LINE
  5
231
330
2
100
AcDbEntity
  8
0
 62
     3
100
AcDbLine
 10
89.46206876679998
 20
128.3586021092
 30
0.0
 11
88.46206876679998
 21
128.3586021092
 31
0.0
  0
LINE
  5
232
330
2
100
AcDbEntity
  8
0
 62
     3
100
AcDbLine
 10
90.08317763439993
 20
128.218227204
 30
0.0
 11
88.76207646910001
 21
128.6585942037
 31
0.0
  0
LINE
  5
233
330
2
100
AcDbEntity
  8
0
 62
     3
100
AcDbLine
 10
90.08316312089993
 20
129.2182174268999
 30
0.0
 11
88.76207643139997
 21
129.6585796013999
 31
0.0
  0
LINE
  5
234
330
2
100
AcDbEntity
  8
0
 62
     3
100
AcDbLine
 10
88.84413398839996
 20
131.6585753420999
 30
0.0
 11
87.11208321189998
 21
132.6585753420999
 31
0.0
  0
ARC
  5
235
330
2
100
AcDbEntity
  8
0
 62
     3
100
AcDbCircle
 10
88.79176542209998
 20
131.4186912205
 30
0.0
 40
1.0
100
AcDbArc
 50
5.000005831000001
 51
73.7429843175
  0
LINE
  5
236
330
2
100
AcDbEntity
  8
0
 62
     3
100
AcDbLine
 10
92.36208967240001
 20
130.6585793829
 30
0.0
 11
92.43621377569999
 21
131.5058221979
 31
0.0
  0
ARC
  5
237
330
2
100
AcDbEntity
  8
0
 62
     3
100
AcDbCircle
 10
92.07774564670001
 20
128.4079795506
 30
0.0
 40
0.1999999881
100
AcDbArc
 50
201.8016719538
 51
288.4351356880998
  0
ARC
  5
238
330
2
100
AcDbEntity
  8
0
 62
     3
100
AcDbCircle
 10
92.07774564670001
 20
129.4079795506
 30
0.0
 40
0.1999999881
100
AcDbArc
 50
201.8017812367999
 51
288.4350264049998
  0
LINE
  5
239
330
2
100
AcDbEntity
  8
0
 62
     3
100
AcDbLine
 10
92.26207181859995
 20
127.9586082126999
 30
0.0
 11
91.76207181859998
 21
127.9586082126999
 31
0.0
  0
LINE
  5
23A
330
2
100
AcDbEntity
  8
0
 62
     3
100
AcDbLine
 10
91.96208402560001
 20
128.4086051608999
 30
0.0
 11
91.96208402560001
 21
128.9086051608999
 31
0.0
  0
LINE
  5
23B
330
2
100
AcDbEntity
  8
0
 62
     3
100
AcDbLine
 10
91.89204718040002
 20
128.3336891930999
 30
0.0
 11
91.7620800437
 21
128.6586047193999
 31
0.0
  0
LINE
  5
23C
330
2
100
AcDbEntity
  8
0
 62
     3
100
AcDbLine
 10
91.89206803140001
 20
129.3336871873
 30
0.0
 11
91.76210127019993
 21
129.6586028595999
 31
0.0
  0
LINE
  5
23D
330
2
100
AcDbEntity
  8
0
 62
     3
100
AcDbLine
 10
91.76208707730001
 20
128.6586051608999
 30
0.0
 11
91.76208707730001
 21
129.6586051608999
 31
0.0
  0
LINE
  5
23E
330
2
100
AcDbEntity
  8
0
 62
     3
100
AcDbLine
 10
90.26208707730001
 20
128.9086051608999
 30
0.0
 11
90.26208707730001
 21
128.4086051608999
 31
0.0
  0
LINE
  5
23F
330
2
100
AcDbEntity
  8
0
 62
     3
100
AcDbLine
 10
90.4620744394
 20
128.6585769848999
 30
0.0
 11
90.33211334519995
 21
128.33367548
 31
0.0
  0
LINE
  5
240
330
2
100
AcDbEntity
  8
0
 62
     3
100
AcDbLine
 10
90.46208424589995
 20
129.658579372
 30
0.0
 11
90.3321174847
 21
129.3336636996999
 31
0.0
  0
LINE
  5
241
330
2
100
AcDbEntity
  8
0
 62
     3
100
AcDbLine
 10
93.7620870773
 20
128.1586051608999
 30
0.0
 11
93.7620870773
 21
128.6586051608999
 31
0.0
  0
LINE
  5
242
330
2
100
AcDbEntity
  8
0
 62
     3
100
AcDbLine
 10
93.46210245519998
 20
128.6586011028999
 30
0.0
 11
92.14100087489999
 21
128.2182354312
 31
0.0
  0
LINE
  5
243
330
2
100
AcDbEntity
  8
0
 62
     3
100
AcDbLine
 10
93.46209148089995
 20
129.6585837486999
 30
0.0
 11
92.1410047914
 21
129.2182215742
 31
0.0
  0
LINE
  5
244
330
2
100
AcDbEntity
  8
0
 62
     3
100
AcDbLine
 10
92.41208097379999
 20
130.6586051608999
 30
0.0
 11
92.41208097379999
 21
129.6586051608999
 31
0.0
  0
LINE
  5
245
330
2
100
AcDbEntity
  8
0
 62
     3
100
AcDbLine
 10
91.76207181859998
 20
136.3086143162
 30
0.0
 11
90.46208402560001
 21
136.3086143162
 31
0.0
  0
ARC
  5
246
330
2
100
AcDbEntity
  8
0
 62
     3
100
AcDbCircle
 10
93.43240568089994
 20
131.4186912205
 30
0.0
 40
1.0
100
AcDbArc
 50
106.2569797102999
 51
174.9999923478
  0
ARC
  5
247
330
2
100
AcDbEntity
  8
0
 62
     3
100
AcDbCircle
 10
96.79176542209999
 20
131.4186912205
 30
0.0
 40
1.0
100
AcDbArc
 50
5.000005831000001
 51
73.7429843175
  0
LINE
  5
248
330
2
100
AcDbEntity
  8
0
 62
     3
100
AcDbLine
 10
98.0831717969
 20
128.2182226803
 30
0.0
 11
96.76208510729999
 21
128.6585848547999
 31
0.0
  0
LINE
  5
249
330
2
100
AcDbEntity
  8
0
 62
     3
100
AcDbLine
 10
98.08317658440001
 20
129.2182225537
 30
0.0
 11
96.7620898949
 21
129.6585847282999
 31
0.0
  0
LINE
  5
24A
330
2
100
AcDbEntity
  8
0
 62
     3
100
AcDbLine
 10
96.11206129380001
 20
129.6585924073999
 30
0.0
 11
95.11206023219996
 21
130.6585934689999
 31
0.0
  0
LINE
  5
24B
330
2
100
AcDbEntity
  8
0
 62
     3
100
AcDbLine
 10
95.61207792209998
 20
129.6586051608999
 30
0.0
 11
95.61207792209998
 21
129.1586051608999
 31
0.0
  0
LINE
  5
24C
330
2
100
AcDbEntity
  8
0
 62
     3
100
AcDbLine
 10
94.31209012910001
 20
128.1586051608999
 30
0.0
 11
94.31209012910001
 21
128.6586051608999
 31
0.0
  0
LINE
  5
24D
330
2
100
AcDbEntity
  8
0
 62
     3
100
AcDbLine
 10
94.61207792209998
 20
129.6586051608999
 30
0.0
 11
94.61207792209998
 21
129.1586051608999
 31
0.0
  0
LINE
  5
24E
330
2
100
AcDbEntity
  8
0
 62
     3
100
AcDbLine
 10
95.61207792209998
 20
129.1586051608999
 30
0.0
 11
94.61207792209998
 21
129.1586051608999
 31
0.0
  0
LINE
  5
24F
330
2
100
AcDbEntity
  8
0
 62
     3
100
AcDbLine
 10
94.1120591706
 20
130.6585934689999
 30
0.0
 11
95.11206023219996
 21
129.6585924073999
 31
0.0
  0
LINE
  5
250
330
2
100
AcDbEntity
  8
0
 62
     3
100
AcDbLine
 10
96.46208402560001
 20
128.1586051608999
 30
0.0
 11
96.46208402560001
 21
128.6586051608999
 31
0.0
  0
LINE
  5
251
330
2
100
AcDbEntity
  8
0
 62
     3
100
AcDbLine
 10
95.91208097379999
 20
128.1586051608999
 30
0.0
 11
95.91208097379999
 21
128.6586051608999
 31
0.0
  0
LINE
  5
252
330
2
100
AcDbEntity
  8
0
 62
     3
100
AcDbLine
 10
96.76208707730001
 20
128.6586051608999
 30
0.0
 11
95.91208097379999
 21
128.6586051608999
 31
0.0
  0
LINE
  5
253
330
2
100
AcDbEntity
  8
0
 62
     3
100
AcDbLine
 10
97.46206425780002
 20
128.35855641
 30
0.0
 11
96.66220297819997
 21
128.1585911147
 31
0.0
  0
LINE
  5
254
330
2
100
AcDbEntity
  8
0
 62
     3
100
AcDbLine
 10
97.46206876679998
 20
128.3586021092
 30
0.0
 11
96.46206876679995
 21
128.3586021092
 31
0.0
  0
LINE
  5
255
330
2
100
AcDbEntity
  8
0
 62
     3
100
AcDbLine
 10
96.84413748959997
 20
131.6585731963999
 30
0.0
 11
95.11208671309999
 21
132.6585731963999
 31
0.0
  0
LINE
  5
256
330
2
100
AcDbEntity
  8
0
 62
     3
100
AcDbLine
 10
94.24606938019996
 20
132.1585844229
 30
0.0
 11
95.11209476849996
 21
132.6585844229
 31
0.0
  0
LINE
  5
257
330
2
100
AcDbEntity
  8
0
 62
     3
100
AcDbLine
 10
100.3620913314998
 20
130.6585840501
 30
0.0
 11
100.4362154349
 21
131.5058268649999
 31
0.0
  0
LINE
  5
258
330
2
100
AcDbEntity
  8
0
 62
     3
100
AcDbLine
 10
97.78796084519996
 20
131.5058338645
 30
0.0
 11
97.86208627849999
 21
130.6585758486999
 31
0.0
  0
ARC
  5
259
330
2
100
AcDbEntity
  8
0
 62
     3
100
AcDbCircle
 10
98.14642545620001
 20
128.4079795506
 30
0.0
 40
0.1999999881
100
AcDbArc
 50
251.5648456426
 51
338.198384509
  0
ARC
  5
25A
330
2
100
AcDbEntity
  8
0
 62
     3
100
AcDbCircle
 10
98.14642545620001
 20
129.4079795506
 30
0.0
 40
0.1999999881
100
AcDbArc
 50
251.5649549256
 51
338.1982205843998
  0
LINE
  5
25B
330
2
100
AcDbEntity
  8
0
 62
     3
100
AcDbLine
 10
98.26208707730001
 20
128.9086051608999
 30
0.0
 11
98.26208707730001
 21
128.4086051608999
 31
0.0
  0
LINE
  5
25C
330
2
100
AcDbEntity
  8
0
 62
     3
100
AcDbLine
 10
98.4620793688
 20
128.6585863707999
 30
0.0
 11
98.33211260759998
 21
128.3336706984999
 31
0.0
  0
LINE
  5
25D
330
2
100
AcDbEntity
  8
0
 62
     3
100
AcDbLine
 10
98.4620835083
 20
129.6585745905
 30
0.0
 11
98.33212241410002
 21
129.3336730855999
 31
0.0
  0
LINE
  5
25E
330
2
100
AcDbEntity
  8
0
 62
     3
100
AcDbLine
 10
97.96207452030001
 20
127.1585629827
 30
0.0
 11
98.46207488250001
 21
126.6585622410999
 31
0.0
  0
LINE
  5
25F
330
2
100
AcDbEntity
  8
0
 62
     3
100
AcDbLine
 10
97.8120901291
 20
129.6586051608999
 30
0.0
 11
97.8120901291
 21
130.6586051608999
 31
0.0
  0
ARC
  5
260
330
2
100
AcDbEntity
  8
0
 62
     3
100
AcDbCircle
 10
100.0777456467
 20
128.4079795506
 30
0.0
 40
0.1999999881
100
AcDbArc
 50
201.8016719538
 51
288.4351356880998
  0
ARC
  5
261
330
2
100
AcDbEntity
  8
0
 62
     3
100
AcDbCircle
 10
100.0777456467
 20
129.4079795506
 30
0.0
 40
0.1999999881
100
AcDbArc
 50
201.8017812367999
 51
288.4350264049998
  0
LINE
  5
262
330
2
100
AcDbEntity
  8
0
 62
     3
100
AcDbLine
 10
99.9620840256
 20
128.4086051608999
 30
0.0
 11
99.9620840256
 21
128.9086051608999
 31
0.0
  0
LINE
  5
263
330
2
100
AcDbEntity
  8
0
 62
     3
100
AcDbLine
 10
99.8920521984
 20
128.3336890159999
 30
0.0
 11
99.76208506170003
 21
128.6586045423
 31
0.0
  0
LINE
  5
264
330
2
100
AcDbEntity
  8
0
 62
     3
100
AcDbLine
 10
99.89206729379999
 20
129.3336919688
 30
0.0
 11
99.76210053259997
 21
129.6586076410999
 31
0.0
  0
LINE
  5
265
330
2
100
AcDbEntity
  8
0
 62
     3
100
AcDbLine
 10
99.76208707730002
 20
128.6586051608999
 30
0.0
 11
99.76208707730002
 21
129.6586051608999
 31
0.0
  0
LINE
  5
266
330
2
100
AcDbEntity
  8
0
 62
     3
100
AcDbLine
 10
100.2620718185999
 20
127.9586082126999
 30
0.0
 11
99.76207181859997
 21
127.9586082126999
 31
0.0
  0
LINE
  5
267
330
2
100
AcDbEntity
  8
0
 62
     3
100
AcDbLine
 10
100.4120809737998
 20
130.6586051608999
 30
0.0
 11
100.4120809737998
 21
129.6586051608999
 31
0.0
  0
LINE
  5
268
330
2
100
AcDbEntity
  8
0
 62
     3
100
AcDbLine
 10
99.76207181859997
 20
136.3086143162
 30
0.0
 11
98.46208402560002
 21
136.3086143162
 31
0.0
  0
ARC
  5
269
330
2
100
AcDbEntity
  8
0
 62
     3
100
AcDbCircle
 10
101.4324056808999
 20
131.4186912205
 30
0.0
 40
1.0
100
AcDbArc
 50
106.2569797102999
 51
174.9999923478
  0
LINE
  5
26A
330
2
100
AcDbEntity
  8
0
 62
     3
100
AcDbLine
 10
108.1620809738
 20
130.4086204196999
 30
0.0
 11
108.1620809738
 21
121.3085990574
 31
0.0
  0
LINE
  5
26B
330
2
100
AcDbEntity
  8
0
 62
     3
100
AcDbLine
 10
109.4620840256
 20
136.3086143162
 30
0.0
 11
109.4620840256
 21
122.3086143161999
 31
0.0
  0
LINE
  5
26C
330
2
100
AcDbEntity
  8
0
 62
     3
100
AcDbLine
 10
106.4620840256
 20
136.3086143162
 30
0.0
 11
106.4620840256
 21
114.8085990573999
 31
0.0
  0
LINE
  5
26D
330
2
100
AcDbEntity
  8
0
 62
     3
100
AcDbLine
 10
106.4620840256
 20
135.2086082126999
 30
0.0
 11
109.4620840256
 21
135.2086082126999
 31
0.0
  0
LINE
  5
26E
330
2
100
AcDbEntity
  8
0
 62
     3
100
AcDbLine
 10
106.4620840256
 20
136.3086143162
 30
0.0
 11
109.4620840256
 21
136.3086143162
 31
0.0
  0
LINE
  5
26F
330
2
100
AcDbEntity
  8
0
 62
     3
100
AcDbLine
 10
108.1620809738
 20
130.4086204196999
 30
0.0
 11
109.4620840256
 21
130.4086204196999
 31
0.0
  0
LINE
  5
270
330
2
100
AcDbEntity
  8
0
  6
PHANTOM
 62
     3
100
AcDbLine
 10
107.7620870772999
 20
137.108617368
 30
0.0
 11
107.7620870772999
 21
133.1959129001999
 31
0.0
  0
LINE
  5
271
330
2
100
AcDbEntity
  8
0
 62
     3
100
AcDbLine
 10
106.0831707845999
 20
128.2182326323999
 30
0.0
 11
104.7620840949999
 21
128.6585948069
 31
0.0
  0
LINE
  5
272
330
2
100
AcDbEntity
  8
0
 62
     3
100
AcDbLine
 10
106.0831707468999
 20
129.2182180301
 30
0.0
 11
104.7620840573999
 21
129.6585802046
 31
0.0
  0
LINE
  5
273
330
2
100
AcDbEntity
  8
0
 62
     3
100
AcDbLine
 10
105.4620610955999
 20
128.3585635803
 30
0.0
 11
104.6621998158999
 21
128.1585982849999
 31
0.0
  0
LINE
  5
274
330
2
100
AcDbEntity
  8
0
 62
     3
100
AcDbLine
 10
105.4620687667999
 20
128.3586021092
 30
0.0
 11
104.4620687667999
 21
128.3586021092
 31
0.0
  0
LINE
  5
275
330
2
100
AcDbEntity
  8
0
 62
     3
100
AcDbLine
 10
103.6120779220998
 20
129.1586051608999
 30
0.0
 11
102.6120779220998
 21
129.1586051608999
 31
0.0
  0
LINE
  5
276
330
2
100
AcDbEntity
  8
0
 62
     3
100
AcDbLine
 10
104.1120697864998
 20
129.6585924073999
 30
0.0
 11
103.1120687248999
 21
130.6585934689999
 31
0.0
  0
LINE
  5
277
330
2
100
AcDbEntity
  8
0
 62
     3
100
AcDbLine
 10
101.7620870772999
 20
128.1586051608999
 30
0.0
 11
101.7620870772999
 21
128.6586051608999
 31
0.0
  0
LINE
  5
278
330
2
100
AcDbEntity
  8
0
 62
     3
100
AcDbLine
 10
102.3120901290997
 20
128.6586051608999
 30
0.0
 11
101.4620840255998
 21
128.6586051608999
 31
0.0
  0
LINE
  5
279
330
2
100
AcDbEntity
  8
0
 62
     3
100
AcDbLine
 10
102.3120901290997
 20
128.1586051608999
 30
0.0
 11
102.3120901290997
 21
128.6586051608999
 31
0.0
  0
LINE
  5
27A
330
2
100
AcDbEntity
  8
0
 62
     3
100
AcDbLine
 10
102.6120779220998
 20
129.6586051608999
 30
0.0
 11
102.6120779220998
 21
129.1586051608999
 31
0.0
  0
LINE
  5
27B
330
2
100
AcDbEntity
  8
0
 62
     3
100
AcDbLine
 10
102.1120676632999
 20
130.6585934689999
 30
0.0
 11
103.1120687248999
 21
129.6585924073999
 31
0.0
  0
LINE
  5
27C
330
2
100
AcDbEntity
  8
0
 62
     3
100
AcDbLine
 10
104.4620840255997
 20
128.1586051608999
 30
0.0
 11
104.4620840255997
 21
128.6586051608999
 31
0.0
  0
LINE
  5
27D
330
2
100
AcDbEntity
  8
0
 62
     3
100
AcDbLine
 10
103.9120809737999
 20
128.1586051608999
 30
0.0
 11
103.9120809737999
 21
128.6586051608999
 31
0.0
  0
LINE
  5
27E
330
2
100
AcDbEntity
  8
0
 62
     3
100
AcDbLine
 10
103.6120779220998
 20
129.6586051608999
 30
0.0
 11
103.6120779220998
 21
129.1586051608999
 31
0.0
  0
LINE
  5
27F
330
2
100
AcDbEntity
  8
0
 62
     3
100
AcDbLine
 10
104.7620870772999
 20
128.6586051608999
 30
0.0
 11
103.9120809737999
 21
128.6586051608999
 31
0.0
  0
LINE
  5
280
330
2
100
AcDbEntity
  8
0
 62
     3
100
AcDbLine
 10
104.8441277762999
 20
131.65857868
 30
0.0
 11
103.1120769997998
 21
132.65857868
 31
0.0
  0
LINE
  5
281
330
2
100
AcDbEntity
  8
0
 62
     3
100
AcDbLine
 10
102.2460596668999
 20
132.1585789391999
 30
0.0
 11
103.1120850551999
 21
132.6585789391999
 31
0.0
  0
LINE
  5
282
330
2
100
AcDbEntity
  8
0
 62
     3
100
AcDbLine
 10
105.7879625043999
 20
131.5058291974
 30
0.0
 11
105.8620866076998
 21
130.6585863823999
 31
0.0
  0
ARC
  5
283
330
2
100
AcDbEntity
  8
0
 62
     3
100
AcDbCircle
 10
106.1464254561997
 20
128.4079795506
 30
0.0
 40
0.1999999881
100
AcDbArc
 50
251.5648456426
 51
338.198384509
  0
ARC
  5
284
330
2
100
AcDbEntity
  8
0
 62
     3
100
AcDbCircle
 10
106.1464254561997
 20
129.4079795506
 30
0.0
 40
0.1999999881
100
AcDbArc
 50
251.5649549256
 51
338.1982205843998
  0
LINE
  5
285
330
2
100
AcDbEntity
  8
0
 62
     3
100
AcDbLine
 10
106.2620870773
 20
128.9086051608999
 30
0.0
 11
106.2620870773
 21
128.4086051608999
 31
0.0
  0
LINE
  5
286
330
2
100
AcDbEntity
  8
0
 62
     3
100
AcDbLine
 10
106.4620786311999
 20
128.6585815893
 30
0.0
 11
106.3321118700997
 21
128.333665917
 31
0.0
  0
LINE
  5
287
330
2
100
AcDbEntity
  8
0
 62
     3
100
AcDbLine
 10
106.4620827708
 20
129.6585698089999
 30
0.0
 11
106.3321216765998
 21
129.3336683041
 31
0.0
  0
LINE
  5
288
330
2
100
AcDbEntity
  8
0
 62
     3
100
AcDbLine
 10
105.9620725605998
 20
127.1585707377
 30
0.0
 11
106.4620729227997
 21
126.6585699961999
 31
0.0
  0
LINE
  5
289
330
2
100
AcDbEntity
  8
0
 62
     3
100
AcDbLine
 10
105.8120901290998
 20
129.6586051608999
 30
0.0
 11
105.8120901290998
 21
130.6586051608999
 31
0.0
  0
LINE
  5
28A
330
2
100
AcDbEntity
  8
0
 62
     3
100
AcDbLine
 10
106.4620840256
 20
131.9785972263999
 30
0.0
 11
107.7620870772999
 21
131.9785972263999
 31
0.0
  0
LINE
  5
28B
330
2
100
AcDbEntity
  8
0
 62
     3
100
AcDbLine
 10
106.4620840256
 20
133.9286094333999
 30
0.0
 11
107.7620870772999
 21
133.9286094333999
 31
0.0
  0
LINE
  5
28C
330
2
100
AcDbEntity
  8
0
 62
     3
100
AcDbLine
 10
106.4620840256
 20
133.0786033298999
 30
0.0
 11
107.7620870772999
 21
133.0786033298999
 31
0.0
  0
ARC
  5
28D
330
2
100
AcDbEntity
  8
0
 62
     3
100
AcDbCircle
 10
104.7917654220998
 20
131.4186912205
 30
0.0
 40
1.0
100
AcDbArc
 50
5.000005831000001
 51
73.7429843175
  0
LINE
  5
28E
330
2
100
AcDbEntity
  8
0
 62
     3
100
AcDbLine
 10
107.7620870772999
 20
135.2086082126999
 30
0.0
 11
107.7620870772999
 21
131.9785972263999
 31
0.0
  0
LINE
  5
28F
330
2
100
AcDbEntity
  8
0
 62
     3
100
AcDbLine
 10
100.3681200136999
 20
192.5362647475999
 30
0.0
 11
101.7119128121997
 21
192.6909033601999
 31
0.0
  0
LINE
  5
290
330
2
100
AcDbEntity
  8
0
 62
     3
100
AcDbLine
 10
101.7119158143999
 20
186.0149315829
 30
0.0
 11
100.3681230159999
 21
186.1695701955
 31
0.0
  0
LINE
  5
291
330
2
100
AcDbEntity
  8
0
 62
     3
100
AcDbLine
 10
99.76190397190004
 20
185.8529563571998
 30
0.0
 11
106.4619009200999
 21
185.8529563571998
 31
0.0
  0
LINE
  5
292
330
2
100
AcDbEntity
  8
0
 62
     3
100
AcDbLine
 10
99.76190397190004
 20
184.4529777195
 30
0.0
 11
106.4619009200999
 21
184.4529777195
 31
0.0
  0
LINE
  5
293
330
2
100
AcDbEntity
  8
0
 62
     3
100
AcDbLine
 10
99.76190397190004
 20
183.9529777195
 30
0.0
 11
106.4619009200999
 21
183.9529777195
 31
0.0
  0
LINE
  5
294
330
2
100
AcDbEntity
  8
0
 62
     3
100
AcDbLine
 10
98.46193143770001
 20
182.9529014256
 30
0.0
 11
106.4619009200999
 21
182.9529014256
 31
0.0
  0
CIRCLE
  5
295
330
2
100
AcDbEntity
  8
0
 62
     3
100
AcDbCircle
 10
103.1119100753999
 20
189.3529105807999
 30
0.0
 40
2.75
  0
LINE
  5
296
330
2
100
AcDbEntity
  8
0
 62
     3
100
AcDbLine
 10
93.71194669649998
 20
192.6909080174
 30
0.0
 11
96.51194974819999
 21
192.6909080174
 31
0.0
  0
LINE
  5
297
330
2
100
AcDbEntity
  8
0
 62
     3
100
AcDbLine
 10
93.71194669649998
 20
186.0149436618998
 30
0.0
 11
96.51194974819999
 21
186.0149436618998
 31
0.0
  0
LINE
  5
298
330
2
100
AcDbEntity
  8
0
 62
     3
100
AcDbLine
 10
91.76194974819997
 20
185.8529716159999
 30
0.0
 11
98.46194669649998
 21
185.8529716159999
 31
0.0
  0
LINE
  5
299
330
2
100
AcDbEntity
  8
0
 62
     3
100
AcDbLine
 10
91.76194974819997
 20
184.4529929783
 30
0.0
 11
98.46194669649998
 21
184.4529929783
 31
0.0
  0
LINE
  5
29A
330
2
100
AcDbEntity
  8
0
 62
     3
100
AcDbLine
 10
91.76194974819997
 20
183.9529929782998
 30
0.0
 11
98.46194669649998
 21
183.9529929782998
 31
0.0
  0
LINE
  5
29B
330
2
100
AcDbEntity
  8
0
 62
     3
100
AcDbLine
 10
90.46197721409999
 20
182.9529166844
 30
0.0
 11
98.46194669649998
 21
182.9529166844
 31
0.0
  0
CIRCLE
  5
29C
330
2
100
AcDbEntity
  8
0
 62
     3
100
AcDbCircle
 10
95.11194059299999
 20
189.3529258396
 30
0.0
 40
2.75
  0
LINE
  5
29D
330
2
100
AcDbEntity
  8
0
 62
     3
100
AcDbLine
 10
96.52614429529998
 20
187.9387185580999
 30
0.0
 11
93.69772800849998
 21
190.7671348447999
 31
0.0
  0
ARC
  5
29E
330
2
100
AcDbEntity
  8
0
 62
     3
100
AcDbCircle
 10
89.79860135959999
 20
192.0395713473999
 30
0.0
 40
0.5
100
AcDbArc
 50
6.564484565999999
 51
83.43551452339999
  0
LINE
  5
29F
330
2
100
AcDbEntity
  8
0
 62
     3
100
AcDbLine
 10
90.44996854709998
 20
189.8529410984
 30
0.0
 11
89.816148967
 21
189.8529410984
 31
0.0
  0
LINE
  5
2A0
330
2
100
AcDbEntity
  8
0
 62
     3
100
AcDbLine
 10
90.44996854709998
 20
188.8529410984
 30
0.0
 11
89.81613370819998
 21
188.8529410984
 31
0.0
  0
ARC
  5
2A1
330
2
100
AcDbEntity
  8
0
 62
     3
100
AcDbCircle
 10
89.79860135959999
 20
186.6663261081999
 30
0.0
 40
0.5
100
AcDbArc
 50
276.5645401181
 51
353.4356076415
  0
LINE
  5
2A2
330
2
100
AcDbEntity
  8
0
 62
     3
100
AcDbLine
 10
87.61200162809997
 20
186.0149589206999
 30
0.0
 11
87.61200162809997
 21
186.6487785008
 31
0.0
  0
LINE
  5
2A3
330
2
100
AcDbEntity
  8
0
 62
     3
100
AcDbLine
 10
86.6119711105
 20
186.0149589206999
 30
0.0
 11
86.6119711105
 21
186.6487785008
 31
0.0
  0
LINE
  5
2A4
330
2
100
AcDbEntity
  8
0
 62
     3
100
AcDbLine
 10
88.99646050309996
 20
186.4994390564
 30
0.0
 11
89.96545251939995
 21
187.4684305826
 31
0.0
  0
LINE
  5
2A5
330
2
100
AcDbEntity
  8
0
 62
     3
100
AcDbLine
 10
89.85574899259995
 20
186.1696228062
 30
0.0
 11
88.51197135289998
 21
186.0149859379999
 31
0.0
  0
LINE
  5
2A6
330
2
100
AcDbEntity
  8
0
 62
     3
100
AcDbLine
 10
87.61200162809997
 20
192.6909232762
 30
0.0
 11
87.61200162809997
 21
192.0571036961
 31
0.0
  0
LINE
  5
2A7
330
2
100
AcDbEntity
  8
0
 62
     3
100
AcDbLine
 10
86.61201688689997
 20
192.6909232762
 30
0.0
 11
86.61201688689997
 21
192.0571036961
 31
0.0
  0
LINE
  5
2A8
330
2
100
AcDbEntity
  8
0
 62
     3
100
AcDbLine
 10
89.96545997490001
 20
191.2374336098999
 30
0.0
 11
88.99646795870001
 21
192.2064251361
 31
0.0
  0
LINE
  5
2A9
330
2
100
AcDbEntity
  8
0
 62
     3
100
AcDbLine
 10
88.51196791849998
 20
192.6909265433
 30
0.0
 11
89.85574555819999
 21
192.5362896750998
 31
0.0
  0
LINE
  5
2AA
330
2
100
AcDbEntity
  8
0
 62
     3
100
AcDbLine
 10
91.7739584152
 20
187.9529319431
 30
0.0
 11
91.7739584152
 21
190.7529197361
 31
0.0
  0
LINE
  5
2AB
330
2
100
AcDbEntity
  8
0
 62
     3
100
AcDbLine
 10
90.44996854709998
 20
187.9529472019
 30
0.0
 11
90.44996854709998
 21
190.7529349948999
 31
0.0
  0
ARC
  5
2AC
330
2
100
AcDbEntity
  8
0
 62
     3
100
AcDbCircle
 10
92.42532560269998
 20
186.6663108493998
 30
0.0
 40
0.5
100
AcDbArc
 50
186.5645034627
 51
263.4355504954999
  0
LINE
  5
2AD
330
2
100
AcDbEntity
  8
0
 62
     3
100
AcDbLine
 10
91.92859113529999
 20
186.6091477137999
 30
0.0
 11
91.77395244209998
 21
187.9529405121997
 31
0.0
  0
LINE
  5
2AE
330
2
100
AcDbEntity
  8
0
 62
     3
100
AcDbLine
 10
90.44994726819998
 20
187.9529374767999
 30
0.0
 11
90.29531031939994
 21
186.6091598370999
 31
0.0
  0
LINE
  5
2AF
330
2
100
AcDbEntity
  8
0
 62
     3
100
AcDbLine
 10
92.2584544501
 20
187.4684243405999
 30
0.0
 11
93.22744646629997
 21
186.4994328145
 31
0.0
  0
LINE
  5
2B0
330
2
100
AcDbEntity
  8
0
 62
     3
100
AcDbLine
 10
92.26194974819998
 20
184.4529929783
 30
0.0
 11
92.26194974819998
 21
185.8529716159999
 31
0.0
  0
LINE
  5
2B1
330
2
100
AcDbEntity
  8
0
 62
     3
100
AcDbLine
 10
93.7119433936
 20
186.0149519055999
 30
0.0
 11
92.36815059519996
 21
186.1695905182
 31
0.0
  0
ARC
  5
2B2
330
2
100
AcDbEntity
  8
0
 62
     3
100
AcDbCircle
 10
92.42532560269998
 20
192.0395560887
 30
0.0
 40
0.5
100
AcDbArc
 50
96.56444950450001
 51
173.4354965372999
  0
LINE
  5
2B3
330
2
100
AcDbEntity
  8
0
 62
     3
100
AcDbLine
 10
91.77397367399999
 20
189.8529258395999
 30
0.0
 11
92.40779325410001
 21
189.8529258395999
 31
0.0
  0
LINE
  5
2B4
330
2
100
AcDbEntity
  8
0
 62
     3
100
AcDbLine
 10
91.7739584152
 20
188.8529258396
 30
0.0
 11
92.40779325410001
 21
188.8529258396
 31
0.0
  0
LINE
  5
2B5
330
2
100
AcDbEntity
  8
0
 62
     3
100
AcDbLine
 10
91.77396554889998
 20
190.7529140405
 30
0.0
 11
91.9286042421
 21
192.096706839
 31
0.0
  0
LINE
  5
2B6
330
2
100
AcDbEntity
  8
0
 62
     3
100
AcDbLine
 10
90.29532404139999
 20
192.0967285219
 30
0.0
 11
90.4499609902
 21
190.7529508821999
 31
0.0
  0
LINE
  5
2B7
330
2
100
AcDbEntity
  8
0
 62
     3
100
AcDbLine
 10
93.22743901069998
 20
192.2064097987998
 30
0.0
 11
92.25844699449998
 21
191.2374182727
 31
0.0
  0
LINE
  5
2B8
330
2
100
AcDbEntity
  8
0
 62
     3
100
AcDbLine
 10
92.36815926280002
 20
192.5362764868
 30
0.0
 11
93.7119520613
 21
192.6909150993999
 31
0.0
  0
LINE
  5
2B9
330
2
100
AcDbEntity
  8
0
 62
     3
100
AcDbLine
 10
97.96542530929995
 20
191.2374140537
 30
0.0
 11
96.996433293
 21
192.2064055799
 31
0.0
  0
LINE
  5
2BA
330
2
100
AcDbEntity
  8
0
 62
     3
100
AcDbLine
 10
96.5119403393
 20
192.6909062206
 30
0.0
 11
97.85571797899999
 21
192.5362693523998
 31
0.0
  0
LINE
  5
2BB
330
2
100
AcDbEntity
  8
0
 62
     3
100
AcDbLine
 10
96.9964366271
 20
186.4994262437999
 30
0.0
 11
97.96542864330001
 21
187.46841777
 31
0.0
  0
LINE
  5
2BC
330
2
100
AcDbEntity
  8
0
 62
     3
100
AcDbLine
 10
97.85572664660001
 20
186.1695976526
 30
0.0
 11
96.51193384819999
 21
186.01495904
 31
0.0
  0
LINE
  5
2BD
330
2
100
AcDbEntity
  8
0
 62
     3
100
AcDbLine
 10
95.61197111049995
 20
186.0149436618998
 30
0.0
 11
95.61197111049995
 21
186.6487632419999
 31
0.0
  0
LINE
  5
2BE
330
2
100
AcDbEntity
  8
0
 62
     3
100
AcDbLine
 10
94.61194059299998
 20
186.0149436618998
 30
0.0
 11
94.61194059299998
 21
186.6487632419999
 31
0.0
  0
LINE
  5
2BF
330
2
100
AcDbEntity
  8
0
 62
     3
100
AcDbLine
 10
94.40482398799998
 20
188.6458253270999
 30
0.0
 11
95.81903752619998
 21
190.0600388653
 31
0.0
  0
LINE
  5
2C0
330
2
100
AcDbEntity
  8
0
 62
     3
100
AcDbLine
 10
95.61197111049995
 20
192.6909080174
 30
0.0
 11
95.61197111049995
 21
192.0570884373
 31
0.0
  0
LINE
  5
2C1
330
2
100
AcDbEntity
  8
0
 62
     3
100
AcDbLine
 10
94.61198636929998
 20
192.6909080174
 30
0.0
 11
94.61198636929998
 21
192.0570884373
 31
0.0
  0
LINE
  5
2C2
330
2
100
AcDbEntity
  8
0
 62
     3
100
AcDbLine
 10
99.7739278977
 20
187.9529166844
 30
0.0
 11
99.7739278977
 21
190.7529044772998
 31
0.0
  0
LINE
  5
2C3
330
2
100
AcDbEntity
  8
0
 62
     3
100
AcDbLine
 10
98.4499380295
 20
187.9529319431
 30
0.0
 11
98.4499380295
 21
190.7529197361
 31
0.0
  0
ARC
  5
2C4
330
2
100
AcDbEntity
  8
0
 62
     3
100
AcDbCircle
 10
97.79857084199996
 20
186.6663108493998
 30
0.0
 40
0.5
100
AcDbArc
 50
276.5645401181
 51
353.4356076415
  0
LINE
  5
2C5
330
2
100
AcDbEntity
  8
0
 62
     3
100
AcDbLine
 10
98.44992148799997
 20
187.9529318392
 30
0.0
 11
98.29528279469997
 21
186.6091390407997
 31
0.0
  0
ARC
  5
2C6
330
2
100
AcDbEntity
  8
0
 62
     3
100
AcDbCircle
 10
100.4252798263999
 20
186.6662955905999
 30
0.0
 40
0.5
100
AcDbArc
 50
186.5645034627
 51
263.4355504954999
  0
LINE
  5
2C7
330
2
100
AcDbEntity
  8
0
 62
     3
100
AcDbLine
 10
99.92855194070001
 20
186.6091364481998
 30
0.0
 11
99.7739132475
 21
187.9529292466999
 31
0.0
  0
LINE
  5
2C8
330
2
100
AcDbEntity
  8
0
 62
     3
100
AcDbLine
 10
100.2619039718999
 20
184.4529777195
 30
0.0
 11
100.2619039718999
 21
185.8529563571998
 31
0.0
  0
LINE
  5
2C9
330
2
100
AcDbEntity
  8
0
 62
     3
100
AcDbLine
 10
100.2584197843999
 20
187.4684047844999
 30
0.0
 11
101.2274118006998
 21
186.4994132582999
 31
0.0
  0
ARC
  5
2CA
330
2
100
AcDbEntity
  8
0
 62
     3
100
AcDbCircle
 10
97.79857084199996
 20
192.0395560887
 30
0.0
 40
0.5
100
AcDbArc
 50
6.564484565999999
 51
83.43551452339999
  0
LINE
  5
2CB
330
2
100
AcDbEntity
  8
0
 62
     3
100
AcDbLine
 10
98.44992277069998
 20
189.8529258395999
 30
0.0
 11
97.8161031906
 21
189.8529258395999
 31
0.0
  0
LINE
  5
2CC
330
2
100
AcDbEntity
  8
0
 62
     3
100
AcDbLine
 10
98.4499380295
 20
188.8529258396
 30
0.0
 11
97.8161031906
 21
188.8529258396
 31
0.0
  0
LINE
  5
2CD
330
2
100
AcDbEntity
  8
0
 62
     3
100
AcDbLine
 10
98.29528484669999
 20
192.0967172563998
 30
0.0
 11
98.44992353999998
 21
190.7529244579
 31
0.0
  0
ARC
  5
2CE
330
2
100
AcDbEntity
  8
0
 62
     3
100
AcDbCircle
 10
100.4252798263999
 20
192.0395408299
 30
0.0
 40
0.5
100
AcDbArc
 50
96.56444950450001
 51
173.4354965372999
  0
LINE
  5
2CF
330
2
100
AcDbEntity
  8
0
 62
     3
100
AcDbLine
 10
99.7739278977
 20
189.8529105808
 30
0.0
 11
100.4077474776998
 21
189.8529105808
 31
0.0
  0
LINE
  5
2D0
330
2
100
AcDbEntity
  8
0
 62
     3
100
AcDbLine
 10
99.7739278977
 20
188.8529105807999
 30
0.0
 11
100.4077474776998
 21
188.8529105807999
 31
0.0
  0
LINE
  5
2D1
330
2
100
AcDbEntity
  8
0
 62
     3
100
AcDbLine
 10
99.77392286540002
 20
190.7528949886
 30
0.0
 11
99.9285615586
 21
192.096687787
 31
0.0
  0
LINE
  5
2D2
330
2
100
AcDbEntity
  8
0
 62
     3
100
AcDbLine
 10
101.2274043450998
 20
192.2063861965999
 30
0.0
 11
100.2584123287999
 21
191.2373946704
 31
0.0
  0
LINE
  5
2D3
330
2
100
AcDbEntity
  8
0
 62
     3
100
AcDbLine
 10
106.4620687667999
 20
184.0530448581999
 30
0.0
 11
109.4620687667999
 21
184.0530448581999
 31
0.0
  0
LINE
  5
2D4
330
2
100
AcDbEntity
  8
0
 62
     3
100
AcDbLine
 10
105.9653906435999
 20
191.2373944976
 30
0.0
 11
104.9963986273998
 21
192.2063860237999
 31
0.0
  0
LINE
  5
2D5
330
2
100
AcDbEntity
  8
0
 62
     3
100
AcDbLine
 10
104.5119145044999
 20
192.6909010566999
 30
0.0
 11
105.8556921441997
 21
192.5362641885
 31
0.0
  0
LINE
  5
2D6
330
2
100
AcDbEntity
  8
0
 62
     3
100
AcDbLine
 10
104.9963911717999
 20
186.4994134312
 30
0.0
 11
105.9653831881
 21
187.4684049573
 31
0.0
  0
LINE
  5
2D7
330
2
100
AcDbEntity
  8
0
 62
     3
100
AcDbLine
 10
105.8556873974999
 20
186.1695859134
 30
0.0
 11
104.5118945990998
 21
186.0149473008
 31
0.0
  0
LINE
  5
2D8
330
2
100
AcDbEntity
  8
0
 62
     3
100
AcDbLine
 10
104.5261096295999
 20
187.9386969788999
 30
0.0
 11
101.6976825533
 21
190.7671240552
 31
0.0
  0
LINE
  5
2D9
330
2
100
AcDbEntity
  8
0
 62
     3
100
AcDbLine
 10
101.7119161788998
 20
186.0149284030998
 30
0.0
 11
104.5119039718999
 21
186.0149284030998
 31
0.0
  0
LINE
  5
2DA
330
2
100
AcDbEntity
  8
0
 62
     3
100
AcDbLine
 10
102.6119100753999
 20
186.0149284030998
 30
0.0
 11
102.6119100753999
 21
186.6487479831999
 31
0.0
  0
LINE
  5
2DB
330
2
100
AcDbEntity
  8
0
 62
     3
100
AcDbLine
 10
103.6119253342
 20
186.0149284030998
 30
0.0
 11
103.6119253342
 21
186.6487479831999
 31
0.0
  0
LINE
  5
2DC
330
2
100
AcDbEntity
  8
0
 62
     3
100
AcDbLine
 10
102.4047893224
 20
188.6458037479999
 30
0.0
 11
103.8190028604998
 21
190.0600172861
 31
0.0
  0
LINE
  5
2DD
330
2
100
AcDbEntity
  8
0
 62
     3
100
AcDbLine
 10
101.7119161788998
 20
192.6908927586
 30
0.0
 11
104.5119039718999
 21
192.6908927586
 31
0.0
  0
LINE
  5
2DE
330
2
100
AcDbEntity
  8
0
 62
     3
100
AcDbLine
 10
102.6119405929998
 20
192.6908927586
 30
0.0
 11
102.6119405929998
 21
192.0570731785
 31
0.0
  0
LINE
  5
2DF
330
2
100
AcDbEntity
  8
0
 62
     3
100
AcDbLine
 10
103.6119253342
 20
192.6908927586
 30
0.0
 11
103.6119253342
 21
192.0570731785
 31
0.0
  0
LINE
  5
2E0
330
2
100
AcDbEntity
  8
0
 62
     3
100
AcDbLine
 10
106.4498922530999
 20
187.9529166844
 30
0.0
 11
106.4498922530999
 21
190.7529044772998
 31
0.0
  0
ARC
  5
2E1
330
2
100
AcDbEntity
  8
0
 62
     3
100
AcDbCircle
 10
105.7985403243999
 20
186.6662955905999
 30
0.0
 40
0.5
100
AcDbArc
 50
276.5645401181
 51
353.4356076415
  0
LINE
  5
2E2
330
2
100
AcDbEntity
  8
0
 62
     3
100
AcDbLine
 10
106.4498939632997
 20
187.9529110429
 30
0.0
 11
106.2952552700999
 21
186.6091182444
 31
0.0
  0
ARC
  5
2E3
330
2
100
AcDbEntity
  8
0
 62
     3
100
AcDbCircle
 10
105.7985403243999
 20
192.0395408299
 30
0.0
 40
0.5
100
AcDbArc
 50
6.564484565999999
 51
83.43551452339999
  0
LINE
  5
2E4
330
2
100
AcDbEntity
  8
0
 62
     3
100
AcDbLine
 10
106.4498922530999
 20
189.8529105808
 30
0.0
 11
105.8160726729999
 21
189.8529105808
 31
0.0
  0
LINE
  5
2E5
330
2
100
AcDbEntity
  8
0
 62
     3
100
AcDbLine
 10
106.4498922530999
 20
188.8529105807999
 30
0.0
 11
105.8160726729999
 21
188.8529105807999
 31
0.0
  0
LINE
  5
2E6
330
2
100
AcDbEntity
  8
0
 62
     3
100
AcDbLine
 10
106.2952456520999
 20
192.0967059907999
 30
0.0
 11
106.4498843453999
 21
190.7529131923999
 31
0.0
  0
ARC
  5
2E7
330
2
100
AcDbEntity
  8
0
 62
     3
100
AcDbCircle
 10
112.6120626632999
 20
188.9530387546997
 30
0.0
 40
2.149999618499998
100
AcDbArc
 50
89.99998201389999
 51
269.9998914002
  0
LINE
  5
2E8
330
2
100
AcDbEntity
  8
0
 62
     3
100
AcDbLine
 10
112.6120626632999
 20
186.8030295993999
 30
0.0
 11
114.3120748702999
 21
186.8030295993999
 31
0.0
  0
LINE
  5
2E9
330
2
100
AcDbEntity
  8
0
 62
     3
100
AcDbLine
 10
112.6120626632999
 20
191.1030326512
 30
0.0
 11
114.3120748702999
 21
191.1030326512
 31
0.0
  0
LINE
  5
2EA
330
2
100
AcDbEntity
  8
0
 62
     3
100
AcDbLine
 10
116.9620840255997
 20
126.7085624362999
 30
0.0
 11
116.9620840255997
 21
122.3086143161999
 31
0.0
  0
LINE
  5
2EB
330
2
100
AcDbEntity
  8
0
 62
     3
100
AcDbLine
 10
117.4620840255998
 20
126.2085624363
 30
0.0
 11
117.4620840255998
 21
115.3086143161999
 31
0.0
  0
LINE
  5
2EC
330
2
100
AcDbEntity
  8
0
 62
     3
100
AcDbLine
 10
116.4620840255998
 20
121.3085990574
 30
0.0
 11
116.4620840255998
 21
115.8086143161999
 31
0.0
  0
LINE
  5
2ED
330
2
100
AcDbEntity
  8
0
 62
     3
100
AcDbLine
 10
116.4620969235999
 20
115.8085744674999
 30
0.0
 11
117.2120923249997
 21
115.0585790660999
 31
0.0
  0
LINE
  5
2EE
330
2
100
AcDbEntity
  8
0
 62
     3
100
AcDbLine
 10
117.4620896394999
 20
115.3085805758
 30
0.0
 11
116.9620890243999
 21
114.8085800870999
 31
0.0
  0
LINE
  5
2EF
330
2
100
AcDbEntity
  8
0
 62
     3
100
AcDbLine
 10
116.9620635
 20
122.3085466718999
 30
0.0
 11
117.4620604482998
 21
121.8085425164
 31
0.0
  0
LINE
  5
2F0
330
2
100
AcDbEntity
  8
0
 62
     3
100
AcDbLine
 10
117.4620850666
 20
121.8085191619999
 30
0.0
 11
116.4620779200998
 21
121.3085155887
 31
0.0
  0
LINE
  5
2F1
330
2
100
AcDbEntity
  8
0
 62
     3
100
AcDbLine
 10
116.9620855159998
 20
124.6901027312
 30
0.0
 11
117.4620844873998
 21
124.190100641
 31
0.0
  0
LINE
  5
2F2
330
2
100
AcDbEntity
  8
0
 62
     3
100
AcDbLine
 10
116.96207584
 20
126.7085628481
 30
0.0
 11
117.4620752327999
 21
126.2085611793
 31
0.0
  0
LINE
  5
2F3
330
2
100
AcDbEntity
  8
0
 62
     3
100
AcDbLine
 10
116.9620658137999
 20
183.9529753497999
 30
0.0
 11
117.4620658137999
 21
183.9529829791999
 31
0.0
  0
LINE
  5
2F4
330
2
100
AcDbEntity
  8
0
 62
     3
100
AcDbLine
 10
116.4620755709999
 20
182.9529905132
 30
0.0
 11
117.4620778126999
 21
183.9529903946998
 31
0.0
  0
LINE
  5
2F5
330
2
100
AcDbEntity
  8
0
 62
     3
100
AcDbLine
 10
166.2216665450999
 20
192.9530387547
 30
0.0
 11
177.0216543380998
 21
192.9530387547
 31
0.0
  0
LINE
  5
2F6
330
2
100
AcDbEntity
  8
0
 62
     3
100
AcDbLine
 10
170.5216543380998
 20
183.9530540135
 30
0.0
 11
178.6216604415999
 21
183.9530540135
 31
0.0
  0
LINE
  5
2F7
330
2
100
AcDbEntity
  8
0
 62
     3
100
AcDbLine
 10
166.2216665450999
 20
184.9530387547
 30
0.0
 11
177.0216543380998
 21
184.9530387547
 31
0.0
  0
LINE
  5
2F8
330
2
100
AcDbEntity
  8
0
 62
     3
100
AcDbLine
 10
165.6216604415999
 20
182.9530387547
 30
0.0
 11
185.1216604416
 21
182.9530387547
 31
0.0
  0
LINE
  5
2F9
330
2
100
AcDbEntity
  8
0
 62
     3
100
AcDbLine
 10
166.2216665450999
 20
193.9530387547
 30
0.0
 11
174.5513479416
 21
193.9530387547
 31
0.0
  0
ARC
  5
2FA
330
2
100
AcDbEntity
  8
0
  6
PHANTOM
 62
     3
100
AcDbCircle
 10
165.9062215987999
 20
184.053060117
 30
0.0
 40
1.899999618499998
100
AcDbArc
 50
267.2164700125
 51
324.6226629486
  0
ARC
  5
2FB
330
2
100
AcDbEntity
  8
0
  6
PHANTOM
 62
     3
100
AcDbCircle
 10
165.7216818038999
 20
184.053060117
 30
0.0
 40
1.899999618499998
100
AcDbArc
 50
179.9999640277999
 51
272.5289192046
  0
ARC
  5
2FC
330
2
100
AcDbEntity
  8
0
 62
     3
100
AcDbCircle
 10
165.7216665450999
 20
184.0530448581999
 30
0.0
 40
1.0999994278
100
AcDbArc
 50
179.9999640277999
 51
269.9999460416999
  0
LINE
  5
2FD
330
2
100
AcDbEntity
  8
0
 62
     3
100
AcDbLine
 10
165.6216604415999
 20
185.5530448581999
 30
0.0
 11
165.6216604415999
 21
192.3530479098999
 31
0.0
  0
LINE
  5
2FE
330
2
100
AcDbEntity
  8
0
 62
     3
100
AcDbLine
 10
165.6216535919999
 20
182.9530138029
 30
0.0
 11
164.6216519402998
 21
183.9530142743999
 31
0.0
  0
ARC
  5
2FF
330
2
100
AcDbEntity
  8
0
 62
     3
100
AcDbCircle
 10
166.2216818038999
 20
185.5530448581999
 30
0.0
 40
0.5999999046
100
AcDbArc
 50
179.9999640277999
 51
269.9999460416999
  0
ARC
  5
300
330
2
100
AcDbEntity
  8
0
 62
     3
100
AcDbCircle
 10
166.2216818038999
 20
192.3530479098999
 30
0.0
 40
0.5999999046
100
AcDbArc
 50
89.99998201389999
 51
179.9999640277999
  0
LINE
  5
301
330
2
100
AcDbEntity
  8
0
 62
     3
100
AcDbLine
 10
170.5216543380998
 20
182.9530387547
 30
0.0
 11
170.5216543380998
 21
183.9530540135
 31
0.0
  0
LINE
  5
302
330
2
100
AcDbEntity
  8
0
 62
     3
100
AcDbLine
 10
179.1216604416
 20
183.9530387547
 30
0.0
 11
185.6216604415999
 21
183.9530387547
 31
0.0
  0
LINE
  5
303
330
2
100
AcDbEntity
  8
0
 62
     3
100
AcDbLine
 10
178.6216816804999
 20
183.9529955209999
 30
0.0
 11
179.6216844279999
 21
182.9529961453
 31
0.0
  0
LINE
  5
304
330
2
100
AcDbEntity
  8
0
 62
     3
100
AcDbLine
 10
177.6216604415999
 20
185.5530448581999
 30
0.0
 11
177.6216604415999
 21
192.3530479098999
 31
0.0
  0
LINE
  5
305
330
2
100
AcDbEntity
  8
0
 62
     3
100
AcDbLine
 10
178.6216604415999
 20
183.9530540135
 30
0.0
 11
178.6216604415999
 21
193.8280540135
 31
0.0
  0
ARC
  5
306
330
2
100
AcDbEntity
  8
0
 62
     3
100
AcDbCircle
 10
177.0216695968999
 20
185.5530448581999
 30
0.0
 40
0.5999999046
100
AcDbArc
 50
270.0000179861
 51
0.0
  0
LINE
  5
307
330
2
100
AcDbEntity
  8
0
 62
     3
100
AcDbLine
 10
177.6216604415999
 20
186.1030479098999
 30
0.0
 11
178.6216604415999
 21
186.1030479098999
 31
0.0
  0
LINE
  5
308
330
2
100
AcDbEntity
  8
0
 62
     3
100
AcDbLine
 10
176.3400747481999
 20
193.8280540135
 30
0.0
 11
178.6216604415999
 21
193.8280540135
 31
0.0
  0
ARC
  5
309
330
2
100
AcDbEntity
  8
0
 62
     3
100
AcDbCircle
 10
177.0216695968999
 20
192.3530479098999
 30
0.0
 40
0.5999999046
100
AcDbArc
 50
0.0
 51
89.99998201389999
  0
LINE
  5
30A
330
2
100
AcDbEntity
  8
0
 62
     3
100
AcDbLine
 10
177.6216604415999
 20
191.8030448581999
 30
0.0
 11
178.6216604415999
 21
191.8030448581999
 31
0.0
  0
LINE
  5
30B
330
2
100
AcDbEntity
  8
0
 62
     3
100
AcDbLine
 10
185.1216477885999
 20
182.9530182256
 30
0.0
 11
186.1216507046998
 21
183.9530174328
 31
0.0
  0
LINE
  5
312
330
2
100
AcDbEntity
  8
0
100
AcDbLine
 10
210.0
 20
297.0
 30
0.0
 11
0.0
 21
297.0
 31
0.0
  0
LINE
  5
315
330
2
100
AcDbEntity
  8
0
 62
     3
100
AcDbLine
 10
86.40484786409997
 20
205.8458069019
 30
0.0
 11
87.81906140229997
 21
207.26002044
 31
0.0
  0
LINE
  5
316
330
2
100
AcDbEntity
  8
0
 62
     3
100
AcDbLine
 10
88.52616817129998
 20
205.1387001328
 30
0.0
 11
85.69775188459997
 21
207.9671164195
 31
0.0
  0
LINE
  5
317
330
2
100
AcDbEntity
  8
0
 62
     3
100
AcDbLine
 10
85.71197721409999
 20
209.8908897068
 30
0.0
 11
88.51198026579998
 21
209.8908897068
 31
0.0
  0
LINE
  5
318
330
2
100
AcDbEntity
  8
0
 62
     3
100
AcDbLine
 10
85.71197721409999
 20
203.2149253513999
 30
0.0
 11
88.51198026579998
 21
203.2149253513999
 31
0.0
  0
LINE
  5
319
330
2
100
AcDbEntity
  8
0
 62
     3
100
AcDbLine
 10
90.46196195530001
 20
212.9529319431
 30
0.0
 11
82.46199247279998
 21
212.9529319431
 31
0.0
  0
CIRCLE
  5
31A
330
2
100
AcDbEntity
  8
0
 62
     3
100
AcDbCircle
 10
87.11197111049997
 20
206.5529227878999
 30
0.0
 40
2.75
  0
LINE
  5
31B
330
2
100
AcDbEntity
  8
0
 62
     3
100
AcDbLine
 10
90.46197721409999
 20
200.9529166844
 30
0.0
 11
83.76198026579999
 21
200.9529166844
 31
0.0
  0
LINE
  5
31C
330
2
100
AcDbEntity
  8
0
 62
     3
100
AcDbLine
 10
90.46197721409999
 20
210.0528464938999
 30
0.0
 11
83.76198026579999
 21
210.0528464938999
 31
0.0
  0
LINE
  5
31D
330
2
100
AcDbEntity
  8
0
 62
     3
100
AcDbLine
 10
90.46197721409999
 20
211.4528251315999
 30
0.0
 11
83.76198026579999
 21
211.4528251315999
 31
0.0
  0
LINE
  5
31E
330
2
100
AcDbEntity
  8
0
 62
     3
100
AcDbLine
 10
90.46197721409999
 20
211.9528251316
 30
0.0
 11
83.76198026579999
 21
211.9528251316
 31
0.0
  0
LINE
  5
31F
330
2
100
AcDbEntity
  8
0
 62
     3
100
AcDbLine
 10
83.76198026579999
 20
194.9529319430999
 30
0.0
 11
90.46197721409999
 21
194.9529319430999
 31
0.0
  0
LINE
  5
320
330
2
100
AcDbEntity
  8
0
  6
PHANTOM
 62
     3
100
AcDbLine
 10
48.96209928439998
 20
213.7529960301
 30
0.0
 11
107.9620687667999
 21
213.7529960301
 31
0.0
  0
LINE
  5
321
330
2
100
AcDbEntity
  8
0
  6
CENTER
 62
     3
100
AcDbLine
 10
36.96209928440001
 20
197.9529929783
 30
0.0
 11
119.9620687667999
 21
197.9529929783
 31
0.0
  0
LINE
  5
322
330
2
100
AcDbEntity
  8
0
 62
     3
100
AcDbLine
 10
58.46208402559998
 20
211.4528861668
 30
0.0
 11
51.76208707729998
 21
211.4528861668
 31
0.0
  0
LINE
  5
323
330
2
100
AcDbEntity
  8
0
 62
     3
100
AcDbLine
 10
58.46208402559998
 20
211.9528861667999
 30
0.0
 11
51.76208707729998
 21
211.9528861667999
 31
0.0
  0
LINE
  5
324
330
2
100
AcDbEntity
  8
0
 62
     3
100
AcDbLine
 10
58.46208402559998
 20
212.9529777195
 30
0.0
 11
50.46211454319998
 21
212.9529777195
 31
0.0
  0
LINE
  5
325
330
2
100
AcDbEntity
  8
0
 62
     3
100
AcDbLine
 10
56.51206674689999
 20
209.8909495129
 30
0.0
 11
57.8558595454
 21
209.7363109003
 31
0.0
  0
LINE
  5
326
330
2
100
AcDbEntity
  8
0
 62
     3
100
AcDbLine
 10
57.85586851229999
 20
203.3696365266
 30
0.0
 11
56.51209087269998
 21
203.2149996583998
 31
0.0
  0
LINE
  5
327
330
2
100
AcDbEntity
  8
0
 62
     3
100
AcDbLine
 10
58.46208402559998
 20
200.9529777195
 30
0.0
 11
51.76208707729998
 21
200.9529777195
 31
0.0
  0
LINE
  5
328
330
2
100
AcDbEntity
  8
0
 62
     3
100
AcDbLine
 10
58.46208402559998
 20
210.0529075290999
 30
0.0
 11
51.76208707729998
 21
210.0529075290999
 31
0.0
  0
LINE
  5
329
330
2
100
AcDbEntity
  8
0
 62
     3
100
AcDbLine
 10
51.76208707729998
 20
194.9529929782999
 30
0.0
 11
58.46208402559998
 21
194.9529929782999
 31
0.0
  0
CIRCLE
  5
32A
330
2
100
AcDbEntity
  8
0
 62
     3
100
AcDbCircle
 10
55.11207792209996
 20
206.5529838229998
 30
0.0
 40
2.75
  0
ARC
  5
32B
330
2
100
AcDbEntity
  8
0
 62
     3
100
AcDbCircle
 10
42.61209318089996
 20
206.9530387547
 30
0.0
 40
2.149999618499998
100
AcDbArc
 50
89.99998201389999
 51
269.9999460416999
  0
LINE
  5
32C
330
2
100
AcDbEntity
  8
0
  6
CENTER
 62
     3
100
AcDbLine
 10
39.96209928439998
 20
206.9530387547
 30
0.0
 11
47.04527494359999
 21
206.9530387547
 31
0.0
  0
LINE
  5
32D
330
2
100
AcDbEntity
  8
0
 62
     3
100
AcDbLine
 10
47.46209928439998
 20
198.40874249
 30
0.0
 11
39.96209928439998
 21
198.40874249
 31
0.0
  0
LINE
  5
32E
330
2
100
AcDbEntity
  8
0
 62
     3
100
AcDbLine
 10
47.46209928439998
 20
202.0529838229999
 30
0.0
 11
39.96209928439998
 21
202.0529838229999
 31
0.0
  0
LINE
  5
32F
330
2
100
AcDbEntity
  8
0
 62
     3
100
AcDbLine
 10
47.46209928439998
 20
211.9529777195
 30
0.0
 11
39.96209928439998
 21
211.9529777195
 31
0.0
  0
LINE
  5
330
330
2
100
AcDbEntity
  8
0
 62
     3
100
AcDbLine
 10
50.46209928439998
 20
212.9529777195
 30
0.0
 11
40.46209928439998
 21
212.9529777195
 31
0.0
  0
LINE
  5
331
330
2
100
AcDbEntity
  8
0
 62
     3
100
AcDbLine
 10
39.96209928439998
 20
197.4972434666
 30
0.0
 11
47.46209928439998
 21
197.4972434666
 31
0.0
  0
LINE
  5
332
330
2
100
AcDbEntity
  8
0
 62
     3
100
AcDbLine
 10
39.46213441639997
 20
197.9529281970999
 30
0.0
 11
39.96213679959996
 21
198.4086799095999
 31
0.0
  0
LINE
  5
333
330
2
100
AcDbEntity
  8
0
 62
     3
100
AcDbLine
 10
39.96218424809999
 20
197.4971550093
 30
0.0
 11
39.46220441909997
 21
197.9528861638
 31
0.0
  0
LINE
  5
334
330
2
100
AcDbEntity
  8
0
 62
     3
100
AcDbLine
 10
39.46222219969999
 20
201.5528400626999
 30
0.0
 11
39.96222091809997
 21
202.0528424057999
 31
0.0
  0
LINE
  5
335
330
2
100
AcDbEntity
  8
0
 62
     3
100
AcDbLine
 10
40.46208424139999
 20
212.9529717846999
 30
0.0
 11
39.46208199969999
 21
211.9529719033
 31
0.0
  0
LINE
  5
336
330
2
100
AcDbEntity
  8
0
 62
     3
100
AcDbLine
 10
39.96212683099997
 20
211.9529753571999
 30
0.0
 11
39.462126831
 21
211.9529677277999
 31
0.0
  0
LINE
  5
337
330
2
100
AcDbEntity
  8
0
 62
     3
100
AcDbLine
 10
50.46209928439998
 20
211.8529716159998
 30
0.0
 11
47.46209928439998
 21
211.8529716159998
 31
0.0
  0
LINE
  5
338
330
2
100
AcDbEntity
  8
0
 62
     3
100
AcDbLine
 10
50.46209928439998
 20
201.1529746678
 30
0.0
 11
48.96209928439998
 21
201.1529746678
 31
0.0
  0
LINE
  5
339
330
2
100
AcDbEntity
  8
0
 62
     3
100
AcDbLine
 10
48.96209928439998
 20
194.7529960301
 30
0.0
 11
50.46209928439998
 21
194.7529960301
 31
0.0
  0
ARC
  5
33A
330
2
100
AcDbEntity
  8
0
 62
     3
100
AcDbCircle
 10
44.31210538789997
 20
206.9530387547
 30
0.0
 40
2.149999618499998
100
AcDbArc
 50
270.0000726275999
 51
89.9999273723999
  0
LINE
  5
33B
330
2
100
AcDbEntity
  8
0
 62
     3
100
AcDbLine
 10
44.31210538789997
 20
204.802983823
 30
0.0
 11
42.61209318089996
 21
204.802983823
 31
0.0
  0
LINE
  5
33C
330
2
100
AcDbEntity
  8
0
 62
     3
100
AcDbLine
 10
48.96209928439998
 20
194.4697013523
 30
0.0
 11
48.96209928439998
 21
201.4362693454999
 31
0.0
  0
LINE
  5
33D
330
2
100
AcDbEntity
  8
0
 62
     3
100
AcDbLine
 10
44.31210538789997
 20
209.1029716159999
 30
0.0
 11
42.61209318089996
 21
209.1029716159999
 31
0.0
  0
LINE
  5
33E
330
2
100
AcDbEntity
  8
0
 62
     3
100
AcDbLine
 10
56.52638236109999
 20
205.138667764
 30
0.0
 11
53.69795528479997
 21
207.9670948402999
 31
0.0
  0
LINE
  5
33F
330
2
100
AcDbEntity
  8
0
 62
     3
100
AcDbLine
 10
51.77409574429995
 20
205.1529746677999
 30
0.0
 11
51.77409574429995
 21
207.9529624607
 31
0.0
  0
LINE
  5
340
330
2
100
AcDbEntity
  8
0
 62
     3
100
AcDbLine
 10
51.76208707729998
 20
200.9529624607
 30
0.0
 11
51.76208707729998
 21
212.9529777195
 31
0.0
  0
LINE
  5
341
330
2
100
AcDbEntity
  8
0
 62
     3
100
AcDbLine
 10
50.46211454319998
 20
201.1529746678
 30
0.0
 11
50.46211454319998
 21
212.9529777195
 31
0.0
  0
LINE
  5
342
330
2
100
AcDbEntity
  8
0
 62
     3
100
AcDbLine
 10
52.25859105999996
 20
204.6684821169
 30
0.0
 11
53.2275830763
 21
203.6994905907
 31
0.0
  0
LINE
  5
343
330
2
100
AcDbEntity
  8
0
 62
     3
100
AcDbLine
 10
53.71206980129997
 20
203.2149951979
 30
0.0
 11
52.36829216159998
 21
203.3696320660999
 31
0.0
  0
LINE
  5
344
330
2
100
AcDbEntity
  8
0
 62
     3
100
AcDbLine
 10
50.46211454319998
 20
194.7531181004
 30
0.0
 11
51.76208707729998
 21
194.7531181004
 31
0.0
  0
LINE
  5
345
330
2
100
AcDbEntity
  8
0
 62
     3
100
AcDbLine
 10
51.76208707729998
 20
201.1529288913999
 30
0.0
 11
50.46211454319998
 21
201.1529288913999
 31
0.0
  0
LINE
  5
346
330
2
100
AcDbEntity
  8
0
 62
     3
100
AcDbLine
 10
51.92874512429995
 20
203.8092012394999
 30
0.0
 11
51.77410643109997
 21
205.152994038
 31
0.0
  0
ARC
  5
347
330
2
100
AcDbEntity
  8
0
 62
     3
100
AcDbCircle
 10
52.42546293179998
 20
203.8663688328
 30
0.0
 40
0.5
100
AcDbArc
 50
186.5645034627
 51
263.4355504954999
  0
LINE
  5
348
330
2
100
AcDbEntity
  8
0
 62
     3
100
AcDbLine
 10
53.71208402559995
 20
203.2149863864999
 30
0.0
 11
56.51208707729995
 21
203.2149863864999
 31
0.0
  0
LINE
  5
349
330
2
100
AcDbEntity
  8
0
 62
     3
100
AcDbLine
 10
54.61207792209996
 20
203.2149863864999
 30
0.0
 11
54.61207792209996
 21
203.8488212254
 31
0.0
  0
LINE
  5
34A
330
2
100
AcDbEntity
  8
0
 62
     3
100
AcDbLine
 10
55.61210843959997
 20
203.2149863864999
 30
0.0
 11
55.61210843959997
 21
203.8488059666
 31
0.0
  0
LINE
  5
34B
330
2
100
AcDbEntity
  8
0
 62
     3
100
AcDbLine
 10
53.22760589899999
 20
209.4064014887999
 30
0.0
 11
52.25861388269999
 21
208.4374099626
 31
0.0
  0
LINE
  5
34C
330
2
100
AcDbEntity
  8
0
 62
     3
100
AcDbLine
 10
52.3682993841
 20
209.7363305195
 30
0.0
 11
53.71209218259997
 21
209.8909691320999
 31
0.0
  0
LINE
  5
34D
330
2
100
AcDbEntity
  8
0
 62
     3
100
AcDbLine
 10
52.26208707729995
 20
210.0529075290999
 30
0.0
 11
52.26208707729995
 21
211.4528861668
 31
0.0
  0
LINE
  5
34E
330
2
100
AcDbEntity
  8
0
 62
     3
100
AcDbLine
 10
51.77409574429995
 20
207.0529685642
 30
0.0
 11
52.40791532439996
 21
207.0529685642
 31
0.0
  0
LINE
  5
34F
330
2
100
AcDbEntity
  8
0
 62
     3
100
AcDbLine
 10
51.77411100309999
 20
206.0529838229999
 30
0.0
 11
52.4079305832
 21
206.0529838229999
 31
0.0
  0
LINE
  5
350
330
2
100
AcDbEntity
  8
0
 62
     3
100
AcDbLine
 10
51.7740927024
 20
207.9529598185999
 30
0.0
 11
51.92873139559998
 21
209.2967526169999
 31
0.0
  0
ARC
  5
351
330
2
100
AcDbEntity
  8
0
 62
     3
100
AcDbCircle
 10
52.42546293179998
 20
209.2396140720999
 30
0.0
 40
0.5
100
AcDbArc
 50
96.56444950450001
 51
173.4354965372999
  0
LINE
  5
352
330
2
100
AcDbEntity
  8
0
 62
     3
100
AcDbLine
 10
54.4050620539
 20
205.8457745330998
 30
0.0
 11
55.81927559199996
 21
207.2599880712999
 31
0.0
  0
LINE
  5
353
330
2
100
AcDbEntity
  8
0
 62
     3
100
AcDbLine
 10
53.71208402559995
 20
209.890950742
 30
0.0
 11
56.51208707729995
 21
209.890950742
 31
0.0
  0
LINE
  5
354
330
2
100
AcDbEntity
  8
0
 62
     3
100
AcDbLine
 10
54.61212369839995
 20
209.890950742
 30
0.0
 11
54.61212369839995
 21
209.2571311618999
 31
0.0
  0
LINE
  5
355
330
2
100
AcDbEntity
  8
0
 62
     3
100
AcDbLine
 10
55.61210843959997
 20
209.8909354831999
 30
0.0
 11
55.61210843959997
 21
209.2571159030998
 31
0.0
  0
LINE
  5
356
330
2
100
AcDbEntity
  8
0
 62
     3
100
AcDbLine
 10
74.46203824919996
 20
211.4528556491999
 30
0.0
 11
67.76204130099998
 21
211.4528556491999
 31
0.0
  0
LINE
  5
357
330
2
100
AcDbEntity
  8
0
 62
     3
100
AcDbLine
 10
74.46203824919996
 20
211.9528556491999
 30
0.0
 11
67.76204130099998
 21
211.9528556491999
 31
0.0
  0
LINE
  5
358
330
2
100
AcDbEntity
  8
0
 62
     3
100
AcDbLine
 10
74.46203824919996
 20
212.9529472019
 30
0.0
 11
66.46206876679997
 21
212.9529472019
 31
0.0
  0
LINE
  5
359
330
2
100
AcDbEntity
  8
0
 62
     3
100
AcDbLine
 10
72.52622671309999
 20
205.1387325015998
 30
0.0
 11
69.69781042629995
 21
207.9671487883
 31
0.0
  0
LINE
  5
35A
330
2
100
AcDbEntity
  8
0
 62
     3
100
AcDbLine
 10
69.71203824919999
 20
209.8909202243999
 30
0.0
 11
72.51204130099998
 21
209.8909202243999
 31
0.0
  0
LINE
  5
35B
330
2
100
AcDbEntity
  8
0
 62
     3
100
AcDbLine
 10
69.71203824919999
 20
203.2149558688999
 30
0.0
 11
72.51204130099998
 21
203.2149558688999
 31
0.0
  0
LINE
  5
35C
330
2
100
AcDbEntity
  8
0
 62
     3
100
AcDbLine
 10
74.46203824919996
 20
200.9529472019
 30
0.0
 11
67.76204130099998
 21
200.9529472019
 31
0.0
  0
LINE
  5
35D
330
2
100
AcDbEntity
  8
0
 62
     3
100
AcDbLine
 10
74.46203824919996
 20
210.0528770114999
 30
0.0
 11
67.76204130099998
 21
210.0528770114999
 31
0.0
  0
CIRCLE
  5
35E
330
2
100
AcDbEntity
  8
0
 62
     3
100
AcDbCircle
 10
71.1120321457
 20
206.5529533054998
 30
0.0
 40
2.75
  0
LINE
  5
35F
330
2
100
AcDbEntity
  8
0
 62
     3
100
AcDbLine
 10
70.4049064058
 20
205.8458392706999
 30
0.0
 11
71.819119944
 21
207.2600528087999
 31
0.0
  0
LINE
  5
360
330
2
100
AcDbEntity
  8
0
 62
     3
100
AcDbLine
 10
67.76207181859999
 20
194.9529929782999
 30
0.0
 11
74.46206876679998
 21
194.9529929782999
 31
0.0
  0
LINE
  5
361
330
2
100
AcDbEntity
  8
0
 62
     3
100
AcDbLine
 10
64.52627216829998
 20
205.1387432912
 30
0.0
 11
61.69785588159999
 21
207.9671595779
 31
0.0
  0
LINE
  5
362
330
2
100
AcDbEntity
  8
0
 62
     3
100
AcDbLine
 10
61.71206876679997
 20
209.8909354831999
 30
0.0
 11
64.51207181859999
 21
209.8909354831999
 31
0.0
  0
LINE
  5
363
330
2
100
AcDbEntity
  8
0
 62
     3
100
AcDbLine
 10
61.71206876679997
 20
203.2149711276999
 30
0.0
 11
64.51207181859999
 21
203.2149711276999
 31
0.0
  0
CIRCLE
  5
364
330
2
100
AcDbEntity
  8
0
 62
     3
100
AcDbCircle
 10
63.11206266329998
 20
206.5529685641999
 30
0.0
 40
2.75
  0
LINE
  5
365
330
2
100
AcDbEntity
  8
0
 62
     3
100
AcDbLine
 10
66.46206876679997
 20
200.9529624607
 30
0.0
 11
59.76207181859999
 21
200.9529624607
 31
0.0
  0
LINE
  5
366
330
2
100
AcDbEntity
  8
0
 62
     3
100
AcDbLine
 10
66.46206876679997
 20
210.0528922703
 30
0.0
 11
59.76207181859999
 21
210.0528922703
 31
0.0
  0
LINE
  5
367
330
2
100
AcDbEntity
  8
0
 62
     3
100
AcDbLine
 10
66.46206876679997
 20
211.452870908
 30
0.0
 11
59.76207181859999
 21
211.452870908
 31
0.0
  0
LINE
  5
368
330
2
100
AcDbEntity
  8
0
 62
     3
100
AcDbLine
 10
66.46206876679997
 20
211.9528709079999
 30
0.0
 11
59.76207181859999
 21
211.9528709079999
 31
0.0
  0
LINE
  5
369
330
2
100
AcDbEntity
  8
0
 62
     3
100
AcDbLine
 10
66.46206876679997
 20
212.9529624607
 30
0.0
 11
58.46209928439998
 21
212.9529624607
 31
0.0
  0
LINE
  5
36A
330
2
100
AcDbEntity
  8
0
 62
     3
100
AcDbLine
 10
59.76207181859999
 20
194.9529777195
 30
0.0
 11
66.46206876679997
 21
194.9529777195
 31
0.0
  0
LINE
  5
36B
330
2
100
AcDbEntity
  8
0
 62
     3
100
AcDbLine
 10
59.77408048549998
 20
205.1529594089998
 30
0.0
 11
59.77408048549998
 21
207.9529472018999
 31
0.0
  0
LINE
  5
36C
330
2
100
AcDbEntity
  8
0
 62
     3
100
AcDbLine
 10
58.45007535859997
 20
205.1529746677999
 30
0.0
 11
58.45007535859997
 21
207.9529624607
 31
0.0
  0
LINE
  5
36D
330
2
100
AcDbEntity
  8
0
 62
     3
100
AcDbLine
 10
59.76207181859999
 20
200.9529472019
 30
0.0
 11
59.76207181859999
 21
212.9529624607
 31
0.0
  0
LINE
  5
36E
330
2
100
AcDbEntity
  8
0
 62
     3
100
AcDbLine
 10
58.46208402559998
 20
200.9529624607
 30
0.0
 11
58.46208402559998
 21
212.9529777195
 31
0.0
  0
LINE
  5
36F
330
2
100
AcDbEntity
  8
0
 62
     3
100
AcDbLine
 10
60.25866429029997
 20
204.6683762439999
 30
0.0
 11
61.22758077939995
 21
203.699460245
 31
0.0
  0
LINE
  5
370
330
2
100
AcDbEntity
  8
0
 62
     3
100
AcDbLine
 10
61.71205912519997
 20
203.2149882895999
 30
0.0
 11
60.36828148549997
 21
203.3696251578
 31
0.0
  0
LINE
  5
371
330
2
100
AcDbEntity
  8
0
 62
     3
100
AcDbLine
 10
58.46209928439998
 20
194.7531028415999
 30
0.0
 11
59.76207181859999
 21
194.7531028415999
 31
0.0
  0
LINE
  5
372
330
2
100
AcDbEntity
  8
0
 62
     3
100
AcDbLine
 10
59.76207181859999
 20
201.1529136325999
 30
0.0
 11
58.46209928439998
 21
201.1529136325999
 31
0.0
  0
LINE
  5
373
330
2
100
AcDbEntity
  8
0
 62
     3
100
AcDbLine
 10
58.45006380029997
 20
205.1529758729
 30
0.0
 11
58.29542685149999
 21
203.8091982331999
 31
0.0
  0
LINE
  5
374
330
2
100
AcDbEntity
  8
0
 62
     3
100
AcDbLine
 10
56.99672220079998
 20
203.6993208273998
 30
0.0
 11
57.96571421699997
 21
204.6683123534999
 31
0.0
  0
ARC
  5
375
330
2
100
AcDbEntity
  8
0
 62
     3
100
AcDbCircle
 10
57.79870817109998
 20
203.8663688328
 30
0.0
 40
0.5
100
AcDbArc
 50
276.5645401181
 51
353.4356076415
  0
LINE
  5
376
330
2
100
AcDbEntity
  8
0
 62
     3
100
AcDbLine
 10
59.92873624719999
 20
203.8091934627999
 30
0.0
 11
59.77409929839999
 21
205.1529711025
 31
0.0
  0
ARC
  5
377
330
2
100
AcDbEntity
  8
0
 62
     3
100
AcDbCircle
 10
60.42544767299998
 20
203.8663535739999
 30
0.0
 40
0.5
100
AcDbArc
 50
186.5645034627
 51
263.4355504954999
  0
LINE
  5
378
330
2
100
AcDbEntity
  8
0
 62
     3
100
AcDbLine
 10
63.61209318089996
 20
203.2149863864999
 30
0.0
 11
63.61209318089996
 21
203.8488059666
 31
0.0
  0
LINE
  5
379
330
2
100
AcDbEntity
  8
0
 62
     3
100
AcDbLine
 10
62.61206266329998
 20
203.2149711276999
 30
0.0
 11
62.61206266329998
 21
203.8488059666
 31
0.0
  0
LINE
  5
37A
330
2
100
AcDbEntity
  8
0
 62
     3
100
AcDbLine
 10
61.22768991880002
 20
209.4063023593
 30
0.0
 11
60.25869790259998
 21
208.4373108332
 31
0.0
  0
LINE
  5
37B
330
2
100
AcDbEntity
  8
0
 62
     3
100
AcDbLine
 10
60.36830735569998
 20
209.7363088548
 30
0.0
 11
61.71208499539995
 21
209.8909457228999
 31
0.0
  0
LINE
  5
37C
330
2
100
AcDbEntity
  8
0
 62
     3
100
AcDbLine
 10
60.26207181859999
 20
210.0528922703
 30
0.0
 11
60.26207181859999
 21
211.452870908
 31
0.0
  0
LINE
  5
37D
330
2
100
AcDbEntity
  8
0
 62
     3
100
AcDbLine
 10
58.29544058019997
 20
209.2967556233999
 30
0.0
 11
58.45007752899999
 21
207.9529779837
 31
0.0
  0
LINE
  5
37E
330
2
100
AcDbEntity
  8
0
 62
     3
100
AcDbLine
 10
57.96556191919996
 20
208.4374718299998
 30
0.0
 11
56.99656990299999
 21
209.4064633562
 31
0.0
  0
LINE
  5
37F
330
2
100
AcDbEntity
  8
0
 62
     3
100
AcDbLine
 10
58.4500600998
 20
207.0529685642
 30
0.0
 11
57.81624051969996
 21
207.0529685642
 31
0.0
  0
LINE
  5
380
330
2
100
AcDbEntity
  8
0
 62
     3
100
AcDbLine
 10
58.45007535859997
 20
206.0529685641999
 30
0.0
 11
57.81624051969996
 21
206.0529685641999
 31
0.0
  0
ARC
  5
381
330
2
100
AcDbEntity
  8
0
 62
     3
100
AcDbCircle
 10
57.79870817109998
 20
209.2396140720999
 30
0.0
 40
0.5
100
AcDbArc
 50
6.564484565999999
 51
83.43551452339999
  0
LINE
  5
382
330
2
100
AcDbEntity
  8
0
 62
     3
100
AcDbLine
 10
59.77408208089997
 20
207.9529524365999
 30
0.0
 11
59.92871902969998
 21
209.2967300762999
 31
0.0
  0
LINE
  5
383
330
2
100
AcDbEntity
  8
0
 62
     3
100
AcDbLine
 10
59.77408048549998
 20
207.0529533054998
 30
0.0
 11
60.40790006559999
 21
207.0529533054998
 31
0.0
  0
LINE
  5
384
330
2
100
AcDbEntity
  8
0
 62
     3
100
AcDbLine
 10
59.77409574429998
 20
206.0529685641999
 30
0.0
 11
60.40791532439996
 21
206.0529685641999
 31
0.0
  0
ARC
  5
385
330
2
100
AcDbEntity
  8
0
 62
     3
100
AcDbCircle
 10
60.42544767299998
 20
209.2395988133
 30
0.0
 40
0.5
100
AcDbArc
 50
96.56444950450001
 51
173.4354965372999
  0
LINE
  5
386
330
2
100
AcDbEntity
  8
0
 62
     3
100
AcDbLine
 10
63.61209318089996
 20
209.8909354831999
 30
0.0
 11
63.61209318089996
 21
209.2571159030998
 31
0.0
  0
LINE
  5
387
330
2
100
AcDbEntity
  8
0
 62
     3
100
AcDbLine
 10
62.61210843959998
 20
209.8909354831999
 30
0.0
 11
62.61210843959998
 21
209.2571159030998
 31
0.0
  0
LINE
  5
388
330
2
100
AcDbEntity
  8
0
 62
     3
100
AcDbLine
 10
62.40496265059999
 20
205.8458392706999
 30
0.0
 11
63.81917618879999
 21
207.2600528087999
 31
0.0
  0
LINE
  5
389
330
2
100
AcDbEntity
  8
0
 62
     3
100
AcDbLine
 10
67.77404996799998
 20
205.1529441501999
 30
0.0
 11
67.77404996799998
 21
207.9529319430999
 31
0.0
  0
LINE
  5
38A
330
2
100
AcDbEntity
  8
0
 62
     3
100
AcDbLine
 10
66.4500600998
 20
205.1529594089998
 30
0.0
 11
66.4500600998
 21
207.9529472018999
 31
0.0
  0
LINE
  5
38B
330
2
100
AcDbEntity
  8
0
 62
     3
100
AcDbLine
 10
67.76204130099998
 20
200.9529319430999
 30
0.0
 11
67.76204130099998
 21
212.9529472019
 31
0.0
  0
LINE
  5
38C
330
2
100
AcDbEntity
  8
0
 62
     3
100
AcDbLine
 10
66.46206876679997
 20
200.9529472019
 30
0.0
 11
66.46206876679997
 21
212.9529624607
 31
0.0
  0
LINE
  5
38D
330
2
100
AcDbEntity
  8
0
 62
     3
100
AcDbLine
 10
67.92869879699998
 20
203.8091670385
 30
0.0
 11
67.7740601038
 21
205.1529598369999
 31
0.0
  0
ARC
  5
38E
330
2
100
AcDbEntity
  8
0
 62
     3
100
AcDbCircle
 10
68.42541715549998
 20
203.8663383152
 30
0.0
 40
0.5
100
AcDbArc
 50
186.5645034627
 51
263.4355504954999
  0
LINE
  5
38F
330
2
100
AcDbEntity
  8
0
 62
     3
100
AcDbLine
 10
66.46209928439998
 20
194.7531181004
 30
0.0
 11
67.76207181859999
 21
194.7531181004
 31
0.0
  0
ARC
  5
390
330
2
100
AcDbEntity
  8
0
 62
     3
100
AcDbCircle
 10
65.7986929123
 20
203.8663535739999
 30
0.0
 40
0.5
100
AcDbArc
 50
276.5645401181
 51
353.4356076415
  0
LINE
  5
391
330
2
100
AcDbEntity
  8
0
 62
     3
100
AcDbLine
 10
64.99654727049997
 20
203.6994590690999
 30
0.0
 11
65.96553928669999
 21
204.6684505952
 31
0.0
  0
LINE
  5
392
330
2
100
AcDbEntity
  8
0
 62
     3
100
AcDbLine
 10
65.85587473949994
 20
203.3696300204999
 30
0.0
 11
64.51208194099999
 21
203.2149914079
 31
0.0
  0
LINE
  5
393
330
2
100
AcDbEntity
  8
0
 62
     3
100
AcDbLine
 10
66.45005143429995
 20
205.1529533321
 30
0.0
 11
66.29541448549997
 21
203.8091756924
 31
0.0
  0
LINE
  5
394
330
2
100
AcDbEntity
  8
0
 62
     3
100
AcDbLine
 10
67.76204130099998
 20
201.1528983737999
 30
0.0
 11
66.46206876679997
 21
201.1528983737999
 31
0.0
  0
LINE
  5
395
330
2
100
AcDbEntity
  8
0
 62
     3
100
AcDbLine
 10
68.25855409749999
 20
204.6684322149999
 30
0.0
 11
69.22754611369999
 21
203.6994406888998
 31
0.0
  0
LINE
  5
396
330
2
100
AcDbEntity
  8
0
 62
     3
100
AcDbLine
 10
69.71203154599999
 20
203.2149679669999
 30
0.0
 11
68.36823874759994
 21
203.3696065795
 31
0.0
  0
LINE
  5
397
330
2
100
AcDbEntity
  8
0
 62
     3
100
AcDbLine
 10
70.61203214569997
 20
203.2149558688999
 30
0.0
 11
70.61203214569997
 21
203.8487907078
 31
0.0
  0
LINE
  5
398
330
2
100
AcDbEntity
  8
0
 62
     3
100
AcDbLine
 10
67.77404996799998
 20
207.0529380467
 30
0.0
 11
68.40786954799998
 21
207.0529380467
 31
0.0
  0
LINE
  5
399
330
2
100
AcDbEntity
  8
0
 62
     3
100
AcDbLine
 10
67.77406522679999
 20
206.0529380466999
 30
0.0
 11
68.40788480679998
 21
206.0529380466999
 31
0.0
  0
LINE
  5
39A
330
2
100
AcDbEntity
  8
0
 62
     3
100
AcDbLine
 10
67.77403939749999
 20
207.9529333845998
 30
0.0
 11
67.9286780907
 21
209.2967261830999
 31
0.0
  0
ARC
  5
39B
330
2
100
AcDbEntity
  8
0
 62
     3
100
AcDbCircle
 10
68.42541715549998
 20
209.2395835545
 30
0.0
 40
0.5
100
AcDbArc
 50
96.56444950450001
 51
173.4354965372999
  0
LINE
  5
39C
330
2
100
AcDbEntity
  8
0
 62
     3
100
AcDbLine
 10
66.45004484099996
 20
207.0529533054998
 30
0.0
 11
65.81622526089995
 21
207.0529533054998
 31
0.0
  0
LINE
  5
39D
330
2
100
AcDbEntity
  8
0
 62
     3
100
AcDbLine
 10
66.4500600998
 20
206.0529533054999
 30
0.0
 11
65.81622526089995
 21
206.0529533054999
 31
0.0
  0
ARC
  5
39E
330
2
100
AcDbEntity
  8
0
 62
     3
100
AcDbCircle
 10
65.7986929123
 20
209.2395988133
 30
0.0
 40
0.5
100
AcDbArc
 50
6.564484565999999
 51
83.43551452339999
  0
LINE
  5
39F
330
2
100
AcDbEntity
  8
0
 62
     3
100
AcDbLine
 10
65.96555962239998
 20
208.4374414842999
 30
0.0
 11
64.99664313329998
 21
209.4063574833
 31
0.0
  0
LINE
  5
3A0
330
2
100
AcDbEntity
  8
0
 62
     3
100
AcDbLine
 10
64.51205607089997
 20
209.8909426045999
 30
0.0
 11
65.85584886929999
 21
209.736303992
 31
0.0
  0
LINE
  5
3A1
330
2
100
AcDbEntity
  8
0
 62
     3
100
AcDbLine
 10
66.29541654429996
 20
209.2967461023
 30
0.0
 11
66.45005523749998
 21
207.9529533037999
 31
0.0
  0
LINE
  5
3A2
330
2
100
AcDbEntity
  8
0
 62
     3
100
AcDbLine
 10
68.26204130099998
 20
210.0528770114999
 30
0.0
 11
68.26204130099998
 21
211.4528556491999
 31
0.0
  0
LINE
  5
3A3
330
2
100
AcDbEntity
  8
0
 62
     3
100
AcDbLine
 10
69.22752577809996
 20
209.4064082323
 30
0.0
 11
68.25853376179998
 21
208.4374167061
 31
0.0
  0
LINE
  5
3A4
330
2
100
AcDbEntity
  8
0
 62
     3
100
AcDbLine
 10
68.36826810659999
 20
209.7362971154999
 30
0.0
 11
69.71206090499999
 21
209.8909357281
 31
0.0
  0
LINE
  5
3A5
330
2
100
AcDbEntity
  8
0
 62
     3
100
AcDbLine
 10
70.61207792209998
 20
209.8909049655999
 30
0.0
 11
70.61207792209998
 21
209.2570853855
 31
0.0
  0
LINE
  5
3A6
330
2
100
AcDbEntity
  8
0
 62
     3
100
AcDbLine
 10
82.46200773159998
 20
211.9528556491999
 30
0.0
 11
75.76201078339997
 21
211.9528556491999
 31
0.0
  0
LINE
  5
3A7
330
2
100
AcDbEntity
  8
0
 62
     3
100
AcDbLine
 10
82.46200773159998
 20
211.4528556491999
 30
0.0
 11
75.76201078339997
 21
211.4528556491999
 31
0.0
  0
LINE
  5
3A8
330
2
100
AcDbEntity
  8
0
 62
     3
100
AcDbLine
 10
77.71200773159998
 20
203.2149558688999
 30
0.0
 11
80.5120107834
 21
203.2149558688999
 31
0.0
  0
LINE
  5
3A9
330
2
100
AcDbEntity
  8
0
 62
     3
100
AcDbLine
 10
77.71200773159998
 20
209.8909202243999
 30
0.0
 11
80.5120107834
 21
209.8909202243999
 31
0.0
  0
LINE
  5
3AA
330
2
100
AcDbEntity
  8
0
 62
     3
100
AcDbLine
 10
80.52619619549998
 20
205.1387325015998
 30
0.0
 11
77.69777990869997
 21
207.9671487883
 31
0.0
  0
LINE
  5
3AB
330
2
100
AcDbEntity
  8
0
 62
     3
100
AcDbLine
 10
78.4048758882
 20
205.8458392706999
 30
0.0
 11
79.81908942639998
 21
207.2600528087999
 31
0.0
  0
CIRCLE
  5
3AC
330
2
100
AcDbEntity
  8
0
 62
     3
100
AcDbCircle
 10
79.11200162809999
 20
206.5529533054998
 30
0.0
 40
2.75
  0
LINE
  5
3AD
330
2
100
AcDbEntity
  8
0
 62
     3
100
AcDbLine
 10
75.76202604219997
 20
194.9529624607
 30
0.0
 11
82.46202299039998
 21
194.9529624607
 31
0.0
  0
LINE
  5
3AE
330
2
100
AcDbEntity
  8
0
 62
     3
100
AcDbLine
 10
82.46200773159998
 20
210.0528770114999
 30
0.0
 11
75.76201078339997
 21
210.0528770114999
 31
0.0
  0
LINE
  5
3AF
330
2
100
AcDbEntity
  8
0
 62
     3
100
AcDbLine
 10
82.46200773159998
 20
200.9529472019
 30
0.0
 11
75.76201078339997
 21
200.9529472019
 31
0.0
  0
LINE
  5
3B0
330
2
100
AcDbEntity
  8
0
 62
     3
100
AcDbLine
 10
82.46200773159998
 20
212.9529472019
 30
0.0
 11
74.46203824919996
 21
212.9529472019
 31
0.0
  0
LINE
  5
3B1
330
2
100
AcDbEntity
  8
0
 62
     3
100
AcDbLine
 10
75.77401945039998
 20
205.1529441501999
 30
0.0
 11
75.77401945039998
 21
207.9529319430999
 31
0.0
  0
LINE
  5
3B2
330
2
100
AcDbEntity
  8
0
 62
     3
100
AcDbLine
 10
75.76201078339997
 20
200.9529319430999
 30
0.0
 11
75.76201078339997
 21
212.9529472019
 31
0.0
  0
LINE
  5
3B3
330
2
100
AcDbEntity
  8
0
 62
     3
100
AcDbLine
 10
74.45002958219999
 20
205.1529441501999
 30
0.0
 11
74.45002958219999
 21
207.9529319430999
 31
0.0
  0
LINE
  5
3B4
330
2
100
AcDbEntity
  8
0
 62
     3
100
AcDbLine
 10
74.46203824919996
 20
200.9529319430999
 30
0.0
 11
74.46203824919996
 21
212.9529472019
 31
0.0
  0
LINE
  5
3B5
330
2
100
AcDbEntity
  8
0
 62
     3
100
AcDbLine
 10
74.46206876679998
 20
194.7531028415999
 30
0.0
 11
75.76204130099998
 21
194.7531028415999
 31
0.0
  0
LINE
  5
3B6
330
2
100
AcDbEntity
  8
0
 62
     3
100
AcDbLine
 10
74.46205350799999
 20
194.7530875828
 30
0.0
 11
75.76202604219997
 21
194.7530875828
 31
0.0
  0
LINE
  5
3B7
330
2
100
AcDbEntity
  8
0
 62
     3
100
AcDbLine
 10
75.76201078339997
 20
201.152883115
 30
0.0
 11
74.46203824919996
 21
201.152883115
 31
0.0
  0
LINE
  5
3B8
330
2
100
AcDbEntity
  8
0
 62
     3
100
AcDbLine
 10
72.99652339439998
 20
203.6994462563999
 30
0.0
 11
73.9655154106
 21
204.6684377825999
 31
0.0
  0
LINE
  5
3B9
330
2
100
AcDbEntity
  8
0
 62
     3
100
AcDbLine
 10
73.85583549039998
 20
203.3696182812999
 30
0.0
 11
72.51205785069998
 21
203.2149814130999
 31
0.0
  0
LINE
  5
3BA
330
2
100
AcDbEntity
  8
0
 62
     3
100
AcDbLine
 10
71.61206266329998
 20
203.2149711276999
 30
0.0
 11
71.61206266329998
 21
203.8487907078
 31
0.0
  0
LINE
  5
3BB
330
2
100
AcDbEntity
  8
0
 62
     3
100
AcDbLine
 10
74.45001049529998
 20
205.1529494388999
 30
0.0
 11
74.29537180209996
 21
203.8091566404998
 31
0.0
  0
ARC
  5
3BC
330
2
100
AcDbEntity
  8
0
 62
     3
100
AcDbCircle
 10
73.79866239469999
 20
203.8663383152
 30
0.0
 40
0.5
100
AcDbArc
 50
276.5645401181
 51
353.4356076415
  0
LINE
  5
3BD
330
2
100
AcDbEntity
  8
0
 62
     3
100
AcDbLine
 10
77.71200102849997
 20
203.2149679669999
 30
0.0
 11
76.36820822999999
 21
203.3696065795
 31
0.0
  0
LINE
  5
3BE
330
2
100
AcDbEntity
  8
0
 62
     3
100
AcDbLine
 10
76.25852357989998
 20
204.6684322149999
 30
0.0
 11
77.22751559619997
 21
203.6994406888998
 31
0.0
  0
LINE
  5
3BF
330
2
100
AcDbEntity
  8
0
 62
     3
100
AcDbLine
 10
75.92866827939997
 20
203.8091670385
 30
0.0
 11
75.77402958619998
 21
205.1529598369999
 31
0.0
  0
ARC
  5
3C0
330
2
100
AcDbEntity
  8
0
 62
     3
100
AcDbCircle
 10
76.42538663789998
 20
203.8663383152
 30
0.0
 40
0.5
100
AcDbArc
 50
186.5645034627
 51
263.4355504954999
  0
LINE
  5
3C1
330
2
100
AcDbEntity
  8
0
 62
     3
100
AcDbLine
 10
78.61200162809999
 20
203.2149558688999
 30
0.0
 11
78.61200162809999
 21
203.8487907078
 31
0.0
  0
LINE
  5
3C2
330
2
100
AcDbEntity
  8
0
 62
     3
100
AcDbLine
 10
73.96552495669999
 20
208.4374219280999
 30
0.0
 11
72.99653294049997
 21
209.4064134543
 31
0.0
  0
LINE
  5
3C3
330
2
100
AcDbEntity
  8
0
 62
     3
100
AcDbLine
 10
72.51202849169999
 20
209.890922282
 30
0.0
 11
73.85580613139999
 21
209.7362854138
 31
0.0
  0
LINE
  5
3C4
330
2
100
AcDbEntity
  8
0
 62
     3
100
AcDbLine
 10
71.61206266329998
 20
209.8909202243999
 30
0.0
 11
71.61206266329998
 21
209.2571006443
 31
0.0
  0
LINE
  5
3C5
330
2
100
AcDbEntity
  8
0
 62
     3
100
AcDbLine
 10
74.45001432339998
 20
207.0529380467
 30
0.0
 11
73.81619474339993
 21
207.0529380467
 31
0.0
  0
LINE
  5
3C6
330
2
100
AcDbEntity
  8
0
 62
     3
100
AcDbLine
 10
74.45002958219999
 20
206.0529380466999
 30
0.0
 11
73.81619474339993
 21
206.0529380466999
 31
0.0
  0
LINE
  5
3C7
330
2
100
AcDbEntity
  8
0
 62
     3
100
AcDbLine
 10
74.29539425289999
 20
209.2967214224
 30
0.0
 11
74.45003120169997
 21
207.9529437826999
 31
0.0
  0
ARC
  5
3C8
330
2
100
AcDbEntity
  8
0
 62
     3
100
AcDbCircle
 10
73.79866239469999
 20
209.2395835545
 30
0.0
 40
0.5
100
AcDbArc
 50
6.564484565999999
 51
83.43551452339999
  0
LINE
  5
3C9
330
2
100
AcDbEntity
  8
0
 62
     3
100
AcDbLine
 10
76.26201078339997
 20
210.0528770114999
 30
0.0
 11
76.26201078339997
 21
211.4528556491999
 31
0.0
  0
LINE
  5
3CA
330
2
100
AcDbEntity
  8
0
 62
     3
100
AcDbLine
 10
76.36823758899999
 20
209.7362971154999
 30
0.0
 11
77.71203038739995
 21
209.8909357281
 31
0.0
  0
LINE
  5
3CB
330
2
100
AcDbEntity
  8
0
 62
     3
100
AcDbLine
 10
77.22749526049998
 20
209.4064082323
 30
0.0
 11
76.25850324429999
 21
208.4374167061
 31
0.0
  0
LINE
  5
3CC
330
2
100
AcDbEntity
  8
0
 62
     3
100
AcDbLine
 10
75.77400887990001
 20
207.9529333845998
 30
0.0
 11
75.92864757310002
 21
209.2967261830999
 31
0.0
  0
LINE
  5
3CD
330
2
100
AcDbEntity
  8
0
 62
     3
100
AcDbLine
 10
75.77403470919998
 20
206.0529380466999
 30
0.0
 11
76.40785428929999
 21
206.0529380466999
 31
0.0
  0
LINE
  5
3CE
330
2
100
AcDbEntity
  8
0
 62
     3
100
AcDbLine
 10
75.77401945039998
 20
207.0529380467
 30
0.0
 11
76.40783903049999
 21
207.0529380467
 31
0.0
  0
ARC
  5
3CF
330
2
100
AcDbEntity
  8
0
 62
     3
100
AcDbCircle
 10
76.42538663789998
 20
209.2395835545
 30
0.0
 40
0.5
100
AcDbArc
 50
96.56444950450001
 51
173.4354965372999
  0
LINE
  5
3D0
330
2
100
AcDbEntity
  8
0
 62
     3
100
AcDbLine
 10
78.6120474045
 20
209.8909049655999
 30
0.0
 11
78.6120474045
 21
209.2570853855
 31
0.0
  0
LINE
  5
3D1
330
2
100
AcDbEntity
  8
0
 62
     3
100
AcDbLine
 10
82.44999906459998
 20
205.1529441501999
 30
0.0
 11
82.44999906459998
 21
207.9529319430999
 31
0.0
  0
LINE
  5
3D2
330
2
100
AcDbEntity
  8
0
 62
     3
100
AcDbLine
 10
83.7739889328
 20
205.1529136325998
 30
0.0
 11
83.7739889328
 21
207.9529014255999
 31
0.0
  0
LINE
  5
3D3
330
2
100
AcDbEntity
  8
0
 62
     3
100
AcDbLine
 10
82.46200773159998
 20
200.9529319430999
 30
0.0
 11
82.46200773159998
 21
212.9529472019
 31
0.0
  0
LINE
  5
3D4
330
2
100
AcDbEntity
  8
0
 62
     3
100
AcDbLine
 10
83.76198026579999
 20
200.9529014256
 30
0.0
 11
83.76198026579999
 21
212.9529166844
 31
0.0
  0
LINE
  5
3D5
330
2
100
AcDbEntity
  8
0
 62
     3
100
AcDbLine
 10
83.76198026579999
 20
201.152883115
 30
0.0
 11
82.46200773159998
 21
201.152883115
 31
0.0
  0
LINE
  5
3D6
330
2
100
AcDbEntity
  8
0
 62
     3
100
AcDbLine
 10
82.46202299039998
 20
194.7530723239998
 30
0.0
 11
83.76199552459997
 21
194.7530723239998
 31
0.0
  0
LINE
  5
3D7
330
2
100
AcDbEntity
  8
0
 62
     3
100
AcDbLine
 10
82.46200773159998
 20
194.7530570652
 30
0.0
 11
83.76198026579999
 21
194.7530570652
 31
0.0
  0
LINE
  5
3D8
330
2
100
AcDbEntity
  8
0
 62
     3
100
AcDbLine
 10
81.8558049728
 20
203.3696182812999
 30
0.0
 11
80.51202733309997
 21
203.2149814130999
 31
0.0
  0
LINE
  5
3D9
330
2
100
AcDbEntity
  8
0
 62
     3
100
AcDbLine
 10
79.6120321457
 20
203.2149711276999
 30
0.0
 11
79.6120321457
 21
203.8487907078
 31
0.0
  0
LINE
  5
3DA
330
2
100
AcDbEntity
  8
0
 62
     3
100
AcDbLine
 10
80.9964928768
 20
203.6994462563999
 30
0.0
 11
81.96548489309998
 21
204.6684377825999
 31
0.0
  0
LINE
  5
3DB
330
2
100
AcDbEntity
  8
0
 62
     3
100
AcDbLine
 10
82.44997997769997
 20
205.1529494388999
 30
0.0
 11
82.29534128449998
 21
203.8091566404998
 31
0.0
  0
ARC
  5
3DC
330
2
100
AcDbEntity
  8
0
 62
     3
100
AcDbCircle
 10
81.79863187709997
 20
203.8663383152
 30
0.0
 40
0.5
100
AcDbArc
 50
276.5645401181
 51
353.4356076415
  0
LINE
  5
3DD
330
2
100
AcDbEntity
  8
0
 62
     3
100
AcDbLine
 10
84.25848476619998
 20
204.6684146819
 30
0.0
 11
85.2274767824
 21
203.6994231557998
 31
0.0
  0
LINE
  5
3DE
330
2
100
AcDbEntity
  8
0
 62
     3
100
AcDbLine
 10
85.71196297329999
 20
203.2149442247999
 30
0.0
 11
84.36818533359996
 21
203.3695810929999
 31
0.0
  0
LINE
  5
3DF
330
2
100
AcDbEntity
  8
0
 62
     3
100
AcDbLine
 10
83.92863556660001
 20
203.8091462517999
 30
0.0
 11
83.77399861779997
 21
205.1529238914999
 31
0.0
  0
ARC
  5
3E0
330
2
100
AcDbEntity
  8
0
 62
     3
100
AcDbCircle
 10
84.42535612029997
 20
203.8663077975999
 30
0.0
 40
0.5
100
AcDbArc
 50
186.5645034627
 51
263.4355504954999
  0
LINE
  5
3E1
330
2
100
AcDbEntity
  8
0
 62
     3
100
AcDbLine
 10
80.51199797409998
 20
209.890922282
 30
0.0
 11
81.85577561379998
 21
209.7362854138
 31
0.0
  0
LINE
  5
3E2
330
2
100
AcDbEntity
  8
0
 62
     3
100
AcDbLine
 10
79.6120321457
 20
209.8909202243999
 30
0.0
 11
79.6120321457
 21
209.2571006443
 31
0.0
  0
LINE
  5
3E3
330
2
100
AcDbEntity
  8
0
 62
     3
100
AcDbLine
 10
81.96549443909999
 20
208.4374219280999
 30
0.0
 11
80.9965024229
 21
209.4064134543
 31
0.0
  0
LINE
  5
3E4
330
2
100
AcDbEntity
  8
0
 62
     3
100
AcDbLine
 10
82.29536373529999
 20
209.2967214224
 30
0.0
 11
82.45000068409998
 21
207.9529437826999
 31
0.0
  0
LINE
  5
3E5
330
2
100
AcDbEntity
  8
0
 62
     3
100
AcDbLine
 10
82.44999906459998
 20
206.0529380466999
 30
0.0
 11
81.81616422579997
 21
206.0529380466999
 31
0.0
  0
LINE
  5
3E6
330
2
100
AcDbEntity
  8
0
 62
     3
100
AcDbLine
 10
82.44998380589994
 20
207.0529380467
 30
0.0
 11
81.81616422579997
 21
207.0529380467
 31
0.0
  0
ARC
  5
3E7
330
2
100
AcDbEntity
  8
0
 62
     3
100
AcDbCircle
 10
81.79863187709997
 20
209.2395835545
 30
0.0
 40
0.5
100
AcDbArc
 50
6.564484565999999
 51
83.43551452339999
  0
LINE
  5
3E8
330
2
100
AcDbEntity
  8
0
 62
     3
100
AcDbLine
 10
84.26198026579999
 20
210.0528464938999
 30
0.0
 11
84.26198026579999
 21
211.4528251315999
 31
0.0
  0
LINE
  5
3E9
330
2
100
AcDbEntity
  8
0
 62
     3
100
AcDbLine
 10
85.22745644679998
 20
209.406382607
 30
0.0
 11
84.2584644305
 21
208.4373910807999
 31
0.0
  0
LINE
  5
3EA
330
2
100
AcDbEntity
  8
0
 62
     3
100
AcDbLine
 10
84.36818960829999
 20
209.736273637
 30
0.0
 11
85.71198240679995
 21
209.8909122495999
 31
0.0
  0
LINE
  5
3EB
330
2
100
AcDbEntity
  8
0
 62
     3
100
AcDbLine
 10
83.77398609249997
 20
207.9529069507
 30
0.0
 11
83.9286230413
 21
209.2966845902999
 31
0.0
  0
ARC
  5
3EC
330
2
100
AcDbEntity
  8
0
 62
     3
100
AcDbCircle
 10
84.42535612029997
 20
209.2395530369
 30
0.0
 40
0.5
100
AcDbArc
 50
96.56444950450001
 51
173.4354965372999
  0
LINE
  5
3ED
330
2
100
AcDbEntity
  8
0
 62
     3
100
AcDbLine
 10
83.7740041916
 20
207.0529075290999
 30
0.0
 11
84.4078237717
 21
207.0529075290999
 31
0.0
  0
LINE
  5
3EE
330
2
100
AcDbEntity
  8
0
 62
     3
100
AcDbLine
 10
83.7740041916
 20
206.0529075290999
 30
0.0
 11
84.4078237717
 21
206.0529075290999
 31
0.0
  0
LINE
  5
3EF
330
2
100
AcDbEntity
  8
0
 62
     3
100
AcDbLine
 10
116.9620687667999
 20
211.9530082370999
 30
0.0
 11
109.4620687667999
 21
211.9530082370999
 31
0.0
  0
LINE
  5
3F0
330
2
100
AcDbEntity
  8
0
 62
     3
100
AcDbLine
 10
116.4620687667998
 20
212.9530082370999
 30
0.0
 11
106.4620687667999
 21
212.9530082370999
 31
0.0
  0
ARC
  5
3F1
330
2
100
AcDbEntity
  8
0
 62
     3
100
AcDbCircle
 10
114.3120748702999
 20
206.9530387547
 30
0.0
 40
2.149999618499998
100
AcDbArc
 50
270.0000726275999
 51
89.99998201389994
  0
LINE
  5
3F2
330
2
100
AcDbEntity
  8
0
  6
CENTER
 62
     3
100
AcDbLine
 10
116.9620687667999
 20
206.9530387547
 30
0.0
 11
109.8789083663999
 21
206.9530387547
 31
0.0
  0
LINE
  5
3F3
330
2
100
AcDbEntity
  8
0
 62
     3
100
AcDbLine
 10
116.9620687667999
 20
198.4087730076
 30
0.0
 11
109.4620687667999
 21
198.4087730076
 31
0.0
  0
LINE
  5
3F4
330
2
100
AcDbEntity
  8
0
 62
     3
100
AcDbLine
 10
116.9620687667999
 20
202.0530143405999
 30
0.0
 11
109.4620687667999
 21
202.0530143405999
 31
0.0
  0
LINE
  5
3F5
330
2
100
AcDbEntity
  8
0
 62
     3
100
AcDbLine
 10
109.4620687667999
 20
197.4972739842
 30
0.0
 11
116.9620687667999
 21
197.4972739842
 31
0.0
  0
LINE
  5
3F6
330
2
100
AcDbEntity
  8
0
 62
     3
100
AcDbLine
 10
101.7118926561998
 20
203.2149053238998
 30
0.0
 11
100.3681150164998
 21
203.3695421920999
 31
0.0
  0
LINE
  5
3F7
330
2
100
AcDbEntity
  8
0
 62
     3
100
AcDbLine
 10
100.3681280131999
 20
209.7362367441
 30
0.0
 11
101.7119056528999
 21
209.8908736123
 31
0.0
  0
CIRCLE
  5
3F8
330
2
100
AcDbEntity
  8
0
 62
     3
100
AcDbCircle
 10
103.1119100753999
 20
206.5528922703
 30
0.0
 40
2.75
  0
LINE
  5
3F9
330
2
100
AcDbEntity
  8
0
 62
     3
100
AcDbLine
 10
106.4619009200999
 20
200.9528861668
 30
0.0
 11
99.76190397190004
 21
200.9528861668
 31
0.0
  0
LINE
  5
3FA
330
2
100
AcDbEntity
  8
0
 62
     3
100
AcDbLine
 10
106.4619009200999
 20
210.0528159763999
 30
0.0
 11
99.76190397190004
 21
210.0528159763999
 31
0.0
  0
LINE
  5
3FB
330
2
100
AcDbEntity
  8
0
 62
     3
100
AcDbLine
 10
106.4619009200999
 20
211.4527946139999
 30
0.0
 11
99.76190397190004
 21
211.4527946139999
 31
0.0
  0
LINE
  5
3FC
330
2
100
AcDbEntity
  8
0
 62
     3
100
AcDbLine
 10
106.4619009200999
 20
211.9527946139999
 30
0.0
 11
99.76190397190004
 21
211.9527946139999
 31
0.0
  0
LINE
  5
3FD
330
2
100
AcDbEntity
  8
0
 62
     3
100
AcDbLine
 10
106.4619009200999
 20
212.9528861667999
 30
0.0
 11
98.46193143770001
 21
212.9528861667999
 31
0.0
  0
LINE
  5
3FE
330
2
100
AcDbEntity
  8
0
 62
     3
100
AcDbLine
 10
99.76190397190004
 20
194.9529014256
 30
0.0
 11
106.4619009200999
 21
194.9529014256
 31
0.0
  0
LINE
  5
3FF
330
2
100
AcDbEntity
  8
0
 62
     3
100
AcDbLine
 10
98.46194669649998
 20
211.4528098727999
 30
0.0
 11
91.76194974819997
 21
211.4528098727999
 31
0.0
  0
LINE
  5
400
330
2
100
AcDbEntity
  8
0
 62
     3
100
AcDbLine
 10
98.46194669649998
 20
211.9528098727999
 30
0.0
 11
91.76194974819997
 21
211.9528098727999
 31
0.0
  0
LINE
  5
401
330
2
100
AcDbEntity
  8
0
 62
     3
100
AcDbLine
 10
98.46194669649998
 20
212.9529014256
 30
0.0
 11
90.46197721409999
 21
212.9529014256
 31
0.0
  0
LINE
  5
402
330
2
100
AcDbEntity
  8
0
 62
     3
100
AcDbLine
 10
93.71194669649998
 20
209.890874448
 30
0.0
 11
96.51194974819999
 21
209.890874448
 31
0.0
  0
LINE
  5
403
330
2
100
AcDbEntity
  8
0
 62
     3
100
AcDbLine
 10
93.71194669649998
 20
203.2149100925999
 30
0.0
 11
96.51194974819999
 21
203.2149100925999
 31
0.0
  0
LINE
  5
404
330
2
100
AcDbEntity
  8
0
 62
     3
100
AcDbLine
 10
96.52614429529998
 20
205.1386893431998
 30
0.0
 11
93.69772800849998
 21
207.9671056298999
 31
0.0
  0
CIRCLE
  5
405
330
2
100
AcDbEntity
  8
0
 62
     3
100
AcDbCircle
 10
95.11194059299999
 20
206.5529075290999
 30
0.0
 40
2.75
  0
LINE
  5
406
330
2
100
AcDbEntity
  8
0
 62
     3
100
AcDbLine
 10
98.46194669649998
 20
200.9529014256
 30
0.0
 11
91.76194974819997
 21
200.9529014256
 31
0.0
  0
LINE
  5
407
330
2
100
AcDbEntity
  8
0
 62
     3
100
AcDbLine
 10
98.46194669649998
 20
210.0528312350999
 30
0.0
 11
91.76194974819997
 21
210.0528312350999
 31
0.0
  0
LINE
  5
408
330
2
100
AcDbEntity
  8
0
 62
     3
100
AcDbLine
 10
91.76194974819997
 20
194.9529166844
 30
0.0
 11
98.46194669649998
 21
194.9529166844
 31
0.0
  0
LINE
  5
409
330
2
100
AcDbEntity
  8
0
 62
     3
100
AcDbLine
 10
91.7739584152
 20
205.1528983737999
 30
0.0
 11
91.7739584152
 21
207.9528861667999
 31
0.0
  0
LINE
  5
40A
330
2
100
AcDbEntity
  8
0
 62
     3
100
AcDbLine
 10
90.44996854709998
 20
205.1529136325998
 30
0.0
 11
90.44996854709998
 21
207.9529014255999
 31
0.0
  0
LINE
  5
40B
330
2
100
AcDbEntity
  8
0
 62
     3
100
AcDbLine
 10
91.76194974819997
 20
200.9528861668
 30
0.0
 11
91.76194974819997
 21
212.9529014256
 31
0.0
  0
LINE
  5
40C
330
2
100
AcDbEntity
  8
0
 62
     3
100
AcDbLine
 10
90.46197721409999
 20
200.9529166844
 30
0.0
 11
90.46197721409999
 21
212.9529166844
 31
0.0
  0
ARC
  5
40D
330
2
100
AcDbEntity
  8
0
 62
     3
100
AcDbCircle
 10
89.79860135959999
 20
203.8663077975999
 30
0.0
 40
0.5
100
AcDbArc
 50
276.5645401181
 51
353.4356076415
  0
LINE
  5
40E
330
2
100
AcDbEntity
  8
0
 62
     3
100
AcDbLine
 10
87.61200162809997
 20
203.2149253513999
 30
0.0
 11
87.61200162809997
 21
203.8487449314
 31
0.0
  0
LINE
  5
40F
330
2
100
AcDbEntity
  8
0
 62
     3
100
AcDbLine
 10
86.6119711105
 20
203.2149253513999
 30
0.0
 11
86.6119711105
 21
203.8487601902
 31
0.0
  0
LINE
  5
410
330
2
100
AcDbEntity
  8
0
 62
     3
100
AcDbLine
 10
88.99645406309998
 20
203.6994206312
 30
0.0
 11
89.96544607929996
 21
204.6684121573
 31
0.0
  0
LINE
  5
411
330
2
100
AcDbEntity
  8
0
 62
     3
100
AcDbLine
 10
89.85575873649997
 20
203.3695796439999
 30
0.0
 11
88.51198109679996
 21
203.2149427758
 31
0.0
  0
LINE
  5
412
330
2
100
AcDbEntity
  8
0
 62
     3
100
AcDbLine
 10
90.46197721409999
 20
194.7530418064
 30
0.0
 11
91.76194974819997
 21
194.7530418064
 31
0.0
  0
ARC
  5
413
330
2
100
AcDbEntity
  8
0
 62
     3
100
AcDbCircle
 10
92.42532560269998
 20
203.8662925388998
 30
0.0
 40
0.5
100
AcDbArc
 50
186.5645034627
 51
263.4355504954999
  0
LINE
  5
414
330
2
100
AcDbEntity
  8
0
 62
     3
100
AcDbLine
 10
91.92859811639999
 20
203.8091198275
 30
0.0
 11
91.77395942309994
 21
205.152912626
 31
0.0
  0
LINE
  5
415
330
2
100
AcDbEntity
  8
0
 62
     3
100
AcDbLine
 10
90.44995544589999
 20
205.1529078461999
 30
0.0
 11
90.29531849709997
 21
203.8091302064999
 31
0.0
  0
LINE
  5
416
330
2
100
AcDbEntity
  8
0
 62
     3
100
AcDbLine
 10
91.76194974819997
 20
201.1528525974
 30
0.0
 11
90.46197721409999
 21
201.1528525974
 31
0.0
  0
LINE
  5
417
330
2
100
AcDbEntity
  8
0
 62
     3
100
AcDbLine
 10
92.25845010049999
 20
204.6683951258
 30
0.0
 11
93.22744211679998
 21
203.6994035995999
 31
0.0
  0
LINE
  5
418
330
2
100
AcDbEntity
  8
0
 62
     3
100
AcDbLine
 10
93.7119353941
 20
203.2149239021999
 30
0.0
 11
92.36815775439998
 21
203.3695607703
 31
0.0
  0
ARC
  5
419
330
2
100
AcDbEntity
  8
0
 62
     3
100
AcDbCircle
 10
89.79860135959999
 20
209.2395530369
 30
0.0
 40
0.5
100
AcDbArc
 50
6.564484565999999
 51
83.43551452339999
  0
LINE
  5
41A
330
2
100
AcDbEntity
  8
0
 62
     3
100
AcDbLine
 10
90.44996854709998
 20
207.0529075290999
 30
0.0
 11
89.816148967
 21
207.0529075290999
 31
0.0
  0
LINE
  5
41B
330
2
100
AcDbEntity
  8
0
 62
     3
100
AcDbLine
 10
90.44996854709998
 20
206.0529075290999
 30
0.0
 11
89.81613370819998
 21
206.0529075290999
 31
0.0
  0
LINE
  5
41C
330
2
100
AcDbEntity
  8
0
 62
     3
100
AcDbLine
 10
87.61200162809997
 20
209.8908897068
 30
0.0
 11
87.61200162809997
 21
209.2570701266999
 31
0.0
  0
LINE
  5
41D
330
2
100
AcDbEntity
  8
0
 62
     3
100
AcDbLine
 10
86.61201688689997
 20
209.8908897068
 30
0.0
 11
86.61201688689997
 21
209.2570701266999
 31
0.0
  0
LINE
  5
41E
330
2
100
AcDbEntity
  8
0
 62
     3
100
AcDbLine
 10
89.96545562539996
 20
208.4374043949999
 30
0.0
 11
88.99646360909997
 21
209.4063959212
 31
0.0
  0
LINE
  5
41F
330
2
100
AcDbEntity
  8
0
 62
     3
100
AcDbLine
 10
88.51195991899999
 20
209.8908985397998
 30
0.0
 11
89.85575271739998
 21
209.7362599271999
 31
0.0
  0
LINE
  5
420
330
2
100
AcDbEntity
  8
0
 62
     3
100
AcDbLine
 10
92.26194974819998
 20
210.0528312350999
 30
0.0
 11
92.26194974819998
 21
211.4528098727999
 31
0.0
  0
ARC
  5
421
330
2
100
AcDbEntity
  8
0
 62
     3
100
AcDbCircle
 10
92.42532560269998
 20
209.2395377780999
 30
0.0
 40
0.5
100
AcDbArc
 50
96.56444950450001
 51
173.4354965372999
  0
LINE
  5
422
330
2
100
AcDbEntity
  8
0
 62
     3
100
AcDbLine
 10
91.77397367399999
 20
207.0528922703
 30
0.0
 11
92.40779325410001
 21
207.0528922703
 31
0.0
  0
LINE
  5
423
330
2
100
AcDbEntity
  8
0
 62
     3
100
AcDbLine
 10
91.77397367399999
 20
206.0528922703
 30
0.0
 11
92.40779325410001
 21
206.0528922703
 31
0.0
  0
LINE
  5
424
330
2
100
AcDbEntity
  8
0
 62
     3
100
AcDbLine
 10
91.7739585678
 20
207.9528861542998
 30
0.0
 11
91.928597261
 21
209.2966789526999
 31
0.0
  0
LINE
  5
425
330
2
100
AcDbEntity
  8
0
 62
     3
100
AcDbLine
 10
90.29531586360002
 20
209.2966988913
 30
0.0
 11
90.44995455689997
 21
207.9529060928
 31
0.0
  0
LINE
  5
426
330
2
100
AcDbEntity
  8
0
 62
     3
100
AcDbLine
 10
93.22743257069999
 20
209.4063697944
 30
0.0
 11
92.25844055439996
 21
208.4373782681999
 31
0.0
  0
LINE
  5
427
330
2
100
AcDbEntity
  8
0
 62
     3
100
AcDbLine
 10
92.36816726239998
 20
209.7362484834
 30
0.0
 11
93.71194490199997
 21
209.8908853515998
 31
0.0
  0
LINE
  5
428
330
2
100
AcDbEntity
  8
0
 62
     3
100
AcDbLine
 10
99.7739278977
 20
205.152883115
 30
0.0
 11
99.7739278977
 21
207.9528709079998
 31
0.0
  0
LINE
  5
429
330
2
100
AcDbEntity
  8
0
 62
     3
100
AcDbLine
 10
98.4499380295
 20
205.1528983737999
 30
0.0
 11
98.4499380295
 21
207.9528861667999
 31
0.0
  0
LINE
  5
42A
330
2
100
AcDbEntity
  8
0
 62
     3
100
AcDbLine
 10
99.76190397190004
 20
200.952870908
 30
0.0
 11
99.76190397190004
 21
212.9528861667999
 31
0.0
  0
LINE
  5
42B
330
2
100
AcDbEntity
  8
0
 62
     3
100
AcDbLine
 10
98.46194669649998
 20
200.9528861668
 30
0.0
 11
98.46194669649998
 21
212.9529014256
 31
0.0
  0
LINE
  5
42C
330
2
100
AcDbEntity
  8
0
 62
     3
100
AcDbLine
 10
96.99641939740002
 20
203.6993970289
 30
0.0
 11
97.96541141369999
 21
204.6683885550999
 31
0.0
  0
LINE
  5
42D
330
2
100
AcDbEntity
  8
0
 62
     3
100
AcDbLine
 10
97.8557346462
 20
203.3695696491999
 30
0.0
 11
96.51194184769998
 21
203.2149310365998
 31
0.0
  0
LINE
  5
42E
330
2
100
AcDbEntity
  8
0
 62
     3
100
AcDbLine
 10
95.61197111049995
 20
203.2149100925999
 30
0.0
 11
95.61197111049995
 21
203.8487296726
 31
0.0
  0
LINE
  5
42F
330
2
100
AcDbEntity
  8
0
 62
     3
100
AcDbLine
 10
94.61194059299998
 20
203.2149100925999
 30
0.0
 11
94.61194059299998
 21
203.8487449314
 31
0.0
  0
LINE
  5
430
330
2
100
AcDbEntity
  8
0
 62
     3
100
AcDbLine
 10
98.46193143770001
 20
194.7530265476
 30
0.0
 11
99.76190397190004
 21
194.7530265476
 31
0.0
  0
LINE
  5
431
330
2
100
AcDbEntity
  8
0
 62
     3
100
AcDbLine
 10
99.76190397190004
 20
201.1528373387
 30
0.0
 11
98.46193143770001
 21
201.1528373387
 31
0.0
  0
ARC
  5
432
330
2
100
AcDbEntity
  8
0
 62
     3
100
AcDbCircle
 10
97.79857084199996
 20
203.8662925388998
 30
0.0
 40
0.5
100
AcDbArc
 50
276.5645401181
 51
353.4356076415
  0
LINE
  5
433
330
2
100
AcDbEntity
  8
0
 62
     3
100
AcDbLine
 10
98.44992966569998
 20
205.1529022086
 30
0.0
 11
98.2952909725
 21
203.8091094100999
 31
0.0
  0
ARC
  5
434
330
2
100
AcDbEntity
  8
0
 62
     3
100
AcDbCircle
 10
100.4252798263999
 20
203.8662772801
 30
0.0
 40
0.5
100
AcDbArc
 50
186.5645034627
 51
263.4355504954999
  0
LINE
  5
435
330
2
100
AcDbEntity
  8
0
 62
     3
100
AcDbLine
 10
99.92855892179996
 20
203.809108562
 30
0.0
 11
99.77392022849995
 21
205.1529013604
 31
0.0
  0
LINE
  5
436
330
2
100
AcDbEntity
  8
0
 62
     3
100
AcDbLine
 10
100.2584154348999
 20
204.6683755695998
 30
0.0
 11
101.2274074510999
 21
203.6993840435
 31
0.0
  0
LINE
  5
437
330
2
100
AcDbEntity
  8
0
 62
     3
100
AcDbLine
 10
97.9654209597
 20
208.4373848388999
 30
0.0
 11
96.99642894350001
 21
209.4063763649999
 31
0.0
  0
LINE
  5
438
330
2
100
AcDbEntity
  8
0
 62
     3
100
AcDbLine
 10
96.51193233980002
 20
209.8908782171999
 30
0.0
 11
97.8557251382
 21
209.7362396045999
 31
0.0
  0
LINE
  5
439
330
2
100
AcDbEntity
  8
0
 62
     3
100
AcDbLine
 10
94.40482398799998
 20
205.8457961123
 30
0.0
 11
95.81903752619998
 21
207.2600096503999
 31
0.0
  0
LINE
  5
43A
330
2
100
AcDbEntity
  8
0
 62
     3
100
AcDbLine
 10
95.61197111049995
 20
209.890874448
 30
0.0
 11
95.61197111049995
 21
209.2570548679999
 31
0.0
  0
LINE
  5
43B
330
2
100
AcDbEntity
  8
0
 62
     3
100
AcDbLine
 10
94.61198636929998
 20
209.890874448
 30
0.0
 11
94.61198636929998
 21
209.2570548679999
 31
0.0
  0
LINE
  5
43C
330
2
100
AcDbEntity
  8
0
 62
     3
100
AcDbLine
 10
100.2619039718999
 20
210.0528159763999
 30
0.0
 11
100.2619039718999
 21
211.4527946139999
 31
0.0
  0
ARC
  5
43D
330
2
100
AcDbEntity
  8
0
 62
     3
100
AcDbCircle
 10
97.79857084199996
 20
209.2395377780999
 30
0.0
 40
0.5
100
AcDbArc
 50
6.564484565999999
 51
83.43551452339999
  0
LINE
  5
43E
330
2
100
AcDbEntity
  8
0
 62
     3
100
AcDbLine
 10
98.44992277069998
 20
207.0528922703
 30
0.0
 11
97.8161031906
 21
207.0528922703
 31
0.0
  0
LINE
  5
43F
330
2
100
AcDbEntity
  8
0
 62
     3
100
AcDbLine
 10
98.4499380295
 20
206.0528922703
 30
0.0
 11
97.8161031906
 21
206.0528922703
 31
0.0
  0
LINE
  5
440
330
2
100
AcDbEntity
  8
0
 62
     3
100
AcDbLine
 10
98.2952935722
 20
209.2966742113999
 30
0.0
 11
98.44993052099994
 21
207.9528965716999
 31
0.0
  0
ARC
  5
441
330
2
100
AcDbEntity
  8
0
 62
     3
100
AcDbCircle
 10
100.4252798263999
 20
209.2395225193
 30
0.0
 40
0.5
100
AcDbArc
 50
96.56444950450001
 51
173.4354965372999
  0
LINE
  5
442
330
2
100
AcDbEntity
  8
0
 62
     3
100
AcDbLine
 10
99.7739278977
 20
207.0528770114998
 30
0.0
 11
100.4077474776998
 21
207.0528770114998
 31
0.0
  0
LINE
  5
443
330
2
100
AcDbEntity
  8
0
 62
     3
100
AcDbLine
 10
99.7739278977
 20
206.0528770114999
 30
0.0
 11
100.4077474776998
 21
206.0528770114999
 31
0.0
  0
LINE
  5
444
330
2
100
AcDbEntity
  8
0
 62
     3
100
AcDbLine
 10
99.77391588440003
 20
207.9528671022997
 30
0.0
 11
99.92855457759999
 21
209.2966599008
 31
0.0
  0
LINE
  5
445
330
2
100
AcDbEntity
  8
0
 62
     3
100
AcDbLine
 10
101.2273979049999
 20
209.4063461920999
 30
0.0
 11
100.2584058887999
 21
208.437354666
 31
0.0
  0
LINE
  5
446
330
2
100
AcDbEntity
  8
0
 62
     3
100
AcDbLine
 10
109.4620687667999
 20
211.8530021335999
 30
0.0
 11
106.4620687667999
 21
211.8530021335999
 31
0.0
  0
LINE
  5
447
330
2
100
AcDbEntity
  8
0
 62
     3
100
AcDbLine
 10
106.4498922530999
 20
205.152883115
 30
0.0
 11
106.4498922530999
 21
207.9528709079998
 31
0.0
  0
LINE
  5
448
330
2
100
AcDbEntity
  8
0
 62
     3
100
AcDbLine
 10
106.4619009200999
 20
200.952870908
 30
0.0
 11
106.4619009200999
 21
212.9528861667999
 31
0.0
  0
LINE
  5
449
330
2
100
AcDbEntity
  8
0
 62
     3
100
AcDbLine
 10
104.5261096295999
 20
205.138667764
 30
0.0
 11
101.6976825533
 21
207.9670948402999
 31
0.0
  0
LINE
  5
44A
330
2
100
AcDbEntity
  8
0
 62
     3
100
AcDbLine
 10
104.9963955212999
 20
203.6993842162999
 30
0.0
 11
105.9653875375998
 21
204.6683757424998
 31
0.0
  0
LINE
  5
44B
330
2
100
AcDbEntity
  8
0
 62
     3
100
AcDbLine
 10
105.8556953969999
 20
203.3695579099
 30
0.0
 11
104.5119025985999
 21
203.2149192972998
 31
0.0
  0
LINE
  5
44C
330
2
100
AcDbEntity
  8
0
 62
     3
100
AcDbLine
 10
101.7119161788998
 20
203.2148948337999
 30
0.0
 11
104.5119039718999
 21
203.2148948337999
 31
0.0
  0
LINE
  5
44D
330
2
100
AcDbEntity
  8
0
 62
     3
100
AcDbLine
 10
102.6119100753999
 20
203.2148948337999
 30
0.0
 11
102.6119100753999
 21
203.8487296726
 31
0.0
  0
LINE
  5
44E
330
2
100
AcDbEntity
  8
0
 62
     3
100
AcDbLine
 10
103.6119253342
 20
203.2148948337999
 30
0.0
 11
103.6119253342
 21
203.8487144138998
 31
0.0
  0
LINE
  5
44F
330
2
100
AcDbEntity
  8
0
 62
     3
100
AcDbLine
 10
107.9620687667999
 20
201.4362998630999
 30
0.0
 11
107.9620687667999
 21
194.4697318699
 31
0.0
  0
LINE
  5
450
330
2
100
AcDbEntity
  8
0
 62
     3
100
AcDbLine
 10
106.4620687667999
 20
194.7530265476
 30
0.0
 11
107.9620687667999
 21
194.7530265476
 31
0.0
  0
LINE
  5
451
330
2
100
AcDbEntity
  8
0
 62
     3
100
AcDbLine
 10
107.9620687667999
 20
201.1530051853
 30
0.0
 11
106.4620687667999
 21
201.1530051853
 31
0.0
  0
ARC
  5
452
330
2
100
AcDbEntity
  8
0
 62
     3
100
AcDbCircle
 10
105.7985403243999
 20
203.8662772801
 30
0.0
 40
0.5
100
AcDbArc
 50
276.5645401181
 51
353.4356076415
  0
LINE
  5
453
330
2
100
AcDbEntity
  8
0
 62
     3
100
AcDbLine
 10
106.4499021409999
 20
205.1528814122
 30
0.0
 11
106.2952651921997
 21
203.8091037725
 31
0.0
  0
LINE
  5
454
330
2
100
AcDbEntity
  8
0
 62
     3
100
AcDbLine
 10
105.9653862940999
 20
208.4373652826999
 30
0.0
 11
104.9963942777999
 21
209.4063568089
 31
0.0
  0
LINE
  5
455
330
2
100
AcDbEntity
  8
0
 62
     3
100
AcDbLine
 10
104.5119047605999
 20
209.8908578945
 30
0.0
 11
105.8556975589999
 21
209.7362192818999
 31
0.0
  0
LINE
  5
456
330
2
100
AcDbEntity
  8
0
 62
     3
100
AcDbLine
 10
102.4047893224
 20
205.8457745330998
 30
0.0
 11
103.8190028604998
 21
207.2599880712999
 31
0.0
  0
LINE
  5
457
330
2
100
AcDbEntity
  8
0
 62
     3
100
AcDbLine
 10
101.7119161788998
 20
209.8908591892
 30
0.0
 11
104.5119039718999
 21
209.8908591892
 31
0.0
  0
LINE
  5
458
330
2
100
AcDbEntity
  8
0
 62
     3
100
AcDbLine
 10
102.6119405929998
 20
209.8908591892
 30
0.0
 11
102.6119405929998
 21
209.2570396091999
 31
0.0
  0
LINE
  5
459
330
2
100
AcDbEntity
  8
0
 62
     3
100
AcDbLine
 10
103.6119253342
 20
209.8908591892
 30
0.0
 11
103.6119253342
 21
209.2570396091999
 31
0.0
  0
ARC
  5
45A
330
2
100
AcDbEntity
  8
0
 62
     3
100
AcDbCircle
 10
105.7985403243999
 20
209.2395225193
 30
0.0
 40
0.5
100
AcDbArc
 50
6.564484565999999
 51
83.43551452339999
  0
LINE
  5
45B
330
2
100
AcDbEntity
  8
0
 62
     3
100
AcDbLine
 10
106.4498922530999
 20
207.0528770114998
 30
0.0
 11
105.8160726729999
 21
207.0528770114998
 31
0.0
  0
LINE
  5
45C
330
2
100
AcDbEntity
  8
0
 62
     3
100
AcDbLine
 10
106.4498922530999
 20
206.0528770114999
 30
0.0
 11
105.8160726729999
 21
206.0528770114999
 31
0.0
  0
LINE
  5
45D
330
2
100
AcDbEntity
  8
0
 62
     3
100
AcDbLine
 10
106.2952543775999
 20
209.2966629458
 30
0.0
 11
106.4498913263999
 21
207.9528853060999
 31
0.0
  0
ARC
  5
45E
330
2
100
AcDbEntity
  8
0
 62
     3
100
AcDbCircle
 10
112.6120626632999
 20
206.9530387547
 30
0.0
 40
2.149999618499998
100
AcDbArc
 50
90.00003665540001
 51
269.9998914002
  0
LINE
  5
45F
330
2
100
AcDbEntity
  8
0
 62
     3
100
AcDbLine
 10
114.3120748702999
 20
204.8030143405998
 30
0.0
 11
112.6120626632999
 21
204.8030143405998
 31
0.0
  0
LINE
  5
460
330
2
100
AcDbEntity
  8
0
 62
     3
100
AcDbLine
 10
114.3120748702999
 20
209.1030021336
 30
0.0
 11
112.6120626632999
 21
209.1030021336
 31
0.0
  0
LINE
  5
461
330
2
100
AcDbEntity
  8
0
 62
     3
100
AcDbLine
 10
116.9620737700998
 20
198.4087035920999
 30
0.0
 11
117.4620761532999
 21
197.9529518796
 31
0.0
  0
LINE
  5
462
330
2
100
AcDbEntity
  8
0
 62
     3
100
AcDbLine
 10
117.4620666464999
 20
197.952958916
 30
0.0
 11
116.9620642633
 21
197.4972072035
 31
0.0
  0
LINE
  5
463
330
2
100
AcDbEntity
  8
0
 62
     3
100
AcDbLine
 10
116.9620864579999
 20
202.0529768208
 30
0.0
 11
117.4620851764998
 21
201.5529744776999
 31
0.0
  0
LINE
  5
464
330
2
100
AcDbEntity
  8
0
 62
     3
100
AcDbLine
 10
117.4620716765
 20
211.9529725562999
 30
0.0
 11
116.9620716764999
 21
211.9529801856999
 31
0.0
  0
LINE
  5
465
330
2
100
AcDbEntity
  8
0
 62
     3
100
AcDbLine
 10
117.4620635350999
 20
211.9529956377999
 30
0.0
 11
116.4620612933999
 21
212.9529955191999
 31
0.0
  0
LINE
  5
468
330
2
100
AcDbEntity
  8
0
 62
     3
100
AcDbLine
 10
178.6216604415999
 20
211.9530234958999
 30
0.0
 11
170.5216543380998
 21
211.9530234958999
 31
0.0
  0
LINE
  5
469
330
2
100
AcDbEntity
  8
0
 62
     3
100
AcDbLine
 10
177.0195090659997
 20
195.1780060543
 30
0.0
 11
175.4173669229999
 21
197.9529981188998
 31
0.0
  0
LINE
  5
46A
330
2
100
AcDbEntity
  8
0
 62
     3
100
AcDbLine
 10
176.6287484269998
 20
194.3280593262999
 30
0.0
 11
174.5358989449999
 21
197.9529815781999
 31
0.0
  0
LINE
  5
46B
330
2
100
AcDbEntity
  8
0
 62
     3
100
AcDbLine
 10
176.7308292105999
 20
194.6780141799998
 30
0.0
 11
174.8400137011999
 21
197.9530032671999
 31
0.0
  0
LINE
  5
46C
330
2
100
AcDbEntity
  8
0
 62
     3
100
AcDbLine
 10
174.5358844118999
 20
197.9529744946
 30
0.0
 11
176.6288025583999
 21
201.5780156769999
 31
0.0
  0
LINE
  5
46D
330
2
100
AcDbEntity
  8
0
 62
     3
100
AcDbLine
 10
174.2216842348998
 20
198.4087638674999
 30
0.0
 11
176.3401303324999
 21
202.0780207656998
 31
0.0
  0
LINE
  5
46E
330
2
100
AcDbEntity
  8
0
 62
     3
100
AcDbLine
 10
174.8400429001998
 20
197.9529980341999
 30
0.0
 11
176.7308584096998
 21
201.2279871213999
 31
0.0
  0
LINE
  5
46F
330
2
100
AcDbEntity
  8
0
 62
     3
100
AcDbLine
 10
175.4173884926998
 20
197.9529899679998
 30
0.0
 11
177.0195306356999
 21
200.7279820326
 31
0.0
  0
LINE
  5
470
330
2
100
AcDbEntity
  8
0
 62
     3
100
AcDbLine
 10
177.0216543380998
 20
210.9530234958999
 30
0.0
 11
166.2216665450999
 21
210.9530234958999
 31
0.0
  0
LINE
  5
471
330
2
100
AcDbEntity
  8
0
 62
     3
100
AcDbLine
 10
177.0216543380998
 20
202.9530234959
 30
0.0
 11
166.2216665450999
 21
202.9530234959
 31
0.0
  0
LINE
  5
472
330
2
100
AcDbEntity
  8
0
 62
     3
100
AcDbLine
 10
185.1216604416
 20
212.9530234958999
 30
0.0
 11
165.6216604415999
 21
212.9530234958999
 31
0.0
  0
LINE
  5
473
330
2
100
AcDbEntity
  8
0
  6
CENTER
 62
     3
100
AcDbLine
 10
161.3216573897998
 20
197.9529929783
 30
0.0
 11
188.6216604416
 21
197.9529929783
 31
0.0
  0
LINE
  5
474
330
2
100
AcDbEntity
  8
0
 62
     3
100
AcDbLine
 10
174.5513479416
 20
201.9530234958999
 30
0.0
 11
166.2216665450999
 21
201.9530234958999
 31
0.0
  0
LINE
  5
475
330
2
100
AcDbEntity
  8
0
 62
     3
100
AcDbLine
 10
165.6216604415999
 20
203.5530295994
 30
0.0
 11
165.6216604415999
 21
210.3530173923997
 31
0.0
  0
LINE
  5
476
330
2
100
AcDbEntity
  8
0
 62
     3
100
AcDbLine
 10
165.6216604415999
 20
194.5530448581999
 30
0.0
 11
165.6216604415999
 21
201.3530173923999
 31
0.0
  0
ARC
  5
477
330
2
100
AcDbEntity
  8
0
 62
     3
100
AcDbCircle
 10
166.2216818038999
 20
203.5530448582
 30
0.0
 40
0.5999999046
100
AcDbArc
 50
179.9999640277999
 51
269.9999460416999
  0
ARC
  5
478
330
2
100
AcDbEntity
  8
0
 62
     3
100
AcDbCircle
 10
166.2216818038999
 20
201.3530326511999
 30
0.0
 40
0.5999999046
100
AcDbArc
 50
89.99998201389999
 51
179.9999640277999
  0
ARC
  5
479
330
2
100
AcDbEntity
  8
0
 62
     3
100
AcDbCircle
 10
165.7216665450999
 20
211.8530173923999
 30
0.0
 40
1.0999994278
100
AcDbArc
 50
89.99998201389999
 51
179.9999640277999
  0
ARC
  5
47A
330
2
100
AcDbEntity
  8
0
  6
PHANTOM
 62
     3
100
AcDbCircle
 10
165.7216818038999
 20
211.8530021335999
 30
0.0
 40
1.899999618499998
100
AcDbArc
 50
89.99998201389999
 51
179.9999640277999
  0
ARC
  5
47B
330
2
100
AcDbEntity
  8
0
 62
     3
100
AcDbCircle
 10
166.2216818038999
 20
210.3530326512
 30
0.0
 40
0.5999999046
100
AcDbArc
 50
89.99998201389999
 51
179.9999640277999
  0
ARC
  5
47C
330
2
100
AcDbEntity
  8
0
  6
PHANTOM
 62
     3
100
AcDbCircle
 10
165.9062215987999
 20
211.8530021335999
 30
0.0
 40
1.899999618499998
100
AcDbArc
 50
35.37733705139999
 51
89.99998201389999
  0
LINE
  5
47D
330
2
100
AcDbEntity
  8
0
  6
PHANTOM
 62
     3
100
AcDbLine
 10
165.7216665450999
 20
213.7530112888998
 30
0.0
 11
165.9062063399999
 21
213.7530112888998
 31
0.0
  0
LINE
  5
47E
330
2
100
AcDbEntity
  8
0
 62
     3
100
AcDbLine
 10
165.7216512862999
 20
212.9530234958999
 30
0.0
 11
165.9062063399999
 21
212.9530234958999
 31
0.0
  0
LINE
  5
47F
330
2
100
AcDbEntity
  8
0
 62
     3
100
AcDbLine
 10
164.6216590790999
 20
211.9529717575999
 30
0.0
 11
165.6216607308
 21
212.9529722292
 31
0.0
  0
LINE
  5
480
330
2
100
AcDbEntity
  8
0
 62
     3
100
AcDbLine
 10
173.6216839972999
 20
198.54272021
 30
0.0
 11
175.0709864977999
 21
201.0529862035
 31
0.0
  0
LINE
  5
481
330
2
100
AcDbEntity
  8
0
 62
     3
100
AcDbLine
 10
175.0709649282
 20
194.8530018834
 30
0.0
 11
173.6216547982999
 21
197.3632810913999
 31
0.0
  0
LINE
  5
482
330
2
100
AcDbEntity
  8
0
 62
     3
100
AcDbLine
 10
173.6216604416
 20
197.3633018162
 30
0.0
 11
173.6216604416
 21
198.5427451756
 31
0.0
  0
LINE
  5
483
330
2
100
AcDbEntity
  8
0
 62
     3
100
AcDbLine
 10
174.2216665451
 20
197.4972739842
 30
0.0
 11
174.2216665451
 21
198.4087577487999
 31
0.0
  0
LINE
  5
484
330
2
100
AcDbEntity
  8
0
 62
     3
100
AcDbLine
 10
174.5358833395999
 20
197.952968821
 30
0.0
 11
174.221648195
 21
197.4972647378
 31
0.0
  0
LINE
  5
485
330
2
100
AcDbEntity
  8
0
 62
     3
100
AcDbLine
 10
174.2216482413999
 20
198.4087604571998
 30
0.0
 11
174.5358790643999
 21
197.9529792339999
 31
0.0
  0
LINE
  5
486
330
2
100
AcDbEntity
  8
0
 62
     3
100
AcDbLine
 10
174.8400289718999
 20
197.9530234959
 30
0.0
 11
175.4173910323999
 21
197.9530234959
 31
0.0
  0
ARC
  5
487
330
2
100
AcDbEntity
  8
0
 62
     3
100
AcDbCircle
 10
174.5513632003999
 20
201.3530326511999
 30
0.0
 40
0.5999999046
100
AcDbArc
 50
330.0003543349999
 51
89.9992716742
  0
LINE
  5
488
330
2
100
AcDbEntity
  8
0
 62
     3
100
AcDbLine
 10
170.5216543380998
 20
211.9530234958999
 30
0.0
 11
170.5216543380998
 21
212.9530234958999
 31
0.0
  0
LINE
  5
489
330
2
100
AcDbEntity
  8
0
 62
     3
100
AcDbLine
 10
185.6216604415999
 20
211.9530234958999
 30
0.0
 11
179.1216604416
 21
211.9530234958999
 31
0.0
  0
LINE
  5
48A
330
2
100
AcDbEntity
  8
0
 62
     3
100
AcDbLine
 10
179.1216604416
 20
201.5780234958999
 30
0.0
 11
179.1216604416
 21
211.9530234958999
 31
0.0
  0
LINE
  5
48B
330
2
100
AcDbEntity
  8
0
 62
     3
100
AcDbLine
 10
177.6216604415999
 20
203.5530295994
 30
0.0
 11
177.6216604415999
 21
210.3530173923997
 31
0.0
  0
LINE
  5
48C
330
2
100
AcDbEntity
  8
0
 62
     3
100
AcDbLine
 10
178.6216604415999
 20
202.0780234959
 30
0.0
 11
178.6216604415999
 21
211.9530234958999
 31
0.0
  0
LINE
  5
48D
330
2
100
AcDbEntity
  8
0
 62
     3
100
AcDbLine
 10
177.2074485730998
 20
196.5387902674
 30
0.0
 11
180.0358648597999
 21
199.3672065541
 31
0.0
  0
LINE
  5
48E
330
2
100
AcDbEntity
  8
0
 62
     3
100
AcDbLine
 10
180.5124838058999
 20
201.2280173924
 30
0.0
 11
176.7308370772999
 21
201.2280173924
 31
0.0
  0
LINE
  5
48F
330
2
100
AcDbEntity
  8
0
 62
     3
100
AcDbLine
 10
180.2238180344
 20
200.7280173924
 30
0.0
 11
177.0195181075999
 21
200.7280173924
 31
0.0
  0
LINE
  5
490
330
2
100
AcDbEntity
  8
0
 62
     3
100
AcDbLine
 10
176.7308370772999
 20
194.6780448581998
 30
0.0
 11
180.5124838058999
 21
194.6780448581998
 31
0.0
  0
LINE
  5
491
330
2
100
AcDbEntity
  8
0
 62
     3
100
AcDbLine
 10
177.0195181075999
 20
195.1780448582
 30
0.0
 11
180.2238180344
 21
195.1780448582
 31
0.0
  0
CIRCLE
  5
492
330
2
100
AcDbEntity
  8
0
 62
     3
100
AcDbCircle
 10
178.6216757003998
 20
197.9530387547
 30
0.0
 40
2.75
  0
LINE
  5
493
330
2
100
AcDbEntity
  8
0
 62
     3
100
AcDbLine
 10
176.6287557784997
 20
194.3280540135
 30
0.0
 11
179.1216604416
 21
194.3280540135
 31
0.0
  0
LINE
  5
494
330
2
100
AcDbEntity
  8
0
 62
     3
100
AcDbLine
 10
176.7308564498998
 20
194.67803046
 30
0.0
 11
177.0195285430999
 21
195.1780282052
 31
0.0
  0
LINE
  5
495
330
2
100
AcDbEntity
  8
0
 62
     3
100
AcDbLine
 10
177.9145445525999
 20
198.660099785
 30
0.0
 11
179.3287580906999
 21
197.2458862468999
 31
0.0
  0
LINE
  5
496
330
2
100
AcDbEntity
  8
0
 62
     3
100
AcDbLine
 10
178.6216604415999
 20
202.0780234959
 30
0.0
 11
176.3401510421998
 21
202.0780234959
 31
0.0
  0
ARC
  5
497
330
2
100
AcDbEntity
  8
0
 62
     3
100
AcDbCircle
 10
177.0216695968999
 20
203.5530448582
 30
0.0
 40
0.5999999046
100
AcDbArc
 50
270.0000726275999
 51
0.0
  0
LINE
  5
498
330
2
100
AcDbEntity
  8
0
 62
     3
100
AcDbLine
 10
179.1216604416
 20
201.5780234958999
 30
0.0
 11
176.6288168136999
 21
201.5780234958999
 31
0.0
  0
LINE
  5
499
330
2
100
AcDbEntity
  8
0
 62
     3
100
AcDbLine
 10
177.0194958082998
 20
200.7279909444
 30
0.0
 11
176.7308237150999
 21
201.2279886895999
 31
0.0
  0
LINE
  5
49A
330
2
100
AcDbEntity
  8
0
 62
     3
100
AcDbLine
 10
176.3401490230999
 20
202.0780152812999
 30
0.0
 11
176.628822424
 21
201.5780182931
 31
0.0
  0
LINE
  5
49B
330
2
100
AcDbEntity
  8
0
 62
     3
100
AcDbLine
 10
178.6216604415999
 20
204.1030173923997
 30
0.0
 11
177.6216604415999
 21
204.1030173923997
 31
0.0
  0
LINE
  5
49C
330
2
100
AcDbEntity
  8
0
 62
     3
100
AcDbLine
 10
179.1216518523999
 20
201.5779833771999
 30
0.0
 11
178.6216513215999
 21
202.0779839079999
 31
0.0
  0
LINE
  5
49D
330
2
100
AcDbEntity
  8
0
 62
     3
100
AcDbLine
 10
182.4032853223999
 20
197.9530076860999
 30
0.0
 11
180.5124774423999
 21
201.2279835588
 31
0.0
  0
LINE
  5
49E
330
2
100
AcDbEntity
  8
0
 62
     3
100
AcDbLine
 10
181.8259473593999
 20
197.9529864054
 30
0.0
 11
180.2237975869998
 21
200.7279916844999
 31
0.0
  0
LINE
  5
49F
330
2
100
AcDbEntity
  8
0
 62
     3
100
AcDbLine
 10
180.5124990119999
 20
194.6780045280999
 30
0.0
 11
182.4033145215
 21
197.9529936153
 31
0.0
  0
LINE
  5
4A0
330
2
100
AcDbEntity
  8
0
 62
     3
100
AcDbLine
 10
180.2238191565999
 20
195.1779964024
 30
0.0
 11
181.8259612995999
 21
197.952988467
 31
0.0
  0
LINE
  5
4A1
330
2
100
AcDbEntity
  8
0
 62
     3
100
AcDbLine
 10
180.5124644831999
 20
194.6780163070999
 30
0.0
 11
180.2237923899999
 21
195.1780140522997
 31
0.0
  0
LINE
  5
4A2
330
2
100
AcDbEntity
  8
0
 62
     3
100
AcDbLine
 10
181.8259603683999
 20
197.9530234959
 30
0.0
 11
182.4033224289
 21
197.9530234959
 31
0.0
  0
LINE
  5
4A3
330
2
100
AcDbEntity
  8
0
 62
     3
100
AcDbLine
 10
180.2238327541999
 20
200.7280183118
 30
0.0
 11
180.5125048473998
 21
201.228016057
 31
0.0
  0
LINE
  5
4A4
330
2
100
AcDbEntity
  8
0
 62
     3
100
AcDbLine
 10
179.6216924936999
 20
212.9530114668999
 30
0.0
 11
178.6216897461999
 21
211.9530120912
 31
0.0
  0
ARC
  5
4A5
330
2
100
AcDbEntity
  8
0
 62
     3
100
AcDbCircle
 10
177.0216695968999
 20
210.3530326512
 30
0.0
 40
0.5999999046
100
AcDbArc
 50
0.0
 51
89.99998201389999
  0
LINE
  5
4A6
330
2
100
AcDbEntity
  8
0
 62
     3
100
AcDbLine
 10
178.6216604415999
 20
209.8030295994
 30
0.0
 11
177.6216604415999
 21
209.8030295994
 31
0.0
  0
LINE
  5
4A7
330
2
100
AcDbEntity
  8
0
 62
     3
100
AcDbLine
 10
186.1216698852999
 20
211.9530009693999
 30
0.0
 11
185.1216669692998
 21
212.9530001764998
 31
0.0
  0
TEXT
  5
4BB
330
2
100
AcDbEntity
  8
0
 62
     7
100
AcDbText
 10
146.0
 20
85.00000295524989
 30
0.0
 40
2.999994089499998
  1
BD8-MB7
 11
146.0
 21
86.49999999999989
 31
0.0
100
AcDbText
 73
     2
  0
ENDSEC
  0
SECTION
  2
OBJECTS
  0
DICTIONARY
  5
7
330
0
100
AcDbDictionary
281
     1
  3
ACAD_GROUP
350
1F
  3
ACAD_LAYOUT
350
B
  3
ACAD_MLINESTYLE
350
20
  3
ACAD_PLOTSETTINGS
350
21
  3
ACAD_PLOTSTYLENAME
350
6
  3
AcDbVariableDictionary
350
4BC
  0
DICTIONARY
  5
1F
102
{ACAD_REACTORS
330
7
102
}
330
7
100
AcDbDictionary
281
     1
  0
DICTIONARY
  5
B
102
{ACAD_REACTORS
330
7
102
}
330
7
100
AcDbDictionary
281
     1
  3
Model
350
A
  3
ﾚｲｱｳﾄ1
350
F
  0
DICTIONARY
  5
20
102
{ACAD_REACTORS
330
7
102
}
330
7
100
AcDbDictionary
281
     1
  3
Standard
350
22
  0
DICTIONARY
  5
21
102
{ACAD_REACTORS
330
7
102
}
330
7
100
AcDbDictionary
281
     1
  0
ACDBDICTIONARYWDFLT
  5
6
102
{ACAD_REACTORS
330
7
102
}
330
7
100
AcDbDictionary
281
     1
  3
Normal
350
5
100
AcDbDictionaryWithDefault
340
5
  0
DICTIONARY
  5
4BC
102
{ACAD_REACTORS
330
7
102
}
330
7
100
AcDbDictionary
281
     1
  3
DIMASSOC
350
4BD
  0
LAYOUT
  5
A
102
{ACAD_REACTORS
330
B
102
}
330
B
100
AcDbPlotSettings
  1

  2
C:\Program Files\AutoCAD 2000i\plotters\DWF Classic.pc3
  4

  6

 40
0.0
 41
0.0
 42
0.0
 43
0.0
 44
0.0
 45
0.0
 46
0.0
 47
0.0
 48
0.0
 49
0.0
140
0.0
141
0.0
142
1.0
143
1.0
 70
  1712
 72
     0
 73
     0
 74
     0
  7

 75
     0
147
1.0
148
0.0
149
0.0
100
AcDbLayout
  1
Model
 70
     1
 71
     0
 10
0.0
 20
0.0
 11
12.0
 21
9.0
 12
0.0
 22
0.0
 32
0.0
 14
0.0
 24
0.0
 34
0.0
 15
0.0
 25
0.0
 35
0.0
146
0.0
 13
0.0
 23
0.0
 33
0.0
 16
1.0
 26
0.0
 36
0.0
 17
0.0
 27
1.0
 37
0.0
 76
     0
330
2
  0
LAYOUT
  5
F
102
{ACAD_REACTORS
330
B
102
}
330
B
100
AcDbPlotSettings
  1

  2
C:\Program Files\AutoCAD 2000i\plotters\DWF Classic.pc3
  4

  6

 40
0.0
 41
0.0
 42
0.0
 43
0.0
 44
0.0
 45
0.0
 46
0.0
 47
0.0
 48
0.0
 49
0.0
140
0.0
141
0.0
142
1.0
143
1.0
 70
   688
 72
     0
 73
     0
 74
     5
  7

 75
    16
147
1.0
148
0.0
149
0.0
100
AcDbLayout
  1
ﾚｲｱｳﾄ1
 70
     1
 71
     1
 10
0.0
 20
0.0
 11
12.0
 21
9.0
 12
0.0
 22
0.0
 32
0.0
 14
1.000000000000000E+20
 24
1.000000000000000E+20
 34
1.000000000000000E+20
 15
-1.000000000000000E+20
 25
-1.000000000000000E+20
 35
-1.000000000000000E+20
146
0.0
 13
0.0
 23
0.0
 33
0.0
 16
1.0
 26
0.0
 36
0.0
 17
0.0
 27
1.0
 37
0.0
 76
     0
330
C
  0
MLINESTYLE
  5
22
102
{ACAD_REACTORS
330
20
102
}
330
20
100
AcDbMlineStyle
  2
STANDARD
 70
     0
  3

 62
   256
 51
90.0
 52
90.0
 71
     2
 49
0.5
 62
   256
  6
BYLAYER
 49
-0.5
 62
   256
  6
BYLAYER
  0
ACDBPLACEHOLDER
  5
5
102
{ACAD_REACTORS
330
6
102
}
330
6
  0
DICTIONARYVAR
  5
4BD
102
{ACAD_REACTORS
330
4BC
102
}
330
4BC
100
DictionaryVariables
280
     0
  1
1
  0
ENDSEC
  0
EOF
