  0
SECTION
  2
HEADER
  9
$ACADVER
  1
AC1015
  9
$ACADMAINTVER
 70
    13
  9
$DWGCODEPAGE
  3
ANSI_932
  9
$INSBASE
 10
0.0
 20
0.0
 30
0.0
  9
$EXTMIN
 10
-0.0268343540441265
 20
-0.0008421267282301
 30
-0.0000000000112498
  9
$EXTMAX
 10
210.0165242490784
 20
297.0095788400034
 30
0.0000000000002956
  9
$LIMMIN
 10
-188.7616241454999
 20
-3.174999999999998
  9
$LIMMAX
 10
3.174999999999998
 20
291.2585876465
  9
$ORTHOMODE
 70
     0
  9
$REGENMODE
 70
     1
  9
$FILLMODE
 70
     1
  9
$QTEXTMODE
 70
     0
  9
$MIRRTEXT
 70
     0
  9
$LTSCALE
 40
1.0
  9
$ATTMODE
 70
     1
  9
$TEXTSIZE
 40
2.999994039499997
  9
$TRACEWID
 40
0.05
  9
$TEXTSTYLE
  7
STANDARD
  9
$CLAYER
  8
0
  9
$CELTYPE
  6
ByLayer
  9
$CECOLOR
 62
   256
  9
$CELTSCALE
 40
1.0
  9
$DISPSILH
 70
     0
  9
$DIMSCALE
 40
1.0
  9
$DIMASZ
 40
1.9727878465
  9
$DIMEXO
 40
2.539999961899999
  9
$DIMDLI
 40
0.38
  9
$DIMRND
 40
0.0
  9
$DIMDLE
 40
0.0
  9
$DIMEXE
 40
3.809999942799997
  9
$DIMTP
 40
0.0
  9
$DIMTM
 40
0.0
  9
$DIMTXT
 40
2.999994039499997
  9
$DIMCEN
 40
0.09
  9
$DIMTSZ
 40
0.0
  9
$DIMTOL
 70
     0
  9
$DIMLIM
 70
     0
  9
$DIMTIH
 70
     0
  9
$DIMTOH
 70
     1
  9
$DIMSE1
 70
     0
  9
$DIMSE2
 70
     0
  9
$DIMTAD
 70
     0
  9
$DIMZIN
 70
     0
  9
$DIMBLK
  1

  9
$DIMASO
 70
     1
  9
$DIMSHO
 70
     0
  9
$DIMPOST
  1

  9
$DIMAPOST
  1

  9
$DIMALT
 70
     0
  9
$DIMALTD
 70
     2
  9
$DIMALTF
 40
25.4
  9
$DIMLFAC
 40
1.0
  9
$DIMTOFL
 70
     0
  9
$DIMTVP
 40
0.0
  9
$DIMTIX
 70
     0
  9
$DIMSOXD
 70
     0
  9
$DIMSAH
 70
     0
  9
$DIMBLK1
  1

  9
$DIMBLK2
  1

  9
$DIMSTYLE
  2
Standard
  9
$DIMCLRD
 70
     0
  9
$DIMCLRE
 70
     0
  9
$DIMCLRT
 70
     0
  9
$DIMTFAC
 40
1.0
  9
$DIMGAP
 40
0.09
  9
$DIMJUST
 70
     0
  9
$DIMSD1
 70
     0
  9
$DIMSD2
 70
     0
  9
$DIMTOLJ
 70
     1
  9
$DIMTZIN
 70
     0
  9
$DIMALTZ
 70
     0
  9
$DIMALTTZ
 70
     0
  9
$DIMUPT
 70
     0
  9
$DIMDEC
 70
     4
  9
$DIMTDEC
 70
     4
  9
$DIMALTU
 70
     2
  9
$DIMALTTD
 70
     2
  9
$DIMTXSTY
  7
STANDARD
  9
$DIMAUNIT
 70
     0
  9
$DIMADEC
 70
     0
  9
$DIMALTRND
 40
0.0
  9
$DIMAZIN
 70
     0
  9
$DIMDSEP
 70
    46
  9
$DIMATFIT
 70
     3
  9
$DIMFRAC
 70
     0
  9
$DIMLDRBLK
  1

  9
$DIMLUNIT
 70
     2
  9
$DIMLWD
 70
    -2
  9
$DIMLWE
 70
    -2
  9
$DIMTMOVE
 70
     0
  9
$LUNITS
 70
     2
  9
$LUPREC
 70
     3
  9
$SKETCHINC
 40
0.1
  9
$FILLETRAD
 40
0.0625
  9
$AUNITS
 70
     0
  9
$AUPREC
 70
     0
  9
$MENU
  1
ACAD
  9
$ELEVATION
 40
0.0
  9
$PELEVATION
 40
0.0
  9
$THICKNESS
 40
0.0
  9
$LIMCHECK
 70
     0
  9
$CHAMFERA
 40
0.0
  9
$CHAMFERB
 40
0.0
  9
$CHAMFERC
 40
0.0
  9
$CHAMFERD
 40
0.0
  9
$SKPOLY
 70
     0
  9
$TDCREATE
 40
2452755.435729166
  9
$TDUCREATE
 40
2452755.060729166
  9
$TDUPDATE
 40
2453318.698027152
  9
$TDUUPDATE
 40
2453318.323027152
  9
$TDINDWG
 40
0.0024229514
  9
$TDUSRTIMER
 40
0.0024113773
  9
$USRTIMER
 70
     1
  9
$ANGBASE
 50
0.0
  9
$ANGDIR
 70
     0
  9
$PDMODE
 70
     0
  9
$PDSIZE
 40
0.0
  9
$PLINEWID
 40
0.0
  9
$SPLFRAME
 70
     0
  9
$SPLINETYPE
 70
     6
  9
$SPLINESEGS
 70
     8
  9
$HANDSEED
  5
103
  9
$SURFTAB1
 70
     6
  9
$SURFTAB2
 70
     6
  9
$SURFTYPE
 70
     6
  9
$SURFU
 70
     6
  9
$SURFV
 70
     6
  9
$UCSBASE
  2

  9
$UCSNAME
  2

  9
$UCSORG
 10
0.0
 20
0.0
 30
0.0
  9
$UCSXDIR
 10
1.0
 20
0.0
 30
0.0
  9
$UCSYDIR
 10
0.0
 20
1.0
 30
0.0
  9
$UCSORTHOREF
  2

  9
$UCSORTHOVIEW
 70
     0
  9
$UCSORGTOP
 10
0.0
 20
0.0
 30
0.0
  9
$UCSORGBOTTOM
 10
0.0
 20
0.0
 30
0.0
  9
$UCSORGLEFT
 10
0.0
 20
0.0
 30
0.0
  9
$UCSORGRIGHT
 10
0.0
 20
0.0
 30
0.0
  9
$UCSORGFRONT
 10
0.0
 20
0.0
 30
0.0
  9
$UCSORGBACK
 10
0.0
 20
0.0
 30
0.0
  9
$PUCSBASE
  2

  9
$PUCSNAME
  2

  9
$PUCSORG
 10
0.0
 20
0.0
 30
0.0
  9
$PUCSXDIR
 10
1.0
 20
0.0
 30
0.0
  9
$PUCSYDIR
 10
0.0
 20
1.0
 30
0.0
  9
$PUCSORTHOREF
  2

  9
$PUCSORTHOVIEW
 70
     0
  9
$PUCSORGTOP
 10
0.0
 20
0.0
 30
0.0
  9
$PUCSORGBOTTOM
 10
0.0
 20
0.0
 30
0.0
  9
$PUCSORGLEFT
 10
0.0
 20
0.0
 30
0.0
  9
$PUCSORGRIGHT
 10
0.0
 20
0.0
 30
0.0
  9
$PUCSORGFRONT
 10
0.0
 20
0.0
 30
0.0
  9
$PUCSORGBACK
 10
0.0
 20
0.0
 30
0.0
  9
$USERI1
 70
     9
  9
$USERI2
 70
     0
  9
$USERI3
 70
     0
  9
$USERI4
 70
     0
  9
$USERI5
 70
     0
  9
$USERR1
 40
0.0
  9
$USERR2
 40
0.0
  9
$USERR3
 40
0.0
  9
$USERR4
 40
0.0
  9
$USERR5
 40
0.0
  9
$WORLDVIEW
 70
     1
  9
$SHADEDGE
 70
     3
  9
$SHADEDIF
 70
    70
  9
$TILEMODE
 70
     1
  9
$MAXACTVP
 70
    64
  9
$PINSBASE
 10
0.0
 20
0.0
 30
0.0
  9
$PLIMCHECK
 70
     0
  9
$PEXTMIN
 10
1.000000000000000E+20
 20
1.000000000000000E+20
 30
1.000000000000000E+20
  9
$PEXTMAX
 10
-1.000000000000000E+20
 20
-1.000000000000000E+20
 30
-1.000000000000000E+20
  9
$PLIMMIN
 10
0.0
 20
0.0
  9
$PLIMMAX
 10
12.0
 20
9.0
  9
$UNITMODE
 70
     0
  9
$VISRETAIN
 70
     1
  9
$PLINEGEN
 70
     0
  9
$PSLTSCALE
 70
     1
  9
$TREEDEPTH
 70
  3020
  9
$CMLSTYLE
  2
Standard
  9
$CMLJUST
 70
     0
  9
$CMLSCALE
 40
1.0
  9
$PROXYGRAPHICS
 70
     1
  9
$MEASUREMENT
 70
     0
  9
$CELWEIGHT
370
    -1
  9
$ENDCAPS
280
     0
  9
$JOINSTYLE
280
     0
  9
$LWDISPLAY
290
     0
  9
$INSUNITS
 70
     0
  9
$HYPERLINKBASE
  1

  9
$STYLESHEET
  1

  9
$XEDIT
290
     1
  9
$CEPSNTYPE
380
     0
  9
$PSTYLEMODE
290
     1
  9
$FINGERPRINTGUID
  2
{06B5FCF3-979C-4AE8-B5BA-D2C92D5896A4}
  9
$VERSIONGUID
  2
{E998E62F-08CD-409F-97C0-A2216378B951}
  9
$EXTNAMES
290
     1
  9
$PSVPSCALE
 40
0.0
  9
$OLESTARTUP
290
     0
  0
ENDSEC
  0
SECTION
  2
CLASSES
  0
CLASS
  1
ACDBDICTIONARYWDFLT
  2
AcDbDictionaryWithDefault
  3
AutoCAD 2000
 90
        0
280
     0
281
     0
  0
CLASS
  1
ACDBPLACEHOLDER
  2
AcDbPlaceHolder
  3
AutoCAD 2000
 90
        0
280
     0
281
     0
  0
CLASS
  1
LAYOUT
  2
AcDbLayout
  3
AutoCAD 2000
 90
        0
280
     0
281
     0
  0
CLASS
  1
DICTIONARYVAR
  2
AcDbDictionaryVar
  3
AutoCAD 2000
 90
        0
280
     0
281
     0
  0
ENDSEC
  0
SECTION
  2
TABLES
  0
TABLE
  2
VPORT
  5
19
330
0
100
AcDbSymbolTable
 70
     2
  0
VPORT
  5
102
330
19
100
AcDbSymbolTableRecord
100
AcDbViewportTableRecord
  2
*Active
 70
     0
 10
0.0
 20
0.0
 11
1.0
 21
1.0
 12
104.9948449475171
 22
148.5043683566376
 13
0.0
 23
0.0
 14
1.0
 24
1.0
 15
0.0
 25
0.0
 16
0.0
 26
0.0
 36
1.0
 17
0.0
 27
0.0
 37
0.0
 40
300.6847766900314
 41
2.072314049586776
 42
50.0
 43
0.0
 44
0.0
 50
0.0
 51
0.0
 71
     0
 72
   100
 73
     1
 74
     1
 75
     0
 76
     0
 77
     0
 78
     0
281
     0
 65
     1
110
0.0
120
0.0
130
0.0
111
1.0
121
0.0
131
0.0
112
0.0
122
1.0
132
0.0
 79
     0
146
0.0
  0
ENDTAB
  0
TABLE
  2
LTYPE
  5
14
330
0
100
AcDbSymbolTable
 70
     2
  0
LTYPE
  5
15
330
14
100
AcDbSymbolTableRecord
100
AcDbLinetypeTableRecord
  2
ByBlock
 70
     0
  3

 72
    65
 73
     0
 40
0.0
  0
LTYPE
  5
16
330
14
100
AcDbSymbolTableRecord
100
AcDbLinetypeTableRecord
  2
ByLayer
 70
     0
  3

 72
    65
 73
     0
 40
0.0
  0
LTYPE
  5
8
330
14
100
AcDbSymbolTableRecord
100
AcDbLinetypeTableRecord
  2
Continuous
 70
     0
  3
Solid line
 72
    65
 73
     0
 40
0.0
  0
LTYPE
  5
2B
330
14
100
AcDbSymbolTableRecord
100
AcDbLinetypeTableRecord
  2
CENTER
 70
     0
  3
Center
 72
    65
 73
     4
 40
9.100006759199999
 49
6.5000119209
 74
     0
 49
-0.7999984026000001
 74
     0
 49
0.9999980329999999
 74
     0
 49
-0.7999984026000001
 74
     0
  0
ENDTAB
  0
TABLE
  2
LAYER
  5
10
330
0
100
AcDbSymbolTable
 70
     1
  0
LAYER
  5
4
330
10
100
AcDbSymbolTableRecord
100
AcDbLayerTableRecord
  2
0
 70
     0
 62
     7
  6
Continuous
370
    -3
390
5
  0
ENDTAB
  0
TABLE
  2
STYLE
  5
11
330
0
100
AcDbSymbolTable
 70
     1
  0
STYLE
  5
12
330
11
100
AcDbSymbolTableRecord
100
AcDbTextStyleTableRecord
  2
STANDARD
 70
     0
 40
0.0
 41
1.0
 50
0.0
 71
     0
 42
2.999994039499997
  3
romans.shx
  4
bigfont.shx
  0
ENDTAB
  0
TABLE
  2
VIEW
  5
17
330
0
100
AcDbSymbolTable
 70
     0
  0
ENDTAB
  0
TABLE
  2
UCS
  5
18
330
0
100
AcDbSymbolTable
 70
     0
  0
ENDTAB
  0
TABLE
  2
APPID
  5
1B
330
0
100
AcDbSymbolTable
 70
     1
  0
APPID
  5
1C
330
1B
100
AcDbSymbolTableRecord
100
AcDbRegAppTableRecord
  2
ACAD
 70
     0
  0
ENDTAB
  0
TABLE
  2
DIMSTYLE
  5
1D
330
0
100
AcDbSymbolTable
 70
     1
100
AcDbDimStyleTable
 71
     0
  0
DIMSTYLE
105
23
330
1D
100
AcDbSymbolTableRecord
100
AcDbDimStyleTableRecord
  2
Standard
 70
     0
340
12
  0
ENDTAB
  0
TABLE
  2
BLOCK_RECORD
  5
1
330
0
100
AcDbSymbolTable
 70
     0
  0
BLOCK_RECORD
  5
2
330
1
100
AcDbSymbolTableRecord
100
AcDbBlockTableRecord
  2
*Model_Space
340
A
  0
BLOCK_RECORD
  5
C
330
1
100
AcDbSymbolTableRecord
100
AcDbBlockTableRecord
  2
*Paper_Space
340
F
  0
ENDTAB
  0
ENDSEC
  0
SECTION
  2
BLOCKS
  0
BLOCK
  5
3
330
2
100
AcDbEntity
  8
0
100
AcDbBlockBegin
  2
*Model_Space
 70
     2
 10
0.0
 20
0.0
 30
0.0
  3
*Model_Space
  1

  0
ENDBLK
  5
9
330
2
100
AcDbEntity
  8
0
100
AcDbBlockEnd
  0
BLOCK
  5
D
330
C
100
AcDbEntity
 67
     1
  8
0
100
AcDbBlockBegin
  2
*Paper_Space
 70
     0
 10
0.0
 20
0.0
 30
0.0
  3
*Paper_Space
  1

  0
ENDBLK
  5
E
330
C
100
AcDbEntity
 67
     1
  8
0
100
AcDbBlockEnd
  0
ENDSEC
  0
SECTION
  2
ENTITIES
  0
CIRCLE
  5
24
330
2
100
AcDbEntity
  8
0
 62
     3
100
AcDbCircle
 10
170.3726687229998
 20
182.3563842773
 30
0.0
 40
2.0
  0
CIRCLE
  5
25
330
2
100
AcDbEntity
  8
0
 62
     3
100
AcDbCircle
 10
162.3726992405998
 20
182.3563842773
 30
0.0
 40
2.0
  0
ARC
  5
26
330
2
100
AcDbEntity
  8
0
 62
     3
100
AcDbCircle
 10
129.1394460642999
 20
182.4249572753999
 30
0.0
 40
2.068899154699999
100
AcDbArc
 50
111.0027950423997
 51
268.9520124291998
  0
CIRCLE
  5
27
330
2
100
AcDbEntity
  8
0
 62
     3
100
AcDbCircle
 10
178.3726687229999
 20
182.3563537597999
 30
0.0
 40
2.0
  0
LINE
  5
28
330
2
100
AcDbEntity
  8
0
100
AcDbLine
 10
210.0
 20
0.0
 30
0.0
 11
210.0
 21
297.0
 31
0.0
  0
CIRCLE
  5
29
330
2
100
AcDbEntity
  8
0
 62
     3
100
AcDbCircle
 10
170.3726687229998
 20
168.5
 30
0.0
 40
25.0
  0
LINE
  5
2A
330
2
100
AcDbEntity
  8
0
  6
CENTER
 62
     3
100
AcDbLine
 10
170.3726687229998
 20
196.5
 30
0.0
 11
170.3726687229998
 21
140.5
 31
0.0
  0
LINE
  5
2C
330
2
100
AcDbEntity
  8
0
 62
     3
100
AcDbLine
 10
123.7753408396998
 20
147.0246887206999
 30
0.0
 11
123.7753408396998
 21
189.6922302245999
 31
0.0
  0
ARC
  5
2D
330
2
100
AcDbEntity
  8
0
 62
     3
100
AcDbCircle
 10
49.98511867170001
 20
168.5000305176
 30
0.0
 40
80.0
100
AcDbArc
 50
343.3984688924998
 51
16.60160305180006
  0
LINE
  5
2E
330
2
100
AcDbEntity
  8
0
 62
     3
100
AcDbLine
 10
71.98509403649999
 20
183.5000029411999
 30
0.0
 11
69.9850940365
 21
181.5000029411999
 31
0.0
  0
LINE
  5
2F
330
2
100
AcDbEntity
  8
0
100
AcDbLine
 10
0.0
 20
297.0
 30
0.0
 11
0.0
 21
0.0
 31
0.0
  0
LINE
  5
30
330
2
100
AcDbEntity
  8
0
 62
     3
100
AcDbLine
 10
89.98509697769998
 20
186.0000029412
 30
0.0
 11
89.98509697769998
 21
150.9999970587999
 31
0.0
  0
LINE
  5
31
330
2
100
AcDbEntity
  8
0
 62
     3
100
AcDbLine
 10
86.98508815409999
 20
186.0000029412
 30
0.0
 11
86.98508815409999
 21
150.9999970587999
 31
0.0
  0
LINE
  5
32
330
2
100
AcDbEntity
  8
0
 62
     3
100
AcDbLine
 10
71.9850881541
 20
183.4999970588
 30
0.0
 11
71.9850881541
 21
153.5
 31
0.0
  0
LINE
  5
33
330
2
100
AcDbEntity
  8
0
 62
     3
100
AcDbLine
 10
85.98508815409998
 20
185.0000029411999
 30
0.0
 11
85.98508815409998
 21
151.9999970587999
 31
0.0
  0
LINE
  5
34
330
2
100
AcDbEntity
  8
0
 62
     3
100
AcDbLine
 10
90.98508521299999
 20
185.0000029411999
 30
0.0
 11
90.98508521299999
 21
151.9999970587999
 31
0.0
  0
LINE
  5
35
330
2
100
AcDbEntity
  8
0
 62
     3
100
AcDbLine
 10
95.98508815409999
 20
149.0
 30
0.0
 11
95.98508815409999
 21
188.0
 31
0.0
  0
LINE
  5
36
330
2
100
AcDbEntity
  8
0
 62
     3
100
AcDbLine
 10
106.9850881540999
 20
143.5000305176
 30
0.0
 11
106.9850881540999
 21
193.5000305175999
 31
0.0
  0
LINE
  5
37
330
2
100
AcDbEntity
  8
0
 62
     3
100
AcDbLine
 10
105.9850881540999
 20
146.55
 30
0.0
 11
105.9850881540999
 21
190.4499999999999
 31
0.0
  0
LINE
  5
38
330
2
100
AcDbEntity
  8
0
 62
     3
100
AcDbLine
 10
98.9850881541
 20
148.5
 30
0.0
 11
98.9850881541
 21
188.4999999999999
 31
0.0
  0
LINE
  5
39
330
2
100
AcDbEntity
  8
0
  6
CENTER
 62
     3
100
AcDbLine
 10
142.372668723
 20
168.5
 30
0.0
 11
198.3726687229999
 21
168.5
 31
0.0
  0
TEXT
  5
3A
330
2
100
AcDbEntity
  8
0
 62
     5
100
AcDbText
 10
145.0
 20
10.0
 30
0.0
 40
5.0
  1
ＭＡ４－Ａ０３９６１
 41
0.8659515370411746
 72
     5
 11
194.0705870989999
 21
10.0
 31
0.0
100
AcDbText
  0
LINE
  5
3B
330
2
100
AcDbEntity
  8
0
100
AcDbLine
 10
0.0
 20
0.0
 30
0.0
 11
210.0
 21
0.0
 31
0.0
  0
LINE
  5
3C
330
2
100
AcDbEntity
  8
0
 62
     3
100
AcDbLine
 10
86.98508815409999
 20
179.4375
 30
0.0
 11
89.98509697769998
 21
179.4375
 31
0.0
  0
LINE
  5
3D
330
2
100
AcDbEntity
  8
0
 62
     3
100
AcDbLine
 10
86.98508815409999
 20
181.6250058822999
 30
0.0
 11
89.98509697769998
 21
181.6250058822999
 31
0.0
  0
LINE
  5
3E
330
2
100
AcDbEntity
  8
0
 62
     3
100
AcDbLine
 10
86.98508815409999
 20
177.2499999999999
 30
0.0
 11
89.98509697769998
 21
177.2499999999999
 31
0.0
  0
LINE
  5
3F
330
2
100
AcDbEntity
  8
0
 62
     3
100
AcDbLine
 10
86.98508815409999
 20
168.5
 30
0.0
 11
89.98509697769998
 21
168.5
 31
0.0
  0
LINE
  5
40
330
2
100
AcDbEntity
  8
0
 62
     3
100
AcDbLine
 10
86.98508815409999
 20
153.1875029411999
 30
0.0
 11
89.98508521299999
 21
153.1875029411999
 31
0.0
  0
LINE
  5
41
330
2
100
AcDbEntity
  8
0
 62
     3
100
AcDbLine
 10
86.98508815409999
 20
157.5625
 30
0.0
 11
89.98508521299999
 21
157.5625
 31
0.0
  0
LINE
  5
42
330
2
100
AcDbEntity
  8
0
 62
     3
100
AcDbLine
 10
86.98508815409999
 20
155.3749999999999
 30
0.0
 11
89.98508521299999
 21
155.3749999999999
 31
0.0
  0
LINE
  5
43
330
2
100
AcDbEntity
  8
0
 62
     3
100
AcDbLine
 10
86.98508815409999
 20
161.9374970587999
 30
0.0
 11
89.98508521299999
 21
161.9374970587999
 31
0.0
  0
LINE
  5
44
330
2
100
AcDbEntity
  8
0
 62
     3
100
AcDbLine
 10
86.98508815409999
 20
166.3124999999999
 30
0.0
 11
89.98508521299999
 21
166.3124999999999
 31
0.0
  0
LINE
  5
45
330
2
100
AcDbEntity
  8
0
 62
     3
100
AcDbLine
 10
86.98508815409999
 20
164.1250029411999
 30
0.0
 11
89.98508521299999
 21
164.1250029411999
 31
0.0
  0
LINE
  5
46
330
2
100
AcDbEntity
  8
0
 62
     3
100
AcDbLine
 10
86.98508815409999
 20
159.75
 30
0.0
 11
89.98508521299999
 21
159.75
 31
0.0
  0
LINE
  5
47
330
2
100
AcDbEntity
  8
0
 62
     3
100
AcDbLine
 10
86.98508815409999
 20
175.0625029412
 30
0.0
 11
89.98509697769998
 21
175.0625029412
 31
0.0
  0
LINE
  5
48
330
2
100
AcDbEntity
  8
0
 62
     3
100
AcDbLine
 10
86.98508815409999
 20
170.6875
 30
0.0
 11
89.98509697769998
 21
170.6875
 31
0.0
  0
LINE
  5
49
330
2
100
AcDbEntity
  8
0
 62
     3
100
AcDbLine
 10
86.98508815409999
 20
172.8749970587998
 30
0.0
 11
89.98509697769998
 21
172.8749970587998
 31
0.0
  0
LINE
  5
4A
330
2
100
AcDbEntity
  8
0
 62
     3
100
AcDbLine
 10
86.98508815409999
 20
150.9999970587999
 30
0.0
 11
89.98508521299999
 21
150.9999970587999
 31
0.0
  0
LINE
  5
4B
330
2
100
AcDbEntity
  8
0
  6
CENTER
 62
     3
100
AcDbLine
 10
31.48509109529999
 20
168.5
 30
0.0
 11
132.9850881540999
 21
168.5
 31
0.0
  0
LINE
  5
4C
330
2
100
AcDbEntity
  8
0
 62
     3
100
AcDbLine
 10
46.48508815409999
 20
181.4999941176001
 30
0.0
 11
85.98508815409998
 21
181.4999941176001
 31
0.0
  0
LINE
  5
4D
330
2
100
AcDbEntity
  8
0
 62
     3
100
AcDbLine
 10
46.48508815409999
 20
155.4999999999999
 30
0.0
 11
85.98508815409998
 21
155.4999999999999
 31
0.0
  0
LINE
  5
4E
330
2
100
AcDbEntity
  8
0
 62
     3
100
AcDbLine
 10
38.98509109529999
 20
178.5
 30
0.0
 11
46.48508815409999
 21
178.5
 31
0.0
  0
LINE
  5
4F
330
2
100
AcDbEntity
  8
0
 62
     3
100
AcDbLine
 10
35.96745580119999
 20
178.6818058822999
 30
0.0
 11
46.48509403649998
 21
181.4999999999999
 31
0.0
  0
LINE
  5
50
330
2
100
AcDbEntity
  8
0
 62
     3
100
AcDbLine
 10
41.48509109529999
 20
156.2499970587999
 30
0.0
 11
46.48508815409999
 21
156.2499970587999
 31
0.0
  0
LINE
  5
51
330
2
100
AcDbEntity
  8
0
 62
     3
100
AcDbLine
 10
41.48509109529999
 20
157.7499970587998
 30
0.0
 11
46.48508815409999
 21
157.7499970587998
 31
0.0
  0
LINE
  5
52
330
2
100
AcDbEntity
  8
0
 62
     3
100
AcDbLine
 10
36.31077933059998
 20
159.3901411765
 30
0.0
 11
46.48509109529999
 21
158.5000029411999
 31
0.0
  0
LINE
  5
53
330
2
100
AcDbEntity
  8
0
 62
     3
100
AcDbLine
 10
38.98509109529999
 20
176.4999970588
 30
0.0
 11
46.48508815409999
 21
176.4999970588
 31
0.0
  0
ARC
  5
54
330
2
100
AcDbEntity
  8
0
 62
     3
100
AcDbCircle
 10
36.48509109529999
 20
161.3825264706
 30
0.0
 40
2.0
100
AcDbArc
 50
179.9999949999999
 51
264.999998
  0
LINE
  5
55
330
2
100
AcDbEntity
  8
0
 62
     3
100
AcDbLine
 10
38.98509109529999
 20
178.5
 30
0.0
 11
38.98509109529999
 21
159.1561617646999
 31
0.0
  0
LINE
  5
56
330
2
100
AcDbEntity
  8
0
 62
     3
100
AcDbLine
 10
41.48509109529999
 20
157.7499970587998
 30
0.0
 11
41.48509109529999
 21
156.2499970587999
 31
0.0
  0
ARC
  5
57
330
2
100
AcDbEntity
  8
0
 62
     3
100
AcDbCircle
 10
36.48509109529999
 20
176.7499558822999
 30
0.0
 40
2.0
100
AcDbArc
 50
105.0
 51
180.000005
  0
LINE
  5
58
330
2
100
AcDbEntity
  8
0
 62
     3
100
AcDbLine
 10
34.48509109529995
 20
176.7499558822999
 30
0.0
 11
34.48509109529995
 21
161.3825264706
 31
0.0
  0
LINE
  5
59
330
2
100
AcDbEntity
  8
0
 62
     3
100
AcDbLine
 10
53.98509109529999
 20
181.4999941176001
 30
0.0
 11
53.98509109529999
 21
155.4999999999999
 31
0.0
  0
LINE
  5
5A
330
2
100
AcDbEntity
  8
0
 62
     3
100
AcDbLine
 10
46.48508815409999
 20
181.4999941176001
 30
0.0
 11
46.48508815409999
 21
155.4999999999999
 31
0.0
  0
LINE
  5
5B
330
2
100
AcDbEntity
  8
0
 62
     3
100
AcDbLine
 10
43.98509109529999
 20
171.0
 30
0.0
 11
46.48508815409999
 21
171.0
 31
0.0
  0
LINE
  5
5C
330
2
100
AcDbEntity
  8
0
 62
     3
100
AcDbLine
 10
43.98509109529999
 20
166.0
 30
0.0
 11
46.48508815409999
 21
166.0
 31
0.0
  0
LINE
  5
5D
330
2
100
AcDbEntity
  8
0
 62
     3
100
AcDbLine
 10
43.98509109529999
 20
171.0
 30
0.0
 11
43.98509109529999
 21
166.0
 31
0.0
  0
LINE
  5
5E
330
2
100
AcDbEntity
  8
0
 62
     3
100
AcDbLine
 10
71.9850881541
 20
153.5
 30
0.0
 11
85.98508815409998
 21
153.5
 31
0.0
  0
LINE
  5
5F
330
2
100
AcDbEntity
  8
0
 62
     3
100
AcDbLine
 10
69.9850940365
 20
181.4999941176001
 30
0.0
 11
69.9850940365
 21
155.4999999999999
 31
0.0
  0
LINE
  5
60
330
2
100
AcDbEntity
  8
0
 62
     3
100
AcDbLine
 10
69.9850940365
 20
155.5000029411999
 30
0.0
 11
71.98509403649999
 21
153.5000029411999
 31
0.0
  0
LINE
  5
61
330
2
100
AcDbEntity
  8
0
 62
     3
100
AcDbLine
 10
86.98509109529998
 20
151.0
 30
0.0
 11
85.98509109529997
 21
152.0
 31
0.0
  0
LINE
  5
62
330
2
100
AcDbEntity
  8
0
 62
     3
100
AcDbLine
 10
123.7753408396998
 20
143.5000305176
 30
0.0
 11
106.9850881540999
 21
143.5000305176
 31
0.0
  0
LINE
  5
63
330
2
100
AcDbEntity
  8
0
 62
     3
100
AcDbLine
 10
98.9850881541
 20
148.5
 30
0.0
 11
105.9850881540999
 21
148.5
 31
0.0
  0
LINE
  5
64
330
2
100
AcDbEntity
  8
0
 62
     3
100
AcDbLine
 10
90.98508521299999
 20
155.4999999999999
 30
0.0
 11
95.98508815409999
 21
155.4999999999999
 31
0.0
  0
LINE
  5
65
330
2
100
AcDbEntity
  8
0
 62
     3
100
AcDbLine
 10
90.98508521299999
 20
153.5
 30
0.0
 11
95.98508815409999
 21
153.5
 31
0.0
  0
LINE
  5
66
330
2
100
AcDbEntity
  8
0
 62
     3
100
AcDbLine
 10
90.98508815409999
 20
151.9999970587999
 30
0.0
 11
89.98509109529996
 21
151.0
 31
0.0
  0
LINE
  5
67
330
2
100
AcDbEntity
  8
0
 62
     3
100
AcDbLine
 10
95.98508815409999
 20
149.0
 30
0.0
 11
98.9850881541
 21
149.0
 31
0.0
  0
LINE
  5
68
330
2
100
AcDbEntity
  8
0
 62
     3
100
AcDbLine
 10
90.98508521299999
 20
181.4999941176001
 30
0.0
 11
95.98508815409999
 21
181.4999941176001
 31
0.0
  0
LINE
  5
69
330
2
100
AcDbEntity
  8
0
 62
     3
100
AcDbLine
 10
105.9850881540999
 20
146.55
 30
0.0
 11
106.9850881540999
 21
146.55
 31
0.0
  0
LINE
  5
6A
330
2
100
AcDbEntity
  8
0
 62
     3
100
AcDbLine
 10
126.6819554124999
 20
159.7440760769001
 30
0.0
 11
126.8630040216999
 21
159.9531330034001
 31
0.0
  0
LINE
  5
6B
330
2
100
AcDbEntity
  8
0
 62
     3
100
AcDbLine
 10
125.6874335170999
 20
159.9531330034001
 30
0.0
 11
125.8684821262999
 21
159.7440760769001
 31
0.0
  0
ARC
  5
6C
330
2
100
AcDbEntity
  8
0
 62
     3
100
AcDbCircle
 10
123.7753408396998
 20
146.5000305176
 30
0.0
 40
3.0
100
AcDbArc
 50
269.9999820138998
 51
343.3984515897
  0
ARC
  5
6D
330
2
100
AcDbEntity
  8
0
 62
     3
100
AcDbCircle
 10
129.1394460642999
 20
154.5751037597999
 30
0.0
 40
2.068899154699999
100
AcDbArc
 50
91.04798757080001
 51
248.9971503161
  0
LINE
  5
6E
330
2
100
AcDbEntity
  8
0
 62
     3
100
AcDbLine
 10
126.4831304601996
 20
159.6148717906999
 30
0.0
 11
126.6819554124999
 21
159.7440760769001
 31
0.0
  0
LINE
  5
6F
330
2
100
AcDbEntity
  8
0
 62
     3
100
AcDbLine
 10
126.2752187693999
 20
159.5711669921998
 30
0.0
 11
126.4831304601996
 21
159.6148717906999
 31
0.0
  0
LINE
  5
70
330
2
100
AcDbEntity
  8
0
 62
     3
100
AcDbLine
 10
125.8684821262999
 20
159.7440760769001
 30
0.0
 11
126.0673070785999
 21
159.6148717906999
 31
0.0
  0
LINE
  5
71
330
2
100
AcDbEntity
  8
0
 62
     3
100
AcDbLine
 10
126.0673070785999
 20
159.6148717906999
 30
0.0
 11
126.2752187693999
 21
159.5711669921998
 31
0.0
  0
LINE
  5
72
330
2
100
AcDbEntity
  8
0
 62
     3
100
AcDbLine
 10
126.6819554124999
 20
163.3982579075
 30
0.0
 11
126.4831304601996
 21
163.5274621937
 31
0.0
  0
LINE
  5
73
330
2
100
AcDbEntity
  8
0
 62
     3
100
AcDbLine
 10
126.4831304601996
 20
163.5274621937
 30
0.0
 11
126.2752187693999
 21
163.5711669922
 31
0.0
  0
LINE
  5
74
330
2
100
AcDbEntity
  8
0
 62
     3
100
AcDbLine
 10
126.0673070785999
 20
163.5274621937
 30
0.0
 11
125.8684821262999
 21
163.3982579075
 31
0.0
  0
LINE
  5
75
330
2
100
AcDbEntity
  8
0
 62
     3
100
AcDbLine
 10
125.8684821262999
 20
163.3982579075
 30
0.0
 11
125.6874335170999
 21
163.1892009809001
 31
0.0
  0
LINE
  5
76
330
2
100
AcDbEntity
  8
0
 62
     3
100
AcDbLine
 10
125.6874335170999
 20
163.1892009809001
 30
0.0
 11
125.5320739438999
 21
162.9094282048999
 31
0.0
  0
LINE
  5
77
330
2
100
AcDbEntity
  8
0
 62
     3
100
AcDbLine
 10
125.5320739438999
 20
162.9094282048999
 30
0.0
 11
125.4091933655999
 21
162.5711669922
 31
0.0
  0
LINE
  5
78
330
2
100
AcDbEntity
  8
0
 62
     3
100
AcDbLine
 10
125.4091933655999
 20
162.5711669922
 30
0.0
 11
125.3241622530999
 21
162.1892009809001
 31
0.0
  0
LINE
  5
79
330
2
100
AcDbEntity
  8
0
 62
     3
100
AcDbLine
 10
125.3241622530999
 20
162.1892009809001
 30
0.0
 11
125.2806968739998
 21
161.7802239186999
 31
0.0
  0
LINE
  5
7A
330
2
100
AcDbEntity
  8
0
 62
     3
100
AcDbLine
 10
125.2806968739998
 20
161.7802239186999
 30
0.0
 11
125.2806968739998
 21
161.3621100656
 31
0.0
  0
LINE
  5
7B
330
2
100
AcDbEntity
  8
0
 62
     3
100
AcDbLine
 10
125.2806968739998
 20
161.3621100656
 30
0.0
 11
125.3241622530999
 21
160.9531330034001
 31
0.0
  0
LINE
  5
7C
330
2
100
AcDbEntity
  8
0
 62
     3
100
AcDbLine
 10
125.3241622530999
 20
160.9531330034001
 30
0.0
 11
125.4091933655999
 21
160.5711669921998
 31
0.0
  0
LINE
  5
7D
330
2
100
AcDbEntity
  8
0
 62
     3
100
AcDbLine
 10
125.4091933655999
 20
160.5711669921998
 30
0.0
 11
125.5320739438999
 21
160.2329057795
 31
0.0
  0
LINE
  5
7E
330
2
100
AcDbEntity
  8
0
 62
     3
100
AcDbLine
 10
125.5320739438999
 20
160.2329057795
 30
0.0
 11
125.6874335170999
 21
159.9531330034001
 31
0.0
  0
LINE
  5
7F
330
2
100
AcDbEntity
  8
0
 62
     3
100
AcDbLine
 10
126.2752187693999
 20
163.5711669922
 30
0.0
 11
126.0673070785999
 21
163.5274621937
 31
0.0
  0
LINE
  5
80
330
2
100
AcDbEntity
  8
0
 62
     3
100
AcDbLine
 10
126.8630040216999
 20
159.9531330034001
 30
0.0
 11
127.0183635948999
 21
160.2329057795
 31
0.0
  0
LINE
  5
81
330
2
100
AcDbEntity
  8
0
 62
     3
100
AcDbLine
 10
127.0183635948999
 20
160.2329057795
 30
0.0
 11
127.1412441731999
 21
160.5711669921998
 31
0.0
  0
LINE
  5
82
330
2
100
AcDbEntity
  8
0
 62
     3
100
AcDbLine
 10
127.1412441731999
 20
160.5711669921998
 30
0.0
 11
127.2262752856998
 21
160.9531330034001
 31
0.0
  0
LINE
  5
83
330
2
100
AcDbEntity
  8
0
 62
     3
100
AcDbLine
 10
127.2262752856998
 20
160.9531330034001
 30
0.0
 11
127.2697406646998
 21
161.3621100656
 31
0.0
  0
LINE
  5
84
330
2
100
AcDbEntity
  8
0
 62
     3
100
AcDbLine
 10
127.2697406646998
 20
161.3621100656
 30
0.0
 11
127.2697406646998
 21
161.7802239186999
 31
0.0
  0
LINE
  5
85
330
2
100
AcDbEntity
  8
0
 62
     3
100
AcDbLine
 10
127.2697406646998
 20
161.7802239186999
 30
0.0
 11
127.2262752856998
 21
162.1892009809001
 31
0.0
  0
LINE
  5
86
330
2
100
AcDbEntity
  8
0
 62
     3
100
AcDbLine
 10
127.2262752856998
 20
162.1892009809001
 30
0.0
 11
127.1412441731999
 21
162.5711669922
 31
0.0
  0
LINE
  5
87
330
2
100
AcDbEntity
  8
0
 62
     3
100
AcDbLine
 10
127.1412441731999
 20
162.5711669922
 30
0.0
 11
127.0183635948999
 21
162.9094282048999
 31
0.0
  0
LINE
  5
88
330
2
100
AcDbEntity
  8
0
 62
     3
100
AcDbLine
 10
127.0183635948999
 20
162.9094282048999
 30
0.0
 11
126.8630040216999
 21
163.1892009809001
 31
0.0
  0
LINE
  5
89
330
2
100
AcDbEntity
  8
0
 62
     3
100
AcDbLine
 10
126.8630040216999
 20
163.1892009809001
 30
0.0
 11
126.6819554124999
 21
163.3982579075
 31
0.0
  0
ARC
  5
8A
330
2
100
AcDbEntity
  8
0
 62
     3
100
AcDbCircle
 10
130.6102102244999
 20
168.5000305176
 30
0.0
 40
2.103017807
100
AcDbArc
 50
108.0078936951
 51
251.9921063049
  0
LINE
  5
8B
330
2
100
AcDbEntity
  8
0
 62
     3
100
AcDbLine
 10
126.8630040216999
 20
177.0469280316999
 30
0.0
 11
126.6819554124999
 21
177.2559849582
 31
0.0
  0
LINE
  5
8C
330
2
100
AcDbEntity
  8
0
 62
     3
100
AcDbLine
 10
125.8684821262999
 20
177.2559849582
 30
0.0
 11
125.6874335170999
 21
177.0469280316999
 31
0.0
  0
LINE
  5
8D
330
2
100
AcDbEntity
  8
0
 62
     3
100
AcDbLine
 10
126.4831304601996
 20
173.4725988415
 30
0.0
 11
126.6819554124999
 21
173.6018031277001
 31
0.0
  0
LINE
  5
8E
330
2
100
AcDbEntity
  8
0
 62
     3
100
AcDbLine
 10
126.2752187693999
 20
173.4288940429999
 30
0.0
 11
126.4831304601996
 21
173.4725988415
 31
0.0
  0
LINE
  5
8F
330
2
100
AcDbEntity
  8
0
 62
     3
100
AcDbLine
 10
125.5320739438999
 20
176.7671552557001
 30
0.0
 11
125.4091933655999
 21
176.4288940429999
 31
0.0
  0
LINE
  5
90
330
2
100
AcDbEntity
  8
0
 62
     3
100
AcDbLine
 10
125.4091933655999
 20
176.4288940429999
 30
0.0
 11
125.3241622530999
 21
176.0469280316999
 31
0.0
  0
LINE
  5
91
330
2
100
AcDbEntity
  8
0
 62
     3
100
AcDbLine
 10
125.3241622530999
 20
176.0469280316999
 30
0.0
 11
125.2806968739998
 21
175.6379509694999
 31
0.0
  0
LINE
  5
92
330
2
100
AcDbEntity
  8
0
 62
     3
100
AcDbLine
 10
125.2806968739998
 20
175.6379509694999
 30
0.0
 11
125.2806968739998
 21
175.2198371163999
 31
0.0
  0
LINE
  5
93
330
2
100
AcDbEntity
  8
0
 62
     3
100
AcDbLine
 10
125.2806968739998
 20
175.2198371163999
 30
0.0
 11
125.3241622530999
 21
174.8108600541999
 31
0.0
  0
LINE
  5
94
330
2
100
AcDbEntity
  8
0
 62
     3
100
AcDbLine
 10
125.3241622530999
 20
174.8108600541999
 30
0.0
 11
125.4091933655999
 21
174.4288940429999
 31
0.0
  0
LINE
  5
95
330
2
100
AcDbEntity
  8
0
 62
     3
100
AcDbLine
 10
125.4091933655999
 20
174.4288940429999
 30
0.0
 11
125.5320739438999
 21
174.0906328302
 31
0.0
  0
LINE
  5
96
330
2
100
AcDbEntity
  8
0
 62
     3
100
AcDbLine
 10
125.5320739438999
 20
174.0906328302
 30
0.0
 11
125.6874335170999
 21
173.8108600541999
 31
0.0
  0
LINE
  5
97
330
2
100
AcDbEntity
  8
0
 62
     3
100
AcDbLine
 10
125.6874335170999
 20
173.8108600541999
 30
0.0
 11
125.8684821262999
 21
173.6018031277001
 31
0.0
  0
LINE
  5
98
330
2
100
AcDbEntity
  8
0
 62
     3
100
AcDbLine
 10
125.8684821262999
 20
173.6018031277001
 30
0.0
 11
126.0673070785999
 21
173.4725988415
 31
0.0
  0
LINE
  5
99
330
2
100
AcDbEntity
  8
0
 62
     3
100
AcDbLine
 10
126.0673070785999
 20
173.4725988415
 30
0.0
 11
126.2752187693999
 21
173.4288940429999
 31
0.0
  0
LINE
  5
9A
330
2
100
AcDbEntity
  8
0
 62
     3
100
AcDbLine
 10
125.6874335170999
 20
177.0469280316999
 30
0.0
 11
125.5320739438999
 21
176.7671552557001
 31
0.0
  0
LINE
  5
9B
330
2
100
AcDbEntity
  8
0
 62
     3
100
AcDbLine
 10
126.6819554124999
 20
173.6018031277001
 30
0.0
 11
126.8630040216999
 21
173.8108600541999
 31
0.0
  0
LINE
  5
9C
330
2
100
AcDbEntity
  8
0
 62
     3
100
AcDbLine
 10
126.8630040216999
 20
173.8108600541999
 30
0.0
 11
127.0183635948999
 21
174.0906328302
 31
0.0
  0
LINE
  5
9D
330
2
100
AcDbEntity
  8
0
 62
     3
100
AcDbLine
 10
127.0183635948999
 20
174.0906328302
 30
0.0
 11
127.1412441731999
 21
174.4288940429999
 31
0.0
  0
LINE
  5
9E
330
2
100
AcDbEntity
  8
0
 62
     3
100
AcDbLine
 10
127.1412441731999
 20
174.4288940429999
 30
0.0
 11
127.2262752856998
 21
174.8108600541999
 31
0.0
  0
LINE
  5
9F
330
2
100
AcDbEntity
  8
0
 62
     3
100
AcDbLine
 10
127.2262752856998
 20
174.8108600541999
 30
0.0
 11
127.2697406646998
 21
175.2198371163999
 31
0.0
  0
LINE
  5
A0
330
2
100
AcDbEntity
  8
0
 62
     3
100
AcDbLine
 10
127.2697406646998
 20
175.2198371163999
 30
0.0
 11
127.2697406646998
 21
175.6379509694999
 31
0.0
  0
LINE
  5
A1
330
2
100
AcDbEntity
  8
0
 62
     3
100
AcDbLine
 10
127.2697406646998
 20
175.6379509694999
 30
0.0
 11
127.2262752856998
 21
176.0469280316999
 31
0.0
  0
LINE
  5
A2
330
2
100
AcDbEntity
  8
0
 62
     3
100
AcDbLine
 10
127.2262752856998
 20
176.0469280316999
 30
0.0
 11
127.1412441731999
 21
176.4288940429999
 31
0.0
  0
LINE
  5
A3
330
2
100
AcDbEntity
  8
0
 62
     3
100
AcDbLine
 10
127.1412441731999
 20
176.4288940429999
 30
0.0
 11
127.0183635948999
 21
176.7671552557001
 31
0.0
  0
LINE
  5
A4
330
2
100
AcDbEntity
  8
0
 62
     3
100
AcDbLine
 10
127.0183635948999
 20
176.7671552557001
 30
0.0
 11
126.8630040216999
 21
177.0469280316999
 31
0.0
  0
LINE
  5
A5
330
2
100
AcDbEntity
  8
0
 62
     3
100
AcDbLine
 10
126.6819554124999
 20
177.2559849582
 30
0.0
 11
126.4831304601996
 21
177.3851892443999
 31
0.0
  0
LINE
  5
A6
330
2
100
AcDbEntity
  8
0
 62
     3
100
AcDbLine
 10
126.4831304601996
 20
177.3851892443999
 30
0.0
 11
126.2752187693999
 21
177.4288940429999
 31
0.0
  0
LINE
  5
A7
330
2
100
AcDbEntity
  8
0
 62
     3
100
AcDbLine
 10
126.0673070785999
 20
177.3851892443999
 30
0.0
 11
125.8684821262999
 21
177.2559849582
 31
0.0
  0
LINE
  5
A8
330
2
100
AcDbEntity
  8
0
 62
     3
100
AcDbLine
 10
126.2752187693999
 20
177.4288940429999
 30
0.0
 11
126.0673070785999
 21
177.3851892443999
 31
0.0
  0
CIRCLE
  5
A9
330
2
100
AcDbEntity
  8
0
 62
     3
100
AcDbCircle
 10
178.3726687229999
 20
168.5
 30
0.0
 40
2.0
  0
CIRCLE
  5
AA
330
2
100
AcDbEntity
  8
0
 62
     3
100
AcDbCircle
 10
178.3726687229999
 20
154.6436462402001
 30
0.0
 40
2.0
  0
CIRCLE
  5
AB
330
2
100
AcDbEntity
  8
0
 62
     3
100
AcDbCircle
 10
162.3726687229998
 20
168.5
 30
0.0
 40
2.0
  0
CIRCLE
  5
AC
330
2
100
AcDbEntity
  8
0
 62
     3
100
AcDbCircle
 10
162.3726992405998
 20
154.6436157227
 30
0.0
 40
2.0
  0
CIRCLE
  5
AD
330
2
100
AcDbEntity
  8
0
 62
     3
100
AcDbCircle
 10
158.3726687229998
 20
161.5718383788999
 30
0.0
 40
2.0
  0
CIRCLE
  5
AE
330
2
100
AcDbEntity
  8
0
 62
     3
100
AcDbCircle
 10
154.3726687229998
 20
168.5
 30
0.0
 40
2.0
  0
CIRCLE
  5
AF
330
2
100
AcDbEntity
  8
0
 62
     3
100
AcDbCircle
 10
158.3726687229998
 20
175.4281616211
 30
0.0
 40
2.0
  0
CIRCLE
  5
B0
330
2
100
AcDbEntity
  8
0
 62
     3
100
AcDbCircle
 10
174.3726992405998
 20
161.5718383788999
 30
0.0
 40
2.0
  0
CIRCLE
  5
B1
330
2
100
AcDbEntity
  8
0
 62
     3
100
AcDbCircle
 10
166.3726992405998
 20
161.5718078612999
 30
0.0
 40
2.0
  0
CIRCLE
  5
B2
330
2
100
AcDbEntity
  8
0
 62
     3
100
AcDbCircle
 10
170.3726687229998
 20
154.6436157227
 30
0.0
 40
2.0
  0
CIRCLE
  5
B3
330
2
100
AcDbEntity
  8
0
 62
     3
100
AcDbCircle
 10
170.3726687229998
 20
168.5
 30
0.0
 40
2.0
  0
CIRCLE
  5
B4
330
2
100
AcDbEntity
  8
0
 62
     3
100
AcDbCircle
 10
166.3726992405998
 20
175.4281921386999
 30
0.0
 40
2.0
  0
CIRCLE
  5
B5
330
2
100
AcDbEntity
  8
0
 62
     3
100
AcDbCircle
 10
174.3726992405998
 20
175.4281616211
 30
0.0
 40
2.0
  0
CIRCLE
  5
B6
330
2
100
AcDbEntity
  8
0
 62
     3
100
AcDbCircle
 10
182.3726687229999
 20
161.5718383788999
 30
0.0
 40
2.0
  0
CIRCLE
  5
B7
330
2
100
AcDbEntity
  8
0
 62
     3
100
AcDbCircle
 10
186.3726687229999
 20
168.5
 30
0.0
 40
2.0
  0
CIRCLE
  5
B8
330
2
100
AcDbEntity
  8
0
 62
     3
100
AcDbCircle
 10
182.3726687229999
 20
175.4281616211
 30
0.0
 40
2.0
  0
LINE
  5
D2
330
2
100
AcDbEntity
  8
0
100
AcDbLine
 10
210.0
 20
297.0
 30
0.0
 11
0.0
 21
297.0
 31
0.0
  0
LINE
  5
D3
330
2
100
AcDbEntity
  8
0
 62
     3
100
AcDbLine
 10
86.98508815409999
 20
183.8124970588
 30
0.0
 11
89.98509697769998
 21
183.8124970588
 31
0.0
  0
LINE
  5
D4
330
2
100
AcDbEntity
  8
0
 62
     3
100
AcDbLine
 10
86.98508815409999
 20
186.0000029412
 30
0.0
 11
89.98509697769998
 21
186.0000029412
 31
0.0
  0
LINE
  5
D5
330
2
100
AcDbEntity
  8
0
 62
     3
100
AcDbLine
 10
71.9850881541
 20
183.4999970588
 30
0.0
 11
85.98508815409998
 21
183.4999970588
 31
0.0
  0
LINE
  5
D6
330
2
100
AcDbEntity
  8
0
 62
     3
100
AcDbLine
 10
85.98509403649996
 20
185.0000029411999
 30
0.0
 11
86.98509109529998
 21
186.0
 31
0.0
  0
LINE
  5
D9
330
2
100
AcDbEntity
  8
0
 62
     3
100
AcDbLine
 10
123.7753408396998
 20
193.5000305175999
 30
0.0
 11
106.9850881540999
 21
193.5000305175999
 31
0.0
  0
LINE
  5
DA
330
2
100
AcDbEntity
  8
0
 62
     3
100
AcDbLine
 10
98.9850881541
 20
188.4999999999999
 30
0.0
 11
105.9850881540999
 21
188.4999999999999
 31
0.0
  0
LINE
  5
DB
330
2
100
AcDbEntity
  8
0
 62
     3
100
AcDbLine
 10
90.98508521299999
 20
183.4999970588
 30
0.0
 11
95.98508815409999
 21
183.4999970588
 31
0.0
  0
LINE
  5
DC
330
2
100
AcDbEntity
  8
0
 62
     3
100
AcDbLine
 10
89.98509109529996
 20
186.0
 30
0.0
 11
90.98509109529995
 21
184.9999970588001
 31
0.0
  0
LINE
  5
DD
330
2
100
AcDbEntity
  8
0
 62
     3
100
AcDbLine
 10
95.98508815409999
 20
188.0
 30
0.0
 11
98.9850881541
 21
188.0
 31
0.0
  0
LINE
  5
DE
330
2
100
AcDbEntity
  8
0
 62
     3
100
AcDbLine
 10
105.9850881540999
 20
190.4499999999999
 30
0.0
 11
106.9850881540999
 21
190.4499999999999
 31
0.0
  0
ARC
  5
DF
330
2
100
AcDbEntity
  8
0
 62
     3
100
AcDbCircle
 10
123.7753408396998
 20
190.5000305175999
 30
0.0
 40
3.0
100
AcDbArc
 50
16.6015484103
 51
90.0000179861
  0
TEXT
  5
F8
330
2
100
AcDbEntity
  8
0
 62
     7
100
AcDbText
 10
138.0
 20
110.0000029552498
 30
0.0
 40
2.999994089499998
  1
AZ12N
 11
138.0
 21
111.4999999999999
 31
0.0
100
AcDbText
 73
     2
  0
TEXT
  5
F9
330
2
100
AcDbEntity
  8
0
 62
     7
100
AcDbText
 10
138.0
 20
115.0000029552499
 30
0.0
 40
2.999994089499998
  1
AZ11N
 11
138.0
 21
116.5
 31
0.0
100
AcDbText
 73
     2
  0
ENDSEC
  0
SECTION
  2
OBJECTS
  0
DICTIONARY
  5
7
330
0
100
AcDbDictionary
281
     1
  3
ACAD_GROUP
350
1F
  3
ACAD_LAYOUT
350
B
  3
ACAD_MLINESTYLE
350
20
  3
ACAD_PLOTSETTINGS
350
21
  3
ACAD_PLOTSTYLENAME
350
6
  3
AcDbVariableDictionary
350
FA
  0
DICTIONARY
  5
1F
102
{ACAD_REACTORS
330
7
102
}
330
7
100
AcDbDictionary
281
     1
  0
DICTIONARY
  5
B
102
{ACAD_REACTORS
330
7
102
}
330
7
100
AcDbDictionary
281
     1
  3
Model
350
A
  3
ﾚｲｱｳﾄ1
350
F
  0
DICTIONARY
  5
20
102
{ACAD_REACTORS
330
7
102
}
330
7
100
AcDbDictionary
281
     1
  3
Standard
350
22
  0
DICTIONARY
  5
21
102
{ACAD_REACTORS
330
7
102
}
330
7
100
AcDbDictionary
281
     1
  0
ACDBDICTIONARYWDFLT
  5
6
102
{ACAD_REACTORS
330
7
102
}
330
7
100
AcDbDictionary
281
     1
  3
Normal
350
5
100
AcDbDictionaryWithDefault
340
5
  0
DICTIONARY
  5
FA
102
{ACAD_REACTORS
330
7
102
}
330
7
100
AcDbDictionary
281
     1
  3
DIMASSOC
350
FB
  0
LAYOUT
  5
A
102
{ACAD_REACTORS
330
B
102
}
330
B
100
AcDbPlotSettings
  1

  2
RICOH IPSiO NX730N RPCS
  4
A3
  6

 40
3.174999952316283
 41
3.174999952316283
 42
3.17498779296875
 43
3.17498779296875
 44
296.9683227539062
 45
419.9889831542968
 46
0.0
 47
0.0
 48
0.0
 49
0.0
140
0.0
141
0.0
142
1.0
143
1.0
 70
 11952
 72
     0
 73
     1
 74
     0
  7

 75
     0
147
1.0
148
1179.29152087496
149
74.21928925952688
100
AcDbLayout
  1
Model
 70
     1
 71
     0
 10
0.0
 20
0.0
 11
12.0
 21
9.0
 12
0.0
 22
0.0
 32
0.0
 14
0.0
 24
0.0
 34
0.0
 15
0.0
 25
0.0
 35
0.0
146
0.0
 13
0.0
 23
0.0
 33
0.0
 16
1.0
 26
0.0
 36
0.0
 17
0.0
 27
1.0
 37
0.0
 76
     0
330
2
  0
LAYOUT
  5
F
102
{ACAD_REACTORS
330
B
102
}
330
B
100
AcDbPlotSettings
  1

  2
C:\Program Files\AutoCAD 2000i\plotters\DWF Classic.pc3
  4

  6

 40
0.0
 41
0.0
 42
0.0
 43
0.0
 44
0.0
 45
0.0
 46
0.0
 47
0.0
 48
0.0
 49
0.0
140
0.0
141
0.0
142
1.0
143
1.0
 70
   688
 72
     0
 73
     0
 74
     5
  7

 75
    16
147
1.0
148
0.0
149
0.0
100
AcDbLayout
  1
ﾚｲｱｳﾄ1
 70
     1
 71
     1
 10
0.0
 20
0.0
 11
12.0
 21
9.0
 12
0.0
 22
0.0
 32
0.0
 14
1.000000000000000E+20
 24
1.000000000000000E+20
 34
1.000000000000000E+20
 15
-1.000000000000000E+20
 25
-1.000000000000000E+20
 35
-1.000000000000000E+20
146
0.0
 13
0.0
 23
0.0
 33
0.0
 16
1.0
 26
0.0
 36
0.0
 17
0.0
 27
1.0
 37
0.0
 76
     0
330
C
  0
MLINESTYLE
  5
22
102
{ACAD_REACTORS
330
20
102
}
330
20
100
AcDbMlineStyle
  2
STANDARD
 70
     0
  3

 62
   256
 51
90.0
 52
90.0
 71
     2
 49
0.5
 62
   256
  6
BYLAYER
 49
-0.5
 62
   256
  6
BYLAYER
  0
ACDBPLACEHOLDER
  5
5
102
{ACAD_REACTORS
330
6
102
}
330
6
  0
DICTIONARYVAR
  5
FB
102
{ACAD_REACTORS
330
FA
102
}
330
FA
100
DictionaryVariables
280
     0
  1
1
  0
ENDSEC
  0
EOF
