ISO-10303-21;
HEADER;
FILE_DESCRIPTION (( 'STEP AP214' ),
    '1' );
FILE_NAME ('113_AW-R1_R1B.STEP',
    '2021-01-15T08:09:58',
    ( 'IDEC' ),
    ( 'IDEC' ),
    'SwSTEP 2.0',
    'SolidWorks 2019',
    '' );
FILE_SCHEMA (( 'AUTOMOTIVE_DESIGN' ));
ENDSEC;

DATA;
#1 = ADVANCED_BREP_SHAPE_REPRESENTATION ( '113_AW-R1_R1B', ( #108, #59 ), #109 ) ;
#2 = CARTESIAN_POINT ( 'NONE',  ( 0.0000000000000000000, 0.0000000000000000000, 0.7999999999999118927 ) ) ;
#3 = ORIENTED_EDGE ( 'NONE', *, *, #323, .F. ) ;
#4 = SURFACE_STYLE_FILL_AREA ( #252 ) ;
#5 = FACE_OUTER_BOUND ( 'NONE', #240, .T. ) ;
#6 = ORIENTED_EDGE ( 'NONE', *, *, #190, .F. ) ;
#7 = CARTESIAN_POINT ( 'NONE',  ( 0.0000000000000000000, 0.0000000000000000000, 6.000000000000005329 ) ) ;
#8 = AXIS2_PLACEMENT_3D ( 'NONE', #305, #49, #160 ) ;
#9 = PLANE ( 'NONE',  #179 ) ;
#10 = FACE_OUTER_BOUND ( 'NONE', #295, .T. ) ;
#11 = AXIS2_PLACEMENT_3D ( 'NONE', #7, #110, #228 ) ;
#12 = FACE_OUTER_BOUND ( 'NONE', #67, .T. ) ;
#13 = CARTESIAN_POINT ( 'NONE',  ( -14.50000000000000178, 1.775737858763662409E-15, 0.7999999999999118927 ) ) ;
#14 = ORIENTED_EDGE ( 'NONE', *, *, #235, .F. ) ;
#15 = ORIENTED_EDGE ( 'NONE', *, *, #120, .F. ) ;
#16 = ORIENTED_EDGE ( 'NONE', *, *, #267, .T. ) ;
#17 = CYLINDRICAL_SURFACE ( 'NONE', #73, 14.50000000000000000 ) ;
#18 = ORIENTED_EDGE ( 'NONE', *, *, #261, .F. ) ;
#19 = CARTESIAN_POINT ( 'NONE',  ( -12.00000000000000000, 1.469576158976823947E-15, 0.0000000000000000000 ) ) ;
#20 = AXIS2_PLACEMENT_3D ( 'NONE', #189, #303, #48 ) ;
#21 = AXIS2_PLACEMENT_3D ( 'NONE', #86, #203, #319 ) ;
#22 = SURFACE_SIDE_STYLE ('',( #276 ) ) ;
#23 = CARTESIAN_POINT ( 'NONE',  ( 0.0000000000000000000, 0.0000000000000000000, 13.00000000000000178 ) ) ;
#24 = PRODUCT_DEFINITION_SHAPE ( 'NONE', 'NONE',  #78 ) ;
#25 = DIRECTION ( 'NONE',  ( 0.0000000000000000000, 0.0000000000000000000, -1.000000000000000000 ) ) ;
#26 = DIRECTION ( 'NONE',  ( 0.0000000000000000000, -0.0000000000000000000, 1.000000000000000000 ) ) ;
#27 = LINE ( 'NONE', #134, #37 ) ;
#28 = VERTEX_POINT ( 'NONE', #358 ) ;
#29 = LINE ( 'NONE', #136, #111 ) ;
#30 = SHAPE_DEFINITION_REPRESENTATION ( #24, #1 ) ;
#31 = DIRECTION ( 'NONE',  ( 1.000000000000000000, 0.0000000000000000000, 0.0000000000000000000 ) ) ;
#32 = CARTESIAN_POINT ( 'NONE',  ( 0.0000000000000000000, 0.0000000000000000000, 6.000000000000000000 ) ) ;
#33 = CARTESIAN_POINT ( 'NONE',  ( 0.0000000000000000000, 0.0000000000000000000, 6.000000000000000000 ) ) ;
#34 = CIRCLE ( 'NONE', #43, 14.49999999999999822 ) ;
#35 = CARTESIAN_POINT ( 'NONE',  ( -13.66200000000000081, -13.66200000000000081, 0.0000000000000000000 ) ) ;
#36 = ORIENTED_EDGE ( 'NONE', *, *, #242, .F. ) ;
#37 = VECTOR ( 'NONE', #253, 1000.000000000000000 ) ;
#38 = ORIENTED_EDGE ( 'NONE', *, *, #233, .F. ) ;
#39 = VERTEX_POINT ( 'NONE', #98 ) ;
#40 = ORIENTED_EDGE ( 'NONE', *, *, #66, .F. ) ;
#41 = DIRECTION ( 'NONE',  ( 0.0000000000000000000, -0.0000000000000000000, 1.000000000000000000 ) ) ;
#42 = FILL_AREA_STYLE_COLOUR ( '', #96 ) ;
#43 = AXIS2_PLACEMENT_3D ( 'NONE', #337, #79, #191 ) ;
#44 = AXIS2_PLACEMENT_3D ( 'NONE', #298, #41, #150 ) ;
#45 = PRESENTATION_LAYER_ASSIGNMENT (  '', '', ( #204 ) ) ;
#46 = LINE ( 'NONE', #154, #280 ) ;
#47 = DIRECTION ( 'NONE',  ( 1.000000000000000000, 0.0000000000000000000, 0.0000000000000000000 ) ) ;
#48 = DIRECTION ( 'NONE',  ( 1.000000000000000000, 0.0000000000000000000, 0.0000000000000000000 ) ) ;
#49 = DIRECTION ( 'NONE',  ( 0.0000000000000000000, 0.0000000000000000000, 1.000000000000000000 ) ) ;
#50 = ORIENTED_EDGE ( 'NONE', *, *, #314, .T. ) ;
#51 = CIRCLE ( 'NONE', #263, 14.49999999999999822 ) ;
#52 = LINE ( 'NONE', #162, #321 ) ;
#53 = EDGE_LOOP ( 'NONE', ( #195, #285 ) ) ;
#54 = DIRECTION ( 'NONE',  ( 1.000000000000000000, 0.0000000000000000000, 0.0000000000000000000 ) ) ;
#55 = CIRCLE ( 'NONE', #219, 12.00000000000000000 ) ;
#56 = CYLINDRICAL_SURFACE ( 'NONE', #171, 12.00000000000000000 ) ;
#57 = DIRECTION ( 'NONE',  ( 0.0000000000000000000, 0.0000000000000000000, 1.000000000000000000 ) ) ;
#58 = DIRECTION ( 'NONE',  ( 1.000000000000000000, 0.0000000000000000000, 0.0000000000000000000 ) ) ;
#59 = AXIS2_PLACEMENT_3D ( 'NONE', #197, #313, #54 ) ;
#60 = FACE_BOUND ( 'NONE', #338, .T. ) ;
#61 = CIRCLE ( 'NONE', #180, 13.50000000000000000 ) ;
#62 = VERTEX_POINT ( 'NONE', #148 ) ;
#63 = EDGE_LOOP ( 'NONE', ( #6, #192, #210, #18 ) ) ;
#64 = ADVANCED_FACE ( 'NONE', ( #271 ), #17, .T. ) ;
#65 = ORIENTED_EDGE ( 'NONE', *, *, #230, .T. ) ;
#66 = EDGE_CURVE ( 'NONE', #90, #104, #97, .T. ) ;
#67 = EDGE_LOOP ( 'NONE', ( #145, #181, #80, #324 ) ) ;
#68 = FACE_OUTER_BOUND ( 'NONE', #327, .T. ) ;
#69 = CARTESIAN_POINT ( 'NONE',  ( 12.00000000000000000, 0.0000000000000000000, 13.00000000000000178 ) ) ;
#70 = CONICAL_SURFACE ( 'NONE', #355, 14.00000000000000000, 0.7853981633974482790 ) ;
#71 = CARTESIAN_POINT ( 'NONE',  ( 0.0000000000000000000, 0.0000000000000000000, 6.000000000000005329 ) ) ;
#72 = ADVANCED_FACE ( 'NONE', ( #68 ), #183, .T. ) ;
#73 = AXIS2_PLACEMENT_3D ( 'NONE', #123, #241, #354 ) ;
#74 = PRODUCT_DEFINITION_CONTEXT ( 'detailed design', #167, 'design' ) ;
#75 =( GEOMETRIC_REPRESENTATION_CONTEXT ( 3 ) GLOBAL_UNCERTAINTY_ASSIGNED_CONTEXT ( ( #218 ) ) GLOBAL_UNIT_ASSIGNED_CONTEXT ( ( #308, #286, #255 ) ) REPRESENTATION_CONTEXT ( 'NONE', 'WORKASPACE' ) );
#76 = FACE_OUTER_BOUND ( 'NONE', #163, .T. ) ;
#77 = DIRECTION ( 'NONE',  ( -0.7808688094430306093, 9.562884880384119701E-17, 0.6246950475544239545 ) ) ;
#78 = PRODUCT_DEFINITION ( 'UNKNOWN', '', #339, #74 ) ;
#79 = DIRECTION ( 'NONE',  ( 0.0000000000000000000, 0.0000000000000000000, 1.000000000000000000 ) ) ;
#80 = ORIENTED_EDGE ( 'NONE', *, *, #193, .T. ) ;
#81 = LINE ( 'NONE', #194, #362 ) ;
#82 = ORIENTED_EDGE ( 'NONE', *, *, #267, .F. ) ;
#83 = CARTESIAN_POINT ( 'NONE',  ( 14.00000000000000000, 0.0000000000000000000, 13.00000000000000178 ) ) ;
#84 = DIRECTION ( 'NONE',  ( 1.000000000000000000, 0.0000000000000000000, 0.0000000000000000000 ) ) ;
#85 = VECTOR ( 'NONE', #329, 1000.000000000000000 ) ;
#86 = CARTESIAN_POINT ( 'NONE',  ( 0.0000000000000000000, 0.0000000000000000000, 0.0000000000000000000 ) ) ;
#87 =( GEOMETRIC_REPRESENTATION_CONTEXT ( 3 ) GLOBAL_UNCERTAINTY_ASSIGNED_CONTEXT ( ( #361 ) ) GLOBAL_UNIT_ASSIGNED_CONTEXT ( ( #217, #187, #155 ) ) REPRESENTATION_CONTEXT ( 'NONE', 'WORKASPACE' ) );
#88 = EDGE_LOOP ( 'NONE', ( #254, #237, #122, #161 ) ) ;
#89 = EDGE_CURVE ( 'NONE', #149, #28, #274, .T. ) ;
#90 = VERTEX_POINT ( 'NONE', #244 ) ;
#91 = ORIENTED_EDGE ( 'NONE', *, *, #199, .F. ) ;
#92 = COLOUR_RGB ( '',0.7529411764705882248, 0.7529411764705882248, 0.7529411764705882248 ) ;
#93 = EDGE_CURVE ( 'NONE', #62, #95, #51, .T. ) ;
#94 = MECHANICAL_DESIGN_GEOMETRIC_PRESENTATION_REPRESENTATION (  '', ( #310 ), #87 ) ;
#95 = VERTEX_POINT ( 'NONE', #330 ) ;
#96 = COLOUR_RGB ( '',0.7529411764705882248, 0.7529411764705882248, 0.7529411764705882248 ) ;
#97 = LINE ( 'NONE', #213, #85 ) ;
#98 = CARTESIAN_POINT ( 'NONE',  ( 13.50000000000000000, 0.0000000000000000000, 0.0000000000000000000 ) ) ;
#99 = DIRECTION ( 'NONE',  ( 0.0000000000000000000, 0.0000000000000000000, 1.000000000000000000 ) ) ;
#100 = CARTESIAN_POINT ( 'NONE',  ( 0.0000000000000000000, 0.0000000000000000000, 13.00000000000000178 ) ) ;
#101 = DIRECTION ( 'NONE',  ( -0.0000000000000000000, -0.0000000000000000000, -1.000000000000000000 ) ) ;
#102 = CARTESIAN_POINT ( 'NONE',  ( -12.00000000000000000, 1.469576158976823947E-15, 0.0000000000000000000 ) ) ;
#103 = DIRECTION ( 'NONE',  ( 0.0000000000000000000, 0.0000000000000000000, 1.000000000000000000 ) ) ;
#104 = VERTEX_POINT ( 'NONE', #69 ) ;
#105 = SURFACE_SIDE_STYLE ('',( #4 ) ) ;
#106 = CARTESIAN_POINT ( 'NONE',  ( 0.0000000000000000000, 0.0000000000000000000, 6.000000000000000000 ) ) ;
#107 = VERTEX_POINT ( 'NONE', #185 ) ;
#108 = MANIFOLD_SOLID_BREP ( '²ÝÎß°Ä1', #239 ) ;
#109 =( GEOMETRIC_REPRESENTATION_CONTEXT ( 3 ) GLOBAL_UNCERTAINTY_ASSIGNED_CONTEXT ( ( #277 ) ) GLOBAL_UNIT_ASSIGNED_CONTEXT ( ( #349, #322, #222 ) ) REPRESENTATION_CONTEXT ( 'NONE', 'WORKASPACE' ) );
#110 = DIRECTION ( 'NONE',  ( -0.0000000000000000000, -0.0000000000000000000, 1.000000000000000000 ) ) ;
#111 = VECTOR ( 'NONE', #256, 1000.000000000000000 ) ;
#112 = CARTESIAN_POINT ( 'NONE',  ( 14.16799999999999926, -14.16799999999999926, 13.00000000000000178 ) ) ;
#113 = VECTOR ( 'NONE', #77, 1000.000000000000000 ) ;
#114 = CYLINDRICAL_SURFACE ( 'NONE', #292, 12.00000000000000000 ) ;
#115 = CARTESIAN_POINT ( 'NONE',  ( 0.0000000000000000000, 0.0000000000000000000, 0.0000000000000000000 ) ) ;
#116 = ORIENTED_EDGE ( 'NONE', *, *, #184, .F. ) ;
#117 = VECTOR ( 'NONE', #127, 1000.000000000000000 ) ;
#118 = ORIENTED_EDGE ( 'NONE', *, *, #257, .F. ) ;
#119 = EDGE_LOOP ( 'NONE', ( #91, #3 ) ) ;
#120 = EDGE_CURVE ( 'NONE', #90, #149, #55, .T. ) ;
#121 = CONICAL_SURFACE ( 'NONE', #175, 13.50000000000000000, 0.8960553845713443710 ) ;
#122 = ORIENTED_EDGE ( 'NONE', *, *, #66, .T. ) ;
#123 = CARTESIAN_POINT ( 'NONE',  ( 0.0000000000000000000, 0.0000000000000000000, 0.8000000000000000444 ) ) ;
#124 = ORIENTED_EDGE ( 'NONE', *, *, #250, .F. ) ;
#125 = CIRCLE ( 'NONE', #343, 14.00000000000000000 ) ;
#126 = AXIS2_PLACEMENT_3D ( 'NONE', #201, #318, #58 ) ;
#127 = DIRECTION ( 'NONE',  ( 0.0000000000000000000, -0.0000000000000000000, 1.000000000000000000 ) ) ;
#128 = SURFACE_STYLE_USAGE ( .BOTH. , #22 ) ;
#129 = DIRECTION ( 'NONE',  ( 0.0000000000000000000, -0.0000000000000000000, 1.000000000000000000 ) ) ;
#130 = CIRCLE ( 'NONE', #196, 14.49999999999999822 ) ;
#131 = DIRECTION ( 'NONE',  ( -1.000000000000000000, 0.0000000000000000000, 0.0000000000000000000 ) ) ;
#132 = CARTESIAN_POINT ( 'NONE',  ( 0.0000000000000000000, 0.0000000000000000000, 0.0000000000000000000 ) ) ;
#133 = FILL_AREA_STYLE_COLOUR ( '', #92 ) ;
#134 = CARTESIAN_POINT ( 'NONE',  ( -14.50000000000000000, 1.775737858763662015E-15, 0.8000000000000000444 ) ) ;
#135 = ORIENTED_EDGE ( 'NONE', *, *, #314, .F. ) ;
#136 = CARTESIAN_POINT ( 'NONE',  ( -14.00000000000000000, 0.0000000000000000000, 6.000000000000000000 ) ) ;
#137 = FACE_BOUND ( 'NONE', #119, .T. ) ;
#138 = PRODUCT ( '113_AW-R1_R1B', '113_AW-R1_R1B', '', ( #164 ) ) ;
#139 = AXIS2_PLACEMENT_3D ( 'NONE', #33, #141, #264 ) ;
#140 = DIRECTION ( 'NONE',  ( 0.0000000000000000000, 0.0000000000000000000, 1.000000000000000000 ) ) ;
#141 = DIRECTION ( 'NONE',  ( 0.0000000000000000000, 0.0000000000000000000, 1.000000000000000000 ) ) ;
#142 = CIRCLE ( 'NONE', #356, 12.00000000000000000 ) ;
#143 = AXIS2_PLACEMENT_3D ( 'NONE', #32, #140, #262 ) ;
#144 = DIRECTION ( 'NONE',  ( 0.0000000000000000000, 0.0000000000000000000, 1.000000000000000000 ) ) ;
#145 = ORIENTED_EDGE ( 'NONE', *, *, #156, .F. ) ;
#146 = EDGE_LOOP ( 'NONE', ( #342, #325, #182, #135 ) ) ;
#147 = EDGE_LOOP ( 'NONE', ( #116, #269 ) ) ;
#148 = CARTESIAN_POINT ( 'NONE',  ( -14.50000000000000000, 0.0000000000000000000, 5.500000000000000000 ) ) ;
#149 = VERTEX_POINT ( 'NONE', #102 ) ;
#150 = DIRECTION ( 'NONE',  ( 1.000000000000000000, 0.0000000000000000000, 0.0000000000000000000 ) ) ;
#151 = CONICAL_SURFACE ( 'NONE', #275, 13.50000000000000000, 0.8960553845713443710 ) ;
#152 = AXIS2_PLACEMENT_3D ( 'NONE', #106, #226, #341 ) ;
#153 = FILL_AREA_STYLE ('',( #42 ) ) ;
#154 = CARTESIAN_POINT ( 'NONE',  ( 13.50000000000000000, 0.0000000000000000000, 0.0000000000000000000 ) ) ;
#155 =( NAMED_UNIT ( * ) SI_UNIT ( $, .STERADIAN. ) SOLID_ANGLE_UNIT ( ) );
#156 = EDGE_CURVE ( 'NONE', #270, #351, #221, .T. ) ;
#157 = FACE_OUTER_BOUND ( 'NONE', #63, .T. ) ;
#158 = LINE ( 'NONE', #283, #174 ) ;
#159 = CIRCLE ( 'NONE', #21, 12.00000000000000000 ) ;
#160 = DIRECTION ( 'NONE',  ( 1.000000000000000000, 0.0000000000000000000, 6.079009422280794343E-15 ) ) ;
#161 = ORIENTED_EDGE ( 'NONE', *, *, #199, .T. ) ;
#162 = CARTESIAN_POINT ( 'NONE',  ( -14.00000000000000000, 1.714505518806294638E-15, 6.000000000000000000 ) ) ;
#163 = EDGE_LOOP ( 'NONE', ( #352, #176, #14, #208 ) ) ;
#164 = PRODUCT_CONTEXT ( 'NONE', #301, 'mechanical' ) ;
#165 = EDGE_CURVE ( 'NONE', #39, #270, #258, .T. ) ;
#166 = CARTESIAN_POINT ( 'NONE',  ( 0.0000000000000000000, 0.0000000000000000000, 0.0000000000000000000 ) ) ;
#167 = APPLICATION_CONTEXT ( 'automotive_design' ) ;
#168 = FACE_OUTER_BOUND ( 'NONE', #146, .T. ) ;
#169 = VECTOR ( 'NONE', #57, 1000.000000000000000 ) ;
#170 = FACE_OUTER_BOUND ( 'NONE', #353, .T. ) ;
#171 = AXIS2_PLACEMENT_3D ( 'NONE', #166, #289, #31 ) ;
#172 = EDGE_CURVE ( 'NONE', #227, #95, #158, .T. ) ;
#173 = FACE_OUTER_BOUND ( 'NONE', #53, .T. ) ;
#174 = VECTOR ( 'NONE', #26, 1000.000000000000000 ) ;
#175 = AXIS2_PLACEMENT_3D ( 'NONE', #115, #234, #348 ) ;
#176 = ORIENTED_EDGE ( 'NONE', *, *, #156, .T. ) ;
#177 = ORIENTED_EDGE ( 'NONE', *, *, #261, .T. ) ;
#178 = EDGE_CURVE ( 'NONE', #270, #39, #61, .T. ) ;
#179 = AXIS2_PLACEMENT_3D ( 'NONE', #112, #231, #345 ) ;
#180 = AXIS2_PLACEMENT_3D ( 'NONE', #132, #245, #360 ) ;
#181 = ORIENTED_EDGE ( 'NONE', *, *, #165, .F. ) ;
#182 = ORIENTED_EDGE ( 'NONE', *, *, #205, .T. ) ;
#183 = CYLINDRICAL_SURFACE ( 'NONE', #44, 14.50000000000000000 ) ;
#184 = EDGE_CURVE ( 'NONE', #312, #236, #309, .T. ) ;
#185 = CARTESIAN_POINT ( 'NONE',  ( -14.00000000000000000, 1.714505518806294638E-15, 6.000000000000005329 ) ) ;
#186 = DIRECTION ( 'NONE',  ( -0.0000000000000000000, -0.0000000000000000000, 1.000000000000000000 ) ) ;
#187 =( NAMED_UNIT ( * ) PLANE_ANGLE_UNIT ( ) SI_UNIT ( $, .RADIAN. ) );
#188 = CARTESIAN_POINT ( 'NONE',  ( 0.0000000000000000000, 0.0000000000000000000, 0.0000000000000000000 ) ) ;
#189 = CARTESIAN_POINT ( 'NONE',  ( 0.0000000000000000000, 0.0000000000000000000, 0.0000000000000000000 ) ) ;
#190 = EDGE_CURVE ( 'NONE', #207, #107, #281, .T. ) ;
#191 = DIRECTION ( 'NONE',  ( 1.000000000000000000, 0.0000000000000000000, 0.0000000000000000000 ) ) ;
#192 = ORIENTED_EDGE ( 'NONE', *, *, #250, .T. ) ;
#193 = EDGE_CURVE ( 'NONE', #39, #227, #46, .T. ) ;
#194 = CARTESIAN_POINT ( 'NONE',  ( 14.00000000000000000, 1.714505518806294638E-15, 6.000000000000000000 ) ) ;
#195 = ORIENTED_EDGE ( 'NONE', *, *, #165, .T. ) ;
#196 = AXIS2_PLACEMENT_3D ( 'NONE', #2, #103, #223 ) ;
#197 = CARTESIAN_POINT ( 'NONE',  ( 0.0000000000000000000, 0.0000000000000000000, 0.0000000000000000000 ) ) ;
#198 = CARTESIAN_POINT ( 'NONE',  ( -13.50000000000000000, 1.714505518806294638E-15, 0.0000000000000000000 ) ) ;
#199 = EDGE_CURVE ( 'NONE', #104, #28, #142, .T. ) ;
#200 = LINE ( 'NONE', #317, #169 ) ;
#201 = CARTESIAN_POINT ( 'NONE',  ( 0.0000000000000000000, 0.0000000000000000000, 13.00000000000000178 ) ) ;
#202 = PRODUCT_RELATED_PRODUCT_CATEGORY ( 'part', '', ( #138 ) ) ;
#203 = DIRECTION ( 'NONE',  ( -0.0000000000000000000, 0.0000000000000000000, -1.000000000000000000 ) ) ;
#204 = STYLED_ITEM ( 'NONE', ( #340 ), #1 ) ;
#205 = EDGE_CURVE ( 'NONE', #236, #312, #125, .T. ) ;
#206 = CIRCLE ( 'NONE', #8, 14.49999999999999822 ) ;
#207 = VERTEX_POINT ( 'NONE', #335 ) ;
#208 = ORIENTED_EDGE ( 'NONE', *, *, #193, .F. ) ;
#209 = ADVANCED_FACE ( 'NONE', ( #76 ), #151, .T. ) ;
#210 = ORIENTED_EDGE ( 'NONE', *, *, #233, .T. ) ;
#211 = CIRCLE ( 'NONE', #11, 14.00000000000000000 ) ;
#212 = ORIENTED_EDGE ( 'NONE', *, *, #89, .T. ) ;
#213 = CARTESIAN_POINT ( 'NONE',  ( 12.00000000000000000, 0.0000000000000000000, 0.0000000000000000000 ) ) ;
#214 = DIRECTION ( 'NONE',  ( 1.000000000000000000, 0.0000000000000000000, 0.0000000000000000000 ) ) ;
#215 = ADVANCED_FACE ( 'NONE', ( #157 ), #70, .T. ) ;
#216 = DIRECTION ( 'NONE',  ( -0.0000000000000000000, -0.0000000000000000000, -1.000000000000000000 ) ) ;
#217 =( LENGTH_UNIT ( ) NAMED_UNIT ( * ) SI_UNIT ( .MILLI., .METRE. ) );
#218 = UNCERTAINTY_MEASURE_WITH_UNIT (LENGTH_MEASURE( 1.000000000000000082E-05 ), #308, 'distance_accuracy_value', 'NONE');
#219 = AXIS2_PLACEMENT_3D ( 'NONE', #299, #249, #364 ) ;
#220 = DIRECTION ( 'NONE',  ( 1.000000000000000000, 0.0000000000000000000, 0.0000000000000000000 ) ) ;
#221 = LINE ( 'NONE', #336, #113 ) ;
#222 =( NAMED_UNIT ( * ) SI_UNIT ( $, .STERADIAN. ) SOLID_ANGLE_UNIT ( ) );
#223 = DIRECTION ( 'NONE',  ( 1.000000000000000000, 0.0000000000000000000, 6.079009422280794343E-15 ) ) ;
#224 = ORIENTED_EDGE ( 'NONE', *, *, #172, .T. ) ;
#225 = SURFACE_STYLE_USAGE ( .BOTH. , #105 ) ;
#226 = DIRECTION ( 'NONE',  ( 0.0000000000000000000, 0.0000000000000000000, -1.000000000000000000 ) ) ;
#227 = VERTEX_POINT ( 'NONE', #251 ) ;
#228 = DIRECTION ( 'NONE',  ( -1.000000000000000000, 0.0000000000000000000, -3.717264591378872204E-16 ) ) ;
#229 = AXIS2_PLACEMENT_3D ( 'NONE', #35, #144, #265 ) ;
#230 = EDGE_CURVE ( 'NONE', #351, #227, #130, .T. ) ;
#231 = DIRECTION ( 'NONE',  ( 0.0000000000000000000, 0.0000000000000000000, -1.000000000000000000 ) ) ;
#232 = CARTESIAN_POINT ( 'NONE',  ( 0.0000000000000000000, 0.0000000000000000000, 0.0000000000000000000 ) ) ;
#233 = EDGE_CURVE ( 'NONE', #95, #62, #34, .T. ) ;
#234 = DIRECTION ( 'NONE',  ( 0.0000000000000000000, 0.0000000000000000000, 1.000000000000000000 ) ) ;
#235 = EDGE_CURVE ( 'NONE', #227, #351, #206, .T. ) ;
#236 = VERTEX_POINT ( 'NONE', #284 ) ;
#237 = ORIENTED_EDGE ( 'NONE', *, *, #334, .T. ) ;
#238 = ORIENTED_EDGE ( 'NONE', *, *, #323, .T. ) ;
#239 = CLOSED_SHELL ( 'NONE', ( #209, #64, #320, #215, #316, #331, #346, #72, #273, #247, #278, #326 ) ) ;
#240 = EDGE_LOOP ( 'NONE', ( #124, #82, #177, #297 ) ) ;
#241 = DIRECTION ( 'NONE',  ( 0.0000000000000000000, -0.0000000000000000000, 1.000000000000000000 ) ) ;
#242 = EDGE_CURVE ( 'NONE', #351, #62, #27, .T. ) ;
#243 = ORIENTED_EDGE ( 'NONE', *, *, #334, .F. ) ;
#244 = CARTESIAN_POINT ( 'NONE',  ( 12.00000000000000000, 0.0000000000000000000, 0.0000000000000000000 ) ) ;
#245 = DIRECTION ( 'NONE',  ( -0.0000000000000000000, -0.0000000000000000000, -1.000000000000000000 ) ) ;
#246 = PRESENTATION_STYLE_ASSIGNMENT (( #128 ) ) ;
#247 = ADVANCED_FACE ( 'NONE', ( #5 ), #344, .T. ) ;
#248 = DIRECTION ( 'NONE',  ( 1.000000000000000000, 0.0000000000000000000, 0.0000000000000000000 ) ) ;
#249 = DIRECTION ( 'NONE',  ( -0.0000000000000000000, 0.0000000000000000000, -1.000000000000000000 ) ) ;
#250 = EDGE_CURVE ( 'NONE', #207, #95, #81, .T. ) ;
#251 = CARTESIAN_POINT ( 'NONE',  ( 14.49999999999999822, 0.0000000000000000000, 0.8000000000000000444 ) ) ;
#252 = FILL_AREA_STYLE ('',( #133 ) ) ;
#253 = DIRECTION ( 'NONE',  ( 0.0000000000000000000, -0.0000000000000000000, 1.000000000000000000 ) ) ;
#254 = ORIENTED_EDGE ( 'NONE', *, *, #89, .F. ) ;
#255 =( NAMED_UNIT ( * ) SI_UNIT ( $, .STERADIAN. ) SOLID_ANGLE_UNIT ( ) );
#256 = DIRECTION ( 'NONE',  ( -0.7071067811865474617, 0.0000000000000000000, -0.7071067811865475727 ) ) ;
#257 = EDGE_CURVE ( 'NONE', #107, #236, #52, .T. ) ;
#258 = CIRCLE ( 'NONE', #20, 13.50000000000000000 ) ;
#259 = MECHANICAL_DESIGN_GEOMETRIC_PRESENTATION_REPRESENTATION (  '', ( #204 ), #75 ) ;
#260 = FACE_OUTER_BOUND ( 'NONE', #147, .T. ) ;
#261 = EDGE_CURVE ( 'NONE', #107, #62, #29, .T. ) ;
#262 = DIRECTION ( 'NONE',  ( 1.000000000000000000, 0.0000000000000000000, 0.0000000000000000000 ) ) ;
#263 = AXIS2_PLACEMENT_3D ( 'NONE', #359, #99, #214 ) ;
#264 = DIRECTION ( 'NONE',  ( 1.000000000000000000, 0.0000000000000000000, 0.0000000000000000000 ) ) ;
#265 = DIRECTION ( 'NONE',  ( 1.000000000000000000, 0.0000000000000000000, 0.0000000000000000000 ) ) ;
#266 = AXIS2_PLACEMENT_3D ( 'NONE', #71, #186, #300 ) ;
#267 = EDGE_CURVE ( 'NONE', #107, #207, #211, .T. ) ;
#268 = ORIENTED_EDGE ( 'NONE', *, *, #242, .T. ) ;
#269 = ORIENTED_EDGE ( 'NONE', *, *, #205, .F. ) ;
#270 = VERTEX_POINT ( 'NONE', #198 ) ;
#271 = FACE_OUTER_BOUND ( 'NONE', #328, .T. ) ;
#272 = ORIENTED_EDGE ( 'NONE', *, *, #120, .T. ) ;
#273 = ADVANCED_FACE ( 'NONE', ( #315 ), #56, .F. ) ;
#274 = LINE ( 'NONE', #19, #117 ) ;
#275 = AXIS2_PLACEMENT_3D ( 'NONE', #188, #302, #47 ) ;
#276 = SURFACE_STYLE_FILL_AREA ( #153 ) ;
#277 = UNCERTAINTY_MEASURE_WITH_UNIT (LENGTH_MEASURE( 1.000000000000000082E-05 ), #349, 'distance_accuracy_value', 'NONE');
#278 = ADVANCED_FACE ( 'NONE', ( #137, #260 ), #9, .F. ) ;
#279 = DIRECTION ( 'NONE',  ( 0.7808688094430306093, 0.0000000000000000000, 0.6246950475544239545 ) ) ;
#280 = VECTOR ( 'NONE', #279, 1000.000000000000000 ) ;
#281 = CIRCLE ( 'NONE', #266, 14.00000000000000000 ) ;
#282 = CARTESIAN_POINT ( 'NONE',  ( 0.0000000000000000000, 0.0000000000000000000, 6.000000000000000000 ) ) ;
#283 = CARTESIAN_POINT ( 'NONE',  ( 14.50000000000000000, 0.0000000000000000000, 0.8000000000000000444 ) ) ;
#284 = CARTESIAN_POINT ( 'NONE',  ( -14.00000000000000000, 1.714505518806294638E-15, 13.00000000000000178 ) ) ;
#285 = ORIENTED_EDGE ( 'NONE', *, *, #178, .T. ) ;
#286 =( NAMED_UNIT ( * ) PLANE_ANGLE_UNIT ( ) SI_UNIT ( $, .RADIAN. ) );
#287 = DIRECTION ( 'NONE',  ( 0.0000000000000000000, 0.0000000000000000000, 1.000000000000000000 ) ) ;
#288 = APPLICATION_PROTOCOL_DEFINITION ( 'draft international standard', 'automotive_design', 1998, #167 ) ;
#289 = DIRECTION ( 'NONE',  ( 0.0000000000000000000, -0.0000000000000000000, 1.000000000000000000 ) ) ;
#290 = CYLINDRICAL_SURFACE ( 'NONE', #143, 14.00000000000000000 ) ;
#291 = CYLINDRICAL_SURFACE ( 'NONE', #139, 14.00000000000000000 ) ;
#292 = AXIS2_PLACEMENT_3D ( 'NONE', #232, #347, #84 ) ;
#293 = PLANE ( 'NONE',  #229 ) ;
#294 = ORIENTED_EDGE ( 'NONE', *, *, #184, .T. ) ;
#295 = EDGE_LOOP ( 'NONE', ( #272, #212, #238, #40 ) ) ;
#296 = ORIENTED_EDGE ( 'NONE', *, *, #235, .T. ) ;
#297 = ORIENTED_EDGE ( 'NONE', *, *, #93, .T. ) ;
#298 = CARTESIAN_POINT ( 'NONE',  ( 0.0000000000000000000, 0.0000000000000000000, 0.8000000000000000444 ) ) ;
#299 = CARTESIAN_POINT ( 'NONE',  ( 0.0000000000000000000, 0.0000000000000000000, 0.0000000000000000000 ) ) ;
#300 = DIRECTION ( 'NONE',  ( -1.000000000000000000, 0.0000000000000000000, -3.717264591378872204E-16 ) ) ;
#301 = APPLICATION_CONTEXT ( 'automotive_design' ) ;
#302 = DIRECTION ( 'NONE',  ( 0.0000000000000000000, 0.0000000000000000000, 1.000000000000000000 ) ) ;
#303 = DIRECTION ( 'NONE',  ( -0.0000000000000000000, -0.0000000000000000000, -1.000000000000000000 ) ) ;
#304 = APPLICATION_PROTOCOL_DEFINITION ( 'draft international standard', 'automotive_design', 1998, #301 ) ;
#305 = CARTESIAN_POINT ( 'NONE',  ( 0.0000000000000000000, 0.0000000000000000000, 0.7999999999999118927 ) ) ;
#306 = ORIENTED_EDGE ( 'NONE', *, *, #172, .F. ) ;
#307 = PRESENTATION_LAYER_ASSIGNMENT (  '', '', ( #310 ) ) ;
#308 =( LENGTH_UNIT ( ) NAMED_UNIT ( * ) SI_UNIT ( .MILLI., .METRE. ) );
#309 = CIRCLE ( 'NONE', #333, 14.00000000000000000 ) ;
#310 = STYLED_ITEM ( 'NONE', ( #246 ), #108 ) ;
#311 = DIRECTION ( 'NONE',  ( 0.7071067811865474617, 8.659560562354931626E-17, -0.7071067811865475727 ) ) ;
#312 = VERTEX_POINT ( 'NONE', #83 ) ;
#313 = DIRECTION ( 'NONE',  ( 0.0000000000000000000, 0.0000000000000000000, 1.000000000000000000 ) ) ;
#314 = EDGE_CURVE ( 'NONE', #207, #312, #200, .T. ) ;
#315 = FACE_OUTER_BOUND ( 'NONE', #88, .T. ) ;
#316 = ADVANCED_FACE ( 'NONE', ( #168 ), #290, .T. ) ;
#317 = CARTESIAN_POINT ( 'NONE',  ( 14.00000000000000000, 0.0000000000000000000, 6.000000000000000000 ) ) ;
#318 = DIRECTION ( 'NONE',  ( 0.0000000000000000000, -0.0000000000000000000, 1.000000000000000000 ) ) ;
#319 = DIRECTION ( 'NONE',  ( 1.000000000000000000, 0.0000000000000000000, 0.0000000000000000000 ) ) ;
#320 = ADVANCED_FACE ( 'NONE', ( #10 ), #114, .F. ) ;
#321 = VECTOR ( 'NONE', #287, 1000.000000000000000 ) ;
#322 =( NAMED_UNIT ( * ) PLANE_ANGLE_UNIT ( ) SI_UNIT ( $, .RADIAN. ) );
#323 = EDGE_CURVE ( 'NONE', #28, #104, #357, .T. ) ;
#324 = ORIENTED_EDGE ( 'NONE', *, *, #230, .F. ) ;
#325 = ORIENTED_EDGE ( 'NONE', *, *, #257, .T. ) ;
#326 = ADVANCED_FACE ( 'NONE', ( #170 ), #291, .T. ) ;
#327 = EDGE_LOOP ( 'NONE', ( #36, #65, #224, #350 ) ) ;
#328 = EDGE_LOOP ( 'NONE', ( #296, #268, #38, #306 ) ) ;
#329 = DIRECTION ( 'NONE',  ( 0.0000000000000000000, -0.0000000000000000000, 1.000000000000000000 ) ) ;
#330 = CARTESIAN_POINT ( 'NONE',  ( 14.50000000000000000, 1.775737858763662015E-15, 5.500000000000000000 ) ) ;
#331 = ADVANCED_FACE ( 'NONE', ( #12 ), #121, .T. ) ;
#332 = DIRECTION ( 'NONE',  ( 1.000000000000000000, 0.0000000000000000000, 0.0000000000000000000 ) ) ;
#333 = AXIS2_PLACEMENT_3D ( 'NONE', #100, #216, #332 ) ;
#334 = EDGE_CURVE ( 'NONE', #149, #90, #159, .T. ) ;
#335 = CARTESIAN_POINT ( 'NONE',  ( 14.00000000000000000, 0.0000000000000000000, 6.000000000000005329 ) ) ;
#336 = CARTESIAN_POINT ( 'NONE',  ( -13.50000000000000000, 1.653273178848926867E-15, 0.0000000000000000000 ) ) ;
#337 = CARTESIAN_POINT ( 'NONE',  ( 0.0000000000000000000, 0.0000000000000000000, 5.500000000000000000 ) ) ;
#338 = EDGE_LOOP ( 'NONE', ( #15, #243 ) ) ;
#339 = PRODUCT_DEFINITION_FORMATION_WITH_SPECIFIED_SOURCE ( 'ANY', '', #138, .NOT_KNOWN. ) ;
#340 = PRESENTATION_STYLE_ASSIGNMENT (( #225 ) ) ;
#341 = DIRECTION ( 'NONE',  ( -1.000000000000000000, 0.0000000000000000000, 0.0000000000000000000 ) ) ;
#342 = ORIENTED_EDGE ( 'NONE', *, *, #190, .T. ) ;
#343 = AXIS2_PLACEMENT_3D ( 'NONE', #363, #101, #220 ) ;
#344 = CONICAL_SURFACE ( 'NONE', #152, 14.00000000000000000, 0.7853981633974482790 ) ;
#345 = DIRECTION ( 'NONE',  ( -1.000000000000000000, 0.0000000000000000000, 0.0000000000000000000 ) ) ;
#346 = ADVANCED_FACE ( 'NONE', ( #60, #173 ), #293, .F. ) ;
#347 = DIRECTION ( 'NONE',  ( 0.0000000000000000000, -0.0000000000000000000, 1.000000000000000000 ) ) ;
#348 = DIRECTION ( 'NONE',  ( 1.000000000000000000, 0.0000000000000000000, 0.0000000000000000000 ) ) ;
#349 =( LENGTH_UNIT ( ) NAMED_UNIT ( * ) SI_UNIT ( .MILLI., .METRE. ) );
#350 = ORIENTED_EDGE ( 'NONE', *, *, #93, .F. ) ;
#351 = VERTEX_POINT ( 'NONE', #13 ) ;
#352 = ORIENTED_EDGE ( 'NONE', *, *, #178, .F. ) ;
#353 = EDGE_LOOP ( 'NONE', ( #118, #16, #50, #294 ) ) ;
#354 = DIRECTION ( 'NONE',  ( 1.000000000000000000, 0.0000000000000000000, 0.0000000000000000000 ) ) ;
#355 = AXIS2_PLACEMENT_3D ( 'NONE', #282, #25, #131 ) ;
#356 = AXIS2_PLACEMENT_3D ( 'NONE', #23, #129, #248 ) ;
#357 = CIRCLE ( 'NONE', #126, 12.00000000000000000 ) ;
#358 = CARTESIAN_POINT ( 'NONE',  ( -12.00000000000000000, 1.469576158976823947E-15, 13.00000000000000178 ) ) ;
#359 = CARTESIAN_POINT ( 'NONE',  ( 0.0000000000000000000, 0.0000000000000000000, 5.500000000000000000 ) ) ;
#360 = DIRECTION ( 'NONE',  ( 1.000000000000000000, 0.0000000000000000000, 0.0000000000000000000 ) ) ;
#361 = UNCERTAINTY_MEASURE_WITH_UNIT (LENGTH_MEASURE( 1.000000000000000082E-05 ), #217, 'distance_accuracy_value', 'NONE');
#362 = VECTOR ( 'NONE', #311, 1000.000000000000000 ) ;
#363 = CARTESIAN_POINT ( 'NONE',  ( 0.0000000000000000000, 0.0000000000000000000, 13.00000000000000178 ) ) ;
#364 = DIRECTION ( 'NONE',  ( 1.000000000000000000, 0.0000000000000000000, 0.0000000000000000000 ) ) ;
ENDSEC;
END-ISO-10303-21;
