  0
SECTION
  2
HEADER
  9
$ACADVER
  1
AC1004
  9
$ANGBASE
 50
0.0000000000
  9
$ANGDIR
 70
     0
  9
$ATTDIA
 70
     0
  9
$ATTMODE
 70
     1
  9
$ATTREQ
 70
     1
  9
$AUNITS
 70
     0
  9
$AUPREC
 70
     0
  9
$AXISMODE
 70
     0
  9
$AXISUNIT
 10
0.0000000000
 20
0.0000000000
  9
$BLIPMODE
 70
     1
  9
$CECOLOR
 62
   256
  9
$CELTYPE
  6
BYLAYER
  9
$CHAMFERA
 40
0.0000000000
  9
$CHAMFERB
 40
0.0000000000
  9
$CLAYER
  8
0
  9
$COORDS
 70
     0
  9
$DIMALT
 70
     0
  9
$DIMALTD
 70
     2
  9
$DIMALTF
 40
25.4000000000
  9
$DIMAPOST
  1

  9
$DIMASO
 70
     1
  9
$DIMASZ
 40
1.9727878460
  9
$DIMBLK
  1

  9
$DIMBLK1
  1

  9
$DIMBLK2
  1

  9
$DIMCEN
 40
9.0000000000E-02
  9
$DIMDLE
 40
0.0000000000
  9
$DIMDLI
 40
0.3800000000
  9
$DIMEXE
 40
3.8099999428
  9
$DIMEXO
 40
2.5399999619
  9
$DIMLFAC
 40
1.0000000000
  9
$DIMLIM
 70
     0
  9
$DIMPOST
  1

  9
$DIMRND
 40
0.0000000000
  9
$DIMSCALE
 40
1.0000000000
  9
$DIMSE1
 70
     0
  9
$DIMSE2
 70
     0
  9
$DIMSHO
 70
     0
  9
$DIMTAD
 70
     0
  9
$DIMTIH
 70
     0
  9
$DIMTM
 40
0.0000000000
  9
$DIMTOH
 70
     1
  9
$DIMTOL
 70
     0
  9
$DIMTP
 40
0.0000000000
  9
$DIMTSZ
 40
0.0000000000
  9
$DIMTXT
 40
2.9999940395
  9
$DIMZIN
 70
     0
  9
$DRAGMODE
 70
     1
  9
$ELEVATION
 40
0.0000000000
  9
$EXTMAX
 10
3.1750000000
 20
221.7228210449
 30
0.0000000000
  9
$EXTMIN
 10
-120.5249984741
 20
-3.1750000000
 30
0.0000000000
  9
$FASTZOOM
 70
     1
  9
$FILLETRAD
 40
6.2500000000E-02
  9
$FILLMODE
 70
     1
  9
$GRIDMODE
 70
     0
  9
$GRIDUNIT
 10
0.0000000000
 20
0.0000000000
  9
$INSBASE
 10
0.0000000000
 20
0.0000000000
 30
0.0000000000
  9
$LIMCHECK
 70
     0
  9
$LIMMAX
 10
3.1750000000
 20
221.7228210449
  9
$LIMMIN
 10
-120.5249984741
 20
-3.1750000000
  9
$LTSCALE
 40
1.0000000000
  9
$LUNITS
 70
     2
  9
$LUPREC
 70
     3
  9
$MEASUREMENT
 70
     0
  9
$MENU
  1
ACAD
  9
$MIRRTEXT
 70
     0
  9
$ORTHOMODE
 70
     0
  9
$OSMODE
 70
     0
  9
$PDMODE
 70
     0
  9
$PDSIZE
 40
0.0000000000
  9
$PLINEWID
 40
0.0000000000
  9
$PROXYGRAPHICS
 70
     0
  9
$QTEXTMODE
 70
     0
  9
$REGENMODE
 70
     1
  9
$SKETCHINC
 40
0.1000000000
  9
$SKPOLY
 70
     0
  9
$SNAPANG
 50
0.0000000000
  9
$SNAPBASE
 10
0.0000000000
 20
0.0000000000
  9
$SNAPISOPAIR
 70
     0
  9
$SNAPMODE
 70
     0
  9
$SNAPSTYLE
 70
     0
  9
$SNAPUNIT
 10
1.0000000000
 20
1.0000000000
  9
$SPLFRAME
 70
     0
  9
$SPLINESEGS
 70
     8
  9
$TDCREATE
 40
2454680.4290856525
  9
$TDINDWG
 40
0.0000000000
  9
$TDUPDATE
 40
2454680.4290856525
  9
$TDUSRTIMER
 40
0.0000000000
  9
$TEXTSIZE
 40
2.9999940395
  9
$TEXTSTYLE
  7
STANDARD
  9
$THICKNESS
 40
0.0000000000
  9
$TRACEWID
 40
5.0000000000E-02
  9
$USERI1
 70
     0
  9
$USERI2
 70
     0
  9
$USERI3
 70
     0
  9
$USERI4
 70
     0
  9
$USERI5
 70
     0
  9
$USERR1
 40
0.0000000000
  9
$USERR2
 40
0.0000000000
  9
$USERR3
 40
0.0000000000
  9
$USERR4
 40
0.0000000000
  9
$USERR5
 40
0.0000000000
  9
$USRTIMER
 70
     1
  9
$VIEWCTR
 10
-58.6749992371
 20
109.2739105225
  9
$VIEWDIR
 10
0.0000000000
 20
0.0000000000
 30
1.0000000000
  9
$VIEWSIZE
 40
224.8978210449
  0
ENDSEC
  0
SECTION
  2
TABLES
  0
TABLE
  2
LTYPE
 70
     2
  0
LTYPE
  2
SOLID
  3
Solid
 70
    64
 72
    65
 73
     0
 40
0.0000000000
  0
LTYPE
  2
CENTER
  3
Center
 70
    64
 72
    65
 73
     4
 40
9.1000000238
 49
6.5000000000
 49
-0.8000000119
 49
1.0000000000
 49
-0.8000000119
  0
ENDTAB
  0
TABLE
  2
LAYER
 70
     3
  0
LAYER
  2
Layer1$C$L1
 70
     0
  6
SOLID
 62
     3
  0
LAYER
  2
Layer6$C$L6
 70
     0
  6
SOLID
 62
    31
  0
LAYER
  2
Layer8$C$L8
 70
     0
  6
SOLID
 62
     7
  0
ENDTAB
  0
TABLE
  2
STYLE
 70
     1
  0
STYLE
  2
STANDARD
  3
txt
  4

 40
0.0000000000
 41
1.0000000000
 42
3.0000000000
 50
0.0000000000
 70
     0
 71
     0
  0
ENDTAB
  0
ENDSEC
  0
SECTION
  2
BLOCKS
  0
ENDSEC
  0
SECTION
  2
ENTITIES
  0
TEXT
  8
Layer8$C$L8
 62
     5
 10
-38.9219917635
 20
1.0540568601
 40
2.9999941014
  1
MA4-A03946B
 41
0.8524508279
 72
     5
 11
-13.3485172079
 21
1.0540568601
  0
TEXT
  8
Layer8$C$L8
 10
-38.2420388509
 20
11.1891919952
 40
2.9999941014
  1
AW-QF1B
 41
0.8947496024
 72
     5
 11
-22.1365776744
 21
11.1891919952
  0
LINE
  8
Layer1$C$L1
 10
-103.0000000000
 20
187.3978260870
 11
-103.0000000000
 21
186.9889410973
  0
LINE
  8
Layer1$C$L1
 10
-102.5000000000
 20
187.3978260870
 11
-102.5000000000
 21
186.9889410973
  0
LINE
  8
Layer1$C$L1
 10
-96.5000000000
 20
187.3978260870
 11
-96.5000000000
 21
186.9889410973
  0
LINE
  8
Layer1$C$L1
 10
-96.0000000000
 20
187.3978260870
 11
-96.0000000000
 21
186.9889410973
  0
LINE
  8
Layer1$C$L1
 10
-96.0000000000
 20
213.9978260870
 11
-96.0000000000
 21
214.4067110766
  0
LINE
  8
Layer1$C$L1
 10
-96.5000000000
 20
213.9978260870
 11
-96.5000000000
 21
214.4067110766
  0
LINE
  8
Layer1$C$L1
 10
-102.5000000000
 20
213.9978260870
 11
-102.5000000000
 21
214.4067110766
  0
LINE
  8
Layer1$C$L1
 10
-103.0000000000
 20
213.9978260870
 11
-103.0000000000
 21
214.4067110766
  0
LINE
  8
Layer1$C$L1
 10
-87.0000000000
 20
213.1978260870
 11
-86.4000000000
 21
213.7978260870
  0
LINE
  8
Layer1$C$L1
 10
-87.0000000000
 20
188.1978260870
 11
-86.4000000000
 21
187.5978260870
  0
LINE
  8
Layer1$C$L1
 10
-112.0000000000
 20
188.1978260870
 11
-112.6000000000
 21
187.5978260870
  0
LINE
  8
Layer1$C$L1
 10
-112.0000000000
 20
213.1978260870
 11
-112.6000000000
 21
213.7978260870
  0
LINE
  8
Layer1$C$L1
 10
-96.4413986429
 20
143.7854478008
 11
-96.1172027142
 21
148.9725826593
  0
ARC
  8
Layer1$C$L1
 10
-97.4394512214
 20
143.8478260870
 40
1.0000000000
 50
270.0000000000
 51
356.4236656250
  0
ARC
  8
Layer1$C$L1
 10
-94.1210975573
 20
148.8478260870
 40
2.0000000000
 50
90.0000000000
 51
176.4236656250
  0
ARC
  8
Layer1$C$L1
 10
-94.1210975573
 20
148.8478260870
 40
1.7000000000
 50
90.0000000000
 51
176.4236656250
  0
LINE
  8
Layer1$C$L1
 10
-96.1419828693
 20
143.7667343150
 11
-95.8177869407
 21
148.9538691734
  0
ARC
  8
Layer1$C$L1
 10
-97.4394512214
 20
143.8478260870
 40
1.3000000000
 50
270.0000000000
 51
356.4236656250
  0
ARC
  8
Layer1$C$L1
 10
-101.5605487786
 20
143.8478260870
 40
1.3000000000
 50
183.5763343750
 51
270.0000000000
  0
LINE
  8
Layer1$C$L1
 10
-102.8580171307
 20
143.7667343150
 11
-103.1822130593
 21
148.9538691734
  0
ARC
  8
Layer1$C$L1
 10
-104.8789024427
 20
148.8478260870
 40
1.7000000000
 50
3.5763343750
 51
90.0000000000
  0
ARC
  8
Layer1$C$L1
 10
-104.8789024427
 20
148.8478260870
 40
2.0000000000
 50
3.5763343750
 51
90.0000000000
  0
ARC
  8
Layer1$C$L1
 10
-101.5605487786
 20
143.8478260870
 40
1.0000000000
 50
183.5763343750
 51
270.0000000000
  0
LINE
  8
Layer1$C$L1
 10
-102.5586013571
 20
143.7854478008
 11
-102.8827972858
 21
148.9725826593
  0
LINE
  8
Layer1$C$L1
 10
-112.6000000000
 20
213.7978260870
 11
-112.6000000000
 21
187.5978260870
  0
LINE
  8
Layer1$C$L1
 10
-86.4000000000
 20
213.7978260870
 11
-112.6000000000
 21
213.7978260870
  0
LINE
  8
Layer1$C$L1
 10
-86.4000000000
 20
187.5978260870
 11
-86.4000000000
 21
213.7978260870
  0
LINE
  8
Layer1$C$L1
 10
-112.6000000000
 20
187.5978260870
 11
-86.4000000000
 21
187.5978260870
  0
LINE
  8
Layer1$C$L1
 10
-84.6500000000
 20
92.6978260870
 11
-86.0000000000
 21
92.6978260870
  0
LINE
  8
Layer1$C$L1
 10
-113.0000000000
 20
92.6978260870
 11
-114.3500000000
 21
92.6978260870
  0
LINE
  8
Layer1$C$L1
 10
-84.6500000000
 20
98.6978260870
 11
-86.0000000000
 21
98.6978260870
  0
LINE
  8
Layer1$C$L1
 10
-113.0000000000
 20
98.6978260870
 11
-114.3500000000
 21
98.6978260870
  0
LINE
  8
Layer1$C$L1
 10
-109.1000000000
 20
212.6978260870
 11
-109.1000000000
 21
213.1978260870
  0
LINE
  8
Layer1$C$L1
 10
-107.6000000000
 20
212.6978260870
 11
-107.6000000000
 21
213.1978260870
  0
LINE
  8
Layer1$C$L1
 10
-109.1000000000
 20
212.6978260870
 11
-107.6000000000
 21
212.6978260870
  0
LINE
  8
Layer1$C$L1
 10
-89.9000000000
 20
212.6978260870
 11
-91.4000000000
 21
212.6978260870
  0
LINE
  8
Layer1$C$L1
 10
-91.4000000000
 20
212.6978260870
 11
-91.4000000000
 21
213.1978260870
  0
LINE
  8
Layer1$C$L1
 10
-89.9000000000
 20
212.6978260870
 11
-89.9000000000
 21
213.1978260870
  0
LINE
  8
Layer1$C$L1
 10
-87.5000000000
 20
191.0978260870
 11
-87.0000000000
 21
191.0978260870
  0
LINE
  8
Layer1$C$L1
 10
-87.5000000000
 20
192.5978260870
 11
-87.0000000000
 21
192.5978260870
  0
LINE
  8
Layer1$C$L1
 10
-87.5000000000
 20
191.0978260870
 11
-87.5000000000
 21
192.5978260870
  0
LINE
  8
Layer1$C$L1
 10
-87.5000000000
 20
210.2978260870
 11
-87.5000000000
 21
208.7978260870
  0
LINE
  8
Layer1$C$L1
 10
-87.5000000000
 20
208.7978260870
 11
-87.0000000000
 21
208.7978260870
  0
LINE
  8
Layer1$C$L1
 10
-87.5000000000
 20
210.2978260870
 11
-87.0000000000
 21
210.2978260870
  0
LINE
  8
Layer1$C$L1
 10
-89.9000000000
 20
188.6978260870
 11
-89.9000000000
 21
188.1978260870
  0
LINE
  8
Layer1$C$L1
 10
-91.4000000000
 20
188.6978260870
 11
-91.4000000000
 21
188.1978260870
  0
LINE
  8
Layer1$C$L1
 10
-89.9000000000
 20
188.6978260870
 11
-91.4000000000
 21
188.6978260870
  0
LINE
  8
Layer1$C$L1
 10
-109.1000000000
 20
188.6978260870
 11
-107.6000000000
 21
188.6978260870
  0
LINE
  8
Layer1$C$L1
 10
-107.6000000000
 20
188.6978260870
 11
-107.6000000000
 21
188.1978260870
  0
LINE
  8
Layer1$C$L1
 10
-109.1000000000
 20
188.6978260870
 11
-109.1000000000
 21
188.1978260870
  0
LINE
  8
Layer1$C$L1
 10
-112.0000000000
 20
188.1978260870
 11
-87.0000000000
 21
188.1978260870
  0
LINE
  8
Layer1$C$L1
 10
-87.0000000000
 20
188.1978260870
 11
-87.0000000000
 21
213.1978260870
  0
LINE
  8
Layer1$C$L1
 10
-87.0000000000
 20
213.1978260870
 11
-112.0000000000
 21
213.1978260870
  0
LINE
  8
Layer1$C$L1
 10
-112.0000000000
 20
213.1978260870
 11
-112.0000000000
 21
188.1978260870
  0
LINE
  8
Layer1$C$L1
 10
-111.5000000000
 20
210.2978260870
 11
-112.0000000000
 21
210.2978260870
  0
LINE
  8
Layer1$C$L1
 10
-111.5000000000
 20
208.7978260870
 11
-112.0000000000
 21
208.7978260870
  0
LINE
  8
Layer1$C$L1
 10
-111.5000000000
 20
210.2978260870
 11
-111.5000000000
 21
208.7978260870
  0
LINE
  8
Layer1$C$L1
 10
-111.5000000000
 20
191.0978260870
 11
-111.5000000000
 21
192.5978260870
  0
LINE
  8
Layer1$C$L1
 10
-111.5000000000
 20
192.5978260870
 11
-112.0000000000
 21
192.5978260870
  0
LINE
  8
Layer1$C$L1
 10
-111.5000000000
 20
191.0978260870
 11
-112.0000000000
 21
191.0978260870
  0
LINE
  8
Layer1$C$L1
  6
CENTER
 10
-99.5000000000
 20
127.8478260870
 11
-99.5000000000
 21
153.8478260870
  0
LINE
  8
Layer1$C$L1
  6
CENTER
 10
-99.5000000000
 20
77.8478260870
 11
-99.5000000000
 21
113.5478260870
  0
LINE
  8
Layer1$C$L1
  6
CENTER
 10
-99.5000000000
 20
182.8478260870
 11
-99.5000000000
 21
218.5478260870
  0
LINE
  8
Layer1$C$L1
  6
CENTER
 10
-117.3500000000
 20
200.6978260870
 11
-81.6500000000
 21
200.6978260870
  0
LINE
  8
Layer1$C$L1
  6
CENTER
 10
-117.3500000000
 20
95.6978260870
 11
-81.6500000000
 21
95.6978260870
  0
LINE
  8
Layer1$C$L1
 10
-94.1210975573
 20
150.5478260870
 11
-85.5911111111
 21
150.5478260870
  0
LINE
  8
Layer1$C$L1
 10
-101.5605487786
 20
142.5478260870
 11
-97.4394512214
 21
142.5478260870
  0
LINE
  8
Layer1$C$L1
 10
-113.4088888889
 20
150.5478260870
 11
-104.8789024427
 21
150.5478260870
  0
LINE
  8
Layer1$C$L1
 10
-94.1210975573
 20
150.8478260870
 11
-85.9092959838
 21
150.8478260870
  0
LINE
  8
Layer1$C$L1
 10
-113.0907040162
 20
150.8478260870
 11
-104.8789024427
 21
150.8478260870
  0
LINE
  8
Layer1$C$L1
 10
-101.5605487786
 20
142.8478260870
 11
-97.4394512214
 21
142.8478260870
  0
LINE
  8
Layer1$C$L1
 10
-84.7500000000
 20
136.8478260870
 11
-84.6500000000
 21
130.8478260870
  0
LINE
  8
Layer1$C$L1
 10
-84.7500000000
 20
136.8478260870
 11
-85.2000000000
 21
137.3478260870
  0
LINE
  8
Layer1$C$L1
 10
-85.5911150104
 20
150.5479576876
 11
-85.2000000000
 21
137.3478260870
  0
LINE
  8
Layer1$C$L1
 10
-85.5911150104
 20
150.5479576876
 11
-85.9092959838
 21
150.8478260870
  0
LINE
  8
Layer1$C$L1
 10
-111.5000000000
 20
86.0978260870
 11
-113.0000000000
 21
86.0978260870
  0
LINE
  8
Layer1$C$L1
 10
-111.5000000000
 20
87.5978260870
 11
-113.0000000000
 21
87.5978260870
  0
LINE
  8
Layer1$C$L1
 10
-111.5000000000
 20
86.0978260870
 11
-111.5000000000
 21
87.5978260870
  0
LINE
  8
Layer1$C$L1
 10
-113.0000000000
 20
86.0978260870
 11
-113.0000000000
 21
82.6978260870
  0
LINE
  8
Layer1$C$L1
 10
-111.5000000000
 20
105.2978260870
 11
-111.5000000000
 21
103.7978260870
  0
LINE
  8
Layer1$C$L1
 10
-111.5000000000
 20
103.7978260870
 11
-113.0000000000
 21
103.7978260870
  0
LINE
  8
Layer1$C$L1
 10
-111.5000000000
 20
105.2978260870
 11
-113.0000000000
 21
105.2978260870
  0
LINE
  8
Layer1$C$L1
 10
-113.0000000000
 20
108.6978260870
 11
-113.0000000000
 21
105.2978260870
  0
LINE
  8
Layer1$C$L1
 10
-113.0000000000
 20
103.7978260870
 11
-113.0000000000
 21
87.5978260870
  0
LINE
  8
Layer1$C$L1
 10
-86.0000000000
 20
103.7978260870
 11
-86.0000000000
 21
87.5978260870
  0
LINE
  8
Layer1$C$L1
 10
-86.0000000000
 20
108.6978260870
 11
-86.0000000000
 21
105.2978260870
  0
LINE
  8
Layer1$C$L1
 10
-87.5000000000
 20
105.2978260870
 11
-86.0000000000
 21
105.2978260870
  0
LINE
  8
Layer1$C$L1
 10
-87.5000000000
 20
103.7978260870
 11
-86.0000000000
 21
103.7978260870
  0
LINE
  8
Layer1$C$L1
 10
-87.5000000000
 20
105.2978260870
 11
-87.5000000000
 21
103.7978260870
  0
LINE
  8
Layer1$C$L1
 10
-86.0000000000
 20
86.0978260870
 11
-86.0000000000
 21
82.6978260870
  0
LINE
  8
Layer1$C$L1
 10
-87.5000000000
 20
86.0978260870
 11
-87.5000000000
 21
87.5978260870
  0
LINE
  8
Layer1$C$L1
 10
-87.5000000000
 20
87.5978260870
 11
-86.0000000000
 21
87.5978260870
  0
LINE
  8
Layer1$C$L1
 10
-87.5000000000
 20
86.0978260870
 11
-86.0000000000
 21
86.0978260870
  0
LINE
  8
Layer1$C$L1
 10
-109.1000000000
 20
83.6978260870
 11
-109.1000000000
 21
82.1978260870
  0
LINE
  8
Layer1$C$L1
 10
-107.6000000000
 20
83.6978260870
 11
-107.6000000000
 21
82.1978260870
  0
LINE
  8
Layer1$C$L1
 10
-109.1000000000
 20
83.6978260870
 11
-107.6000000000
 21
83.6978260870
  0
LINE
  8
Layer1$C$L1
 10
-109.1000000000
 20
82.1978260870
 11
-112.5000000000
 21
82.1978260870
  0
LINE
  8
Layer1$C$L1
 10
-89.9000000000
 20
83.6978260870
 11
-91.4000000000
 21
83.6978260870
  0
LINE
  8
Layer1$C$L1
 10
-91.4000000000
 20
83.6978260870
 11
-91.4000000000
 21
82.1978260870
  0
LINE
  8
Layer1$C$L1
 10
-89.9000000000
 20
83.6978260870
 11
-89.9000000000
 21
82.1978260870
  0
LINE
  8
Layer1$C$L1
 10
-86.5000000000
 20
82.1978260870
 11
-89.9000000000
 21
82.1978260870
  0
LINE
  8
Layer1$C$L1
 10
-91.4000000000
 20
82.1978260870
 11
-107.6000000000
 21
82.1978260870
  0
LINE
  8
Layer1$C$L1
 10
-91.4000000000
 20
109.1978260870
 11
-107.6000000000
 21
109.1978260870
  0
LINE
  8
Layer1$C$L1
 10
-86.5000000000
 20
109.1978260870
 11
-89.9000000000
 21
109.1978260870
  0
LINE
  8
Layer1$C$L1
 10
-89.9000000000
 20
107.6978260870
 11
-89.9000000000
 21
109.1978260870
  0
LINE
  8
Layer1$C$L1
 10
-91.4000000000
 20
107.6978260870
 11
-91.4000000000
 21
109.1978260870
  0
LINE
  8
Layer1$C$L1
 10
-89.9000000000
 20
107.6978260870
 11
-91.4000000000
 21
107.6978260870
  0
LINE
  8
Layer1$C$L1
 10
-109.1000000000
 20
109.1978260870
 11
-112.5000000000
 21
109.1978260870
  0
LINE
  8
Layer1$C$L1
 10
-109.1000000000
 20
107.6978260870
 11
-107.6000000000
 21
107.6978260870
  0
LINE
  8
Layer1$C$L1
 10
-107.6000000000
 20
107.6978260870
 11
-107.6000000000
 21
109.1978260870
  0
LINE
  8
Layer1$C$L1
 10
-109.1000000000
 20
107.6978260870
 11
-109.1000000000
 21
109.1978260870
  0
LINE
  8
Layer1$C$L1
 10
-96.5000000000
 20
109.1978260870
 11
-96.5000000000
 21
110.5478260870
  0
LINE
  8
Layer1$C$L1
 10
-96.5000000000
 20
80.8478260870
 11
-96.5000000000
 21
82.1978260870
  0
LINE
  8
Layer1$C$L1
 10
-102.5000000000
 20
109.1978260870
 11
-102.5000000000
 21
110.5478260870
  0
LINE
  8
Layer1$C$L1
 10
-102.5000000000
 20
80.8478260870
 11
-102.5000000000
 21
82.1978260870
  0
LINE
  8
Layer1$C$L1
 10
-112.0000000000
 20
108.1978260870
 11
-112.0000000000
 21
83.1978260870
  0
LINE
  8
Layer1$C$L1
 10
-87.0000000000
 20
108.1978260870
 11
-112.0000000000
 21
108.1978260870
  0
LINE
  8
Layer1$C$L1
 10
-87.0000000000
 20
83.1978260870
 11
-87.0000000000
 21
108.1978260870
  0
LINE
  8
Layer1$C$L1
 10
-112.0000000000
 20
83.1978260870
 11
-87.0000000000
 21
83.1978260870
  0
ARC
  8
Layer1$C$L1
 10
-112.5000000000
 20
82.6978260870
 40
0.5000000000
 50
180.0000000000
 51
270.0000000000
  0
ARC
  8
Layer1$C$L1
 10
-86.5000000000
 20
82.6978260870
 40
0.5000000000
 50
270.0000000000
 51
360.0000000000
  0
ARC
  8
Layer1$C$L1
 10
-86.5000000000
 20
108.6978260870
 40
0.5000000000
 50
0.0000000000
 51
90.0000000000
  0
ARC
  8
Layer1$C$L1
 10
-112.5000000000
 20
108.6978260870
 40
0.5000000000
 50
90.0000000000
 51
180.0000000000
  0
LINE
  8
Layer1$C$L1
 10
-113.3500000000
 20
80.8478260870
 11
-85.6500000000
 21
80.8478260870
  0
LINE
  8
Layer1$C$L1
 10
-84.6500000000
 20
81.8478260870
 11
-84.6500000000
 21
109.5478260870
  0
LINE
  8
Layer1$C$L1
 10
-85.6500000000
 20
110.5478260870
 11
-113.3500000000
 21
110.5478260870
  0
LINE
  8
Layer1$C$L1
 10
-114.3500000000
 20
109.5478260870
 11
-114.3500000000
 21
81.8478260870
  0
ARC
  8
Layer1$C$L1
 10
-113.3500000000
 20
109.5478260870
 40
1.0000000000
 50
90.0000000000
 51
180.0000000000
  0
ARC
  8
Layer1$C$L1
 10
-85.6500000000
 20
109.5478260870
 40
1.0000000000
 50
0.0000000000
 51
90.0000000000
  0
ARC
  8
Layer1$C$L1
 10
-85.6500000000
 20
81.8478260870
 40
1.0000000000
 50
270.0000000000
 51
360.0000000000
  0
ARC
  8
Layer1$C$L1
 10
-113.3500000000
 20
81.8478260870
 40
1.0000000000
 50
180.0000000000
 51
270.0000000000
  0
LINE
  8
Layer1$C$L1
 10
-85.5911150104
 20
186.7889410973
 11
-113.4088849896
 21
186.7889410973
  0
LINE
  8
Layer1$C$L1
 10
-85.5911150104
 20
214.6067110766
 11
-113.4088849896
 21
214.6067110766
  0
LINE
  8
Layer1$C$L1
 10
-85.5911150104
 20
186.7889410973
 11
-85.5911150104
 21
214.6067110766
  0
LINE
  8
Layer1$C$L1
 10
-113.4088849896
 20
186.7889410973
 11
-113.4088849896
 21
214.6067110766
  0
ARC
  8
Layer1$C$L1
 10
-113.3000000000
 20
186.8978260870
 40
0.5000000000
 50
180.0000000000
 51
270.0000000000
  0
ARC
  8
Layer1$C$L1
 10
-85.7000000000
 20
186.8978260870
 40
0.5000000000
 50
270.0000000000
 51
360.0000000000
  0
ARC
  8
Layer1$C$L1
 10
-85.7000000000
 20
214.4978260870
 40
0.5000000000
 50
360.0000000000
 51
450.0000000000
  0
ARC
  8
Layer1$C$L1
 10
-113.3000000000
 20
214.4978260870
 40
0.5000000000
 50
90.0000000000
 51
180.0000000000
  0
LINE
  8
Layer1$C$L1
 10
-85.7000000000
 20
186.3978260870
 11
-113.3000000000
 21
186.3978260870
  0
LINE
  8
Layer1$C$L1
 10
-85.7000000000
 20
214.9978260870
 11
-113.3000000000
 21
214.9978260870
  0
LINE
  8
Layer1$C$L1
 10
-85.2000000000
 20
186.8978260870
 11
-85.2000000000
 21
214.4978260870
  0
LINE
  8
Layer1$C$L1
 10
-113.8000000000
 20
186.8978260870
 11
-113.8000000000
 21
214.4978260870
  0
ARC
  8
Layer1$C$L1
 10
-113.3500000000
 20
186.8478260870
 40
1.0000000000
 50
180.0000000000
 51
270.0000000000
  0
ARC
  8
Layer1$C$L1
 10
-85.6500000000
 20
186.8478260870
 40
1.0000000000
 50
270.0000000000
 51
360.0000000000
  0
ARC
  8
Layer1$C$L1
 10
-85.6500000000
 20
214.5478260870
 40
1.0000000000
 50
0.0000000000
 51
90.0000000000
  0
ARC
  8
Layer1$C$L1
 10
-113.3500000000
 20
214.5478260870
 40
1.0000000000
 50
90.0000000000
 51
180.0000000000
  0
LINE
  8
Layer1$C$L1
 10
-114.3500000000
 20
214.5478260870
 11
-114.3500000000
 21
186.8478260870
  0
LINE
  8
Layer1$C$L1
 10
-85.6500000000
 20
215.5478260870
 11
-113.3500000000
 21
215.5478260870
  0
LINE
  8
Layer1$C$L1
 10
-84.6500000000
 20
186.8478260870
 11
-84.6500000000
 21
214.5478260870
  0
LINE
  8
Layer1$C$L1
 10
-113.3500000000
 20
185.8478260870
 11
-85.6500000000
 21
185.8478260870
  0
LINE
  8
Layer1$C$L1
 10
-96.5000000000
 20
130.8478260870
 11
-84.6500000000
 21
130.8478260870
  0
LINE
  8
Layer1$C$L1
 10
-114.3500000000
 20
130.8478260870
 11
-102.5000000000
 21
130.8478260870
  0
LINE
  8
Layer1$C$L1
 10
-102.5000000000
 20
131.6478260870
 11
-96.5000000000
 21
131.6478260870
  0
LINE
  8
Layer1$C$L1
 10
-96.5000000000
 20
130.8478260870
 11
-96.5000000000
 21
131.6478260870
  0
LINE
  8
Layer1$C$L1
 10
-102.5000000000
 20
130.8478260870
 11
-102.5000000000
 21
131.6478260870
  0
LINE
  8
Layer1$C$L1
 10
-113.4088849896
 20
150.5479576876
 11
-113.0907040162
 21
150.8478260870
  0
LINE
  8
Layer1$C$L1
 10
-113.4088849896
 20
150.5479576876
 11
-113.8000000000
 21
137.3478260870
  0
LINE
  8
Layer1$C$L1
 10
-114.2500000000
 20
136.8478260870
 11
-113.8000000000
 21
137.3478260870
  0
LINE
  8
Layer1$C$L1
 10
-113.8000000000
 20
137.3478260870
 11
-85.2000000000
 21
137.3478260870
  0
LINE
  8
Layer1$C$L1
 10
-114.2500000000
 20
136.8478260870
 11
-114.3500000000
 21
130.8478260870
  0
LINE
  8
Layer1$C$L1
 10
-114.2500000000
 20
136.8478260870
 11
-84.7500000000
 21
136.8478260870
  0
ENDSEC
  0
EOF
