  0
SECTION
  2
HEADER
  9
$ACADVER
  1
AC1004
  9
$ANGBASE
 50
0.0000000000
  9
$ANGDIR
 70
     0
  9
$ATTDIA
 70
     0
  9
$ATTMODE
 70
     1
  9
$ATTREQ
 70
     1
  9
$AUNITS
 70
     0
  9
$AUPREC
 70
     0
  9
$AXISMODE
 70
     0
  9
$AXISUNIT
 10
0.0000000000
 20
0.0000000000
  9
$BLIPMODE
 70
     1
  9
$CECOLOR
 62
   256
  9
$CELTYPE
  6
BYLAYER
  9
$CHAMFERA
 40
0.0000000000
  9
$CHAMFERB
 40
0.0000000000
  9
$CLAYER
  8
0
  9
$COORDS
 70
     0
  9
$DIMALT
 70
     0
  9
$DIMALTD
 70
     2
  9
$DIMALTF
 40
25.4000000000
  9
$DIMAPOST
  1

  9
$DIMASO
 70
     1
  9
$DIMASZ
 40
1.9727878465
  9
$DIMBLK
  1

  9
$DIMBLK1
  1

  9
$DIMBLK2
  1

  9
$DIMCEN
 40
9.0000000000E-02
  9
$DIMDLE
 40
0.0000000000
  9
$DIMDLI
 40
0.3800000000
  9
$DIMEXE
 40
3.8099999428
  9
$DIMEXO
 40
2.5399999619
  9
$DIMLFAC
 40
1.0000000000
  9
$DIMLIM
 70
     0
  9
$DIMPOST
  1

  9
$DIMRND
 40
0.0000000000
  9
$DIMSCALE
 40
1.0000000000
  9
$DIMSE1
 70
     0
  9
$DIMSE2
 70
     0
  9
$DIMSHO
 70
     0
  9
$DIMTAD
 70
     0
  9
$DIMTIH
 70
     0
  9
$DIMTM
 40
0.0000000000
  9
$DIMTOH
 70
     1
  9
$DIMTOL
 70
     0
  9
$DIMTP
 40
0.0000000000
  9
$DIMTSZ
 40
0.0000000000
  9
$DIMTXT
 40
3.1999998093
  9
$DIMZIN
 70
     0
  9
$DRAGMODE
 70
     1
  9
$ELEVATION
 40
0.0000000000
  9
$EXTMAX
 10
3.1750000000
 20
212.9250000000
 30
0.0000000000
  9
$EXTMIN
 10
-124.9549987793
 20
-3.1750000000
 30
0.0000000000
  9
$FASTZOOM
 70
     1
  9
$FILLETRAD
 40
6.2500000000E-02
  9
$FILLMODE
 70
     1
  9
$GRIDMODE
 70
     0
  9
$GRIDUNIT
 10
0.0000000000
 20
0.0000000000
  9
$INSBASE
 10
0.0000000000
 20
0.0000000000
 30
0.0000000000
  9
$LIMCHECK
 70
     0
  9
$LIMMAX
 10
3.1750000000
 20
212.9250000000
  9
$LIMMIN
 10
-124.9549987793
 20
-3.1750000000
  9
$LTSCALE
 40
1.0000000000
  9
$LUNITS
 70
     2
  9
$LUPREC
 70
     3
  9
$MEASUREMENT
 70
     0
  9
$MENU
  1
ACAD
  9
$MIRRTEXT
 70
     0
  9
$ORTHOMODE
 70
     0
  9
$OSMODE
 70
     0
  9
$PDMODE
 70
     0
  9
$PDSIZE
 40
0.0000000000
  9
$PLINEWID
 40
0.0000000000
  9
$PROXYGRAPHICS
 70
     0
  9
$QTEXTMODE
 70
     0
  9
$REGENMODE
 70
     1
  9
$SKETCHINC
 40
0.1000000000
  9
$SKPOLY
 70
     0
  9
$SNAPANG
 50
0.0000000000
  9
$SNAPBASE
 10
0.0000000000
 20
0.0000000000
  9
$SNAPISOPAIR
 70
     0
  9
$SNAPMODE
 70
     0
  9
$SNAPSTYLE
 70
     0
  9
$SNAPUNIT
 10
1.0000000000
 20
1.0000000000
  9
$SPLFRAME
 70
     0
  9
$SPLINESEGS
 70
     8
  9
$TDCREATE
 40
2454680.4271875046
  9
$TDINDWG
 40
0.0000000000
  9
$TDUPDATE
 40
2454680.4271875046
  9
$TDUSRTIMER
 40
0.0000000000
  9
$TEXTSIZE
 40
3.1999998093
  9
$TEXTSTYLE
  7
STANDARD
  9
$THICKNESS
 40
0.0000000000
  9
$TRACEWID
 40
5.0000000000E-02
  9
$USERI1
 70
     0
  9
$USERI2
 70
     0
  9
$USERI3
 70
     0
  9
$USERI4
 70
     0
  9
$USERI5
 70
     0
  9
$USERR1
 40
0.0000000000
  9
$USERR2
 40
0.0000000000
  9
$USERR3
 40
0.0000000000
  9
$USERR4
 40
0.0000000000
  9
$USERR5
 40
0.0000000000
  9
$USRTIMER
 70
     1
  9
$VIEWCTR
 10
-60.8899993896
 20
104.8750000000
  9
$VIEWDIR
 10
0.0000000000
 20
0.0000000000
 30
1.0000000000
  9
$VIEWSIZE
 40
216.1000000000
  0
ENDSEC
  0
SECTION
  2
TABLES
  0
TABLE
  2
LTYPE
 70
     2
  0
LTYPE
  2
SOLID
  3
Solid
 70
    64
 72
    65
 73
     0
 40
0.0000000000
  0
LTYPE
  2
CENTERLINE
  3
Centerline
 70
    64
 72
    65
 73
     4
 40
25.4000000000
 49
19.0500000000
 49
-1.5875000000
 49
3.1750000000
 49
-1.5875000000
  0
ENDTAB
  0
TABLE
  2
LAYER
 70
     4
  0
LAYER
  2
Layer1$C$L1
 70
     0
  6
SOLID
 62
     3
  0
LAYER
  2
Layer3$C$L3
 70
     0
  6
SOLID
 62
     3
  0
LAYER
  2
Layer6$C$L6
 70
     0
  6
SOLID
 62
     6
  0
LAYER
  2
Layer8$C$L8
 70
     0
  6
SOLID
 62
    32
  0
ENDTAB
  0
TABLE
  2
STYLE
 70
     1
  0
STYLE
  2
STANDARD
  3
txt
  4

 40
0.0000000000
 41
1.0000000000
 42
3.1999998093
 50
0.0000000000
 70
     0
 71
     0
  0
ENDTAB
  0
ENDSEC
  0
SECTION
  2
BLOCKS
  0
ENDSEC
  0
SECTION
  2
ENTITIES
  0
TEXT
  8
Layer8$C$L8
 62
     2
 10
-41.0912092812
 20
0.5486487110
 40
3.1999998753
  1
MA4-A02342
 72
     5
 11
-9.9468823783
 21
0.5486487110
  0
TEXT
  8
Layer8$C$L8
 10
-40.6857954700
 20
14.7378377474
 40
3.1999998753
  1
AW-H1B
 72
     5
 11
-22.3414680682
 21
14.7378377474
  0
LINE
  8
Layer1$C$L1
 10
-117.8799896240
 20
150.6770019531
 11
-117.8799896240
 21
146.6139221191
  0
LINE
  8
Layer1$C$L1
 10
-118.7799987793
 20
145.3769989014
 11
-118.7799987793
 21
144.3769989014
  0
LINE
  8
Layer1$C$L1
 10
-117.5800006232
 20
150.9769964513
 11
-117.8800052575
 21
150.6769917917
  0
ARC
  8
Layer1$C$L1
 10
-118.4799957275
 20
145.3769989014
 40
0.3000000119
 50
107.9202127355
 51
179.9999640278
  0
LINE
  8
Layer1$C$L1
 10
-120.0800018311
 20
143.8769989014
 11
-120.0800018311
 21
137.8769989014
  0
LINE
  8
Layer1$C$L1
 10
-119.5800133421
 20
144.3769912403
 11
-120.0800138729
 21
143.8769906674
  0
ARC
  8
Layer1$C$L1
 10
-118.8799896240
 20
146.6139221191
 40
1.0000000000
 50
287.9202487077
 51
360.0000000000
  0
LINE
  8
Layer1$C$L1
 10
-92.9800060612
 20
150.9769945362
 11
-92.6800014269
 21
150.6769898766
  0
LINE
  8
Layer1$C$L1
 10
-90.9800041319
 20
144.3770001148
 11
-90.4800036011
 21
143.8769995418
  0
ARC
  8
Layer1$C$L1
 10
-91.6799926758
 20
146.6139221191
 40
1.0000000000
 50
180.0000359722
 51
252.0797872645
  0
ARC
  8
Layer1$C$L1
 10
-92.0800018311
 20
145.3769989014
 40
0.3000000119
 50
0.0000000000
 51
72.0797512923
  0
LINE
  8
Layer3$C$L3
  6
CENTERLINE
 10
-105.2799987793
 20
153.3383636475
 11
-105.2799987793
 21
135.9559631348
  0
LINE
  8
Layer1$C$L1
 10
-119.5800018311
 20
144.3769989014
 11
-90.9799957275
 21
144.3769989014
  0
LINE
  8
Layer1$C$L1
 10
-92.6799926758
 20
150.6770019531
 11
-92.6799926758
 21
146.6139221191
  0
LINE
  8
Layer1$C$L1
 10
-117.8799896240
 20
150.6770019531
 11
-92.6799926758
 21
150.6770019531
  0
LINE
  8
Layer1$C$L1
 10
-91.7799987793
 20
145.3769989014
 11
-91.7799987793
 21
144.3769989014
  0
LINE
  8
Layer1$C$L1
 10
-120.0800018311
 20
143.8769989014
 11
-90.4799957275
 21
143.8769989014
  0
LINE
  8
Layer1$C$L1
 10
-117.8832244873
 20
145.6770019531
 11
-92.5353088379
 21
145.6770019531
  0
LINE
  8
Layer1$C$L1
 10
-90.4799957275
 20
143.8769989014
 11
-90.4799957275
 21
137.8769989014
  0
LINE
  8
Layer1$C$L1
 10
-117.5800018311
 20
150.9769897461
 11
-92.9799957275
 21
150.9769897461
  0
LINE
  8
Layer1$C$L1
 10
-120.0800018311
 20
137.8769989014
 11
-90.4799957275
 21
137.8769989014
  0
CIRCLE
  8
Layer1$C$L1
 10
-105.2799987793
 20
193.2500000000
 40
13.1999998093
  0
CIRCLE
  8
Layer1$C$L1
 10
-105.2799987793
 20
193.2500000000
 40
12.6000003815
  0
CIRCLE
  8
Layer1$C$L1
 10
-105.2799987793
 20
193.2500000000
 40
12.0000000000
  0
ARC
  8
Layer1$C$L1
 10
-119.0800018311
 20
207.0500030518
 40
0.5000000000
 50
89.9999820139
 51
179.9999640278
  0
ARC
  8
Layer1$C$L1
 10
-91.4799957275
 20
207.0500030518
 40
0.5000000000
 50
0.0000000000
 51
89.9999820139
  0
ARC
  8
Layer1$C$L1
 10
-119.0800018311
 20
179.4499969482
 40
0.5000000000
 50
180.0000359722
 51
270.0000179861
  0
ARC
  8
Layer1$C$L1
 10
-91.4799957275
 20
179.4499969482
 40
0.5000000000
 50
270.0000179861
 51
360.0000000000
  0
LINE
  8
Layer1$C$L1
 10
-90.9799957275
 20
207.0500030518
 11
-90.9799957275
 21
179.4499969482
  0
LINE
  8
Layer1$C$L1
 10
-119.0800018311
 20
178.9499969482
 11
-91.4799957275
 21
178.9499969482
  0
LINE
  8
Layer1$C$L1
 10
-119.5800018311
 20
207.0500030518
 11
-119.5800018311
 21
179.4499969482
  0
LINE
  8
Layer1$C$L1
 10
-119.0800018311
 20
207.5500030518
 11
-91.4799957275
 21
207.5500030518
  0
ARC
  8
Layer1$C$L1
 10
-90.9799957275
 20
207.5500030518
 40
0.5000000000
 50
0.0000000000
 51
89.9999820139
  0
ARC
  8
Layer1$C$L1
 10
-90.9799957275
 20
178.9499969482
 40
0.5000000000
 50
270.0000179861
 51
360.0000000000
  0
ARC
  8
Layer1$C$L1
 10
-119.5800018311
 20
178.9499969482
 40
0.5000000000
 50
180.0000359722
 51
270.0000179861
  0
ARC
  8
Layer1$C$L1
 10
-119.5800018311
 20
207.5500030518
 40
0.5000000000
 50
89.9999820139
 51
179.9999640278
  0
LINE
  8
Layer1$C$L1
 10
-119.5800018311
 20
208.0500030518
 11
-90.9799957275
 21
208.0500030518
  0
LINE
  8
Layer1$C$L1
 10
-119.5800018311
 20
178.4499969482
 11
-90.9799957275
 21
178.4499969482
  0
LINE
  8
Layer1$C$L1
 10
-90.4799957275
 20
207.5500030518
 11
-90.4799957275
 21
178.9499969482
  0
LINE
  8
Layer1$C$L1
 10
-120.0800018311
 20
207.5500030518
 11
-120.0800018311
 21
178.9499969482
  0
LINE
  8
Layer3$C$L3
  6
CENTERLINE
 10
-121.7799987793
 20
193.2500000000
 11
-88.7799987793
 21
193.2500000000
  0
LINE
  8
Layer3$C$L3
  6
CENTERLINE
 10
-105.2799987793
 20
209.7500000000
 11
-105.2799987793
 21
176.7500000000
  0
CIRCLE
  8
Layer1$C$L1
 10
-105.2799987793
 20
193.2500000000
 40
13.5000000000
  0
ENDSEC
  0
EOF
