  0
SECTION
  2
HEADER
  9
$ACADVER
  1
AC1004
  9
$ANGBASE
 50
0.0000000000
  9
$ANGDIR
 70
     0
  9
$ATTDIA
 70
     0
  9
$ATTMODE
 70
     1
  9
$ATTREQ
 70
     1
  9
$AUNITS
 70
     0
  9
$AUPREC
 70
     0
  9
$AXISMODE
 70
     0
  9
$AXISUNIT
 10
0.0000000000
 20
0.0000000000
  9
$BLIPMODE
 70
     1
  9
$CECOLOR
 62
   256
  9
$CELTYPE
  6
BYLAYER
  9
$CHAMFERA
 40
0.0000000000
  9
$CHAMFERB
 40
0.0000000000
  9
$CLAYER
  8
0
  9
$COORDS
 70
     0
  9
$DIMALT
 70
     0
  9
$DIMALTD
 70
     2
  9
$DIMALTF
 40
25.4000000000
  9
$DIMAPOST
  1

  9
$DIMASO
 70
     1
  9
$DIMASZ
 40
1.9727878465
  9
$DIMBLK
  1

  9
$DIMBLK1
  1

  9
$DIMBLK2
  1

  9
$DIMCEN
 40
9.0000000000E-02
  9
$DIMDLE
 40
0.0000000000
  9
$DIMDLI
 40
0.3800000000
  9
$DIMEXE
 40
3.8099999428
  9
$DIMEXO
 40
2.5399999619
  9
$DIMLFAC
 40
1.0000000000
  9
$DIMLIM
 70
     0
  9
$DIMPOST
  1

  9
$DIMRND
 40
0.0000000000
  9
$DIMSCALE
 40
1.0000000000
  9
$DIMSE1
 70
     0
  9
$DIMSE2
 70
     0
  9
$DIMSHO
 70
     0
  9
$DIMTAD
 70
     0
  9
$DIMTIH
 70
     0
  9
$DIMTM
 40
0.0000000000
  9
$DIMTOH
 70
     1
  9
$DIMTOL
 70
     0
  9
$DIMTP
 40
0.0000000000
  9
$DIMTSZ
 40
0.0000000000
  9
$DIMTXT
 40
3.1999998093
  9
$DIMZIN
 70
     0
  9
$DRAGMODE
 70
     1
  9
$ELEVATION
 40
0.0000000000
  9
$EXTMAX
 10
3.1750000000
 20
153.5384185791
 30
0.0000000000
  9
$EXTMIN
 10
-119.8625534058
 20
-3.1750000000
 30
0.0000000000
  9
$FASTZOOM
 70
     1
  9
$FILLETRAD
 40
6.2500000000E-02
  9
$FILLMODE
 70
     1
  9
$GRIDMODE
 70
     0
  9
$GRIDUNIT
 10
0.0000000000
 20
0.0000000000
  9
$INSBASE
 10
0.0000000000
 20
0.0000000000
 30
0.0000000000
  9
$LIMCHECK
 70
     0
  9
$LIMMAX
 10
3.1750000000
 20
153.5384185791
  9
$LIMMIN
 10
-119.8625534058
 20
-3.1750000000
  9
$LTSCALE
 40
1.0000000000
  9
$LUNITS
 70
     2
  9
$LUPREC
 70
     3
  9
$MEASUREMENT
 70
     0
  9
$MENU
  1
ACAD
  9
$MIRRTEXT
 70
     0
  9
$ORTHOMODE
 70
     0
  9
$OSMODE
 70
     0
  9
$PDMODE
 70
     0
  9
$PDSIZE
 40
0.0000000000
  9
$PLINEWID
 40
0.0000000000
  9
$PROXYGRAPHICS
 70
     0
  9
$QTEXTMODE
 70
     0
  9
$REGENMODE
 70
     1
  9
$SKETCHINC
 40
0.1000000000
  9
$SKPOLY
 70
     0
  9
$SNAPANG
 50
0.0000000000
  9
$SNAPBASE
 10
0.0000000000
 20
0.0000000000
  9
$SNAPISOPAIR
 70
     0
  9
$SNAPMODE
 70
     0
  9
$SNAPSTYLE
 70
     0
  9
$SNAPUNIT
 10
1.0000000000
 20
1.0000000000
  9
$SPLFRAME
 70
     0
  9
$SPLINESEGS
 70
     8
  9
$TDCREATE
 40
2454680.4349421349
  9
$TDINDWG
 40
0.0000000000
  9
$TDUPDATE
 40
2454680.4349421349
  9
$TDUSRTIMER
 40
0.0000000000
  9
$TEXTSIZE
 40
3.1999998093
  9
$TEXTSTYLE
  7
STANDARD
  9
$THICKNESS
 40
0.0000000000
  9
$TRACEWID
 40
5.0000000000E-02
  9
$USERI1
 70
     0
  9
$USERI2
 70
     0
  9
$USERI3
 70
     0
  9
$USERI4
 70
     0
  9
$USERI5
 70
     0
  9
$USERR1
 40
0.0000000000
  9
$USERR2
 40
0.0000000000
  9
$USERR3
 40
0.0000000000
  9
$USERR4
 40
0.0000000000
  9
$USERR5
 40
0.0000000000
  9
$USRTIMER
 70
     1
  9
$VIEWCTR
 10
-58.3437767029
 20
75.1817092896
  9
$VIEWDIR
 10
0.0000000000
 20
0.0000000000
 30
1.0000000000
  9
$VIEWSIZE
 40
156.7134185791
  0
ENDSEC
  0
SECTION
  2
TABLES
  0
TABLE
  2
LTYPE
 70
     2
  0
LTYPE
  2
SOLID
  3
Solid
 70
    64
 72
    65
 73
     0
 40
0.0000000000
  0
LTYPE
  2
CENTERLINE
  3
Centerline
 70
    64
 72
    65
 73
     4
 40
25.4000000000
 49
19.0500000000
 49
-1.5875000000
 49
3.1750000000
 49
-1.5875000000
  0
ENDTAB
  0
TABLE
  2
LAYER
 70
     4
  0
LAYER
  2
Layer1$C$L1
 70
     0
  6
SOLID
 62
     3
  0
LAYER
  2
Layer3$C$L3
 70
     0
  6
SOLID
 62
     3
  0
LAYER
  2
Layer6$C$L6
 70
     0
  6
SOLID
 62
     6
  0
LAYER
  2
Layer8$C$L8
 70
     0
  6
SOLID
 62
    32
  0
ENDTAB
  0
TABLE
  2
STYLE
 70
     1
  0
STYLE
  2
STANDARD
  3
txt
  4

 40
0.0000000000
 41
1.0000000000
 42
3.1999998093
 50
0.0000000000
 70
     0
 71
     0
  0
ENDTAB
  0
ENDSEC
  0
SECTION
  2
BLOCKS
  0
ENDSEC
  0
SECTION
  2
ENTITIES
  0
TEXT
  8
Layer8$C$L8
 62
     2
 10
-47.5776957677
 20
2.4683140734
 40
3.1999998753
  1
MA4-A00525B
 72
     5
 11
-13.2333689895
 21
2.4683140734
  0
TEXT
  8
Layer8$C$L8
 10
-47.5776873619
 20
14.2250706773
 40
3.1999998753
  1
AW-F2#
 72
     5
 11
-29.2333599601
 21
14.2250706773
  0
ARC
  8
Layer1$C$L1
 10
-106.4783739969
 20
76.0945680885
 40
2.3999996185
 50
89.9999820139
 51
280.4501354719
  0
CIRCLE
  8
Layer1$C$L1
 10
-105.4783739969
 20
76.0945680885
 40
2.3999996185
  0
ARC
  8
Layer1$C$L1
 10
-97.8783831522
 20
76.0945680885
 40
2.3999996185
 50
89.9999820139
 51
269.9999460417
  0
ARC
  8
Layer1$C$L1
 10
-95.8783831522
 20
76.0945680885
 40
2.3999996185
 50
270.0000179861
 51
462.5664372565
  0
ARC
  8
Layer1$C$L1
 10
-87.3183855936
 20
76.0945528298
 40
2.4400014877
 50
270.0000179861
 51
461.8246787126
  0
CIRCLE
  8
Layer1$C$L1
 10
-88.3183855936
 20
76.0945528298
 40
2.4400014877
  0
ARC
  8
Layer1$C$L1
 10
-89.8783678934
 20
76.0945680885
 40
2.3999996185
 50
266.8296080979
 51
275.9791655855
  0
CIRCLE
  8
Layer1$C$L1
 10
-96.8783831522
 20
131.1830995827
 40
12.7999992371
  0
CIRCLE
  8
Layer1$C$L1
 10
-96.8783831522
 20
131.1830995827
 40
11.0499992371
  0
CIRCLE
  8
Layer1$C$L1
 10
-96.8783831522
 20
131.1830995827
 40
10.5499992371
  0
CIRCLE
  8
Layer1$C$L1
 10
-96.8783831522
 20
131.1830995827
 40
12.0000000000
  0
CIRCLE
  8
Layer1$C$L1
 10
-96.8783831522
 20
131.1830995827
 40
13.5999994278
  0
CIRCLE
  8
Layer1$C$L1
 10
-96.8783831522
 20
131.1830995827
 40
14.0000000000
  0
LINE
  8
Layer1$C$L1
 10
-106.4783739969
 20
73.6945589333
 11
-105.4783739969
 21
73.6945589333
  0
LINE
  8
Layer1$C$L1
 10
-97.8783831522
 20
78.4945619850
 11
-95.8783831522
 21
78.4945619850
  0
LINE
  8
Layer1$C$L1
 10
-110.1783542785
 20
80.7945738545
 11
-110.4873186838
 21
80.4855966615
  0
LINE
  8
Layer1$C$L1
 10
-88.3183855936
 20
73.6545503883
 11
-87.3183855936
 21
73.6545503883
  0
LINE
  8
Layer1$C$L1
 10
-83.2694225868
 20
80.4856029589
 11
-82.8783789215
 21
66.9945799656
  0
LINE
  8
Layer1$C$L1
 10
-83.5783892676
 20
80.7945552436
 11
-83.2694386467
 21
80.4855858715
  0
LINE
  8
Layer1$C$L1
 10
-88.3183855936
 20
78.5345400124
 11
-87.3183855936
 21
78.5345400124
  0
LINE
  8
Layer1$C$L1
 10
-105.4783739969
 20
78.4945619850
 11
-106.4783739969
 21
78.4945619850
  0
LINE
  8
Layer1$C$L1
 10
-95.8783831522
 20
73.6945589333
 11
-97.8783831522
 21
73.6945589333
  0
LINE
  8
Layer1$C$L1
 10
-110.4873165760
 20
80.4855959369
 11
-110.8783699850
 21
66.9945584956
  0
LINE
  8
Layer1$C$L1
 10
-103.3783831522
 20
61.7945650368
 11
-103.3783831522
 21
62.6809480934
  0
LINE
  8
Layer1$C$L1
 10
-104.3783831522
 20
61.7945650368
 11
-104.3783831522
 21
63.3729189186
  0
LINE
  8
Layer1$C$L1
 10
-105.3783831522
 20
61.7945650368
 11
-105.3783831522
 21
63.8988130837
  0
LINE
  8
Layer1$C$L1
 10
-106.3783831522
 20
61.7945650368
 11
-106.3783831522
 21
64.5354250221
  0
LINE
  8
Layer1$C$L1
 10
-107.3783831522
 20
61.7945650368
 11
-107.3783831522
 21
65.2550752907
  0
LINE
  8
Layer1$C$L1
 10
-108.3783831522
 20
61.7945650368
 11
-108.3783831522
 21
65.9055269508
  0
LINE
  8
Layer1$C$L1
 10
-109.3783831522
 20
61.7945650368
 11
-109.3783831522
 21
66.4945772438
  0
LINE
  8
Layer1$C$L1
 10
-110.3783831522
 20
61.7945650368
 11
-110.3783831522
 21
66.4945772438
  0
LINE
  8
Layer1$C$L1
 10
-110.3783771147
 20
60.9945266057
 11
-111.3783827352
 21
61.7945188586
  0
LINE
  8
Layer1$C$L1
 10
-111.3783791718
 20
66.4945354423
 11
-110.8783702960
 21
66.9945492494
  0
LINE
  8
Layer1$C$L1
 10
-111.3783831522
 20
61.7945650368
 11
-111.3783831522
 21
66.4945619850
  0
LINE
  8
Layer1$C$L1
 10
-90.3783831522
 20
62.6809480934
 11
-90.3783831522
 21
61.7945650368
  0
LINE
  8
Layer1$C$L1
 10
-89.3783831522
 20
63.3729189186
 11
-89.3783831522
 21
61.7945650368
  0
LINE
  8
Layer1$C$L1
 10
-88.3783831522
 20
63.8988130837
 11
-88.3783831522
 21
61.7945650368
  0
LINE
  8
Layer1$C$L1
 10
-87.3783831522
 20
64.5354250221
 11
-87.3783831522
 21
61.7945650368
  0
LINE
  8
Layer1$C$L1
 10
-86.3783831522
 20
65.2550752907
 11
-86.3783831522
 21
61.7945650368
  0
LINE
  8
Layer1$C$L1
 10
-85.3783831522
 20
65.9055269508
 11
-85.3783831522
 21
61.7945650368
  0
LINE
  8
Layer1$C$L1
 10
-84.3783831522
 20
66.4945772438
 11
-84.3783831522
 21
61.7945650368
  0
LINE
  8
Layer1$C$L1
 10
-83.3783831522
 20
66.4945772438
 11
-83.3783831522
 21
61.7945650368
  0
LINE
  8
Layer1$C$L1
 10
-82.3783748733
 20
61.7945457983
 11
-83.3783804937
 21
60.9945535454
  0
LINE
  8
Layer1$C$L1
 10
-111.3511919901
 20
61.7945650368
 11
-82.3783831522
 21
61.7945650368
  0
LINE
  8
Layer1$C$L1
 10
-82.8783909989
 20
66.9945711654
 11
-82.3783821231
 21
66.4945573583
  0
LINE
  8
Layer1$C$L1
 10
-110.8783831522
 20
66.9945772438
 11
-82.8783831522
 21
66.9945772438
  0
LINE
  8
Layer1$C$L1
 10
-111.3783831522
 20
66.4945772438
 11
-82.3783831522
 21
66.4945772438
  0
LINE
  8
Layer1$C$L1
 10
-82.3783831522
 20
66.4945619850
 11
-82.3783831522
 21
61.7945650368
  0
LINE
  8
Layer1$C$L1
 10
-110.2025256083
 20
60.9945772438
 11
-83.3783831522
 21
60.9945772438
  0
LINE
  8
Layer1$C$L1
 10
-110.1783556864
 20
80.7945802956
 11
-83.5783801005
 21
80.7945802956
  0
LINE
  8
Layer3$C$L3
  6
CENTERLINE
 10
-116.6875567362
 20
131.1830995827
 11
-76.8334002421
 21
131.1830995827
  0
LINE
  8
Layer3$C$L3
  6
CENTERLINE
 10
-96.8783831522
 20
150.3634126930
 11
-96.8783831522
 21
111.4525392799
  0
LINE
  8
Layer3$C$L3
  6
CENTERLINE
 10
-96.8783831522
 20
85.7945802956
 11
-96.8783831522
 21
55.9945772438
  0
CIRCLE
  8
Layer1$C$L1
 10
-96.8783831522
 20
131.1830995827
 40
14.5000000000
  0
ENDSEC
  0
EOF
