  0
SECTION
  2
HEADER
  9
$ACADVER
  1
AC1004
  9
$ANGBASE
 50
0.0000000000
  9
$ANGDIR
 70
     0
  9
$ATTDIA
 70
     0
  9
$ATTMODE
 70
     1
  9
$ATTREQ
 70
     1
  9
$AUNITS
 70
     0
  9
$AUPREC
 70
     0
  9
$AXISMODE
 70
     0
  9
$AXISUNIT
 10
0.0000000000
 20
0.0000000000
  9
$BLIPMODE
 70
     1
  9
$CECOLOR
 62
   256
  9
$CELTYPE
  6
BYLAYER
  9
$CHAMFERA
 40
0.0000000000
  9
$CHAMFERB
 40
0.0000000000
  9
$CLAYER
  8
0
  9
$COORDS
 70
     0
  9
$DIMALT
 70
     0
  9
$DIMALTD
 70
     2
  9
$DIMALTF
 40
25.4000000000
  9
$DIMAPOST
  1

  9
$DIMASO
 70
     1
  9
$DIMASZ
 40
1.9727878460
  9
$DIMBLK
  1

  9
$DIMBLK1
  1

  9
$DIMBLK2
  1

  9
$DIMCEN
 40
9.0000000000E-02
  9
$DIMDLE
 40
0.0000000000
  9
$DIMDLI
 40
0.3800000000
  9
$DIMEXE
 40
3.8099999428
  9
$DIMEXO
 40
2.5399999619
  9
$DIMLFAC
 40
1.0000000000
  9
$DIMLIM
 70
     0
  9
$DIMPOST
  1

  9
$DIMRND
 40
0.0000000000
  9
$DIMSCALE
 40
1.0000000000
  9
$DIMSE1
 70
     0
  9
$DIMSE2
 70
     0
  9
$DIMSHO
 70
     0
  9
$DIMTAD
 70
     0
  9
$DIMTIH
 70
     0
  9
$DIMTM
 40
0.0000000000
  9
$DIMTOH
 70
     1
  9
$DIMTOL
 70
     0
  9
$DIMTP
 40
0.0000000000
  9
$DIMTSZ
 40
0.0000000000
  9
$DIMTXT
 40
2.9999940395
  9
$DIMZIN
 70
     0
  9
$DRAGMODE
 70
     1
  9
$ELEVATION
 40
0.0000000000
  9
$EXTMAX
 10
3.1750000000
 20
212.4171112061
 30
0.0000000000
  9
$EXTMIN
 10
-124.3939559937
 20
-3.1750000000
 30
0.0000000000
  9
$FASTZOOM
 70
     1
  9
$FILLETRAD
 40
6.2500000000E-02
  9
$FILLMODE
 70
     1
  9
$GRIDMODE
 70
     0
  9
$GRIDUNIT
 10
0.0000000000
 20
0.0000000000
  9
$INSBASE
 10
0.0000000000
 20
0.0000000000
 30
0.0000000000
  9
$LIMCHECK
 70
     0
  9
$LIMMAX
 10
3.1750000000
 20
212.4171112061
  9
$LIMMIN
 10
-124.3939559937
 20
-3.1750000000
  9
$LTSCALE
 40
1.0000000000
  9
$LUNITS
 70
     2
  9
$LUPREC
 70
     3
  9
$MEASUREMENT
 70
     0
  9
$MENU
  1
ACAD
  9
$MIRRTEXT
 70
     0
  9
$ORTHOMODE
 70
     0
  9
$OSMODE
 70
     0
  9
$PDMODE
 70
     0
  9
$PDSIZE
 40
0.0000000000
  9
$PLINEWID
 40
0.0000000000
  9
$PROXYGRAPHICS
 70
     0
  9
$QTEXTMODE
 70
     0
  9
$REGENMODE
 70
     1
  9
$SKETCHINC
 40
0.1000000000
  9
$SKPOLY
 70
     0
  9
$SNAPANG
 50
0.0000000000
  9
$SNAPBASE
 10
0.0000000000
 20
0.0000000000
  9
$SNAPISOPAIR
 70
     0
  9
$SNAPMODE
 70
     0
  9
$SNAPSTYLE
 70
     0
  9
$SNAPUNIT
 10
1.0000000000
 20
1.0000000000
  9
$SPLFRAME
 70
     0
  9
$SPLINESEGS
 70
     8
  9
$TDCREATE
 40
2454680.4475347276
  9
$TDINDWG
 40
0.0000000000
  9
$TDUPDATE
 40
2454680.4475347276
  9
$TDUSRTIMER
 40
0.0000000000
  9
$TEXTSIZE
 40
2.9999940395
  9
$TEXTSTYLE
  7
STANDARD
  9
$THICKNESS
 40
0.0000000000
  9
$TRACEWID
 40
5.0000000000E-02
  9
$USERI1
 70
     0
  9
$USERI2
 70
     0
  9
$USERI3
 70
     0
  9
$USERI4
 70
     0
  9
$USERI5
 70
     0
  9
$USERR1
 40
0.0000000000
  9
$USERR2
 40
0.0000000000
  9
$USERR3
 40
0.0000000000
  9
$USERR4
 40
0.0000000000
  9
$USERR5
 40
0.0000000000
  9
$USRTIMER
 70
     1
  9
$VIEWCTR
 10
-60.6094779968
 20
104.6210556030
  9
$VIEWDIR
 10
0.0000000000
 20
0.0000000000
 30
1.0000000000
  9
$VIEWSIZE
 40
215.5921112061
  0
ENDSEC
  0
SECTION
  2
TABLES
  0
TABLE
  2
LTYPE
 70
     2
  0
LTYPE
  2
SOLID
  3
Solid
 70
    64
 72
    65
 73
     0
 40
0.0000000000
  0
LTYPE
  2
CENTER
  3
Center
 70
    64
 72
    65
 73
     4
 40
9.1000000238
 49
6.5000000000
 49
-0.8000000119
 49
1.0000000000
 49
-0.8000000119
  0
ENDTAB
  0
TABLE
  2
LAYER
 70
     3
  0
LAYER
  2
Layer1$C$L1
 70
     0
  6
SOLID
 62
     3
  0
LAYER
  2
Layer6$C$L6
 70
     0
  6
SOLID
 62
    31
  0
LAYER
  2
Layer8$C$L8
 70
     0
  6
SOLID
 62
     7
  0
ENDTAB
  0
TABLE
  2
STYLE
 70
     1
  0
STYLE
  2
STANDARD
  3
txt
  4

 40
0.0000000000
 41
1.0000000000
 42
3.0000000000
 50
0.0000000000
 70
     0
 71
     0
  0
ENDTAB
  0
ENDSEC
  0
SECTION
  2
BLOCKS
  0
ENDSEC
  0
SECTION
  2
ENTITIES
  0
TEXT
  8
Layer8$C$L8
 62
     5
 10
-39.3869563746
 20
3.2024680377
 40
2.9999941014
  1
MA4-A03654
 41
0.8595004757
 72
     5
 11
-16.1804891585
 21
3.2024680377
  0
TEXT
  8
Layer8$C$L8
 10
-39.0046419674
 20
16.2011632046
 40
2.9999941014
  1
ASLWDDY-#
 41
0.8683128684
 72
     5
 11
-18.1651741013
 21
16.2011632046
  0
LINE
  8
Layer1$C$L1
  6
CENTER
 10
-106.5189596000
 20
179.8421166833
 11
-106.5189596000
 21
209.2421166833
  0
LINE
  8
Layer1$C$L1
 10
-111.2886556071
 20
136.8150884228
 11
-111.2886556071
 21
137.2248960439
  0
LINE
  8
Layer1$C$L1
 10
-110.5553565081
 20
136.3135711785
 11
-111.2886556071
 21
136.8150884228
  0
LINE
  8
Layer1$C$L1
 10
-110.5553565081
 20
137.5135711785
 11
-111.2886556071
 21
137.2248960439
  0
LINE
  8
Layer1$C$L1
 10
-102.4825626919
 20
137.5135711785
 11
-101.7492635929
 21
137.2248960439
  0
LINE
  8
Layer1$C$L1
 10
-102.4825626919
 20
136.3135711785
 11
-101.7492635929
 21
136.8150884228
  0
LINE
  8
Layer1$C$L1
 10
-111.2886556071
 20
137.2248960439
 11
-101.7492635929
 21
137.2248960439
  0
LINE
  8
Layer1$C$L1
 10
-111.2886556071
 20
136.8150884228
 11
-101.7492635929
 21
136.8150884228
  0
LINE
  8
Layer1$C$L1
 10
-101.7492635929
 20
136.8150884228
 11
-101.7492635929
 21
137.2248960439
  0
CIRCLE
  8
Layer1$C$L1
 10
-106.5189596000
 20
194.5421166833
 40
10.3000000000
  0
LINE
  8
Layer1$C$L1
 10
-104.0189596000
 20
137.5135711785
 11
-99.2360997168
 21
137.5135711785
  0
LINE
  8
Layer1$C$L1
 10
-113.8018194832
 20
137.5135711785
 11
-109.0189596000
 21
137.5135711785
  0
LINE
  8
Layer1$C$L1
 10
-102.4825626919
 20
134.8135711785
 11
-99.2360997168
 21
134.8135711785
  0
LINE
  8
Layer1$C$L1
 10
-113.8018194832
 20
134.8135711785
 11
-110.5553565081
 21
134.8135711785
  0
LINE
  8
Layer1$C$L1
 10
-110.5553565081
 20
136.3135711785
 11
-102.4825626919
 21
136.3135711785
  0
LINE
  8
Layer1$C$L1
 10
-109.0189596000
 20
137.2248960439
 11
-109.0189596000
 21
138.6135711785
  0
LINE
  8
Layer1$C$L1
 10
-104.0189596000
 20
137.2248960439
 11
-104.0189596000
 21
138.6135711785
  0
LINE
  8
Layer1$C$L1
 10
-113.0419957029
 20
134.8135711785
 11
-113.0419957029
 21
137.5135711785
  0
LINE
  8
Layer1$C$L1
 10
-113.8018194832
 20
134.8135711785
 11
-113.8018194832
 21
137.5135711785
  0
LINE
  8
Layer1$C$L1
 10
-110.5553565081
 20
134.8135711785
 11
-110.5553565081
 21
136.3135711785
  0
LINE
  8
Layer1$C$L1
 10
-102.4825626919
 20
134.8135711785
 11
-102.4825626919
 21
136.3135711785
  0
LINE
  8
Layer1$C$L1
 10
-99.2360997168
 20
134.8135711785
 11
-99.2360997168
 21
137.5135711785
  0
LINE
  8
Layer1$C$L1
 10
-99.9959234971
 20
134.8135711785
 11
-99.9959234971
 21
137.5135711785
  0
LINE
  8
Layer1$C$L1
 10
-117.7189596000
 20
140.3135711785
 11
-94.8189596000
 21
140.3135711785
  0
LINE
  8
Layer1$C$L1
 10
-97.0189596000
 20
141.3135711785
 11
-97.7485573365
 21
150.8895414704
  0
ARC
  8
Layer1$C$L1
 10
-98.7456674181
 20
150.8135711785
 40
1.0000000000
 50
4.3569750058
 51
90.0000000000
  0
ARC
  8
Layer1$C$L1
 10
-106.5189596000
 20
194.5421166833
 40
8.7000000000
 50
4.9454297179
 51
25.2665051762
  0
ARC
  8
Layer1$C$L1
 10
-96.4339459659
 20
193.9921166833
 40
0.2000000000
 50
270.0000000000
 51
356.8783886985
  0
ARC
  8
Layer1$C$L1
 10
-96.4339459659
 20
195.0921166833
 40
0.2000000000
 50
3.1216113015
 51
90.0000000000
  0
ARC
  8
Layer1$C$L1
 10
-97.2352372862
 20
195.0921166833
 40
0.2000000000
 50
3.3904383918
 51
90.0000000000
  0
ARC
  8
Layer1$C$L1
 10
-97.2352372862
 20
193.9921166833
 40
0.2000000000
 50
270.0000000000
 51
356.6095616082
  0
LINE
  8
Layer1$C$L1
 10
-97.8513474721
 20
195.2921166833
 11
-96.4339459659
 21
195.2921166833
  0
LINE
  8
Layer1$C$L1
 10
-97.8513474721
 20
193.7921166833
 11
-96.4339459659
 21
193.7921166833
  0
ARC
  8
Layer1$C$L1
 10
-98.7729929076
 20
198.0421166833
 40
1.0000000000
 50
24.3157391712
 51
90.0000000000
  0
ARC
  8
Layer1$C$L1
 10
-98.7729929076
 20
191.0421166833
 40
1.0000000000
 50
270.0000000000
 51
335.6842608288
  0
ARC
  8
Layer1$C$L1
 10
-106.5189596000
 20
194.5421166833
 40
9.5000000000
 50
335.6842608288
 51
384.3157391712
  0
ARC
  8
Layer1$C$L1
 10
-115.1352232914
 20
191.0421166833
 40
1.0000000000
 50
202.1074099445
 51
270.0000000000
  0
ARC
  8
Layer1$C$L1
 10
-115.1352232914
 20
198.0421166833
 40
1.0000000000
 50
90.0000000000
 51
157.8925900555
  0
ARC
  8
Layer1$C$L1
 10
-99.1034353434
 20
191.0421166833
 40
0.5000000000
 50
270.0000000000
 51
334.7334948238
  0
ARC
  8
Layer1$C$L1
 10
-114.8105215759
 20
191.0421166833
 40
0.5000000000
 50
202.8853804762
 51
270.0000000000
  0
ARC
  8
Layer1$C$L1
 10
-114.8105215759
 20
198.0421166833
 40
0.5000000000
 50
90.0000000000
 51
157.1146195238
  0
ARC
  8
Layer1$C$L1
 10
-99.1034353434
 20
198.0421166833
 40
0.5000000000
 50
25.2665051762
 51
90.0000000000
  0
ARC
  8
Layer1$C$L1
 10
-106.5189596000
 20
194.5421166833
 40
9.5000000000
 50
157.1146195238
 51
202.8853804762
  0
ARC
  8
Layer1$C$L1
 10
-106.5189596000
 20
194.5421166833
 40
8.7000000000
 50
334.7334948238
 51
355.0545702821
  0
ARC
  8
Layer1$C$L1
 10
-106.5189596000
 20
194.5421166833
 40
11.7000000000
 50
196.8108083306
 51
523.1891916694
  0
LINE
  8
Layer1$C$L1
 10
-117.7189596000
 20
138.8135711785
 11
-115.5689596000
 21
138.6135711785
  0
LINE
  8
Layer1$C$L1
 10
-117.7189596000
 20
140.3135711785
 11
-116.8189596000
 21
141.3135711785
  0
LINE
  8
Layer1$C$L1
 10
-117.7189596000
 20
138.8135711785
 11
-117.7189596000
 21
140.3135711785
  0
LINE
  8
Layer1$C$L1
 10
-117.7189596000
 20
191.1583318202
 11
-117.7189596000
 21
197.9259015464
  0
LINE
  8
Layer1$C$L1
 10
-114.8105215759
 20
198.5421166833
 11
-99.1034353434
 21
198.5421166833
  0
LINE
  8
Layer1$C$L1
 10
-114.8105215759
 20
190.5421166833
 11
-99.1034353434
 21
190.5421166833
  0
LINE
  8
Layer1$C$L1
 10
-115.1352232914
 20
199.0421166833
 11
-98.7729929076
 21
199.0421166833
  0
LINE
  8
Layer1$C$L1
 10
-115.1352232914
 20
190.0421166833
 11
-98.7729929076
 21
190.0421166833
  0
LINE
  8
Layer1$C$L1
  6
CENTER
 10
-121.2189596000
 20
194.5421166833
 11
-91.8189596000
 21
194.5421166833
  0
LINE
  8
Layer1$C$L1
 10
-115.5689596000
 20
134.3135711785
 11
-115.5689596000
 21
138.6135711785
  0
LINE
  8
Layer1$C$L1
 10
-115.5689596000
 20
132.2135711785
 11
-115.5689596000
 21
133.0135711785
  0
LINE
  8
Layer1$C$L1
 10
-97.4689596000
 20
134.3135711785
 11
-97.4689596000
 21
138.6135711785
  0
LINE
  8
Layer1$C$L1
 10
-97.4689596000
 20
132.2135711785
 11
-97.4689596000
 21
133.0135711785
  0
LINE
  8
Layer1$C$L1
 10
-115.5689596000
 20
133.0135711785
 11
-97.4689596000
 21
133.0135711785
  0
LINE
  8
Layer1$C$L1
 10
-115.5689596000
 20
134.3135711785
 11
-97.4689596000
 21
134.3135711785
  0
LINE
  8
Layer1$C$L1
 10
-115.5689596000
 20
132.2135711785
 11
-97.4689596000
 21
132.2135711785
  0
LINE
  8
Layer1$C$L1
 10
-115.5689596000
 20
138.6135711785
 11
-97.4689596000
 21
138.6135711785
  0
LINE
  8
Layer1$C$L1
 10
-97.4689596000
 20
138.6135711785
 11
-94.8189596000
 21
138.8135711785
  0
LINE
  8
Layer1$C$L1
 10
-114.7189596000
 20
133.0135711785
 11
-114.7189596000
 21
134.3135711785
  0
LINE
  8
Layer1$C$L1
 10
-98.3189596000
 20
133.0135711785
 11
-98.3189596000
 21
134.3135711785
  0
LINE
  8
Layer1$C$L1
 10
-96.2189596000
 20
141.3135711785
 11
-94.8189596000
 21
140.3135711785
  0
ARC
  8
Layer1$C$L1
 10
-115.0922517819
 20
150.8135711785
 40
1.0000000000
 50
90.0000000000
 51
175.6430249942
  0
ARC
  8
Layer1$C$L1
 10
-97.9456674181
 20
150.8135711785
 40
1.0000000000
 50
4.3569750058
 51
90.0000000000
  0
LINE
  8
Layer1$C$L1
 10
-116.0893618635
 20
150.8895414704
 11
-116.8189596000
 21
141.3135711785
  0
LINE
  8
Layer1$C$L1
 10
-96.2189596000
 20
141.3135711785
 11
-96.9485573365
 21
150.8895414704
  0
LINE
  8
Layer1$C$L1
 10
-117.7189596000
 20
138.8135711785
 11
-94.8189596000
 21
138.8135711785
  0
LINE
  8
Layer1$C$L1
 10
-116.8189596000
 20
141.3135711785
 11
-96.2189596000
 21
141.3135711785
  0
LINE
  8
Layer1$C$L1
 10
-94.8189596000
 20
138.8135711785
 11
-94.8189596000
 21
140.3135711785
  0
LINE
  8
Layer1$C$L1
  6
CENTER
 10
-106.5189596000
 20
129.2135711785
 11
-106.5189596000
 21
154.8135711785
  0
LINE
  8
Layer1$C$L1
 10
-115.0922517819
 20
151.8135711785
 11
-97.9456674181
 21
151.8135711785
  0
ENDSEC
  0
EOF
