  0
SECTION
  2
HEADER
  9
$ACADVER
  1
AC1015
  9
$ACADMAINTVER
 70
    13
  9
$DWGCODEPAGE
  3
ANSI_932
  9
$INSBASE
 10
0.0
 20
0.0
 30
0.0
  9
$EXTMIN
 10
-0.0190598582317989
 20
-0.0007496668014255
 30
-0.0000000349181948
  9
$EXTMAX
 10
210.0240545015105
 20
297.0183229054498
 30
0.0000000814935747
  9
$LIMMIN
 10
-184.0728729248
 20
-3.174999999999998
  9
$LIMMAX
 10
3.174999999999998
 20
291.2585876465
  9
$ORTHOMODE
 70
     0
  9
$REGENMODE
 70
     1
  9
$FILLMODE
 70
     1
  9
$QTEXTMODE
 70
     0
  9
$MIRRTEXT
 70
     0
  9
$LTSCALE
 40
1.0
  9
$ATTMODE
 70
     1
  9
$TEXTSIZE
 40
2.999994039499997
  9
$TRACEWID
 40
0.05
  9
$TEXTSTYLE
  7
STANDARD
  9
$CLAYER
  8
0
  9
$CELTYPE
  6
ByLayer
  9
$CECOLOR
 62
   256
  9
$CELTSCALE
 40
1.0
  9
$DISPSILH
 70
     0
  9
$DIMSCALE
 40
1.0
  9
$DIMASZ
 40
1.9727878465
  9
$DIMEXO
 40
2.539999961899999
  9
$DIMDLI
 40
0.38
  9
$DIMRND
 40
0.0
  9
$DIMDLE
 40
0.0
  9
$DIMEXE
 40
3.809999942799997
  9
$DIMTP
 40
0.0
  9
$DIMTM
 40
0.0
  9
$DIMTXT
 40
2.999994039499997
  9
$DIMCEN
 40
0.09
  9
$DIMTSZ
 40
0.0
  9
$DIMTOL
 70
     0
  9
$DIMLIM
 70
     0
  9
$DIMTIH
 70
     0
  9
$DIMTOH
 70
     1
  9
$DIMSE1
 70
     0
  9
$DIMSE2
 70
     0
  9
$DIMTAD
 70
     0
  9
$DIMZIN
 70
     0
  9
$DIMBLK
  1

  9
$DIMASO
 70
     1
  9
$DIMSHO
 70
     0
  9
$DIMPOST
  1

  9
$DIMAPOST
  1

  9
$DIMALT
 70
     0
  9
$DIMALTD
 70
     2
  9
$DIMALTF
 40
25.4
  9
$DIMLFAC
 40
1.0
  9
$DIMTOFL
 70
     0
  9
$DIMTVP
 40
0.0
  9
$DIMTIX
 70
     0
  9
$DIMSOXD
 70
     0
  9
$DIMSAH
 70
     0
  9
$DIMBLK1
  1

  9
$DIMBLK2
  1

  9
$DIMSTYLE
  2
Standard
  9
$DIMCLRD
 70
     0
  9
$DIMCLRE
 70
     0
  9
$DIMCLRT
 70
     0
  9
$DIMTFAC
 40
1.0
  9
$DIMGAP
 40
0.09
  9
$DIMJUST
 70
     0
  9
$DIMSD1
 70
     0
  9
$DIMSD2
 70
     0
  9
$DIMTOLJ
 70
     1
  9
$DIMTZIN
 70
     0
  9
$DIMALTZ
 70
     0
  9
$DIMALTTZ
 70
     0
  9
$DIMUPT
 70
     0
  9
$DIMDEC
 70
     4
  9
$DIMTDEC
 70
     4
  9
$DIMALTU
 70
     2
  9
$DIMALTTD
 70
     2
  9
$DIMTXSTY
  7
STANDARD
  9
$DIMAUNIT
 70
     0
  9
$DIMADEC
 70
     0
  9
$DIMALTRND
 40
0.0
  9
$DIMAZIN
 70
     0
  9
$DIMDSEP
 70
    46
  9
$DIMATFIT
 70
     3
  9
$DIMFRAC
 70
     0
  9
$DIMLDRBLK
  1

  9
$DIMLUNIT
 70
     2
  9
$DIMLWD
 70
    -2
  9
$DIMLWE
 70
    -2
  9
$DIMTMOVE
 70
     0
  9
$LUNITS
 70
     2
  9
$LUPREC
 70
     3
  9
$SKETCHINC
 40
0.1
  9
$FILLETRAD
 40
0.0625
  9
$AUNITS
 70
     0
  9
$AUPREC
 70
     0
  9
$MENU
  1
ACAD
  9
$ELEVATION
 40
0.0
  9
$PELEVATION
 40
0.0
  9
$THICKNESS
 40
0.0
  9
$LIMCHECK
 70
     0
  9
$CHAMFERA
 40
0.0
  9
$CHAMFERB
 40
0.0
  9
$CHAMFERC
 40
0.0
  9
$CHAMFERD
 40
0.0
  9
$SKPOLY
 70
     0
  9
$TDCREATE
 40
2452272.495671296
  9
$TDUCREATE
 40
2452272.120671296
  9
$TDUPDATE
 40
2453382.732031782
  9
$TDUUPDATE
 40
2453382.357031782
  9
$TDINDWG
 40
0.0037049653
  9
$TDUSRTIMER
 40
0.0037049653
  9
$USRTIMER
 70
     1
  9
$ANGBASE
 50
0.0
  9
$ANGDIR
 70
     0
  9
$PDMODE
 70
     0
  9
$PDSIZE
 40
0.0
  9
$PLINEWID
 40
0.0
  9
$SPLFRAME
 70
     0
  9
$SPLINETYPE
 70
     6
  9
$SPLINESEGS
 70
     8
  9
$HANDSEED
  5
382
  9
$SURFTAB1
 70
     6
  9
$SURFTAB2
 70
     6
  9
$SURFTYPE
 70
     6
  9
$SURFU
 70
     6
  9
$SURFV
 70
     6
  9
$UCSBASE
  2

  9
$UCSNAME
  2

  9
$UCSORG
 10
0.0
 20
0.0
 30
0.0
  9
$UCSXDIR
 10
1.0
 20
0.0
 30
0.0
  9
$UCSYDIR
 10
0.0
 20
1.0
 30
0.0
  9
$UCSORTHOREF
  2

  9
$UCSORTHOVIEW
 70
     0
  9
$UCSORGTOP
 10
0.0
 20
0.0
 30
0.0
  9
$UCSORGBOTTOM
 10
0.0
 20
0.0
 30
0.0
  9
$UCSORGLEFT
 10
0.0
 20
0.0
 30
0.0
  9
$UCSORGRIGHT
 10
0.0
 20
0.0
 30
0.0
  9
$UCSORGFRONT
 10
0.0
 20
0.0
 30
0.0
  9
$UCSORGBACK
 10
0.0
 20
0.0
 30
0.0
  9
$PUCSBASE
  2

  9
$PUCSNAME
  2

  9
$PUCSORG
 10
0.0
 20
0.0
 30
0.0
  9
$PUCSXDIR
 10
1.0
 20
0.0
 30
0.0
  9
$PUCSYDIR
 10
0.0
 20
1.0
 30
0.0
  9
$PUCSORTHOREF
  2

  9
$PUCSORTHOVIEW
 70
     0
  9
$PUCSORGTOP
 10
0.0
 20
0.0
 30
0.0
  9
$PUCSORGBOTTOM
 10
0.0
 20
0.0
 30
0.0
  9
$PUCSORGLEFT
 10
0.0
 20
0.0
 30
0.0
  9
$PUCSORGRIGHT
 10
0.0
 20
0.0
 30
0.0
  9
$PUCSORGFRONT
 10
0.0
 20
0.0
 30
0.0
  9
$PUCSORGBACK
 10
0.0
 20
0.0
 30
0.0
  9
$USERI1
 70
     9
  9
$USERI2
 70
     0
  9
$USERI3
 70
     0
  9
$USERI4
 70
     0
  9
$USERI5
 70
     0
  9
$USERR1
 40
0.0
  9
$USERR2
 40
0.0
  9
$USERR3
 40
0.0
  9
$USERR4
 40
0.0
  9
$USERR5
 40
0.0
  9
$WORLDVIEW
 70
     1
  9
$SHADEDGE
 70
     3
  9
$SHADEDIF
 70
    70
  9
$TILEMODE
 70
     1
  9
$MAXACTVP
 70
    64
  9
$PINSBASE
 10
0.0
 20
0.0
 30
0.0
  9
$PLIMCHECK
 70
     0
  9
$PEXTMIN
 10
1.000000000000000E+20
 20
1.000000000000000E+20
 30
1.000000000000000E+20
  9
$PEXTMAX
 10
-1.000000000000000E+20
 20
-1.000000000000000E+20
 30
-1.000000000000000E+20
  9
$PLIMMIN
 10
0.0
 20
0.0
  9
$PLIMMAX
 10
12.0
 20
9.0
  9
$UNITMODE
 70
     0
  9
$VISRETAIN
 70
     1
  9
$PLINEGEN
 70
     0
  9
$PSLTSCALE
 70
     1
  9
$TREEDEPTH
 70
  3020
  9
$CMLSTYLE
  2
Standard
  9
$CMLJUST
 70
     0
  9
$CMLSCALE
 40
1.0
  9
$PROXYGRAPHICS
 70
     1
  9
$MEASUREMENT
 70
     0
  9
$CELWEIGHT
370
    -1
  9
$ENDCAPS
280
     0
  9
$JOINSTYLE
280
     0
  9
$LWDISPLAY
290
     0
  9
$INSUNITS
 70
     0
  9
$HYPERLINKBASE
  1

  9
$STYLESHEET
  1

  9
$XEDIT
290
     1
  9
$CEPSNTYPE
380
     0
  9
$PSTYLEMODE
290
     1
  9
$FINGERPRINTGUID
  2
{0D4918CC-92D1-4898-862B-B9135F85E3B1}
  9
$VERSIONGUID
  2
{6CFA298A-E6E7-48B5-AD4C-0C7A79B8E03B}
  9
$EXTNAMES
290
     1
  9
$PSVPSCALE
 40
0.0
  9
$OLESTARTUP
290
     0
  0
ENDSEC
  0
SECTION
  2
CLASSES
  0
CLASS
  1
ACDBDICTIONARYWDFLT
  2
AcDbDictionaryWithDefault
  3
AutoCAD 2000
 90
        0
280
     0
281
     0
  0
CLASS
  1
ACDBPLACEHOLDER
  2
AcDbPlaceHolder
  3
AutoCAD 2000
 90
        0
280
     0
281
     0
  0
CLASS
  1
LAYOUT
  2
AcDbLayout
  3
AutoCAD 2000
 90
        0
280
     0
281
     0
  0
CLASS
  1
DICTIONARYVAR
  2
AcDbDictionaryVar
  3
AutoCAD 2000
 90
        0
280
     0
281
     0
  0
ENDSEC
  0
SECTION
  2
TABLES
  0
TABLE
  2
VPORT
  5
19
330
0
100
AcDbSymbolTable
 70
     2
  0
VPORT
  5
381
330
19
100
AcDbSymbolTableRecord
100
AcDbViewportTableRecord
  2
*Active
 70
     0
 10
0.0
 20
0.0
 11
1.0
 21
1.0
 12
105.0024973216393
 22
148.5087866193242
 13
0.0
 23
0.0
 14
1.0
 24
1.0
 15
0.0
 25
0.0
 16
0.0
 26
0.0
 36
1.0
 17
0.0
 27
0.0
 37
0.0
 40
301.3551174273207
 41
2.407317073170731
 42
50.0
 43
0.0
 44
0.0
 50
0.0
 51
0.0
 71
     0
 72
   100
 73
     1
 74
     1
 75
     0
 76
     0
 77
     0
 78
     0
281
     0
 65
     1
110
0.0
120
0.0
130
0.0
111
1.0
121
0.0
131
0.0
112
0.0
122
1.0
132
0.0
 79
     0
146
0.0
  0
ENDTAB
  0
TABLE
  2
LTYPE
  5
14
330
0
100
AcDbSymbolTable
 70
     3
  0
LTYPE
  5
15
330
14
100
AcDbSymbolTableRecord
100
AcDbLinetypeTableRecord
  2
ByBlock
 70
     0
  3

 72
    65
 73
     0
 40
0.0
  0
LTYPE
  5
16
330
14
100
AcDbSymbolTableRecord
100
AcDbLinetypeTableRecord
  2
ByLayer
 70
     0
  3

 72
    65
 73
     0
 40
0.0
  0
LTYPE
  5
8
330
14
100
AcDbSymbolTableRecord
100
AcDbLinetypeTableRecord
  2
Continuous
 70
     0
  3
Solid line
 72
    65
 73
     0
 40
0.0
  0
LTYPE
  5
49
330
14
100
AcDbSymbolTableRecord
100
AcDbLinetypeTableRecord
  2
DASH
 70
     0
  3
Dash
 72
    65
 73
     2
 40
1.9999960661
 49
0.9999980329999999
 74
     0
 49
-0.9999980329999999
 74
     0
  0
LTYPE
  5
2C
330
14
100
AcDbSymbolTableRecord
100
AcDbLinetypeTableRecord
  2
CENTER
 70
     0
  3
Center
 72
    65
 73
     4
 40
9.100006759199999
 49
6.5000119209
 74
     0
 49
-0.7999984026000001
 74
     0
 49
0.9999980329999999
 74
     0
 49
-0.7999984026000001
 74
     0
  0
ENDTAB
  0
TABLE
  2
LAYER
  5
10
330
0
100
AcDbSymbolTable
 70
     1
  0
LAYER
  5
4
330
10
100
AcDbSymbolTableRecord
100
AcDbLayerTableRecord
  2
0
 70
     0
 62
     7
  6
Continuous
370
    -3
390
5
  0
ENDTAB
  0
TABLE
  2
STYLE
  5
11
330
0
100
AcDbSymbolTable
 70
     1
  0
STYLE
  5
12
330
11
100
AcDbSymbolTableRecord
100
AcDbTextStyleTableRecord
  2
STANDARD
 70
     0
 40
0.0
 41
1.0
 50
0.0
 71
     0
 42
2.999994039499997
  3
romans.shx
  4
bigfont.shx
  0
ENDTAB
  0
TABLE
  2
VIEW
  5
17
330
0
100
AcDbSymbolTable
 70
     0
  0
ENDTAB
  0
TABLE
  2
UCS
  5
18
330
0
100
AcDbSymbolTable
 70
     0
  0
ENDTAB
  0
TABLE
  2
APPID
  5
1B
330
0
100
AcDbSymbolTable
 70
     2
  0
APPID
  5
1C
330
1B
100
AcDbSymbolTableRecord
100
AcDbRegAppTableRecord
  2
ACAD
 70
     0
  0
APPID
  5
37F
330
1B
100
AcDbSymbolTableRecord
100
AcDbRegAppTableRecord
  2
DCO15
 70
     0
  0
ENDTAB
  0
TABLE
  2
DIMSTYLE
  5
1D
330
0
100
AcDbSymbolTable
 70
     1
100
AcDbDimStyleTable
 71
     0
  0
DIMSTYLE
105
23
330
1D
100
AcDbSymbolTableRecord
100
AcDbDimStyleTableRecord
  2
Standard
 70
     0
340
12
  0
ENDTAB
  0
TABLE
  2
BLOCK_RECORD
  5
1
330
0
100
AcDbSymbolTable
 70
     0
  0
BLOCK_RECORD
  5
2
330
1
100
AcDbSymbolTableRecord
100
AcDbBlockTableRecord
  2
*Model_Space
340
A
  0
BLOCK_RECORD
  5
C
330
1
100
AcDbSymbolTableRecord
100
AcDbBlockTableRecord
  2
*Paper_Space
340
F
  0
ENDTAB
  0
ENDSEC
  0
SECTION
  2
BLOCKS
  0
BLOCK
  5
3
330
2
100
AcDbEntity
  8
0
100
AcDbBlockBegin
  2
*Model_Space
 70
     2
 10
0.0
 20
0.0
 30
0.0
  3
*Model_Space
  1

  0
ENDBLK
  5
9
330
2
100
AcDbEntity
  8
0
100
AcDbBlockEnd
  0
BLOCK
  5
D
330
C
100
AcDbEntity
 67
     1
  8
0
100
AcDbBlockBegin
  2
*Paper_Space
 70
     0
 10
0.0
 20
0.0
 30
0.0
  3
*Paper_Space
  1

  0
ENDBLK
  5
E
330
C
100
AcDbEntity
 67
     1
  8
0
100
AcDbBlockEnd
  0
ENDSEC
  0
SECTION
  2
ENTITIES
  0
LINE
  5
24
330
2
100
AcDbEntity
  8
0
100
AcDbLine
 10
210.0
 20
0.0
 30
0.0
 11
210.0
 21
297.0
 31
0.0
  0
LINE
  5
25
330
2
100
AcDbEntity
  8
0
100
AcDbLine
 10
0.0
 20
297.0
 30
0.0
 11
0.0
 21
0.0
 31
0.0
  0
LINE
  5
26
330
2
100
AcDbEntity
  8
0
 62
     3
100
AcDbLine
 10
143.5177098765999
 20
217.3554963726
 30
0.0
 11
143.8176508800999
 21
217.0440773100998
 31
0.0
  0
LINE
  5
27
330
2
100
AcDbEntity
  8
0
 62
     3
100
AcDbLine
 10
143.5177307727999
 20
177.3555525052
 30
0.0
 11
143.8176717762999
 21
177.0441334426998
 31
0.0
  0
LINE
  5
28
330
2
100
AcDbEntity
  8
0
 62
     3
100
AcDbLine
 10
143.5177406484999
 20
159.6443041908999
 30
0.0
 11
143.8176908008998
 21
159.9557144395999
 31
0.0
  0
LINE
  5
29
330
2
100
AcDbEntity
  8
0
 62
     3
100
AcDbLine
 10
143.5177273869999
 20
199.6442528952998
 30
0.0
 11
143.8176775394
 21
199.955663144
 31
0.0
  0
LINE
  5
2A
330
2
100
AcDbEntity
  8
0
100
AcDbLine
 10
0.0
 20
0.0
 30
0.0
 11
210.0
 21
0.0
 31
0.0
  0
LINE
  5
2B
330
2
100
AcDbEntity
  8
0
  6
CENTER
 62
     3
100
AcDbLine
 10
103.7604623479998
 20
208.4999999999999
 30
0.0
 11
164.3176828069999
 21
208.4999999999999
 31
0.0
  0
LINE
  5
2D
330
2
100
AcDbEntity
  8
0
  6
CENTER
 62
     3
100
AcDbLine
 10
103.7604623479998
 20
168.4999847412
 30
0.0
 11
164.3176828069999
 21
168.4999847412
 31
0.0
  0
LINE
  5
2E
330
2
100
AcDbEntity
  8
0
  6
CENTER
 62
     3
100
AcDbLine
 10
63.6141305609
 20
168.4998779295999
 30
0.0
 11
86.61413056090003
 21
168.4998779295999
 31
0.0
  0
LINE
  5
2F
330
2
100
AcDbEntity
  8
0
 62
     3
100
AcDbLine
 10
84.11413056090001
 20
177.4997863768999
 30
0.0
 11
84.11413056090001
 21
159.499923706
 31
0.0
  0
LINE
  5
30
330
2
100
AcDbEntity
  8
0
 62
     3
100
AcDbLine
 10
66.1141305609
 20
177.4997863768999
 30
0.0
 11
66.1141305609
 21
159.499923706
 31
0.0
  0
LINE
  5
31
330
2
100
AcDbEntity
  8
0
  6
CENTER
 62
     3
100
AcDbLine
 10
75.11411530210001
 20
157.2498474120999
 30
0.0
 11
75.11411530210001
 21
179.7498474121
 31
0.0
  0
CIRCLE
  5
32
330
2
100
AcDbEntity
  8
0
 62
     3
100
AcDbCircle
 10
75.11411530210001
 20
168.4998779295999
 30
0.0
 40
9.0
  0
LINE
  5
33
330
2
100
AcDbEntity
  8
0
 62
     3
100
AcDbLine
 10
51.11771637630003
 20
177.4498748779
 30
0.0
 11
51.11771637630003
 21
159.5498657226
 31
0.0
  0
LINE
  5
34
330
2
100
AcDbEntity
  8
0
  6
CENTER
 62
     3
100
AcDbLine
 10
42.11388642030001
 20
157.2499847411999
 30
0.0
 11
42.11388642030001
 21
179.7499694823999
 31
0.0
  0
LINE
  5
35
330
2
100
AcDbEntity
  8
0
 62
     3
100
AcDbLine
 10
33.11771637630002
 20
177.4498748779
 30
0.0
 11
33.11771637630002
 21
159.5498657226
 31
0.0
  0
CIRCLE
  5
36
330
2
100
AcDbEntity
  8
0
 62
     3
100
AcDbCircle
 10
42.1138711615
 20
168.4999847412
 30
0.0
 40
9.0
  0
LINE
  5
37
330
2
100
AcDbEntity
  8
0
 62
     3
100
AcDbLine
 10
33.11771637630002
 20
159.5498657226
 30
0.0
 11
51.11771637630003
 21
159.5498657226
 31
0.0
  0
LINE
  5
38
330
2
100
AcDbEntity
  8
0
 62
     3
100
AcDbLine
 10
84.11414581970001
 20
159.4999389648
 30
0.0
 11
66.11414581970004
 21
159.4999389648
 31
0.0
  0
ARC
  5
39
330
2
100
AcDbEntity
  8
0
 62
     3
100
AcDbCircle
 10
42.11376435000002
 20
168.5
 30
0.0
 40
6.6999959946
100
AcDbArc
 50
72.6320130679
 51
107.3679509599999
  0
ARC
  5
3A
330
2
100
AcDbEntity
  8
0
 62
     3
100
AcDbCircle
 10
42.11376435000002
 20
168.5
 30
0.0
 40
6.6999959946
100
AcDbArc
 50
255.3432516499
 51
284.6984757969
  0
CIRCLE
  5
3B
330
2
100
AcDbEntity
  8
0
 62
     3
100
AcDbCircle
 10
42.1138711615
 20
168.4999847412
 30
0.0
 40
8.0
  0
CIRCLE
  5
3C
330
2
100
AcDbEntity
  8
0
 62
     3
100
AcDbCircle
 10
42.1138711615
 20
168.4999847412
 30
0.0
 40
7.399999618499996
  0
LINE
  5
3D
330
2
100
AcDbEntity
  8
0
 62
     3
100
AcDbLine
 10
33.11771637630002
 20
177.4498748779
 30
0.0
 11
51.11771637630003
 21
177.4498748779
 31
0.0
  0
LINE
  5
3E
330
2
100
AcDbEntity
  8
0
  6
CENTER
 62
     3
100
AcDbLine
 10
30.61387116150001
 20
168.4999847412
 30
0.0
 11
53.61387116150002
 21
168.4999847412
 31
0.0
  0
LINE
  5
3F
330
2
100
AcDbEntity
  8
0
 62
     3
100
AcDbLine
 10
33.62859589289998
 20
171.4999542236
 30
0.0
 11
34.6976113959
 21
171.4999542236
 31
0.0
  0
LINE
  5
40
330
2
100
AcDbEntity
  8
0
 62
     3
100
AcDbLine
 10
33.62859589289998
 20
165.4999847412
 30
0.0
 11
34.6976113959
 21
165.4999847412
 31
0.0
  0
LINE
  5
41
330
2
100
AcDbEntity
  8
0
 62
     3
100
AcDbLine
 10
33.6177646852
 20
161.8437916021
 30
0.0
 11
35.44395297210002
 21
160.0498700441999
 31
0.0
  0
LINE
  5
42
330
2
100
AcDbEntity
  8
0
 62
     3
100
AcDbLine
 10
35.44398143310002
 20
176.9498742728998
 30
0.0
 11
33.61776425299999
 21
175.155894837
 31
0.0
  0
LINE
  5
43
330
2
100
AcDbEntity
  8
0
 62
     3
100
AcDbLine
 10
40.813776557
 20
173.2666625975999
 30
0.0
 11
40.813776557
 21
163.5999908446999
 31
0.0
  0
LINE
  5
44
330
2
100
AcDbEntity
  8
0
 62
     3
100
AcDbLine
 10
36.11388041429997
 20
170.9996585244
 30
0.0
 11
36.61387537960001
 21
172.1996474172999
 31
0.0
  0
LINE
  5
45
330
2
100
AcDbEntity
  8
0
 62
     3
100
AcDbLine
 10
36.6137795507
 20
172.1997968232998
 30
0.0
 11
36.11377840670002
 21
170.9997940003
 31
0.0
  0
LINE
  5
46
330
2
100
AcDbEntity
  8
0
 62
     3
100
AcDbLine
 10
34.71387726499996
 20
165.4602813719999
 30
0.0
 11
34.71387726499996
 21
171.5397338866999
 31
0.0
  0
LINE
  5
47
330
2
100
AcDbEntity
  8
0
 62
     3
100
AcDbLine
 10
37.9137826605
 20
173.2666168211999
 30
0.0
 11
37.9137826605
 21
163.6000213623
 31
0.0
  0
LINE
  5
48
330
2
100
AcDbEntity
  8
0
  6
DASH
 62
     3
100
AcDbLine
 10
37.11376435
 20
172.1998748779
 30
0.0
 11
37.11376435
 21
164.7998809813999
 31
0.0
  0
LINE
  5
4A
330
2
100
AcDbEntity
  8
0
 62
     3
100
AcDbLine
 10
37.91376740170003
 20
172.1998748779
 30
0.0
 11
37.91376740170003
 21
164.7998809813999
 31
0.0
  0
LINE
  5
4B
330
2
100
AcDbEntity
  8
0
 62
     3
100
AcDbLine
 10
37.71377045350002
 20
168.3998718260999
 30
0.0
 11
37.21377045350001
 21
168.3998718260999
 31
0.0
  0
LINE
  5
4C
330
2
100
AcDbEntity
  8
0
 62
     3
100
AcDbLine
 10
37.71377045350002
 20
168.5998840332
 30
0.0
 11
37.21377045350001
 21
168.5998840332
 31
0.0
  0
LINE
  5
4D
330
2
100
AcDbEntity
  8
0
 62
     3
100
AcDbLine
 10
38.31385323790001
 20
162.9999791370999
 30
0.0
 11
37.11389555349997
 21
164.7999148901
 31
0.0
  0
LINE
  5
4E
330
2
100
AcDbEntity
  8
0
 62
     3
100
AcDbLine
 10
37.11388957950001
 20
164.7997208896998
 30
0.0
 11
38.31383549330002
 21
162.9998140102
 31
0.0
  0
LINE
  5
4F
330
2
100
AcDbEntity
  8
0
 62
     3
100
AcDbLine
 10
37.91376740170003
 20
164.7998809813999
 30
0.0
 11
36.61376434999999
 21
164.7998809813999
 31
0.0
  0
LINE
  5
50
330
2
100
AcDbEntity
  8
0
 62
     3
100
AcDbLine
 10
36.11388332679999
 20
165.9997276048999
 30
0.0
 11
36.61382516330002
 21
164.7998653997999
 31
0.0
  0
LINE
  5
51
330
2
100
AcDbEntity
  8
0
 62
     3
100
AcDbLine
 10
36.6138302839
 20
164.7998715404999
 30
0.0
 11
36.11382944990001
 21
165.9998745184999
 31
0.0
  0
LINE
  5
52
330
2
100
AcDbEntity
  8
0
 62
     3
100
AcDbLine
 10
36.61379486749999
 20
164.7998504638
 30
0.0
 11
37.11379486749999
 21
164.7998504638
 31
0.0
  0
LINE
  5
53
330
2
100
AcDbEntity
  8
0
 62
     3
100
AcDbLine
 10
35.25515228940003
 20
170.9997406004999
 30
0.0
 11
36.11376434999999
 21
170.9997406004999
 31
0.0
  0
LINE
  5
54
330
2
100
AcDbEntity
  8
0
 62
     3
100
AcDbLine
 10
35.25519806579997
 20
170.9998779295998
 30
0.0
 11
36.11376434999999
 21
170.9998779295998
 31
0.0
  0
LINE
  5
55
330
2
100
AcDbEntity
  8
0
 62
     3
100
AcDbLine
 10
35.41373688420002
 20
167.7998046874999
 30
0.0
 11
35.76378876400002
 21
167.7998046874999
 31
0.0
  0
LINE
  5
56
330
2
100
AcDbEntity
  8
0
 62
     3
100
AcDbLine
 10
35.41373688420002
 20
169.1998138426999
 30
0.0
 11
35.76378876400002
 21
169.1998138426999
 31
0.0
  0
LINE
  5
57
330
2
100
AcDbEntity
  8
0
 62
     3
100
AcDbLine
 10
35.25524384219999
 20
165.9997558593
 30
0.0
 11
36.11376434999999
 21
165.9997558593
 31
0.0
  0
LINE
  5
58
330
2
100
AcDbEntity
  8
0
 62
     3
100
AcDbLine
 10
35.76377350519999
 20
169.1998748778999
 30
0.0
 11
35.41376740170003
 21
169.1998748778999
 31
0.0
  0
LINE
  5
59
330
2
100
AcDbEntity
  8
0
 62
     3
100
AcDbLine
 10
35.76377350519999
 20
167.7998809813999
 30
0.0
 11
35.41376740170003
 21
167.7998809813999
 31
0.0
  0
LINE
  5
5A
330
2
100
AcDbEntity
  8
0
 62
     3
100
AcDbLine
 10
35.25519806579997
 20
165.9998779296
 30
0.0
 11
36.11376434999999
 21
165.9998779296
 31
0.0
  0
LINE
  5
5B
330
2
100
AcDbEntity
  8
0
 62
     3
100
AcDbLine
 10
35.41373688420002
 20
169.1998138426999
 30
0.0
 11
35.41373688420002
 21
167.7998046874999
 31
0.0
  0
LINE
  5
5C
330
2
100
AcDbEntity
  8
0
 62
     3
100
AcDbLine
 10
35.41376740170003
 20
169.1998748778999
 30
0.0
 11
35.41376740170003
 21
167.7998809813999
 31
0.0
  0
ARC
  5
5D
330
2
100
AcDbEntity
  8
0
 62
     3
100
AcDbCircle
 10
42.11376435000002
 20
168.4998779295999
 30
0.0
 40
7.2999992371
100
AcDbArc
 50
159.9727565511
 51
200.0271168631
  0
LINE
  5
5E
330
2
100
AcDbEntity
  8
0
 62
     3
100
AcDbLine
 10
37.21377045350001
 20
169.0998687743999
 30
0.0
 11
37.21377045350001
 21
168.5998687744
 31
0.0
  0
LINE
  5
5F
330
2
100
AcDbEntity
  8
0
 62
     3
100
AcDbLine
 10
37.01377350519999
 20
169.0998687743999
 30
0.0
 11
37.01377350519999
 21
168.5998687744
 31
0.0
  0
LINE
  5
60
330
2
100
AcDbEntity
  8
0
 62
     3
100
AcDbLine
 10
37.01377350519999
 20
168.3998718260999
 30
0.0
 11
37.01377350519999
 21
167.8998718261
 31
0.0
  0
LINE
  5
61
330
2
100
AcDbEntity
  8
0
 62
     3
100
AcDbLine
 10
37.21377045350001
 20
168.3998718260999
 30
0.0
 11
37.21377045350001
 21
167.8998718261
 31
0.0
  0
ARC
  5
62
330
2
100
AcDbEntity
  8
0
 62
     3
100
AcDbCircle
 10
37.11376435
 20
169.0998687743999
 30
0.0
 40
0.099999964237
100
AcDbArc
 50
0.0
 51
179.9998547448
  0
ARC
  5
63
330
2
100
AcDbEntity
  8
0
 62
     3
100
AcDbCircle
 10
37.11376435
 20
167.8998718261
 30
0.0
 40
0.099999964237
100
AcDbArc
 50
180.0000906136999
 51
0.0
  0
LINE
  5
64
330
2
100
AcDbEntity
  8
0
 62
     3
100
AcDbLine
 10
36.26377350519999
 20
169.8998870849
 30
0.0
 11
35.76377350519999
 21
169.8998870849
 31
0.0
  0
LINE
  5
65
330
2
100
AcDbEntity
  8
0
 62
     3
100
AcDbLine
 10
36.26377350519999
 20
169.8998718261
 30
0.0
 11
36.26377350519999
 21
167.0998840331999
 31
0.0
  0
LINE
  5
66
330
2
100
AcDbEntity
  8
0
 62
     3
100
AcDbLine
 10
35.76377350519999
 20
169.8998718261
 30
0.0
 11
35.76377350519999
 21
167.0998840331999
 31
0.0
  0
LINE
  5
67
330
2
100
AcDbEntity
  8
0
 62
     3
100
AcDbLine
 10
36.26377350519999
 20
167.0998840331999
 30
0.0
 11
35.76377350519999
 21
167.0998840331999
 31
0.0
  0
LINE
  5
68
330
2
100
AcDbEntity
  8
0
  6
DASH
 62
     3
100
AcDbLine
 10
36.11376434999999
 20
167.0998840331999
 30
0.0
 11
36.11376434999999
 21
165.9998779296
 31
0.0
  0
ARC
  5
69
330
2
100
AcDbEntity
  8
0
 62
     3
100
AcDbCircle
 10
36.51377350519999
 20
168.4998779295999
 30
0.0
 40
0.099999964237
100
AcDbArc
 50
90.00003665540001
 51
270.0000006831999
  0
LINE
  5
6A
330
2
100
AcDbEntity
  8
0
  6
DASH
 62
     3
100
AcDbLine
 10
36.11376434999999
 20
170.9998779295998
 30
0.0
 11
36.11376434999999
 21
169.8998718261
 31
0.0
  0
LINE
  5
6B
330
2
100
AcDbEntity
  8
0
 62
     3
100
AcDbLine
 10
37.01377350519999
 20
168.5998840332
 30
0.0
 11
36.51377350519999
 21
168.5998840332
 31
0.0
  0
LINE
  5
6C
330
2
100
AcDbEntity
  8
0
 62
     3
100
AcDbLine
 10
37.01377350519999
 20
168.3998718260999
 30
0.0
 11
36.51377350519999
 21
168.3998718260999
 31
0.0
  0
LINE
  5
6D
330
2
100
AcDbEntity
  8
0
 62
     3
100
AcDbLine
 10
39.3637796088
 20
164.9000091551999
 30
0.0
 11
39.8637796088
 21
164.9000091551999
 31
0.0
  0
LINE
  5
6E
330
2
100
AcDbEntity
  8
0
 62
     3
100
AcDbLine
 10
39.3637796088
 20
162.1000823974
 30
0.0
 11
39.8637796088
 21
162.1000823974
 31
0.0
  0
ARC
  5
6F
330
2
100
AcDbEntity
  8
0
 62
     3
100
AcDbCircle
 10
32.90566498470002
 20
163.5000915527
 30
0.0
 40
6.6081047058
100
AcDbArc
 50
347.7685894419
 51
12.23099050149996
  0
LINE
  5
70
330
2
100
AcDbEntity
  8
0
 62
     3
100
AcDbLine
 10
39.11390167909999
 20
160.0146942138
 30
0.0
 11
39.11390167909999
 21
161.083618164
 31
0.0
  0
LINE
  5
71
330
2
100
AcDbEntity
  8
0
 62
     3
100
AcDbLine
 10
39.3637796088
 20
164.9000091551999
 30
0.0
 11
39.3637796088
 21
162.1000823974
 31
0.0
  0
LINE
  5
72
330
2
100
AcDbEntity
  8
0
 62
     3
100
AcDbLine
 10
38.81379181579997
 20
162.5000305174999
 30
0.0
 11
39.3637796088
 21
162.5000305174999
 31
0.0
  0
LINE
  5
73
330
2
100
AcDbEntity
  8
0
 62
     3
100
AcDbLine
 10
38.71382360450002
 20
162.9999819640999
 30
0.0
 11
38.81382411240002
 21
162.4999810355998
 31
0.0
  0
LINE
  5
74
330
2
100
AcDbEntity
  8
0
 62
     3
100
AcDbLine
 10
38.3137918158
 20
163.0000305175
 30
0.0
 11
39.3637796088
 21
163.0000305175
 31
0.0
  0
LINE
  5
75
330
2
100
AcDbEntity
  8
0
 62
     3
100
AcDbLine
 10
40.41376740170003
 20
163.0
 30
0.0
 11
40.41376740170003
 21
162.0192565918
 31
0.0
  0
LINE
  5
76
330
2
100
AcDbEntity
  8
0
 62
     3
100
AcDbLine
 10
39.8637796088
 20
162.5000305174999
 30
0.0
 11
39.9137826605
 21
162.5000305174999
 31
0.0
  0
LINE
  5
77
330
2
100
AcDbEntity
  8
0
 62
     3
100
AcDbLine
 10
39.8637796088
 20
163.0000305175
 30
0.0
 11
40.4137826605
 21
163.0000305175
 31
0.0
  0
LINE
  5
78
330
2
100
AcDbEntity
  8
0
 62
     3
100
AcDbLine
 10
39.8637796088
 20
164.9000091551999
 30
0.0
 11
39.8637796088
 21
162.1000823974
 31
0.0
  0
LINE
  5
79
330
2
100
AcDbEntity
  8
0
 62
     3
100
AcDbLine
 10
39.91381848540001
 20
162.5000417234
 30
0.0
 11
40.01382198579999
 21
163.0000576143999
 31
0.0
  0
LINE
  5
7A
330
2
100
AcDbEntity
  8
0
 62
     3
100
AcDbLine
 10
40.4137826605
 20
162.9998931883999
 30
0.0
 11
40.4137826605
 21
162.0191497801999
 31
0.0
  0
LINE
  5
7B
330
2
100
AcDbEntity
  8
0
 62
     3
100
AcDbLine
 10
40.4138131781
 20
162.9996795654
 30
0.0
 11
40.4138131781
 21
162.0188446044
 31
0.0
  0
ARC
  5
7C
330
2
100
AcDbEntity
  8
0
 62
     3
100
AcDbCircle
 10
46.3218637152
 20
163.5000915527
 30
0.0
 40
6.6081047058
100
AcDbArc
 50
167.7689530357999
 51
192.2313575105
  0
LINE
  5
7D
330
2
100
AcDbEntity
  8
0
 62
     3
100
AcDbLine
 10
40.41379152210001
 20
162.9999486893
 30
0.0
 11
40.81379413009996
 21
163.5999527946999
 31
0.0
  0
LINE
  5
7E
330
2
100
AcDbEntity
  8
0
 62
     3
100
AcDbLine
 10
39.3637796088
 20
169.8999481200999
 30
0.0
 11
39.8637796088
 21
169.8999481200999
 31
0.0
  0
LINE
  5
7F
330
2
100
AcDbEntity
  8
0
 62
     3
100
AcDbLine
 10
39.3637796088
 20
167.0999755859
 30
0.0
 11
39.8637796088
 21
167.0999755859
 31
0.0
  0
ARC
  5
80
330
2
100
AcDbEntity
  8
0
 62
     3
100
AcDbCircle
 10
32.90543610290001
 20
168.5
 30
0.0
 40
6.608330726599997
100
AcDbArc
 50
347.769026574
 51
12.23099050149996
  0
LINE
  5
81
330
2
100
AcDbEntity
  8
0
 62
     3
100
AcDbLine
 10
39.3637796088
 20
167.0999755859
 30
0.0
 11
39.3637796088
 21
169.8999481200999
 31
0.0
  0
ARC
  5
82
330
2
100
AcDbEntity
  8
0
 62
     3
100
AcDbCircle
 10
37.71377045350002
 20
168.4998779295999
 30
0.0
 40
0.099999964237
100
AcDbArc
 50
270.0000726275999
 51
89.9999273723999
  0
LINE
  5
83
330
2
100
AcDbEntity
  8
0
 62
     3
100
AcDbLine
 10
39.8637796088
 20
167.0999755859
 30
0.0
 11
39.8637796088
 21
169.8999481200999
 31
0.0
  0
ARC
  5
84
330
2
100
AcDbEntity
  8
0
 62
     3
100
AcDbCircle
 10
46.32209259700003
 20
168.5
 30
0.0
 40
6.608330726599997
100
AcDbArc
 50
167.7689530357999
 51
192.2309203783
  0
LINE
  5
85
330
2
100
AcDbEntity
  8
0
 62
     3
100
AcDbLine
 10
38.6138473457
 20
174.1999405412
 30
0.0
 11
37.11384683909999
 21
172.1999409584999
 31
0.0
  0
LINE
  5
86
330
2
100
AcDbEntity
  8
0
 62
     3
100
AcDbLine
 10
37.11398920080003
 20
172.1997058784
 30
0.0
 11
38.61398911139999
 21
174.1997059082
 31
0.0
  0
LINE
  5
87
330
2
100
AcDbEntity
  8
0
 62
     3
100
AcDbLine
 10
37.91376740170003
 20
172.1998748779
 30
0.0
 11
36.61376434999999
 21
172.1998748779
 31
0.0
  0
LINE
  5
88
330
2
100
AcDbEntity
  8
0
 62
     3
100
AcDbLine
 10
36.61376434999999
 20
172.1998138426998
 30
0.0
 11
37.11376435
 21
172.1998138426998
 31
0.0
  0
LINE
  5
89
330
2
100
AcDbEntity
  8
0
 62
     3
100
AcDbLine
 10
39.11390167909999
 20
175.9161071777
 30
0.0
 11
39.11390167909999
 21
176.9852600097
 31
0.0
  0
LINE
  5
8A
330
2
100
AcDbEntity
  8
0
 62
     3
100
AcDbLine
 10
39.3637796088
 20
174.8999481200999
 30
0.0
 11
39.8637796088
 21
174.8999481200999
 31
0.0
  0
LINE
  5
8B
330
2
100
AcDbEntity
  8
0
 62
     3
100
AcDbLine
 10
39.3637796088
 20
172.0999450683
 30
0.0
 11
39.8637796088
 21
172.0999450683
 31
0.0
  0
ARC
  5
8C
330
2
100
AcDbEntity
  8
0
 62
     3
100
AcDbCircle
 10
32.90543610290001
 20
173.4999847412
 30
0.0
 40
6.608330726599997
100
AcDbArc
 50
347.769026574
 51
12.23099050149996
  0
LINE
  5
8D
330
2
100
AcDbEntity
  8
0
 62
     3
100
AcDbLine
 10
39.3637796088
 20
172.0999450683
 30
0.0
 11
39.3637796088
 21
174.8999481200999
 31
0.0
  0
LINE
  5
8E
330
2
100
AcDbEntity
  8
0
 62
     3
100
AcDbLine
 10
38.81379181579997
 20
174.6999511717999
 30
0.0
 11
39.3637796088
 21
174.6999511717999
 31
0.0
  0
LINE
  5
8F
330
2
100
AcDbEntity
  8
0
 62
     3
100
AcDbLine
 10
39.3637796088
 20
174.1999511718
 30
0.0
 11
38.6137796088
 21
174.1999511718
 31
0.0
  0
LINE
  5
90
330
2
100
AcDbEntity
  8
0
 62
     3
100
AcDbLine
 10
38.71380408929999
 20
174.1999234973999
 30
0.0
 11
38.81380496179999
 21
174.6999243347
 31
0.0
  0
LINE
  5
91
330
2
100
AcDbEntity
  8
0
 62
     3
100
AcDbLine
 10
39.8637796088
 20
174.6999511717999
 30
0.0
 11
39.9137826605
 21
174.6999511717999
 31
0.0
  0
LINE
  5
92
330
2
100
AcDbEntity
  8
0
 62
     3
100
AcDbLine
 10
39.8637796088
 20
172.0999450683
 30
0.0
 11
39.8637796088
 21
174.8999481200999
 31
0.0
  0
LINE
  5
93
330
2
100
AcDbEntity
  8
0
 62
     3
100
AcDbLine
 10
39.91384372429999
 20
174.6999512399999
 30
0.0
 11
40.01384459679999
 21
174.1999504027
 31
0.0
  0
LINE
  5
94
330
2
100
AcDbEntity
  8
0
 62
     3
100
AcDbLine
 10
40.11377960879999
 20
174.1999511718
 30
0.0
 11
39.8637796088
 21
174.1999511718
 31
0.0
  0
LINE
  5
95
330
2
100
AcDbEntity
  8
0
 62
     3
100
AcDbLine
 10
40.11377960879999
 20
174.8943939209
 30
0.0
 11
40.11377960879999
 21
174.1998596191
 31
0.0
  0
LINE
  5
96
330
2
100
AcDbEntity
  8
0
 62
     3
100
AcDbLine
 10
40.11376434999998
 20
174.1998138427
 30
0.0
 11
40.11376434999998
 21
174.8945159912
 31
0.0
  0
ARC
  5
97
330
2
100
AcDbEntity
  8
0
 62
     3
100
AcDbCircle
 10
46.32209259700003
 20
173.4999847412
 30
0.0
 40
6.608330726599997
100
AcDbArc
 50
167.7689530357999
 51
192.2309203783
  0
LINE
  5
98
330
2
100
AcDbEntity
  8
0
 62
     3
100
AcDbLine
 10
40.11392706700002
 20
174.1998138859999
 30
0.0
 11
40.8139026807
 21
173.2665130908
 31
0.0
  0
LINE
  5
99
330
2
100
AcDbEntity
  8
0
 62
     3
100
AcDbLine
 10
48.11374909120003
 20
170.9997406004999
 30
0.0
 11
48.97237641050001
 21
170.9997406004999
 31
0.0
  0
LINE
  5
9A
330
2
100
AcDbEntity
  8
0
 62
     3
100
AcDbLine
 10
48.11374909120003
 20
170.9998779295998
 30
0.0
 11
48.97233063419999
 21
170.9998779295998
 31
0.0
  0
LINE
  5
9B
330
2
100
AcDbEntity
  8
0
 62
     3
100
AcDbLine
 10
48.46384674740003
 20
167.7998046874999
 30
0.0
 11
48.81373078060002
 21
167.7998046874999
 31
0.0
  0
LINE
  5
9C
330
2
100
AcDbEntity
  8
0
 62
     3
100
AcDbLine
 10
48.46384674740003
 20
169.1998138426999
 30
0.0
 11
48.81373078060002
 21
169.1998138426999
 31
0.0
  0
LINE
  5
9D
330
2
100
AcDbEntity
  8
0
 62
     3
100
AcDbLine
 10
48.11374909120003
 20
165.9997558593
 30
0.0
 11
48.97228485780003
 21
165.9997558593
 31
0.0
  0
LINE
  5
9E
330
2
100
AcDbEntity
  8
0
 62
     3
100
AcDbLine
 10
48.81374603939999
 20
169.1998748778999
 30
0.0
 11
48.46375519469997
 21
169.1998748778999
 31
0.0
  0
LINE
  5
9F
330
2
100
AcDbEntity
  8
0
 62
     3
100
AcDbLine
 10
48.81374603939999
 20
167.7998809813999
 30
0.0
 11
48.46375519469997
 21
167.7998809813999
 31
0.0
  0
LINE
  5
A0
330
2
100
AcDbEntity
  8
0
 62
     3
100
AcDbLine
 10
48.11374909120003
 20
165.9998779296
 30
0.0
 11
48.97233063419999
 21
165.9998779296
 31
0.0
  0
LINE
  5
A1
330
2
100
AcDbEntity
  8
0
 62
     3
100
AcDbLine
 10
43.41375214290001
 20
163.7999877928999
 30
0.0
 11
43.41375214290001
 21
173.1999969482
 31
0.0
  0
LINE
  5
A2
330
2
100
AcDbEntity
  8
0
 62
     3
100
AcDbLine
 10
45.5137582465
 20
163.7999877928999
 30
0.0
 11
45.5137582465
 21
173.1999969482
 31
0.0
  0
LINE
  5
A3
330
2
100
AcDbEntity
  8
0
 62
     3
100
AcDbLine
 10
46.31376129819996
 20
163.5999908446999
 30
0.0
 11
46.31376129819996
 21
173.2666625975999
 31
0.0
  0
LINE
  5
A4
330
2
100
AcDbEntity
  8
0
  6
DASH
 62
     3
100
AcDbLine
 10
47.11374909120002
 20
164.7998809813999
 30
0.0
 11
47.11374909120002
 21
172.1998748779
 31
0.0
  0
LINE
  5
A5
330
2
100
AcDbEntity
  8
0
 62
     3
100
AcDbLine
 10
46.31374603939999
 20
164.7998809813999
 30
0.0
 11
46.31374603939999
 21
172.1998748779
 31
0.0
  0
LINE
  5
A6
330
2
100
AcDbEntity
  8
0
 62
     3
100
AcDbLine
 10
48.11386282880002
 20
170.9998347673
 30
0.0
 11
47.6138701061
 21
172.1998171933
 31
0.0
  0
LINE
  5
A7
330
2
100
AcDbEntity
  8
0
 62
     3
100
AcDbLine
 10
45.5137582465
 20
163.7999877928999
 30
0.0
 11
43.41375214290001
 21
163.7999877928999
 31
0.0
  0
LINE
  5
A8
330
2
100
AcDbEntity
  8
0
 62
     3
100
AcDbLine
 10
45.91375214290001
 20
163.0
 30
0.0
 11
43.81376129819996
 21
163.0
 31
0.0
  0
LINE
  5
A9
330
2
100
AcDbEntity
  8
0
 62
     3
100
AcDbLine
 10
43.8138223334
 20
162.9998779295999
 30
0.0
 11
45.91379791929997
 21
162.9998779295999
 31
0.0
  0
LINE
  5
AA
330
2
100
AcDbEntity
  8
0
 62
     3
100
AcDbLine
 10
44.5138192816
 20
163.4998474120999
 30
0.0
 11
44.5138192816
 21
162.9998474121
 31
0.0
  0
LINE
  5
AB
330
2
100
AcDbEntity
  8
0
 62
     3
100
AcDbLine
 10
43.81376129819996
 20
163.0
 30
0.0
 11
43.81376129819996
 21
162.0191497801999
 31
0.0
  0
LINE
  5
AC
330
2
100
AcDbEntity
  8
0
 62
     3
100
AcDbLine
 10
43.8138223334
 20
162.9998474121
 30
0.0
 11
43.8138223334
 21
163.4998474120999
 31
0.0
  0
LINE
  5
AD
330
2
100
AcDbEntity
  8
0
 62
     3
100
AcDbLine
 10
43.81394440370002
 20
162.0191802977999
 30
0.0
 11
43.81394440370002
 21
162.9998931883999
 31
0.0
  0
LINE
  5
AE
330
2
100
AcDbEntity
  8
0
 62
     3
100
AcDbLine
 10
43.8138223334
 20
162.9996795654
 30
0.0
 11
43.8138223334
 21
162.0188446044
 31
0.0
  0
LINE
  5
AF
330
2
100
AcDbEntity
  8
0
 62
     3
100
AcDbLine
 10
43.813776557
 20
163.0000305175
 30
0.0
 11
44.8637796088
 21
163.0000305175
 31
0.0
  0
LINE
  5
B0
330
2
100
AcDbEntity
  8
0
 62
     3
100
AcDbLine
 10
43.8138223334
 20
163.4998474120999
 30
0.0
 11
44.5138192816
 21
163.4998474120999
 31
0.0
  0
LINE
  5
B1
330
2
100
AcDbEntity
  8
0
 62
     3
100
AcDbLine
 10
48.11382048110003
 20
165.9996738353
 30
0.0
 11
47.6138517018
 21
164.7998063003
 31
0.0
  0
LINE
  5
B2
330
2
100
AcDbEntity
  8
0
 62
     3
100
AcDbLine
 10
48.1138061388
 20
165.9997878557
 30
0.0
 11
47.61380538230002
 21
164.7997848778
 31
0.0
  0
LINE
  5
B3
330
2
100
AcDbEntity
  8
0
 62
     3
100
AcDbLine
 10
47.61374909120003
 20
164.7998809813999
 30
0.0
 11
46.31374603939999
 21
164.7998809813999
 31
0.0
  0
LINE
  5
B4
330
2
100
AcDbEntity
  8
0
 62
     3
100
AcDbLine
 10
45.91379951820002
 20
162.9999631677998
 30
0.0
 11
47.11380003870003
 21
164.7999620143999
 31
0.0
  0
LINE
  5
B5
330
2
100
AcDbEntity
  8
0
 62
     3
100
AcDbLine
 10
45.3637796088
 20
163.0000305175
 30
0.0
 11
45.91376740170002
 21
163.0000305175
 31
0.0
  0
LINE
  5
B6
330
2
100
AcDbEntity
  8
0
 62
     3
100
AcDbLine
 10
45.1138864203
 20
160.0146942138
 30
0.0
 11
45.1138864203
 21
161.083618164
 31
0.0
  0
LINE
  5
B7
330
2
100
AcDbEntity
  8
0
 62
     3
100
AcDbLine
 10
47.61388218229997
 20
164.7998474757
 30
0.0
 11
47.11380588830002
 21
164.7999666849999
 31
0.0
  0
LINE
  5
B8
330
2
100
AcDbEntity
  8
0
 62
     3
100
AcDbLine
 10
47.71375519469997
 20
168.3998718260999
 30
0.0
 11
46.51375824649996
 21
168.3998718260999
 31
0.0
  0
LINE
  5
B9
330
2
100
AcDbEntity
  8
0
 62
     3
100
AcDbLine
 10
47.71375519469997
 20
168.5998840332
 30
0.0
 11
46.51375824649996
 21
168.5998840332
 31
0.0
  0
ARC
  5
BA
330
2
100
AcDbEntity
  8
0
 62
     3
100
AcDbCircle
 10
46.51375824649996
 20
168.4998779295999
 30
0.0
 40
0.099999964237
100
AcDbArc
 50
89.99992737239997
 51
179.9998547448
  0
ARC
  5
BB
330
2
100
AcDbEntity
  8
0
 62
     3
100
AcDbCircle
 10
46.51375824649996
 20
168.4998779295999
 30
0.0
 40
0.099999964237
100
AcDbArc
 50
180.0000906136999
 51
270.0000726275999
  0
LINE
  5
BC
330
2
100
AcDbEntity
  8
0
 62
     3
100
AcDbLine
 10
48.46375519469997
 20
169.8998870849
 30
0.0
 11
47.96375519469997
 21
169.8998870849
 31
0.0
  0
LINE
  5
BD
330
2
100
AcDbEntity
  8
0
 62
     3
100
AcDbLine
 10
47.96375519469997
 20
167.0998840331999
 30
0.0
 11
47.96375519469997
 21
169.8998870849
 31
0.0
  0
LINE
  5
BE
330
2
100
AcDbEntity
  8
0
 62
     3
100
AcDbLine
 10
48.46375519469997
 20
167.0998840331999
 30
0.0
 11
48.46375519469997
 21
169.8998870849
 31
0.0
  0
LINE
  5
BF
330
2
100
AcDbEntity
  8
0
 62
     3
100
AcDbLine
 10
48.46375519469997
 20
167.0998840331999
 30
0.0
 11
47.96375519469997
 21
167.0998840331999
 31
0.0
  0
LINE
  5
C0
330
2
100
AcDbEntity
  8
0
  6
DASH
 62
     3
100
AcDbLine
 10
48.11374909120003
 20
165.9998779296
 30
0.0
 11
48.11374909120003
 21
167.0998840331999
 31
0.0
  0
LINE
  5
C1
330
2
100
AcDbEntity
  8
0
  6
DASH
 62
     3
100
AcDbLine
 10
48.11374909120003
 20
169.8998718261
 30
0.0
 11
48.11374909120003
 21
170.9998779295998
 31
0.0
  0
ARC
  5
C2
330
2
100
AcDbEntity
  8
0
 62
     3
100
AcDbCircle
 10
47.71375519469997
 20
168.4998779295999
 30
0.0
 40
0.099999964237
100
AcDbArc
 50
270.0000726275999
 51
89.99987273089994
  0
LINE
  5
C3
330
2
100
AcDbEntity
  8
0
 62
     3
100
AcDbLine
 10
45.5137582465
 20
173.1999969482
 30
0.0
 11
43.41375214290001
 21
173.1999969482
 31
0.0
  0
LINE
  5
C4
330
2
100
AcDbEntity
  8
0
 62
     3
100
AcDbLine
 10
45.61374909120003
 20
174.1999969482
 30
0.0
 11
44.1137490912
 21
174.1999969482
 31
0.0
  0
LINE
  5
C5
330
2
100
AcDbEntity
  8
0
 62
     3
100
AcDbLine
 10
44.1137490912
 20
174.1998138427
 30
0.0
 11
44.1137490912
 21
174.8945159912
 31
0.0
  0
LINE
  5
C6
330
2
100
AcDbEntity
  8
0
 62
     3
100
AcDbLine
 10
45.1138864203
 20
175.9161071777
 30
0.0
 11
45.1138864203
 21
176.9852600097
 31
0.0
  0
LINE
  5
C7
330
2
100
AcDbEntity
  8
0
 62
     3
100
AcDbLine
 10
47.61374909120003
 20
172.1998748779
 30
0.0
 11
46.31374603939999
 21
172.1998748779
 31
0.0
  0
LINE
  5
C8
330
2
100
AcDbEntity
  8
0
 62
     3
100
AcDbLine
 10
47.11382044620001
 20
172.1999207332999
 30
0.0
 11
45.61386616290001
 21
174.1998597279
 31
0.0
  0
LINE
  5
C9
330
2
100
AcDbEntity
  8
0
 62
     3
100
AcDbLine
 10
47.11374909120002
 20
172.1998138426998
 30
0.0
 11
47.61374909120003
 21
172.1998138426998
 31
0.0
  0
LINE
  5
CA
330
2
100
AcDbEntity
  8
0
 62
     3
100
AcDbLine
 10
49.51378876400003
 20
165.4602813719999
 30
0.0
 11
49.51378876400003
 21
171.5397338866999
 31
0.0
  0
LINE
  5
CB
330
2
100
AcDbEntity
  8
0
 62
     3
100
AcDbLine
 10
48.79169775650002
 20
160.0498871517
 30
0.0
 11
50.6177616322
 21
161.8437829881
 31
0.0
  0
LINE
  5
CC
330
2
100
AcDbEntity
  8
0
 62
     3
100
AcDbLine
 10
49.52991730410002
 20
165.4999847412
 30
0.0
 11
50.59914643000002
 21
165.4999847412
 31
0.0
  0
LINE
  5
CD
330
2
100
AcDbEntity
  8
0
 62
     3
100
AcDbLine
 10
48.81374603939999
 20
167.7998046874999
 30
0.0
 11
48.81374603939999
 21
169.1998748778999
 31
0.0
  0
ARC
  5
CE
330
2
100
AcDbEntity
  8
0
 62
     3
100
AcDbCircle
 10
42.11376435000002
 20
168.4998779295999
 30
0.0
 40
7.2999992371
100
AcDbArc
 50
339.9728300892998
 51
20.02713234470002
  0
LINE
  5
CF
330
2
100
AcDbEntity
  8
0
 62
     3
100
AcDbLine
 10
49.52991730410002
 20
171.4999542236
 30
0.0
 11
50.59914643000002
 21
171.4999542236
 31
0.0
  0
LINE
  5
D0
330
2
100
AcDbEntity
  8
0
 62
     3
100
AcDbLine
 10
50.61774468730003
 20
175.1559321183
 30
0.0
 11
48.7916628041
 21
176.9498751397999
 31
0.0
  0
LINE
  5
D1
330
2
100
AcDbEntity
  8
0
 62
     3
100
AcDbLine
 10
70.1143156137
 20
172.1997093058
 30
0.0
 11
71.61431552429998
 21
174.1997093356
 31
0.0
  0
LINE
  5
D2
330
2
100
AcDbEntity
  8
0
 62
     3
100
AcDbLine
 10
70.1142282269
 20
164.7997531849999
 30
0.0
 11
71.31417414069996
 21
162.9998463055
 31
0.0
  0
LINE
  5
D3
330
2
100
AcDbEntity
  8
0
 62
     3
100
AcDbLine
 10
70.91411835389997
 20
172.1998901366999
 30
0.0
 11
69.6141153021
 21
172.1998901366999
 31
0.0
  0
LINE
  5
D4
330
2
100
AcDbEntity
  8
0
 62
     3
100
AcDbLine
 10
70.91411835389997
 20
164.7998962402
 30
0.0
 11
69.6141153021
 21
164.7998962402
 31
0.0
  0
CIRCLE
  5
D5
330
2
100
AcDbEntity
  8
0
 62
     3
100
AcDbCircle
 10
75.11411530210001
 20
168.4998779295999
 30
0.0
 40
8.0
  0
CIRCLE
  5
D6
330
2
100
AcDbEntity
  8
0
 62
     3
100
AcDbCircle
 10
75.11411530210001
 20
168.4998779295999
 30
0.0
 40
7.399999618499996
  0
LINE
  5
D7
330
2
100
AcDbEntity
  8
0
 62
     3
100
AcDbLine
 10
84.11414581970001
 20
177.4998016357
 30
0.0
 11
66.11414581970004
 21
177.4998016357
 31
0.0
  0
LINE
  5
D8
330
2
100
AcDbEntity
  8
0
 62
     3
100
AcDbLine
 10
69.61415033509999
 20
172.1998173113
 30
0.0
 11
69.1141491912
 21
170.9998144882999
 31
0.0
  0
LINE
  5
D9
330
2
100
AcDbEntity
  8
0
 62
     3
100
AcDbLine
 10
67.71410614679999
 20
165.4601440428999
 30
0.0
 11
67.71410614679999
 21
171.5396118164
 31
0.0
  0
LINE
  5
DA
330
2
100
AcDbEntity
  8
0
 62
     3
100
AcDbLine
 10
66.62882477480002
 20
165.4998931883999
 30
0.0
 11
67.6978402777
 21
165.4998931883999
 31
0.0
  0
LINE
  5
DB
330
2
100
AcDbEntity
  8
0
 62
     3
100
AcDbLine
 10
66.61418568910002
 20
161.8437695206999
 30
0.0
 11
68.44036309070003
 21
160.0498586557999
 31
0.0
  0
LINE
  5
DC
330
2
100
AcDbEntity
  8
0
 62
     3
100
AcDbLine
 10
69.61416025290001
 20
164.7998673329
 30
0.0
 11
69.11416528770002
 21
165.9998562258
 31
0.0
  0
LINE
  5
DD
330
2
100
AcDbEntity
  8
0
 62
     3
100
AcDbLine
 10
68.25554901790003
 20
170.9998931883999
 30
0.0
 11
69.11413056089999
 21
170.9998931883999
 31
0.0
  0
LINE
  5
DE
330
2
100
AcDbEntity
  8
0
 62
     3
100
AcDbLine
 10
68.61414581970002
 20
167.2998657226
 30
0.0
 11
69.4141336127
 21
167.2998657226
 31
0.0
  0
LINE
  5
DF
330
2
100
AcDbEntity
  8
0
 62
     3
100
AcDbLine
 10
68.61414581970002
 20
169.6998748778999
 30
0.0
 11
69.4141336127
 21
169.6998748778999
 31
0.0
  0
LINE
  5
E0
330
2
100
AcDbEntity
  8
0
 62
     3
100
AcDbLine
 10
68.25554901790003
 20
165.9998931884
 30
0.0
 11
69.11413056089999
 21
165.9998931884
 31
0.0
  0
LINE
  5
E1
330
2
100
AcDbEntity
  8
0
 62
     3
100
AcDbLine
 10
68.61413056089999
 20
167.2998199462
 30
0.0
 11
68.61413056089999
 21
169.6998291015
 31
0.0
  0
ARC
  5
E2
330
2
100
AcDbEntity
  8
0
 62
     3
100
AcDbCircle
 10
75.11411530210001
 20
168.4998931883999
 30
0.0
 40
7.2999992371
100
AcDbArc
 50
159.9727565511
 51
200.0271168631
  0
LINE
  5
E3
330
2
100
AcDbEntity
  8
0
 62
     3
100
AcDbLine
 10
69.41411835390002
 20
167.2998199462
 30
0.0
 11
69.41411835390002
 21
169.6998291015
 31
0.0
  0
LINE
  5
E4
330
2
100
AcDbEntity
  8
0
 62
     3
100
AcDbLine
 10
66.62882477480002
 20
171.4998779295999
 30
0.0
 11
67.6978402777
 21
171.4998779295999
 31
0.0
  0
LINE
  5
E5
330
2
100
AcDbEntity
  8
0
 62
     3
100
AcDbLine
 10
68.4403369151
 20
176.9498321799
 30
0.0
 11
66.61415239080003
 21
175.1558848233
 31
0.0
  0
LINE
  5
E6
330
2
100
AcDbEntity
  8
0
 62
     3
100
AcDbLine
 10
77.31412750920005
 20
174.6999969482
 30
0.0
 11
77.86413056090001
 21
174.6999969482
 31
0.0
  0
LINE
  5
E7
330
2
100
AcDbEntity
  8
0
 62
     3
100
AcDbLine
 10
77.31412750920005
 20
162.5000610350999
 30
0.0
 11
77.86413056090001
 21
162.5000610350999
 31
0.0
  0
LINE
  5
E8
330
2
100
AcDbEntity
  8
0
 62
     3
100
AcDbLine
 10
77.86413056090001
 20
174.1999969482
 30
0.0
 11
77.11413056090001
 21
174.1999969482
 31
0.0
  0
LINE
  5
E9
330
2
100
AcDbEntity
  8
0
 62
     3
100
AcDbLine
 10
76.81412750920003
 20
163.0000610351
 30
0.0
 11
77.86413056090001
 21
163.0000610351
 31
0.0
  0
LINE
  5
EA
330
2
100
AcDbEntity
  8
0
 62
     3
100
AcDbLine
 10
73.81412750920003
 20
173.2666625975999
 30
0.0
 11
73.81412750920003
 21
163.6000061035
 31
0.0
  0
LINE
  5
EB
330
2
100
AcDbEntity
  8
0
 62
     3
100
AcDbLine
 10
70.91411835389997
 20
173.2662353515
 30
0.0
 11
70.91411835389997
 21
163.600036621
 31
0.0
  0
LINE
  5
EC
330
2
100
AcDbEntity
  8
0
 62
     3
100
AcDbLine
 10
76.41411835390001
 20
173.2662353515
 30
0.0
 11
76.41411835390001
 21
163.600036621
 31
0.0
  0
ARC
  5
ED
330
2
100
AcDbEntity
  8
0
 62
     3
100
AcDbCircle
 10
75.11411530210001
 20
168.5000152586999
 30
0.0
 40
6.6999959946
100
AcDbArc
 50
255.3432516499
 51
284.6984757969
  0
LINE
  5
EE
330
2
100
AcDbEntity
  8
0
 62
     3
100
AcDbLine
 10
71.81412750920003
 20
162.5000610350999
 30
0.0
 11
72.3641305609
 21
162.5000610350999
 31
0.0
  0
LINE
  5
EF
330
2
100
AcDbEntity
  8
0
 62
     3
100
AcDbLine
 10
71.31412750920003
 20
163.0000610351
 30
0.0
 11
72.3641305609
 21
163.0000610351
 31
0.0
  0
LINE
  5
F0
330
2
100
AcDbEntity
  8
0
 62
     3
100
AcDbLine
 10
72.11413056090001
 20
160.0146026611
 30
0.0
 11
72.11413056090001
 21
161.0835266112999
 31
0.0
  0
LINE
  5
F1
330
2
100
AcDbEntity
  8
0
 62
     3
100
AcDbLine
 10
71.7141585519
 20
162.9999884712
 30
0.0
 11
71.81416205230002
 21
162.4999725801998
 31
0.0
  0
ARC
  5
F2
330
2
100
AcDbEntity
  8
0
 62
     3
100
AcDbCircle
 10
65.90601593690002
 20
163.5001068114999
 30
0.0
 40
6.6081047058
100
AcDbArc
 50
347.7685894419
 51
12.23099050149996
  0
ARC
  5
F3
330
2
100
AcDbEntity
  8
0
 62
     3
100
AcDbCircle
 10
79.32221466740003
 20
163.5001068114999
 30
0.0
 40
6.6081047058
100
AcDbArc
 50
167.7689530357999
 51
192.2313575105
  0
LINE
  5
F4
330
2
100
AcDbEntity
  8
0
 62
     3
100
AcDbLine
 10
72.86413056090001
 20
162.5000610350999
 30
0.0
 11
72.9141336127
 21
162.5000610350999
 31
0.0
  0
LINE
  5
F5
330
2
100
AcDbEntity
  8
0
 62
     3
100
AcDbLine
 10
72.86413056090001
 20
163.0000610351
 30
0.0
 11
73.41411835389997
 21
163.0000610351
 31
0.0
  0
LINE
  5
F6
330
2
100
AcDbEntity
  8
0
 62
     3
100
AcDbLine
 10
72.86413056090001
 20
164.9000396727999
 30
0.0
 11
72.86413056090001
 21
162.100112915
 31
0.0
  0
LINE
  5
F7
330
2
100
AcDbEntity
  8
0
 62
     3
100
AcDbLine
 10
72.3641305609
 20
164.9000396727999
 30
0.0
 11
72.3641305609
 21
162.100112915
 31
0.0
  0
LINE
  5
F8
330
2
100
AcDbEntity
  8
0
 62
     3
100
AcDbLine
 10
72.3641305609
 20
164.9000396727999
 30
0.0
 11
72.86413056090001
 21
164.9000396727999
 31
0.0
  0
LINE
  5
F9
330
2
100
AcDbEntity
  8
0
 62
     3
100
AcDbLine
 10
72.3641305609
 20
162.100112915
 30
0.0
 11
72.86413056090001
 21
162.100112915
 31
0.0
  0
LINE
  5
FA
330
2
100
AcDbEntity
  8
0
 62
     3
100
AcDbLine
 10
72.91415941780002
 20
162.5000651411999
 30
0.0
 11
73.01416291820001
 21
163.0000810322
 31
0.0
  0
LINE
  5
FB
330
2
100
AcDbEntity
  8
0
 62
     3
100
AcDbLine
 10
73.41417938900001
 20
162.9996643066
 30
0.0
 11
73.41417938900001
 21
162.0188293456999
 31
0.0
  0
LINE
  5
FC
330
2
100
AcDbEntity
  8
0
 62
     3
100
AcDbLine
 10
73.41407515310002
 20
162.9999502519
 30
0.0
 11
73.81407776119998
 21
163.5999543574
 31
0.0
  0
ARC
  5
FD
330
2
100
AcDbEntity
  8
0
 62
     3
100
AcDbCircle
 10
65.90578705500002
 20
168.5000152586999
 30
0.0
 40
6.608330726599997
100
AcDbArc
 50
347.769026574
 51
12.23099050149996
  0
ARC
  5
FE
330
2
100
AcDbEntity
  8
0
 62
     3
100
AcDbCircle
 10
79.32244354920001
 20
168.5000152586999
 30
0.0
 40
6.608330726599997
100
AcDbArc
 50
167.7689530357999
 51
192.2309203783
  0
LINE
  5
FF
330
2
100
AcDbEntity
  8
0
 62
     3
100
AcDbLine
 10
72.86413056090001
 20
167.1000061034999
 30
0.0
 11
72.86413056090001
 21
169.8999938964
 31
0.0
  0
LINE
  5
100
330
2
100
AcDbEntity
  8
0
 62
     3
100
AcDbLine
 10
72.3641305609
 20
167.1000061034999
 30
0.0
 11
72.3641305609
 21
169.8999938964
 31
0.0
  0
LINE
  5
101
330
2
100
AcDbEntity
  8
0
 62
     3
100
AcDbLine
 10
72.3641305609
 20
169.8999938964
 30
0.0
 11
72.86413056090001
 21
169.8999938964
 31
0.0
  0
LINE
  5
102
330
2
100
AcDbEntity
  8
0
 62
     3
100
AcDbLine
 10
72.3641305609
 20
167.1000061034999
 30
0.0
 11
72.86413056090001
 21
167.1000061034999
 31
0.0
  0
LINE
  5
103
330
2
100
AcDbEntity
  8
0
 62
     3
100
AcDbLine
 10
77.21415448460001
 20
162.9999858936999
 30
0.0
 11
77.31415798500002
 21
162.4999700026999
 31
0.0
  0
LINE
  5
104
330
2
100
AcDbEntity
  8
0
 62
     3
100
AcDbLine
 10
76.81413824900001
 20
163.0000119359
 30
0.0
 11
76.41413542610002
 21
163.6000159124
 31
0.0
  0
LINE
  5
105
330
2
100
AcDbEntity
  8
0
 62
     3
100
AcDbLine
 10
76.81418854430001
 20
162.9996643066
 30
0.0
 11
76.81418854430001
 21
162.0188293456999
 31
0.0
  0
ARC
  5
106
330
2
100
AcDbEntity
  8
0
 62
     3
100
AcDbCircle
 10
75.11411530210001
 20
168.5000152586999
 30
0.0
 40
6.6999959946
100
AcDbArc
 50
72.6320130679
 51
107.3679509599999
  0
LINE
  5
107
330
2
100
AcDbEntity
  8
0
 62
     3
100
AcDbLine
 10
72.11413056090001
 20
175.9160308837
 30
0.0
 11
72.11413056090001
 21
176.9851837158
 31
0.0
  0
LINE
  5
108
330
2
100
AcDbEntity
  8
0
 62
     3
100
AcDbLine
 10
71.81412750920003
 20
174.6999969482
 30
0.0
 11
72.3641305609
 21
174.6999969482
 31
0.0
  0
LINE
  5
109
330
2
100
AcDbEntity
  8
0
 62
     3
100
AcDbLine
 10
72.3641305609
 20
174.1999969482
 30
0.0
 11
71.61413056090001
 21
174.1999969482
 31
0.0
  0
LINE
  5
10A
330
2
100
AcDbEntity
  8
0
 62
     3
100
AcDbLine
 10
71.71414465340001
 20
174.1999391804
 30
0.0
 11
71.81414253340001
 21
174.6999250552
 31
0.0
  0
ARC
  5
10B
330
2
100
AcDbEntity
  8
0
 62
     3
100
AcDbCircle
 10
65.90578705500002
 20
173.5
 30
0.0
 40
6.608330726599997
100
AcDbArc
 50
347.769026574
 51
12.23099050149996
  0
ARC
  5
10C
330
2
100
AcDbEntity
  8
0
 62
     3
100
AcDbCircle
 10
79.32244354920001
 20
173.5
 30
0.0
 40
6.608330726599997
100
AcDbArc
 50
167.7689530357999
 51
192.2309203783
  0
LINE
  5
10D
330
2
100
AcDbEntity
  8
0
 62
     3
100
AcDbLine
 10
72.86413056090001
 20
174.6999969482
 30
0.0
 11
72.9141336127
 21
174.6999969482
 31
0.0
  0
LINE
  5
10E
330
2
100
AcDbEntity
  8
0
 62
     3
100
AcDbLine
 10
72.86413056090001
 20
172.0999908447
 30
0.0
 11
72.86413056090001
 21
174.8999938963999
 31
0.0
  0
LINE
  5
10F
330
2
100
AcDbEntity
  8
0
 62
     3
100
AcDbLine
 10
72.3641305609
 20
172.0999908447
 30
0.0
 11
72.3641305609
 21
174.8999938963999
 31
0.0
  0
LINE
  5
110
330
2
100
AcDbEntity
  8
0
 62
     3
100
AcDbLine
 10
72.3641305609
 20
174.8999938963999
 30
0.0
 11
72.86413056090001
 21
174.8999938963999
 31
0.0
  0
LINE
  5
111
330
2
100
AcDbEntity
  8
0
 62
     3
100
AcDbLine
 10
72.3641305609
 20
172.0999908447
 30
0.0
 11
72.86413056090001
 21
172.0999908447
 31
0.0
  0
LINE
  5
112
330
2
100
AcDbEntity
  8
0
 62
     3
100
AcDbLine
 10
72.9141663334
 20
174.6999475269998
 30
0.0
 11
73.01416720599998
 21
174.1999466895999
 31
0.0
  0
LINE
  5
113
330
2
100
AcDbEntity
  8
0
 62
     3
100
AcDbLine
 10
73.11413056090001
 20
174.1999969482
 30
0.0
 11
72.86413056090001
 21
174.1999969482
 31
0.0
  0
LINE
  5
114
330
2
100
AcDbEntity
  8
0
 62
     3
100
AcDbLine
 10
73.1141153021
 20
174.1998291015
 30
0.0
 11
73.1141153021
 21
174.8942871092999
 31
0.0
  0
LINE
  5
115
330
2
100
AcDbEntity
  8
0
 62
     3
100
AcDbLine
 10
73.11423859670004
 20
174.1997804418999
 30
0.0
 11
73.81421421040002
 21
173.2664796466998
 31
0.0
  0
LINE
  5
116
330
2
100
AcDbEntity
  8
0
 62
     3
100
AcDbLine
 10
77.21414039320001
 20
174.1999377074999
 30
0.0
 11
77.31414126580003
 21
174.6999385448
 31
0.0
  0
LINE
  5
117
330
2
100
AcDbEntity
  8
0
 62
     3
100
AcDbLine
 10
77.11410004330002
 20
174.1998291015
 30
0.0
 11
77.11410004330002
 21
174.8942871092999
 31
0.0
  0
LINE
  5
118
330
2
100
AcDbEntity
  8
0
 62
     3
100
AcDbLine
 10
76.41416291259996
 20
173.2661829069998
 30
0.0
 11
77.114312407
 21
174.1997156358
 31
0.0
  0
LINE
  5
119
330
2
100
AcDbEntity
  8
0
 62
     3
100
AcDbLine
 10
82.51401764589997
 20
165.4601440428999
 30
0.0
 11
82.51401764589997
 21
171.5396118164
 31
0.0
  0
LINE
  5
11A
330
2
100
AcDbEntity
  8
0
 62
     3
100
AcDbLine
 10
80.61416958430001
 20
172.1998076824
 30
0.0
 11
81.11415868079998
 21
170.9998328746
 31
0.0
  0
LINE
  5
11B
330
2
100
AcDbEntity
  8
0
 62
     3
100
AcDbLine
 10
81.11413796209998
 20
170.9998863063
 30
0.0
 11
80.61417195330001
 21
172.1998046191
 31
0.0
  0
LINE
  5
11C
330
2
100
AcDbEntity
  8
0
 62
     3
100
AcDbLine
 10
79.31409699160003
 20
163.5999908446999
 30
0.0
 11
79.31409699160003
 21
173.2666320799999
 31
0.0
  0
LINE
  5
11D
330
2
100
AcDbEntity
  8
0
 62
     3
100
AcDbLine
 10
81.11410004330002
 20
170.9998931883999
 30
0.0
 11
81.9726815863
 21
170.9998931883999
 31
0.0
  0
LINE
  5
11E
330
2
100
AcDbEntity
  8
0
 62
     3
100
AcDbLine
 10
81.11410004330002
 20
165.9998931884
 30
0.0
 11
81.9726815863
 21
165.9998931884
 31
0.0
  0
LINE
  5
11F
330
2
100
AcDbEntity
  8
0
 62
     3
100
AcDbLine
 10
80.81414276789997
 20
169.6998748778999
 30
0.0
 11
81.61414581970001
 21
169.6998748778999
 31
0.0
  0
LINE
  5
120
330
2
100
AcDbEntity
  8
0
 62
     3
100
AcDbLine
 10
80.81414276789997
 20
167.2998657226
 30
0.0
 11
81.61414581970001
 21
167.2998657226
 31
0.0
  0
LINE
  5
121
330
2
100
AcDbEntity
  8
0
 62
     3
100
AcDbLine
 10
81.11418466660001
 20
165.9996977956
 30
0.0
 11
80.61421001830002
 21
164.7998161756
 31
0.0
  0
LINE
  5
122
330
2
100
AcDbEntity
  8
0
 62
     3
100
AcDbLine
 10
81.11415948890002
 20
165.9998096605999
 30
0.0
 11
80.61415506439997
 21
164.7997978795
 31
0.0
  0
LINE
  5
123
330
2
100
AcDbEntity
  8
0
 62
     3
100
AcDbLine
 10
80.61410004330001
 20
164.7998962402
 30
0.0
 11
79.31409699160003
 21
164.7998962402
 31
0.0
  0
LINE
  5
124
330
2
100
AcDbEntity
  8
0
 62
     3
100
AcDbLine
 10
78.91407203660003
 20
162.9999426061999
 30
0.0
 11
80.11407986070002
 21
164.7999549225
 31
0.0
  0
ARC
  5
125
330
2
100
AcDbEntity
  8
0
 62
     3
100
AcDbCircle
 10
71.40601593690002
 20
163.5001068114999
 30
0.0
 40
6.6081047058
100
AcDbArc
 50
347.7685894419
 51
12.23099050149996
  0
ARC
  5
126
330
2
100
AcDbEntity
  8
0
 62
     3
100
AcDbCircle
 10
84.82221466740002
 20
163.5001068114999
 30
0.0
 40
6.6081047058
100
AcDbArc
 50
167.7689530357999
 51
192.2313575105
  0
LINE
  5
127
330
2
100
AcDbEntity
  8
0
 62
     3
100
AcDbLine
 10
78.1141153021
 20
160.0146026611
 30
0.0
 11
78.1141153021
 21
161.0835266112999
 31
0.0
  0
LINE
  5
128
330
2
100
AcDbEntity
  8
0
 62
     3
100
AcDbLine
 10
78.36413056090001
 20
162.5000610350999
 30
0.0
 11
78.41413361269998
 21
162.5000610350999
 31
0.0
  0
LINE
  5
129
330
2
100
AcDbEntity
  8
0
 62
     3
100
AcDbLine
 10
78.36413056090001
 20
164.9000396727999
 30
0.0
 11
78.36413056090001
 21
162.100112915
 31
0.0
  0
LINE
  5
12A
330
2
100
AcDbEntity
  8
0
 62
     3
100
AcDbLine
 10
77.86413056090001
 20
164.9000396727999
 30
0.0
 11
77.86413056090001
 21
162.100112915
 31
0.0
  0
LINE
  5
12B
330
2
100
AcDbEntity
  8
0
 62
     3
100
AcDbLine
 10
77.86413056090001
 20
164.9000396727999
 30
0.0
 11
78.36413056090001
 21
164.9000396727999
 31
0.0
  0
LINE
  5
12C
330
2
100
AcDbEntity
  8
0
 62
     3
100
AcDbLine
 10
77.86413056090001
 20
162.100112915
 30
0.0
 11
78.36413056090001
 21
162.100112915
 31
0.0
  0
LINE
  5
12D
330
2
100
AcDbEntity
  8
0
 62
     3
100
AcDbLine
 10
78.41415535060001
 20
162.5000677186999
 30
0.0
 11
78.5141588509
 21
163.0000836096998
 31
0.0
  0
LINE
  5
12E
330
2
100
AcDbEntity
  8
0
 62
     3
100
AcDbLine
 10
78.3641153021
 20
163.0000610351
 30
0.0
 11
78.91411835390001
 21
163.0000610351
 31
0.0
  0
ARC
  5
12F
330
2
100
AcDbEntity
  8
0
 62
     3
100
AcDbCircle
 10
71.40578705500002
 20
168.5000152586999
 30
0.0
 40
6.608330726599997
100
AcDbArc
 50
347.769026574
 51
12.23099050149996
  0
ARC
  5
130
330
2
100
AcDbEntity
  8
0
 62
     3
100
AcDbCircle
 10
84.82244354920002
 20
168.5000152586999
 30
0.0
 40
6.608330726599997
100
AcDbArc
 50
167.7689530357999
 51
192.2309203783
  0
LINE
  5
131
330
2
100
AcDbEntity
  8
0
 62
     3
100
AcDbLine
 10
78.36413056090001
 20
167.1000061034999
 30
0.0
 11
78.36413056090001
 21
169.8999938964
 31
0.0
  0
LINE
  5
132
330
2
100
AcDbEntity
  8
0
 62
     3
100
AcDbLine
 10
77.86413056090001
 20
167.1000061034999
 30
0.0
 11
77.86413056090001
 21
169.8999938964
 31
0.0
  0
LINE
  5
133
330
2
100
AcDbEntity
  8
0
 62
     3
100
AcDbLine
 10
77.86413056090001
 20
169.8999938964
 30
0.0
 11
78.36413056090001
 21
169.8999938964
 31
0.0
  0
LINE
  5
134
330
2
100
AcDbEntity
  8
0
 62
     3
100
AcDbLine
 10
77.86413056090001
 20
167.1000061034999
 30
0.0
 11
78.36413056090001
 21
167.1000061034999
 31
0.0
  0
LINE
  5
135
330
2
100
AcDbEntity
  8
0
 62
     3
100
AcDbLine
 10
80.81412750920003
 20
167.2998199462
 30
0.0
 11
80.81412750920003
 21
169.6998291015
 31
0.0
  0
LINE
  5
136
330
2
100
AcDbEntity
  8
0
 62
     3
100
AcDbLine
 10
81.78807267380001
 20
160.0498466959
 30
0.0
 11
83.61412566440002
 21
161.8437318388998
 31
0.0
  0
LINE
  5
137
330
2
100
AcDbEntity
  8
0
 62
     3
100
AcDbLine
 10
82.5301461859
 20
165.4998931883999
 30
0.0
 11
83.59937531189999
 21
165.4998931883999
 31
0.0
  0
LINE
  5
138
330
2
100
AcDbEntity
  8
0
 62
     3
100
AcDbLine
 10
81.61413056090001
 20
167.2998199462
 30
0.0
 11
81.61413056090001
 21
169.6998291015
 31
0.0
  0
ARC
  5
139
330
2
100
AcDbEntity
  8
0
 62
     3
100
AcDbCircle
 10
75.11411530210001
 20
168.4998931883999
 30
0.0
 40
7.2999992371
100
AcDbArc
 50
339.9728300892998
 51
20.02713234470002
  0
LINE
  5
13A
330
2
100
AcDbEntity
  8
0
 62
     3
100
AcDbLine
 10
78.1141153021
 20
175.9160308837
 30
0.0
 11
78.1141153021
 21
176.9851837158
 31
0.0
  0
LINE
  5
13B
330
2
100
AcDbEntity
  8
0
 62
     3
100
AcDbLine
 10
80.61410004330001
 20
172.1998901366999
 30
0.0
 11
79.31409699160003
 21
172.1998901366999
 31
0.0
  0
LINE
  5
13C
330
2
100
AcDbEntity
  8
0
 62
     3
100
AcDbLine
 10
78.61421431370001
 20
174.1997774557
 30
0.0
 11
80.11417775229999
 21
172.199826254
 31
0.0
  0
ARC
  5
13D
330
2
100
AcDbEntity
  8
0
 62
     3
100
AcDbCircle
 10
71.40578705500002
 20
173.5
 30
0.0
 40
6.608330726599997
100
AcDbArc
 50
347.769026574
 51
12.23099050149996
  0
ARC
  5
13E
330
2
100
AcDbEntity
  8
0
 62
     3
100
AcDbCircle
 10
84.82244354920002
 20
173.5
 30
0.0
 40
6.608330726599997
100
AcDbArc
 50
167.7689530357999
 51
192.2309203783
  0
LINE
  5
13F
330
2
100
AcDbEntity
  8
0
 62
     3
100
AcDbLine
 10
78.36413056090001
 20
174.6999969482
 30
0.0
 11
78.41413361269998
 21
174.6999969482
 31
0.0
  0
LINE
  5
140
330
2
100
AcDbEntity
  8
0
 62
     3
100
AcDbLine
 10
78.36413056090001
 20
172.0999908447
 30
0.0
 11
78.36413056090001
 21
174.8999938963999
 31
0.0
  0
LINE
  5
141
330
2
100
AcDbEntity
  8
0
 62
     3
100
AcDbLine
 10
77.86413056090001
 20
172.0999908447
 30
0.0
 11
77.86413056090001
 21
174.8999938963999
 31
0.0
  0
LINE
  5
142
330
2
100
AcDbEntity
  8
0
 62
     3
100
AcDbLine
 10
77.86413056090001
 20
174.8999938963999
 30
0.0
 11
78.36413056090001
 21
174.8999938963999
 31
0.0
  0
LINE
  5
143
330
2
100
AcDbEntity
  8
0
 62
     3
100
AcDbLine
 10
77.86413056090001
 20
172.0999908447
 30
0.0
 11
78.36413056090001
 21
172.0999908447
 31
0.0
  0
LINE
  5
144
330
2
100
AcDbEntity
  8
0
 62
     3
100
AcDbLine
 10
78.41414711080003
 20
174.6999460072999
 30
0.0
 11
78.51414798339998
 21
174.19994517
 31
0.0
  0
LINE
  5
145
330
2
100
AcDbEntity
  8
0
 62
     3
100
AcDbLine
 10
78.6141305609
 20
174.1999969482
 30
0.0
 11
78.36413056090001
 21
174.1999969482
 31
0.0
  0
LINE
  5
146
330
2
100
AcDbEntity
  8
0
 62
     3
100
AcDbLine
 10
82.5301461859
 20
171.4998779295999
 30
0.0
 11
83.59937531189999
 21
171.4998779295999
 31
0.0
  0
LINE
  5
147
330
2
100
AcDbEntity
  8
0
 62
     3
100
AcDbLine
 10
83.61411997400002
 20
175.1559078554
 30
0.0
 11
81.78804897570001
 21
176.9498401834999
 31
0.0
  0
LINE
  5
148
330
2
100
AcDbEntity
  8
0
 62
     3
100
AcDbLine
 10
143.5177255315998
 20
159.6443328857
 30
0.0
 11
143.5177255315998
 21
177.3555755615
 31
0.0
  0
LINE
  5
149
330
2
100
AcDbEntity
  8
0
 62
     3
100
AcDbLine
 10
135.8176828069999
 20
159.5004882811999
 30
0.0
 11
135.8176828069999
 21
177.4997406005
 31
0.0
  0
LINE
  5
14A
330
2
100
AcDbEntity
  8
0
 62
     3
100
AcDbLine
 10
132.9616068314998
 20
159.5499588795999
 30
0.0
 11
133.9086613100999
 21
159.8709841806
 31
0.0
  0
LINE
  5
14B
330
2
100
AcDbEntity
  8
0
 62
     3
100
AcDbLine
 10
132.0175301349999
 20
162.3350540397
 30
0.0
 11
132.9616156747998
 21
159.5499501989
 31
0.0
  0
LINE
  5
14C
330
2
100
AcDbEntity
  8
0
 62
     3
100
AcDbLine
 10
128.2175207022999
 20
159.600010873
 30
0.0
 11
128.2175359610999
 21
160.1209001553
 31
0.0
  0
LINE
  5
14D
330
2
100
AcDbEntity
  8
0
 62
     3
100
AcDbLine
 10
132.0174508733997
 20
177.3999023436999
 30
0.0
 11
132.0174508733997
 21
159.5999298095
 31
0.0
  0
LINE
  5
14E
330
2
100
AcDbEntity
  8
0
 62
     3
100
AcDbLine
 10
132.0175119086
 20
159.5999298095
 30
0.0
 11
132.0175119086
 21
177.3999023436999
 31
0.0
  0
LINE
  5
14F
330
2
100
AcDbEntity
  8
0
 62
     3
100
AcDbLine
 10
132.0175119086
 20
159.6000061035
 30
0.0
 11
128.2175393743999
 21
159.6000061035
 31
0.0
  0
LINE
  5
150
330
2
100
AcDbEntity
  8
0
 62
     3
100
AcDbLine
 10
143.5176977799999
 20
159.6443156427
 30
0.0
 11
135.8176502707999
 21
159.4999456447999
 31
0.0
  0
LINE
  5
151
330
2
100
AcDbEntity
  8
0
 62
     3
100
AcDbLine
 10
132.0175119086
 20
159.5499877928999
 30
0.0
 11
132.9616037053999
 21
159.5499877928999
 31
0.0
  0
LINE
  5
152
330
2
100
AcDbEntity
  8
0
 62
     3
100
AcDbLine
 10
113.8175149602999
 20
215.4992370605
 30
0.0
 11
118.8175454778999
 21
215.4992370605
 31
0.0
  0
LINE
  5
153
330
2
100
AcDbEntity
  8
0
 62
     3
100
AcDbLine
 10
113.8175149602999
 20
215.8495788574
 30
0.0
 11
118.8175454778999
 21
215.8495788574
 31
0.0
  0
LINE
  5
154
330
2
100
AcDbEntity
  8
0
 62
     3
100
AcDbLine
 10
113.8175454778999
 20
201.499710083
 30
0.0
 11
118.8175454778999
 21
201.499710083
 31
0.0
  0
LINE
  5
155
330
2
100
AcDbEntity
  8
0
 62
     3
100
AcDbLine
 10
113.8175454778999
 20
201.1499786376
 30
0.0
 11
118.8175454778999
 21
201.1499786376
 31
0.0
  0
LINE
  5
156
330
2
100
AcDbEntity
  8
0
 62
     3
100
AcDbLine
 10
113.8173085525999
 20
170.999459433
 30
0.0
 11
118.8173047257999
 21
170.949654806
 31
0.0
  0
LINE
  5
157
330
2
100
AcDbEntity
  8
0
 62
     3
100
AcDbLine
 10
118.8174656132999
 20
166.0501531573999
 30
0.0
 11
113.8174631022998
 21
165.9999822326
 31
0.0
  0
LINE
  5
158
330
2
100
AcDbEntity
  8
0
 62
     3
100
AcDbLine
 10
123.8177133245999
 20
175.8997650145999
 30
0.0
 11
113.8176980657999
 21
175.8997650145999
 31
0.0
  0
LINE
  5
159
330
2
100
AcDbEntity
  8
0
 62
     3
100
AcDbLine
 10
113.8176980657999
 20
161.1004638670999
 30
0.0
 11
123.8177133245999
 21
161.1004638670999
 31
0.0
  0
LINE
  5
15A
330
2
100
AcDbEntity
  8
0
 62
     3
100
AcDbLine
 10
113.8177133245999
 20
201.150024414
 30
0.0
 11
113.8177133245999
 21
215.8499755858999
 31
0.0
  0
LINE
  5
15B
330
2
100
AcDbEntity
  8
0
 62
     3
100
AcDbLine
 10
112.8147378606999
 20
206.8999786375999
 30
0.0
 11
112.8147378606999
 21
204.6000671385999
 31
0.0
  0
LINE
  5
15C
330
2
100
AcDbEntity
  8
0
 62
     3
100
AcDbLine
 10
105.8175068712999
 20
205.600490319
 30
0.0
 11
106.3171152513999
 21
205.7503727802
 31
0.0
  0
LINE
  5
15D
330
2
100
AcDbEntity
  8
0
 62
     3
100
AcDbLine
 10
106.3169198674999
 20
205.2499694824
 30
0.0
 11
106.3169198674999
 21
205.7498474121
 31
0.0
  0
ARC
  5
15E
330
2
100
AcDbEntity
  8
0
 62
     3
100
AcDbCircle
 10
107.4206491155998
 20
173.4999847412
 30
0.0
 40
0.599998951
100
AcDbArc
 50
89.99998201389999
 51
269.9998914002
  0
ARC
  5
15F
330
2
100
AcDbEntity
  8
0
 62
     3
100
AcDbCircle
 10
107.4206338567999
 20
168.5000762938999
 30
0.0
 40
0.599998951
100
AcDbArc
 50
89.99998201389999
 51
269.9998914002
  0
ARC
  5
160
330
2
100
AcDbEntity
  8
0
 62
     3
100
AcDbCircle
 10
107.4206948919999
 20
163.4999999999999
 30
0.0
 40
0.599998951
100
AcDbArc
 50
89.99998201389999
 51
269.9998914002
  0
LINE
  5
161
330
2
100
AcDbEntity
  8
0
  6
CENTER
 62
     3
100
AcDbLine
 10
104.8010202092999
 20
173.4999237059999
 30
0.0
 11
110.2691751165999
 21
173.4999237059999
 31
0.0
  0
LINE
  5
162
330
2
100
AcDbEntity
  8
0
 62
     3
100
AcDbLine
 10
112.8177438421999
 20
172.0999298095
 30
0.0
 11
106.3206430120999
 21
172.0999298095
 31
0.0
  0
LINE
  5
163
330
2
100
AcDbEntity
  8
0
 62
     3
100
AcDbLine
 10
113.5177102727999
 20
174.8999328612999
 30
0.0
 11
106.3206430120999
 21
174.8999328612999
 31
0.0
  0
LINE
  5
164
330
2
100
AcDbEntity
  8
0
 62
     3
100
AcDbLine
 10
113.5177102727999
 20
162.0999450682999
 30
0.0
 11
106.3206430120999
 21
162.0999450682999
 31
0.0
  0
LINE
  5
165
330
2
100
AcDbEntity
  8
0
  6
CENTER
 62
     3
100
AcDbLine
 10
104.9190316839998
 20
163.4999389648
 30
0.0
 11
110.2691751165999
 21
163.4999389648
 31
0.0
  0
LINE
  5
166
330
2
100
AcDbEntity
  8
0
 62
     3
100
AcDbLine
 10
112.8177591008999
 20
164.8999481200999
 30
0.0
 11
106.3206430120999
 21
164.8999481200999
 31
0.0
  0
LINE
  5
167
330
2
100
AcDbEntity
  8
0
 62
     3
100
AcDbLine
 10
112.8177285833999
 20
167.1000213622999
 30
0.0
 11
106.3206430120999
 21
167.1000213622999
 31
0.0
  0
LINE
  5
168
330
2
100
AcDbEntity
  8
0
 62
     3
100
AcDbLine
 10
112.8177591008999
 20
169.900024414
 30
0.0
 11
106.3206430120999
 21
169.900024414
 31
0.0
  0
ARC
  5
169
330
2
100
AcDbEntity
  8
0
 62
     3
100
AcDbCircle
 10
108.0177102727999
 20
163.4999999999999
 30
0.0
 40
2.199997901899997
100
AcDbArc
 50
140.4787956031999
 51
219.5211870939
  0
LINE
  5
16A
330
2
100
AcDbEntity
  8
0
 62
     3
100
AcDbLine
 10
106.3206430120999
 20
164.8999481200999
 30
0.0
 11
106.3206430120999
 21
162.0999450682999
 31
0.0
  0
ARC
  5
16B
330
2
100
AcDbEntity
  8
0
 62
     3
100
AcDbCircle
 10
108.0176950139998
 20
168.5000762938999
 30
0.0
 40
2.199997901899997
100
AcDbArc
 50
140.4787409617
 51
219.5211324524
  0
LINE
  5
16C
330
2
100
AcDbEntity
  8
0
 62
     3
100
AcDbLine
 10
106.3206430120999
 20
169.900024414
 30
0.0
 11
106.3206430120999
 21
167.1000213622999
 31
0.0
  0
ARC
  5
16D
330
2
100
AcDbEntity
  8
0
 62
     3
100
AcDbCircle
 10
108.0177102727999
 20
173.4999847412
 30
0.0
 40
2.199997901899997
100
AcDbArc
 50
140.4787409617
 51
219.5211324524
  0
LINE
  5
16E
330
2
100
AcDbEntity
  8
0
 62
     3
100
AcDbLine
 10
106.3206430120999
 20
174.8999328612999
 30
0.0
 11
106.3206430120999
 21
172.0999298095
 31
0.0
  0
LINE
  5
16F
330
2
100
AcDbEntity
  8
0
 62
     3
100
AcDbLine
 10
113.8177133245999
 20
161.1004638670999
 30
0.0
 11
113.8177133245999
 21
175.8997650145999
 31
0.0
  0
LINE
  5
170
330
2
100
AcDbEntity
  8
0
 62
     3
100
AcDbLine
 10
112.8177591008999
 20
163.2999420166
 30
0.0
 11
112.8177591008999
 21
173.8999328612998
 31
0.0
  0
ARC
  5
171
330
2
100
AcDbEntity
  8
0
 62
     3
100
AcDbCircle
 10
108.8206430120999
 20
163.4999999999999
 30
0.0
 40
0.599998951
100
AcDbArc
 50
270.0000726275999
 51
89.99998201389994
  0
LINE
  5
172
330
2
100
AcDbEntity
  8
0
 62
     3
100
AcDbLine
 10
107.4206796331999
 20
164.0999450683
 30
0.0
 11
108.8206430120999
 21
164.0999450683
 31
0.0
  0
LINE
  5
173
330
2
100
AcDbEntity
  8
0
 62
     3
100
AcDbLine
 10
107.4206796331999
 20
162.8999481201
 30
0.0
 11
108.8206430120999
 21
162.8999481201
 31
0.0
  0
ARC
  5
174
330
2
100
AcDbEntity
  8
0
 62
     3
100
AcDbCircle
 10
108.8206277532999
 20
168.5000762938999
 30
0.0
 40
0.599998951
100
AcDbArc
 50
270.0000726275999
 51
89.99998201389994
  0
LINE
  5
175
330
2
100
AcDbEntity
  8
0
 62
     3
100
AcDbLine
 10
107.4206185979998
 20
169.1000213623
 30
0.0
 11
108.8206277532999
 21
169.1000213623
 31
0.0
  0
LINE
  5
176
330
2
100
AcDbEntity
  8
0
 62
     3
100
AcDbLine
 10
107.4206185979998
 20
167.900024414
 30
0.0
 11
108.8206277532999
 21
167.900024414
 31
0.0
  0
ARC
  5
177
330
2
100
AcDbEntity
  8
0
 62
     3
100
AcDbCircle
 10
113.1177621526999
 20
163.3000030517
 30
0.0
 40
0.2999997735
100
AcDbArc
 50
179.9999640277999
 51
269.9999460416999
  0
ARC
  5
178
330
2
100
AcDbEntity
  8
0
 62
     3
100
AcDbCircle
 10
113.1177621526999
 20
163.8999938963999
 30
0.0
 40
0.2999997735
100
AcDbArc
 50
179.9999640277999
 51
269.9999460416999
  0
LINE
  5
179
330
2
100
AcDbEntity
  8
0
 62
     3
100
AcDbLine
 10
113.5177102727999
 20
162.9999389648
 30
0.0
 11
113.5177102727999
 21
162.0999450682999
 31
0.0
  0
LINE
  5
17A
330
2
100
AcDbEntity
  8
0
 62
     3
100
AcDbLine
 10
113.1177621526999
 20
163.5999450683
 30
0.0
 11
113.8177133245999
 21
163.5999450683
 31
0.0
  0
LINE
  5
17B
330
2
100
AcDbEntity
  8
0
 62
     3
100
AcDbLine
 10
113.1177621526999
 20
162.9999542236
 30
0.0
 11
113.8177133245999
 21
162.9999542236
 31
0.0
  0
ARC
  5
17C
330
2
100
AcDbEntity
  8
0
 62
     3
100
AcDbCircle
 10
108.8206430120999
 20
173.4999847412
 30
0.0
 40
0.599998951
100
AcDbArc
 50
270.0000726275999
 51
89.99998201389994
  0
LINE
  5
17D
330
2
100
AcDbEntity
  8
0
 62
     3
100
AcDbLine
 10
107.4206338567999
 20
174.0999298094998
 30
0.0
 11
108.8206430120999
 21
174.0999298094998
 31
0.0
  0
LINE
  5
17E
330
2
100
AcDbEntity
  8
0
 62
     3
100
AcDbLine
 10
107.4206338567999
 20
172.8999328612998
 30
0.0
 11
108.8206430120999
 21
172.8999328612998
 31
0.0
  0
ARC
  5
17F
330
2
100
AcDbEntity
  8
0
 62
     3
100
AcDbCircle
 10
113.1177621526999
 20
173.8999786375999
 30
0.0
 40
0.2999997735
100
AcDbArc
 50
89.99998201389999
 51
180.0000186692996
  0
ARC
  5
180
330
2
100
AcDbEntity
  8
0
 62
     3
100
AcDbCircle
 10
113.1177621526999
 20
172.9499816893999
 30
0.0
 40
0.2999997735
100
AcDbArc
 50
89.99998201389999
 51
179.9999640277999
  0
LINE
  5
181
330
2
100
AcDbEntity
  8
0
 62
     3
100
AcDbLine
 10
113.5177102727999
 20
174.8999328612999
 30
0.0
 11
113.5177102727999
 21
174.1999206543
 31
0.0
  0
LINE
  5
182
330
2
100
AcDbEntity
  8
0
 62
     3
100
AcDbLine
 10
113.1177621526999
 20
173.2499237059999
 30
0.0
 11
113.8177133245999
 21
173.2499237059999
 31
0.0
  0
LINE
  5
183
330
2
100
AcDbEntity
  8
0
 62
     3
100
AcDbLine
 10
113.8176980657999
 20
174.199935913
 30
0.0
 11
113.1177468938999
 21
174.199935913
 31
0.0
  0
LINE
  5
184
330
2
100
AcDbEntity
  8
0
 62
     3
100
AcDbLine
 10
112.8147531194999
 20
205.2500915526998
 30
0.0
 11
106.3177285833999
 21
205.2500915526998
 31
0.0
  0
LINE
  5
185
330
2
100
AcDbEntity
  8
0
 62
     3
100
AcDbLine
 10
106.3176423909999
 20
205.2501754136998
 30
0.0
 11
105.8176540138999
 21
205.4001719049999
 31
0.0
  0
LINE
  5
186
330
2
100
AcDbEntity
  8
0
 62
     3
100
AcDbLine
 10
105.8176980657999
 20
205.3999938964
 30
0.0
 11
105.8176980657999
 21
205.6000671386
 31
0.0
  0
ARC
  5
187
330
2
100
AcDbEntity
  8
0
 62
     3
100
AcDbCircle
 10
113.1147409125
 20
205.0000762938999
 30
0.0
 40
0.2999999522999999
100
AcDbArc
 50
180.0000359722
 51
269.9985426651998
  0
ARC
  5
188
330
2
100
AcDbEntity
  8
0
 62
     3
100
AcDbCircle
 10
113.1147561712999
 20
204.6005401611
 30
0.0
 40
0.2999997735
100
AcDbArc
 50
180.0000359722
 51
270.0000179861
  0
LINE
  5
189
330
2
100
AcDbEntity
  8
0
 62
     3
100
AcDbLine
 10
113.8177133245999
 20
204.6997985838999
 30
0.0
 11
113.1147409125
 21
204.6997985838999
 31
0.0
  0
LINE
  5
18A
330
2
100
AcDbEntity
  8
0
 62
     3
100
AcDbLine
 10
113.8177133245999
 20
204.3001403808
 30
0.0
 11
113.1147561712999
 21
204.3001403808
 31
0.0
  0
LINE
  5
18B
330
2
100
AcDbEntity
  8
0
 62
     3
100
AcDbLine
 10
106.3177133245999
 20
205.7499694824
 30
0.0
 11
112.8147531194999
 21
205.7499694824
 31
0.0
  0
LINE
  5
18C
330
2
100
AcDbEntity
  8
0
 62
     3
100
AcDbLine
 10
106.3177133245999
 20
211.2499542235998
 30
0.0
 11
112.8147531194999
 21
211.2499542235998
 31
0.0
  0
LINE
  5
18D
330
2
100
AcDbEntity
  8
0
 62
     3
100
AcDbLine
 10
112.8147531194999
 20
210.7500915526998
 30
0.0
 11
106.3177285833999
 21
210.7500915526998
 31
0.0
  0
LINE
  5
18E
330
2
100
AcDbEntity
  8
0
 62
     3
100
AcDbLine
 10
106.3176392481999
 20
210.7501673411999
 30
0.0
 11
105.8176508710999
 21
210.9001638325
 31
0.0
  0
LINE
  5
18F
330
2
100
AcDbEntity
  8
0
 62
     3
100
AcDbLine
 10
105.8177133245999
 20
210.8999786375998
 30
0.0
 11
105.8177133245999
 21
211.1000518797998
 31
0.0
  0
LINE
  5
190
330
2
100
AcDbEntity
  8
0
 62
     3
100
AcDbLine
 10
106.3169351262999
 20
210.7499542235998
 30
0.0
 11
106.3169351262999
 21
211.2498321533
 31
0.0
  0
LINE
  5
191
330
2
100
AcDbEntity
  8
0
 62
     3
100
AcDbLine
 10
105.8175103281999
 20
211.1004821523
 30
0.0
 11
106.3171187082997
 21
211.2503646134999
 31
0.0
  0
LINE
  5
192
330
2
100
AcDbEntity
  8
0
 62
     3
100
AcDbLine
 10
112.8147531194999
 20
212.3999786375998
 30
0.0
 11
112.8147531194999
 21
210.1000518798
 31
0.0
  0
ARC
  5
193
330
2
100
AcDbEntity
  8
0
 62
     3
100
AcDbCircle
 10
113.1147409125
 20
206.5000762938999
 30
0.0
 40
0.2999999522999999
100
AcDbArc
 50
90.00156661780001
 51
180.0000186692996
  0
ARC
  5
194
330
2
100
AcDbEntity
  8
0
 62
     3
100
AcDbCircle
 10
113.1147561712999
 20
206.9004669188999
 30
0.0
 40
0.2999997735
100
AcDbArc
 50
89.99998201389999
 51
179.9999093863
  0
ARC
  5
195
330
2
100
AcDbEntity
  8
0
 62
     3
100
AcDbCircle
 10
113.1147409125
 20
210.5000762938999
 30
0.0
 40
0.2999999522999999
100
AcDbArc
 50
180.0000359722
 51
269.9985426651998
  0
ARC
  5
196
330
2
100
AcDbEntity
  8
0
 62
     3
100
AcDbCircle
 10
113.1147561712999
 20
210.1005401610998
 30
0.0
 40
0.2999997735
100
AcDbArc
 50
180.0000359722
 51
270.0000179861
  0
LINE
  5
197
330
2
100
AcDbEntity
  8
0
 62
     3
100
AcDbLine
 10
113.8177133245999
 20
206.7997589111
 30
0.0
 11
113.1147409125
 21
206.7997589111
 31
0.0
  0
LINE
  5
198
330
2
100
AcDbEntity
  8
0
 62
     3
100
AcDbLine
 10
113.8177133245999
 20
207.2001495360999
 30
0.0
 11
113.1147561712999
 21
207.2001495360999
 31
0.0
  0
LINE
  5
199
330
2
100
AcDbEntity
  8
0
 62
     3
100
AcDbLine
 10
113.8177133245999
 20
210.1997985839
 30
0.0
 11
113.1147409125
 21
210.1997985839
 31
0.0
  0
LINE
  5
19A
330
2
100
AcDbEntity
  8
0
 62
     3
100
AcDbLine
 10
113.8177133245999
 20
209.8001403808
 30
0.0
 11
113.1147561712999
 21
209.8001403808
 31
0.0
  0
ARC
  5
19B
330
2
100
AcDbEntity
  8
0
 62
     3
100
AcDbCircle
 10
113.1147409125
 20
212.0000762938999
 30
0.0
 40
0.2999999522999999
100
AcDbArc
 50
90.00156661780001
 51
180.0000186692996
  0
ARC
  5
19C
330
2
100
AcDbEntity
  8
0
 62
     3
100
AcDbCircle
 10
113.1147561712999
 20
212.4004669188999
 30
0.0
 40
0.2999997735
100
AcDbArc
 50
89.99998201389999
 51
179.9999093863
  0
LINE
  5
19D
330
2
100
AcDbEntity
  8
0
 62
     3
100
AcDbLine
 10
113.8177133245999
 20
212.2997589110998
 30
0.0
 11
113.1147409125
 21
212.2997589110998
 31
0.0
  0
LINE
  5
19E
330
2
100
AcDbEntity
  8
0
 62
     3
100
AcDbLine
 10
113.8177133245999
 20
212.7001495360998
 30
0.0
 11
113.1147561712999
 21
212.7001495360998
 31
0.0
  0
LINE
  5
19F
330
2
100
AcDbEntity
  8
0
 62
     3
100
AcDbLine
 10
135.2176767035
 20
199.7999877928999
 30
0.0
 11
135.2176767035
 21
217.2002410888
 31
0.0
  0
LINE
  5
1A0
330
2
100
AcDbEntity
  8
0
 62
     3
100
AcDbLine
 10
133.0171151799999
 20
202.5002288818
 30
0.0
 11
133.0171151799999
 21
214.5002136229999
 31
0.0
  0
LINE
  5
1A1
330
2
100
AcDbEntity
  8
0
 62
     3
100
AcDbLine
 10
125.2695846960999
 20
201.1346488316
 30
0.0
 11
124.8192119824999
 21
207.8001761422999
 31
0.0
  0
LINE
  5
1A2
330
2
100
AcDbEntity
  8
0
 62
     3
100
AcDbLine
 10
125.8144884964
 20
207.8001632749999
 30
0.0
 11
126.2671859637999
 21
201.1002295496
 31
0.0
  0
LINE
  5
1A3
330
2
100
AcDbEntity
  8
0
 62
     3
100
AcDbLine
 10
125.3192365105998
 20
207.8001627134997
 30
0.0
 11
125.7719288347999
 21
201.1003051084998
 31
0.0
  0
LINE
  5
1A4
330
2
100
AcDbEntity
  8
0
 62
     3
100
AcDbLine
 10
124.2236753622999
 20
201.0639794001998
 30
0.0
 11
123.8662238833999
 21
206.3542701373
 31
0.0
  0
LINE
  5
1A5
330
2
100
AcDbEntity
  8
0
 62
     3
100
AcDbLine
 10
124.7207556815999
 20
201.1009763206
 30
0.0
 11
124.4029021671998
 21
205.8052162025
 31
0.0
  0
LINE
  5
1A6
330
2
100
AcDbEntity
  8
0
 62
     3
100
AcDbLine
 10
123.8177133245999
 20
201.1003417967998
 30
0.0
 11
123.8177133245999
 21
215.9002838134
 31
0.0
  0
LINE
  5
1A7
330
2
100
AcDbEntity
  8
0
 62
     3
100
AcDbLine
 10
128.2171579047
 20
211.5000152586997
 30
0.0
 11
128.2171579047
 21
205.5000305175
 31
0.0
  0
LINE
  5
1A8
330
2
100
AcDbEntity
  8
0
 62
     3
100
AcDbLine
 10
143.5177255315998
 20
199.6443481444998
 30
0.0
 11
143.5177255315998
 21
217.3555908202998
 31
0.0
  0
LINE
  5
1A9
330
2
100
AcDbEntity
  8
0
 62
     3
100
AcDbLine
 10
135.8176828069999
 20
199.50050354
 30
0.0
 11
135.8176828069999
 21
217.4997558592998
 31
0.0
  0
LINE
  5
1AA
330
2
100
AcDbEntity
  8
0
 62
     3
100
AcDbLine
 10
132.0171151799997
 20
199.6002197265
 30
0.0
 11
132.0171151799997
 21
217.3997650145999
 31
0.0
  0
LINE
  5
1AB
330
2
100
AcDbEntity
  8
0
 62
     3
100
AcDbLine
 10
132.0170236272999
 20
217.3999176025
 30
0.0
 11
132.0170236272999
 21
199.5999298095
 31
0.0
  0
LINE
  5
1AC
330
2
100
AcDbEntity
  8
0
 62
     3
100
AcDbLine
 10
116.8177133245999
 20
205.0
 30
0.0
 11
116.8177133245999
 21
206.4999999999999
 31
0.0
  0
LINE
  5
1AD
330
2
100
AcDbEntity
  8
0
 62
     3
100
AcDbLine
 10
115.3177133245999
 20
205.0
 30
0.0
 11
115.3177133245999
 21
206.4999999999999
 31
0.0
  0
LINE
  5
1AE
330
2
100
AcDbEntity
  8
0
 62
     3
100
AcDbLine
 10
132.0171151799997
 20
199.6000213622999
 30
0.0
 11
128.2171426458999
 21
199.6000213622999
 31
0.0
  0
LINE
  5
1AF
330
2
100
AcDbEntity
  8
0
 62
     3
100
AcDbLine
 10
128.2175546331999
 20
177.3999938963999
 30
0.0
 11
132.0175271673997
 21
177.3999938963999
 31
0.0
  0
LINE
  5
1B0
330
2
100
AcDbEntity
  8
0
 62
     3
100
AcDbLine
 10
118.8172708196999
 20
169.2997589111
 30
0.0
 11
118.8172708196999
 21
168.8997344969999
 31
0.0
  0
LINE
  5
1B1
330
2
100
AcDbEntity
  8
0
 62
     3
100
AcDbLine
 10
118.8172708196999
 20
168.0999298094999
 30
0.0
 11
118.8172708196999
 21
167.6999053954999
 31
0.0
  0
LINE
  5
1B2
330
2
100
AcDbEntity
  8
0
 62
     3
100
AcDbLine
 10
118.8175149602999
 20
170.9497833251
 30
0.0
 11
118.8175149602999
 21
166.0500793456999
 31
0.0
  0
LINE
  5
1B3
330
2
100
AcDbEntity
  8
0
 62
     3
100
AcDbLine
 10
128.2175546331999
 20
171.5
 30
0.0
 11
128.2175546331999
 21
165.5000152586999
 31
0.0
  0
ARC
  5
1B4
330
2
100
AcDbEntity
  8
0
 62
     3
100
AcDbCircle
 10
144.0176339788999
 20
168.4997558592999
 30
0.0
 40
20.200012207
100
AcDbArc
 50
168.5787949053
 51
191.4211331503
  0
LINE
  5
1B5
330
2
100
AcDbEntity
  8
0
 62
     3
100
AcDbLine
 10
123.8176980657997
 20
161.1004791258999
 30
0.0
 11
123.8176980657997
 21
175.8997802734
 31
0.0
  0
LINE
  5
1B6
330
2
100
AcDbEntity
  8
0
 62
     3
100
AcDbLine
 10
127.0175424260999
 20
161.1004791258999
 30
0.0
 11
123.8176980657997
 21
161.1004791258999
 31
0.0
  0
LINE
  5
1B7
330
2
100
AcDbEntity
  8
0
 62
     3
100
AcDbLine
 10
127.0175424260999
 20
164.5004119873
 30
0.0
 11
124.2176004094999
 21
164.5004119873
 31
0.0
  0
LINE
  5
1B8
330
2
100
AcDbEntity
  8
0
 62
     3
100
AcDbLine
 10
127.0175424260999
 20
160.50050354
 30
0.0
 11
124.2176004094999
 21
160.50050354
 31
0.0
  0
LINE
  5
1B9
330
2
100
AcDbEntity
  8
0
 62
     3
100
AcDbLine
 10
124.2158429289998
 20
160.4992971793
 30
0.0
 11
123.8158657991
 21
161.0992632395
 31
0.0
  0
LINE
  5
1BA
330
2
100
AcDbEntity
  8
0
 62
     3
100
AcDbLine
 10
124.2176004094999
 20
160.5004882812
 30
0.0
 11
124.2176004094999
 21
164.5004119873
 31
0.0
  0
LINE
  5
1BB
330
2
100
AcDbEntity
  8
0
 62
     3
100
AcDbLine
 10
127.0175576848999
 20
165.5000152586999
 30
0.0
 11
127.0175576848999
 21
160.1208953857
 31
0.0
  0
LINE
  5
1BC
330
2
100
AcDbEntity
  8
0
 62
     3
100
AcDbLine
 10
127.0175576848999
 20
160.1208953857
 30
0.0
 11
128.2175546331999
 21
160.1208953857
 31
0.0
  0
LINE
  5
1BD
330
2
100
AcDbEntity
  8
0
 62
     3
100
AcDbLine
 10
128.2175546331999
 20
165.5000152586999
 30
0.0
 11
127.0175576848999
 21
165.5000152586999
 31
0.0
  0
LINE
  5
1BE
330
2
100
AcDbEntity
  8
0
 62
     3
100
AcDbLine
 10
124.2176004094999
 20
172.4998779295999
 30
0.0
 11
127.0175424260999
 21
172.4998779295999
 31
0.0
  0
LINE
  5
1BF
330
2
100
AcDbEntity
  8
0
 62
     3
100
AcDbLine
 10
123.8176980657997
 20
175.8997802734
 30
0.0
 11
127.0175424260999
 21
175.8997802734
 31
0.0
  0
LINE
  5
1C0
330
2
100
AcDbEntity
  8
0
 62
     3
100
AcDbLine
 10
124.2176004094999
 20
176.4998779296
 30
0.0
 11
127.0175424260999
 21
176.4998779296
 31
0.0
  0
LINE
  5
1C1
330
2
100
AcDbEntity
  8
0
 62
     3
100
AcDbLine
 10
123.8165448802999
 20
175.8992570656999
 30
0.0
 11
124.2165897225999
 21
176.4993246945999
 31
0.0
  0
LINE
  5
1C2
330
2
100
AcDbEntity
  8
0
 62
     3
100
AcDbLine
 10
124.2176004094999
 20
172.4998626709
 30
0.0
 11
124.2176004094999
 21
176.4998779296
 31
0.0
  0
LINE
  5
1C3
330
2
100
AcDbEntity
  8
0
 62
     3
100
AcDbLine
 10
128.2175546331999
 20
177.3999938963999
 30
0.0
 11
128.2175546331999
 21
176.8791656494
 31
0.0
  0
LINE
  5
1C4
330
2
100
AcDbEntity
  8
0
 62
     3
100
AcDbLine
 10
128.2175546331999
 20
176.8791656494
 30
0.0
 11
127.0175576848999
 21
176.8791656494
 31
0.0
  0
LINE
  5
1C5
330
2
100
AcDbEntity
  8
0
 62
     3
100
AcDbLine
 10
127.0175576848999
 20
171.5
 30
0.0
 11
128.2175546331999
 21
171.5
 31
0.0
  0
LINE
  5
1C6
330
2
100
AcDbEntity
  8
0
 62
     3
100
AcDbLine
 10
127.0175576848999
 20
176.8791656494
 30
0.0
 11
127.0175576848999
 21
171.5
 31
0.0
  0
LINE
  5
1C7
330
2
100
AcDbEntity
  8
0
 62
     3
100
AcDbLine
 10
118.8175912542999
 20
201.1002349852999
 30
0.0
 11
127.0171456975997
 21
201.1002349852999
 31
0.0
  0
LINE
  5
1C8
330
2
100
AcDbEntity
  8
0
 62
     3
100
AcDbLine
 10
115.3176980657999
 20
205.0
 30
0.0
 11
116.8177133245999
 21
205.0
 31
0.0
  0
LINE
  5
1C9
330
2
100
AcDbEntity
  8
0
 62
     3
100
AcDbLine
 10
118.8175454778999
 20
201.499710083
 30
0.0
 11
118.8175454778999
 21
201.0996856688999
 31
0.0
  0
LINE
  5
1CA
330
2
100
AcDbEntity
  8
0
 62
     3
100
AcDbLine
 10
128.2171146790997
 20
199.6000109234999
 30
0.0
 11
128.2171299378999
 21
200.1209002058
 31
0.0
  0
LINE
  5
1CB
330
2
100
AcDbEntity
  8
0
 62
     3
100
AcDbLine
 10
128.2171579047
 20
205.5000305175
 30
0.0
 11
127.0171609563998
 21
205.5000305175
 31
0.0
  0
LINE
  5
1CC
330
2
100
AcDbEntity
  8
0
 62
     3
100
AcDbLine
 10
127.0171609563998
 20
200.1209106444998
 30
0.0
 11
128.2171579047
 21
200.1209106444998
 31
0.0
  0
LINE
  5
1CD
330
2
100
AcDbEntity
  8
0
 62
     3
100
AcDbLine
 10
127.0171609563998
 20
205.5000305175
 30
0.0
 11
127.0171609563998
 21
200.1209106444998
 31
0.0
  0
LINE
  5
1CE
330
2
100
AcDbEntity
  8
0
 62
     3
100
AcDbLine
 10
135.8176485215997
 20
177.4999484097
 30
0.0
 11
143.5176955716999
 21
177.3555637225999
 31
0.0
  0
LINE
  5
1CF
330
2
100
AcDbEntity
  8
0
 62
     3
100
AcDbLine
 10
133.0175119086
 20
162.4999542236
 30
0.0
 11
133.0175119086
 21
174.4999542236
 31
0.0
  0
LINE
  5
1D0
330
2
100
AcDbEntity
  8
0
 62
     3
100
AcDbLine
 10
135.2176767035
 20
177.1999969482
 30
0.0
 11
135.2176767035
 21
159.7999725340999
 31
0.0
  0
LINE
  5
1D1
330
2
100
AcDbEntity
  8
0
 62
     3
100
AcDbLine
 10
129.0175424260999
 20
165.622177124
 30
0.0
 11
129.0175424260999
 21
164.5797271728
 31
0.0
  0
LINE
  5
1D2
330
2
100
AcDbEntity
  8
0
 62
     3
100
AcDbLine
 10
132.0175271673997
 20
164.5797271728
 30
0.0
 11
129.0175424260999
 21
164.5797271728
 31
0.0
  0
LINE
  5
1D3
330
2
100
AcDbEntity
  8
0
 62
     3
100
AcDbLine
 10
132.0175271673997
 20
163.5405120849
 30
0.0
 11
129.0175424260999
 21
163.5405120849
 31
0.0
  0
LINE
  5
1D4
330
2
100
AcDbEntity
  8
0
 62
     3
100
AcDbLine
 10
132.0175271673997
 20
162.6654968261
 30
0.0
 11
129.0175424260999
 21
162.6654968261
 31
0.0
  0
LINE
  5
1D5
330
2
100
AcDbEntity
  8
0
 62
     3
100
AcDbLine
 10
132.0175271673997
 20
161.796798706
 30
0.0
 11
129.0175424260999
 21
161.796798706
 31
0.0
  0
LINE
  5
1D6
330
2
100
AcDbEntity
  8
0
 62
     3
100
AcDbLine
 10
132.0175271673997
 20
161.1099090575999
 30
0.0
 11
129.0175424260999
 21
161.1099090575999
 31
0.0
  0
LINE
  5
1D7
330
2
100
AcDbEntity
  8
0
 62
     3
100
AcDbLine
 10
132.0175271673997
 20
160.5099182128
 30
0.0
 11
129.0175424260999
 21
160.5099182128
 31
0.0
  0
LINE
  5
1D8
330
2
100
AcDbEntity
  8
0
 62
     3
100
AcDbLine
 10
132.0175271673997
 20
160.0867919920998
 30
0.0
 11
129.0175424260999
 21
160.0867919920998
 31
0.0
  0
LINE
  5
1D9
330
2
100
AcDbEntity
  8
0
 62
     3
100
AcDbLine
 10
129.0175424260999
 20
162.6654968261
 30
0.0
 11
129.0175424260999
 21
163.5405120849
 31
0.0
  0
LINE
  5
1DA
330
2
100
AcDbEntity
  8
0
 62
     3
100
AcDbLine
 10
129.0175424260999
 20
161.1099090575999
 30
0.0
 11
129.0175424260999
 21
161.796798706
 31
0.0
  0
LINE
  5
1DB
330
2
100
AcDbEntity
  8
0
 62
     3
100
AcDbLine
 10
129.0174661321999
 20
160.5098266601
 30
0.0
 11
129.0174661321999
 21
160.0867156982
 31
0.0
  0
LINE
  5
1DC
330
2
100
AcDbEntity
  8
0
 62
     3
100
AcDbLine
 10
129.0175424260999
 20
169.1000061035
 30
0.0
 11
132.0175271673997
 21
169.1000061035
 31
0.0
  0
LINE
  5
1DD
330
2
100
AcDbEntity
  8
0
 62
     3
100
AcDbLine
 10
129.0175424260999
 20
170.1924591063999
 30
0.0
 11
132.0175271673997
 21
170.1924591063999
 31
0.0
  0
LINE
  5
1DE
330
2
100
AcDbEntity
  8
0
 62
     3
100
AcDbLine
 10
132.0175271673997
 20
167.8999938964
 30
0.0
 11
129.0175424260999
 21
167.8999938964
 31
0.0
  0
LINE
  5
1DF
330
2
100
AcDbEntity
  8
0
 62
     3
100
AcDbLine
 10
132.0175271673997
 20
166.8075408935
 30
0.0
 11
129.0175424260999
 21
166.8075408935
 31
0.0
  0
LINE
  5
1E0
330
2
100
AcDbEntity
  8
0
 62
     3
100
AcDbLine
 10
132.0175271673997
 20
165.622177124
 30
0.0
 11
129.0175424260999
 21
165.622177124
 31
0.0
  0
LINE
  5
1E1
330
2
100
AcDbEntity
  8
0
 62
     3
100
AcDbLine
 10
129.0175424260999
 20
170.1924591063999
 30
0.0
 11
129.0175424260999
 21
169.1000061035
 31
0.0
  0
LINE
  5
1E2
330
2
100
AcDbEntity
  8
0
 62
     3
100
AcDbLine
 10
129.0175424260999
 20
167.8999938964
 30
0.0
 11
129.0175424260999
 21
166.8075408935
 31
0.0
  0
LINE
  5
1E3
330
2
100
AcDbEntity
  8
0
 62
     3
100
AcDbLine
 10
134.9197183294999
 20
160.50050354
 30
0.0
 11
133.6952768010999
 21
160.50050354
 31
0.0
  0
LINE
  5
1E4
330
2
100
AcDbEntity
  8
0
 62
     3
100
AcDbLine
 10
135.2176767035
 20
161.1004791258999
 30
0.0
 11
133.4919076604998
 21
161.1004791258999
 31
0.0
  0
LINE
  5
1E5
330
2
100
AcDbEntity
  8
0
 62
     3
100
AcDbLine
 10
135.2176767035
 20
164.5004119873
 30
0.0
 11
133.0175119086
 21
164.5004119873
 31
0.0
  0
LINE
  5
1E6
330
2
100
AcDbEntity
  8
0
 62
     3
100
AcDbLine
 10
133.0175221728
 20
162.4999582459
 30
0.0
 11
133.9086833527999
 21
159.8709841536
 31
0.0
  0
LINE
  5
1E7
330
2
100
AcDbEntity
  8
0
 62
     3
100
AcDbLine
 10
135.2194183032999
 20
161.0998286381
 30
0.0
 11
134.9194318787999
 21
160.499871062
 31
0.0
  0
LINE
  5
1E8
330
2
100
AcDbEntity
  8
0
 62
     3
100
AcDbLine
 10
135.2176767035
 20
159.7999877929
 30
0.0
 11
135.8176828069999
 21
159.7999877929
 31
0.0
  0
LINE
  5
1E9
330
2
100
AcDbEntity
  8
0
 62
     3
100
AcDbLine
 10
132.0175119086
 20
177.4499969482
 30
0.0
 11
132.9616189642
 21
177.4499969482
 31
0.0
  0
LINE
  5
1EA
330
2
100
AcDbEntity
  8
0
 62
     3
100
AcDbLine
 10
132.0175191633997
 20
174.6648249627999
 30
0.0
 11
132.9616237812
 21
177.4499707544999
 31
0.0
  0
LINE
  5
1EB
330
2
100
AcDbEntity
  8
0
 62
     3
100
AcDbLine
 10
129.0175424260999
 20
176.9132080077999
 30
0.0
 11
132.0175271673997
 21
176.9132080077999
 31
0.0
  0
LINE
  5
1EC
330
2
100
AcDbEntity
  8
0
 62
     3
100
AcDbLine
 10
129.0175424260999
 20
171.3778228758999
 30
0.0
 11
132.0175271673997
 21
171.3778228758999
 31
0.0
  0
LINE
  5
1ED
330
2
100
AcDbEntity
  8
0
 62
     3
100
AcDbLine
 10
129.0175424260999
 20
172.4202728270999
 30
0.0
 11
132.0175271673997
 21
172.4202728270999
 31
0.0
  0
LINE
  5
1EE
330
2
100
AcDbEntity
  8
0
 62
     3
100
AcDbLine
 10
129.0175424260999
 20
173.459487915
 30
0.0
 11
132.0175271673997
 21
173.459487915
 31
0.0
  0
LINE
  5
1EF
330
2
100
AcDbEntity
  8
0
 62
     3
100
AcDbLine
 10
129.0175424260999
 20
174.3345031737999
 30
0.0
 11
132.0175271673997
 21
174.3345031737999
 31
0.0
  0
LINE
  5
1F0
330
2
100
AcDbEntity
  8
0
 62
     3
100
AcDbLine
 10
129.0175424260999
 20
175.2032012938999
 30
0.0
 11
132.0175271673997
 21
175.2032012938999
 31
0.0
  0
LINE
  5
1F1
330
2
100
AcDbEntity
  8
0
 62
     3
100
AcDbLine
 10
129.0175424260999
 20
175.8900909422998
 30
0.0
 11
132.0175271673997
 21
175.8900909422998
 31
0.0
  0
LINE
  5
1F2
330
2
100
AcDbEntity
  8
0
 62
     3
100
AcDbLine
 10
129.0175424260999
 20
176.4900817870999
 30
0.0
 11
132.0175271673997
 21
176.4900817870999
 31
0.0
  0
LINE
  5
1F3
330
2
100
AcDbEntity
  8
0
 62
     3
100
AcDbLine
 10
129.0175424260999
 20
172.4202728270999
 30
0.0
 11
129.0175424260999
 21
171.3778228758999
 31
0.0
  0
LINE
  5
1F4
330
2
100
AcDbEntity
  8
0
 62
     3
100
AcDbLine
 10
129.0175424260999
 20
173.459487915
 30
0.0
 11
129.0175424260999
 21
174.3345031737999
 31
0.0
  0
LINE
  5
1F5
330
2
100
AcDbEntity
  8
0
 62
     3
100
AcDbLine
 10
129.0175424260999
 20
175.2032012938999
 30
0.0
 11
129.0175424260999
 21
175.8900909422998
 31
0.0
  0
LINE
  5
1F6
330
2
100
AcDbEntity
  8
0
 62
     3
100
AcDbLine
 10
129.0176034612999
 20
176.9132537840999
 30
0.0
 11
129.0176034612999
 21
176.4901428222
 31
0.0
  0
LINE
  5
1F7
330
2
100
AcDbEntity
  8
0
 62
     3
100
AcDbLine
 10
133.0175161133997
 20
174.4999818908
 30
0.0
 11
133.9086716325999
 21
177.1289257572999
 31
0.0
  0
LINE
  5
1F8
330
2
100
AcDbEntity
  8
0
 62
     3
100
AcDbLine
 10
133.4920144719999
 20
175.8997802734
 30
0.0
 11
135.2176767035
 21
175.8997802734
 31
0.0
  0
LINE
  5
1F9
330
2
100
AcDbEntity
  8
0
 62
     3
100
AcDbLine
 10
133.0175119086
 20
172.4998779295999
 30
0.0
 11
135.2176767035
 21
172.4998779295999
 31
0.0
  0
LINE
  5
1FA
330
2
100
AcDbEntity
  8
0
 62
     3
100
AcDbLine
 10
133.6954446477999
 20
176.4998779296
 30
0.0
 11
134.9184060735999
 21
176.4998779296
 31
0.0
  0
LINE
  5
1FB
330
2
100
AcDbEntity
  8
0
 62
     3
100
AcDbLine
 10
135.2186732528999
 20
175.8991713672
 30
0.0
 11
134.9186811418999
 21
176.4992625589
 31
0.0
  0
LINE
  5
1FC
330
2
100
AcDbEntity
  8
0
 62
     3
100
AcDbLine
 10
132.9616426226999
 20
177.4499630426998
 30
0.0
 11
133.9086924522
 21
177.1289240328998
 31
0.0
  0
LINE
  5
1FD
330
2
100
AcDbEntity
  8
0
 62
     3
100
AcDbLine
 10
135.2176767035
 20
177.1999969482
 30
0.0
 11
135.8176828069999
 21
177.1999969482
 31
0.0
  0
LINE
  5
1FE
330
2
100
AcDbEntity
  8
0
 62
     3
100
AcDbLine
 10
143.5176622081999
 20
199.6442944776999
 30
0.0
 11
135.8176146990997
 21
199.4999244798
 31
0.0
  0
LINE
  5
1FF
330
2
100
AcDbEntity
  8
0
 62
     3
100
AcDbLine
 10
132.0171304387999
 20
199.5502471922998
 30
0.0
 11
132.9612222356999
 21
199.5502471922998
 31
0.0
  0
LINE
  5
200
330
2
100
AcDbEntity
  8
0
 62
     3
100
AcDbLine
 10
132.0171585454999
 20
202.3353104457
 30
0.0
 11
132.9612440852999
 21
199.550206605
 31
0.0
  0
LINE
  5
201
330
2
100
AcDbEntity
  8
0
 62
     3
100
AcDbLine
 10
132.0171304387999
 20
205.6221923828
 30
0.0
 11
129.0171456975999
 21
205.6221923828
 31
0.0
  0
LINE
  5
202
330
2
100
AcDbEntity
  8
0
 62
     3
100
AcDbLine
 10
132.0171304387999
 20
200.0868072508999
 30
0.0
 11
129.0171456975999
 21
200.0868072508999
 31
0.0
  0
LINE
  5
203
330
2
100
AcDbEntity
  8
0
 62
     3
100
AcDbLine
 10
132.0171304387999
 20
200.5099334715999
 30
0.0
 11
129.0171456975999
 21
200.5099334715999
 31
0.0
  0
LINE
  5
204
330
2
100
AcDbEntity
  8
0
 62
     3
100
AcDbLine
 10
132.0171304387999
 20
201.1099243163999
 30
0.0
 11
129.0171456975999
 21
201.1099243163999
 31
0.0
  0
LINE
  5
205
330
2
100
AcDbEntity
  8
0
 62
     3
100
AcDbLine
 10
132.0171304387999
 20
201.7968139648
 30
0.0
 11
129.0171456975999
 21
201.7968139648
 31
0.0
  0
LINE
  5
206
330
2
100
AcDbEntity
  8
0
 62
     3
100
AcDbLine
 10
132.0171304387999
 20
202.6655120849
 30
0.0
 11
129.0171456975999
 21
202.6655120849
 31
0.0
  0
LINE
  5
207
330
2
100
AcDbEntity
  8
0
 62
     3
100
AcDbLine
 10
132.0171304387999
 20
203.5405273436999
 30
0.0
 11
129.0171456975999
 21
203.5405273436999
 31
0.0
  0
LINE
  5
208
330
2
100
AcDbEntity
  8
0
 62
     3
100
AcDbLine
 10
132.0171304387999
 20
204.5797424315999
 30
0.0
 11
129.0171456975999
 21
204.5797424315999
 31
0.0
  0
LINE
  5
209
330
2
100
AcDbEntity
  8
0
 62
     3
100
AcDbLine
 10
129.0170236272998
 20
200.5098266600999
 30
0.0
 11
129.0170236272998
 21
200.0867156982
 31
0.0
  0
LINE
  5
20A
330
2
100
AcDbEntity
  8
0
 62
     3
100
AcDbLine
 10
129.0171456975999
 20
201.1099243163999
 30
0.0
 11
129.0171456975999
 21
201.7968139648
 31
0.0
  0
LINE
  5
20B
330
2
100
AcDbEntity
  8
0
 62
     3
100
AcDbLine
 10
129.0171456975999
 20
202.6655120849
 30
0.0
 11
129.0171456975999
 21
203.5405273436999
 31
0.0
  0
LINE
  5
20C
330
2
100
AcDbEntity
  8
0
 62
     3
100
AcDbLine
 10
129.0171456975999
 20
205.6221923828
 30
0.0
 11
129.0171456975999
 21
204.5797424315999
 31
0.0
  0
LINE
  5
20D
330
2
100
AcDbEntity
  8
0
 62
     3
100
AcDbLine
 10
133.0171505832999
 20
202.5002146518999
 30
0.0
 11
133.9083117633
 21
199.8712405595999
 31
0.0
  0
LINE
  5
20E
330
2
100
AcDbEntity
  8
0
 62
     3
100
AcDbLine
 10
132.9612252512999
 20
199.550198955
 30
0.0
 11
133.9082941809999
 21
199.8712291544999
 31
0.0
  0
LINE
  5
20F
330
2
100
AcDbEntity
  8
0
 62
     3
100
AcDbLine
 10
135.2176767035
 20
199.8002471923
 30
0.0
 11
135.8176828069999
 21
199.8002471923
 31
0.0
  0
LINE
  5
210
330
2
100
AcDbEntity
  8
0
 62
     3
100
AcDbLine
 10
133.4916940375
 20
201.1002349852999
 30
0.0
 11
135.2176767035
 21
201.1002349852999
 31
0.0
  0
LINE
  5
211
330
2
100
AcDbEntity
  8
0
 62
     3
100
AcDbLine
 10
128.2171579047
 20
217.4000091551998
 30
0.0
 11
132.0171304387999
 21
217.4000091551998
 31
0.0
  0
LINE
  5
212
330
2
100
AcDbEntity
  8
0
 62
     3
100
AcDbLine
 10
127.0171456975997
 20
215.9001617431
 30
0.0
 11
118.8175912542999
 21
215.9001617431
 31
0.0
  0
LINE
  5
213
330
2
100
AcDbEntity
  8
0
 62
     3
100
AcDbLine
 10
116.8177133245999
 20
210.4999999999999
 30
0.0
 11
116.8177133245999
 21
212.0
 31
0.0
  0
LINE
  5
214
330
2
100
AcDbEntity
  8
0
 62
     3
100
AcDbLine
 10
115.3177133245999
 20
210.4999999999999
 30
0.0
 11
115.3177133245999
 21
212.0
 31
0.0
  0
LINE
  5
215
330
2
100
AcDbEntity
  8
0
 62
     3
100
AcDbLine
 10
115.3175759954998
 20
210.4999999999999
 30
0.0
 11
116.8177133245999
 21
210.4999999999999
 31
0.0
  0
LINE
  5
216
330
2
100
AcDbEntity
  8
0
 62
     3
100
AcDbLine
 10
115.3176980657999
 20
206.4999999999999
 30
0.0
 11
116.8177133245999
 21
206.4999999999999
 31
0.0
  0
LINE
  5
217
330
2
100
AcDbEntity
  8
0
 62
     3
100
AcDbLine
 10
115.3176980657999
 20
206.8001708984
 30
0.0
 11
116.8177133245999
 21
206.8001708984
 31
0.0
  0
LINE
  5
218
330
2
100
AcDbEntity
  8
0
 62
     3
100
AcDbLine
 10
115.3176980657999
 20
210.2001953124999
 30
0.0
 11
116.8177133245999
 21
210.2001953124999
 31
0.0
  0
LINE
  5
219
330
2
100
AcDbEntity
  8
0
 62
     3
100
AcDbLine
 10
115.3175454778999
 20
210.1994323729999
 30
0.0
 11
115.3175454778999
 21
206.7995452879999
 31
0.0
  0
LINE
  5
21A
330
2
100
AcDbEntity
  8
0
 62
     3
100
AcDbLine
 10
116.8175454778999
 20
210.1994323729999
 30
0.0
 11
116.8175454778999
 21
206.7995452879999
 31
0.0
  0
LINE
  5
21B
330
2
100
AcDbEntity
  8
0
 62
     3
100
AcDbLine
 10
115.3176980657999
 20
212.0
 30
0.0
 11
116.8177133245999
 21
212.0
 31
0.0
  0
LINE
  5
21C
330
2
100
AcDbEntity
  8
0
 62
     3
100
AcDbLine
 10
118.8172601668999
 20
215.8996680871998
 30
0.0
 11
118.8172525374999
 21
215.4997657433999
 31
0.0
  0
LINE
  5
21D
330
2
100
AcDbEntity
  8
0
 62
     3
100
AcDbLine
 10
128.2171579047
 20
217.4000091551998
 30
0.0
 11
128.2171579047
 21
216.8791809082
 31
0.0
  0
LINE
  5
21E
330
2
100
AcDbEntity
  8
0
 62
     3
100
AcDbLine
 10
123.8177133245999
 20
209.2002563475999
 30
0.0
 11
128.2171426458999
 21
209.2002563475999
 31
0.0
  0
LINE
  5
21F
330
2
100
AcDbEntity
  8
0
 62
     3
100
AcDbLine
 10
124.2700753850999
 20
207.8002471922999
 30
0.0
 11
128.2171426458999
 21
207.8002471922999
 31
0.0
  0
LINE
  5
220
330
2
100
AcDbEntity
  8
0
 62
     3
100
AcDbLine
 10
125.2171968103999
 20
215.9006246809
 30
0.0
 11
125.6699261660999
 21
209.2002190091
 31
0.0
  0
LINE
  5
221
330
2
100
AcDbEntity
  8
0
 62
     3
100
AcDbLine
 10
124.7219705409999
 20
215.9002435175
 30
0.0
 11
125.1746741802999
 21
209.2002184475998
 31
0.0
  0
LINE
  5
222
330
2
100
AcDbEntity
  8
0
 62
     3
100
AcDbLine
 10
124.6746506807999
 20
209.2002166522999
 30
0.0
 11
124.2219182391999
 21
215.9006679962998
 31
0.0
  0
LINE
  5
223
330
2
100
AcDbEntity
  8
0
 62
     3
100
AcDbLine
 10
124.1735106803999
 20
209.2002158858
 30
0.0
 11
123.8176916724997
 21
214.4663460122
 31
0.0
  0
LINE
  5
224
330
2
100
AcDbEntity
  8
0
 62
     3
100
AcDbLine
 10
124.2696870332999
 20
207.7987684339999
 30
0.0
 11
123.8661593917
 21
206.3539391481
 31
0.0
  0
LINE
  5
225
330
2
100
AcDbEntity
  8
0
 62
     3
100
AcDbLine
 10
124.4047430762999
 20
205.8033143344998
 30
0.0
 11
123.8664267817
 21
206.3540503113999
 31
0.0
  0
LINE
  5
226
330
2
100
AcDbEntity
  8
0
 62
     3
100
AcDbLine
 10
124.8645958431999
 20
206.4220380638
 30
0.0
 11
124.2704067059999
 21
207.7993322763999
 31
0.0
  0
LINE
  5
227
330
2
100
AcDbEntity
  8
0
 62
     3
100
AcDbLine
 10
124.8639826196999
 20
206.421987535
 30
0.0
 11
124.4046123154999
 21
205.8036954753998
 31
0.0
  0
LINE
  5
228
330
2
100
AcDbEntity
  8
0
 62
     3
100
AcDbLine
 10
128.2171579047
 20
216.8791809082
 30
0.0
 11
127.0171609563998
 21
216.8791809082
 31
0.0
  0
LINE
  5
229
330
2
100
AcDbEntity
  8
0
 62
     3
100
AcDbLine
 10
127.0171609563998
 20
211.5000152586997
 30
0.0
 11
128.2171579047
 21
211.5000152586997
 31
0.0
  0
LINE
  5
22A
330
2
100
AcDbEntity
  8
0
 62
     3
100
AcDbLine
 10
127.0171609563998
 20
216.8791809082
 30
0.0
 11
127.0171609563998
 21
211.5000152586997
 31
0.0
  0
LINE
  5
22B
330
2
100
AcDbEntity
  8
0
 62
     3
100
AcDbLine
 10
135.8176225414998
 20
217.4998983535
 30
0.0
 11
143.5176543354998
 21
217.3555139524999
 31
0.0
  0
LINE
  5
22C
330
2
100
AcDbEntity
  8
0
 62
     3
100
AcDbLine
 10
132.9612569692999
 20
217.4502005777998
 30
0.0
 11
133.9083212497999
 21
217.1291566691999
 31
0.0
  0
LINE
  5
22D
330
2
100
AcDbEntity
  8
0
 62
     3
100
AcDbLine
 10
132.0171310682
 20
214.6650578316998
 30
0.0
 11
132.9612356858999
 21
217.4502036234998
 31
0.0
  0
LINE
  5
22E
330
2
100
AcDbEntity
  8
0
 62
     3
100
AcDbLine
 10
129.0171456975999
 20
212.4202880859
 30
0.0
 11
129.0171456975999
 21
211.3778381347
 31
0.0
  0
LINE
  5
22F
330
2
100
AcDbEntity
  8
0
 62
     3
100
AcDbLine
 10
129.0171456975999
 20
211.3778381347
 30
0.0
 11
132.0171304387999
 21
211.3778381347
 31
0.0
  0
LINE
  5
230
330
2
100
AcDbEntity
  8
0
 62
     3
100
AcDbLine
 10
132.0171304387999
 20
206.8075561522999
 30
0.0
 11
129.0171456975999
 21
206.8075561522999
 31
0.0
  0
LINE
  5
231
330
2
100
AcDbEntity
  8
0
 62
     3
100
AcDbLine
 10
132.0171304387999
 20
207.9000091551999
 30
0.0
 11
129.0171456975999
 21
207.9000091551999
 31
0.0
  0
LINE
  5
232
330
2
100
AcDbEntity
  8
0
 62
     3
100
AcDbLine
 10
129.0171456975999
 20
210.1924743651998
 30
0.0
 11
132.0171304387999
 21
210.1924743651998
 31
0.0
  0
LINE
  5
233
330
2
100
AcDbEntity
  8
0
 62
     3
100
AcDbLine
 10
129.0171456975999
 20
209.1000213622999
 30
0.0
 11
132.0171304387999
 21
209.1000213622999
 31
0.0
  0
LINE
  5
234
330
2
100
AcDbEntity
  8
0
 62
     3
100
AcDbLine
 10
129.0171456975999
 20
207.9000091551999
 30
0.0
 11
129.0171456975999
 21
206.8075561522999
 31
0.0
  0
LINE
  5
235
330
2
100
AcDbEntity
  8
0
 62
     3
100
AcDbLine
 10
129.0171456975999
 20
210.1924743651998
 30
0.0
 11
129.0171456975999
 21
209.1000213622999
 31
0.0
  0
LINE
  5
236
330
2
100
AcDbEntity
  8
0
 62
     3
100
AcDbLine
 10
129.0171456975999
 20
216.9132232666
 30
0.0
 11
132.0171304387999
 21
216.9132232666
 31
0.0
  0
LINE
  5
237
330
2
100
AcDbEntity
  8
0
 62
     3
100
AcDbLine
 10
129.0171456975999
 20
216.4900970459
 30
0.0
 11
132.0171304387999
 21
216.4900970459
 31
0.0
  0
LINE
  5
238
330
2
100
AcDbEntity
  8
0
 62
     3
100
AcDbLine
 10
129.0171456975999
 20
215.8901062010998
 30
0.0
 11
132.0171304387999
 21
215.8901062010998
 31
0.0
  0
LINE
  5
239
330
2
100
AcDbEntity
  8
0
 62
     3
100
AcDbLine
 10
129.0171456975999
 20
215.2032165526998
 30
0.0
 11
132.0171304387999
 21
215.2032165526998
 31
0.0
  0
LINE
  5
23A
330
2
100
AcDbEntity
  8
0
 62
     3
100
AcDbLine
 10
129.0171456975999
 20
214.3345184325998
 30
0.0
 11
132.0171304387999
 21
214.3345184325998
 31
0.0
  0
LINE
  5
23B
330
2
100
AcDbEntity
  8
0
 62
     3
100
AcDbLine
 10
129.0171456975999
 20
213.4595031737998
 30
0.0
 11
132.0171304387999
 21
213.4595031737998
 31
0.0
  0
LINE
  5
23C
330
2
100
AcDbEntity
  8
0
 62
     3
100
AcDbLine
 10
129.0171456975999
 20
212.4202880859
 30
0.0
 11
132.0171304387999
 21
212.4202880859
 31
0.0
  0
LINE
  5
23D
330
2
100
AcDbEntity
  8
0
 62
     3
100
AcDbLine
 10
129.0172219915999
 20
216.9132690428998
 30
0.0
 11
129.0172219915999
 21
216.4901580809999
 31
0.0
  0
LINE
  5
23E
330
2
100
AcDbEntity
  8
0
 62
     3
100
AcDbLine
 10
129.0171456975999
 20
215.2032165526998
 30
0.0
 11
129.0171456975999
 21
215.8901062010998
 31
0.0
  0
LINE
  5
23F
330
2
100
AcDbEntity
  8
0
 62
     3
100
AcDbLine
 10
129.0171456975999
 20
213.4595031737998
 30
0.0
 11
129.0171456975999
 21
214.3345184325998
 31
0.0
  0
LINE
  5
240
330
2
100
AcDbEntity
  8
0
 62
     3
100
AcDbLine
 10
133.0171304387999
 20
209.2002563475999
 30
0.0
 11
135.2176767035
 21
209.2002563475999
 31
0.0
  0
LINE
  5
241
330
2
100
AcDbEntity
  8
0
 62
     3
100
AcDbLine
 10
133.0171304387999
 20
207.8002471922999
 30
0.0
 11
135.2176767035
 21
207.8002471922999
 31
0.0
  0
LINE
  5
242
330
2
100
AcDbEntity
  8
0
 62
     3
100
AcDbLine
 10
135.2176767035
 20
215.9001617431
 30
0.0
 11
133.4916940375
 21
215.9001617431
 31
0.0
  0
LINE
  5
243
330
2
100
AcDbEntity
  8
0
 62
     3
100
AcDbLine
 10
133.0171424692997
 20
214.5002098611997
 30
0.0
 11
133.9082979884999
 21
217.1291537275999
 31
0.0
  0
LINE
  5
244
330
2
100
AcDbEntity
  8
0
 62
     3
100
AcDbLine
 10
135.2176767035
 20
217.2002410888
 30
0.0
 11
135.8176828069999
 21
217.2002410888
 31
0.0
  0
LINE
  5
245
330
2
100
AcDbEntity
  8
0
 62
     3
100
AcDbLine
 10
132.0171304387999
 20
217.4502563475999
 30
0.0
 11
132.9612374944999
 21
217.4502563475999
 31
0.0
  0
LINE
  5
246
330
2
100
AcDbEntity
  8
0
 62
     3
100
AcDbLine
 10
192.5149098980998
 20
159.4998332725
 30
0.0
 11
192.814946623
 21
159.7998705538
 31
0.0
  0
LINE
  5
247
330
2
100
AcDbEntity
  8
0
 62
     3
100
AcDbLine
 10
192.5145090628998
 20
159.4995522023
 30
0.0
 11
192.2143767371998
 21
159.7994938827
 31
0.0
  0
LINE
  5
248
330
2
100
AcDbEntity
  8
0
  6
CENTER
 62
     3
100
AcDbLine
 10
183.8140817328
 20
157.0001678466
 30
0.0
 11
183.8140817328
 21
180.0001525877999
 31
0.0
  0
LINE
  5
249
330
2
100
AcDbEntity
  8
0
 62
     3
100
AcDbLine
 10
175.4146303325
 20
159.7997461383999
 30
0.0
 11
175.1147544871998
 21
159.4998932443999
 31
0.0
  0
LINE
  5
24A
330
2
100
AcDbEntity
  8
0
 62
     3
100
AcDbLine
 10
175.1147354122999
 20
159.4994960737
 30
0.0
 11
174.8147851556999
 21
159.7994471898998
 31
0.0
  0
ARC
  5
24B
330
2
100
AcDbEntity
  8
0
 62
     3
100
AcDbCircle
 10
183.8140817328
 20
168.4999847412
 30
0.0
 40
7.7999992371
100
AcDbArc
 50
141.6259109689
 51
308.3740890311
  0
TEXT
  5
24C
330
2
100
AcDbEntity
  8
0
 62
     5
100
AcDbText
 10
145.0
 20
10.0
 30
0.0
 40
5.0
  1
ＭＡ４－Ｈ０１２３６Ｃ
 41
0.8443967743953098
 72
     5
 11
199.0413935612998
 21
10.0
 31
0.0
100
AcDbText
  0
LINE
  5
24D
330
2
100
AcDbEntity
  8
0
 62
     3
100
AcDbLine
 10
192.514154975
 20
159.5001678465999
 30
0.0
 11
175.1150003118999
 21
159.5001678465999
 31
0.0
  0
LINE
  5
24E
330
2
100
AcDbEntity
  8
0
 62
     3
100
AcDbLine
 10
182.9140420599
 20
159.4999847411999
 30
0.0
 11
184.7140451117
 21
159.4999847411999
 31
0.0
  0
LINE
  5
24F
330
2
100
AcDbEntity
  8
0
  6
CENTER
 62
     3
100
AcDbLine
 10
172.3143411321998
 20
168.5
 30
0.0
 11
195.3139596625
 21
168.5
 31
0.0
  0
ARC
  5
250
330
2
100
AcDbEntity
  8
0
 62
     3
100
AcDbCircle
 10
152.3108316106998
 20
207.8636322020999
 30
0.0
 40
9.506862640399999
100
AcDbArc
 50
321.88009611
 51
0.0
  0
ARC
  5
251
330
2
100
AcDbEntity
  8
0
 62
     3
100
AcDbCircle
 10
152.3108316106998
 20
209.1364135741999
 30
0.0
 40
9.506862640399999
100
AcDbArc
 50
321.88009611
 51
38.11990388999996
  0
ARC
  5
252
330
2
100
AcDbEntity
  8
0
 62
     3
100
AcDbCircle
 10
151.8875222844999
 20
209.1364135741999
 30
0.0
 40
8.9301567078
100
AcDbArc
 50
323.8352958166
 51
36.16470418339995
  0
LINE
  5
253
330
2
100
AcDbEntity
  8
0
 62
     3
100
AcDbLine
 10
154.3176522893999
 20
205.6008911131999
 30
0.0
 11
154.3176522893999
 21
212.6719360350999
 31
0.0
  0
LINE
  5
254
330
2
100
AcDbEntity
  8
0
 62
     3
100
AcDbLine
 10
151.3176522893999
 20
212.6719360350999
 30
0.0
 11
151.3176522893999
 21
205.6008911131999
 31
0.0
  0
ARC
  5
255
330
2
100
AcDbEntity
  8
0
 62
     3
100
AcDbCircle
 10
157.3245492620999
 20
209.1364135741999
 30
0.0
 40
9.506862640399999
100
AcDbArc
 50
197.2945120828
 51
218.1199227866998
  0
LINE
  5
256
330
2
100
AcDbEntity
  8
0
 62
     3
100
AcDbLine
 10
144.8176828069999
 20
201.1999816893999
 30
0.0
 11
144.8176828069999
 21
215.8001251219999
 31
0.0
  0
LINE
  5
257
330
2
100
AcDbEntity
  8
0
 62
     3
100
AcDbLine
 10
143.8176828069999
 20
199.9557647705
 30
0.0
 11
143.8176828069999
 21
217.0441741942998
 31
0.0
  0
ARC
  5
258
330
2
100
AcDbEntity
  8
0
 62
     3
100
AcDbCircle
 10
157.7478433294999
 20
209.1364135741999
 30
0.0
 40
8.9301567078
100
AcDbArc
 50
143.8352598444
 51
216.1646682113
  0
ARC
  5
259
330
2
100
AcDbEntity
  8
0
 62
     3
100
AcDbCircle
 10
154.8176828069999
 20
227.3276519774999
 30
0.0
 40
23.8480834961
100
AcDbArc
 50
259.6627179226
 51
280.3373180496
  0
LINE
  5
25A
330
2
100
AcDbEntity
  8
0
 62
     3
100
AcDbLine
 10
158.3656943435999
 20
164.9618138209999
 30
0.0
 11
157.9297779473999
 21
165.0321675376
 31
0.0
  0
LINE
  5
25B
330
2
100
AcDbEntity
  8
0
 62
     3
100
AcDbLine
 10
157.9297779473999
 20
162.9167765541
 30
0.0
 11
158.3656943435999
 21
162.9871302706999
 31
0.0
  0
LINE
  5
25C
330
2
100
AcDbEntity
  8
0
 62
     3
100
AcDbLine
 10
158.1623447277999
 20
164.2149712961
 30
0.0
 11
158.4884581711999
 21
164.2985531769999
 31
0.0
  0
ARC
  5
25D
330
2
100
AcDbEntity
  8
0
 62
     3
100
AcDbCircle
 10
154.8176828069999
 20
186.0547943115
 30
0.0
 40
23.8480834961
100
AcDbArc
 50
259.6627179226
 51
280.3373180496
  0
ARC
  5
25E
330
2
100
AcDbEntity
  8
0
 62
     3
100
AcDbCircle
 10
154.8176828069999
 20
149.6723327635999
 30
0.0
 40
23.8480834961
100
AcDbArc
 50
79.6626819504
 51
100.3372820774
  0
ARC
  5
25F
330
2
100
AcDbEntity
  8
0
 62
     3
100
AcDbCircle
 10
154.8176828069999
 20
149.02003479
 30
0.0
 40
25.2074737549
100
AcDbArc
 50
78.6232910833
 51
101.3766183030998
  0
ARC
  5
260
330
2
100
AcDbEntity
  8
0
 62
     3
100
AcDbCircle
 10
154.8176828069999
 20
186.7070922850999
 30
0.0
 40
25.2074737549
100
AcDbArc
 50
258.6233816968999
 51
281.3767089166999
  0
ARC
  5
261
330
2
100
AcDbEntity
  8
0
 62
     3
100
AcDbCircle
 10
154.8176828069999
 20
150.2928161620999
 30
0.0
 40
25.2074737549
100
AcDbArc
 50
78.6232910833
 51
101.3766183030998
  0
ARC
  5
262
330
2
100
AcDbEntity
  8
0
 62
     3
100
AcDbCircle
 10
154.8176828069999
 20
227.9799499510998
 30
0.0
 40
25.2074737549
100
AcDbArc
 50
258.6233816968999
 51
281.3767089166999
  0
ARC
  5
263
330
2
100
AcDbEntity
  8
0
 62
     3
100
AcDbCircle
 10
154.8176828069999
 20
226.7071533202999
 30
0.0
 40
25.2074737549
100
AcDbArc
 50
258.6233816968999
 51
281.3767089166999
  0
ARC
  5
264
330
2
100
AcDbEntity
  8
0
 62
     3
100
AcDbCircle
 10
157.3245492620999
 20
167.8635711669
 30
0.0
 40
9.506862640399999
100
AcDbArc
 50
141.8800772133
 51
162.7054879172
  0
LINE
  5
265
330
2
100
AcDbEntity
  8
0
 62
     3
100
AcDbLine
 10
144.8176828069999
 20
161.1999664305998
 30
0.0
 11
144.8176828069999
 21
175.8001098632
 31
0.0
  0
LINE
  5
266
330
2
100
AcDbEntity
  8
0
 62
     3
100
AcDbLine
 10
143.8176828069999
 20
159.9557495116999
 30
0.0
 11
143.8176828069999
 21
177.0441589354999
 31
0.0
  0
ARC
  5
267
330
2
100
AcDbEntity
  8
0
 62
     3
100
AcDbCircle
 10
157.7478433294999
 20
167.8635711669
 30
0.0
 40
8.9301567078
100
AcDbArc
 50
143.8352598444
 51
216.1646682113
  0
LINE
  5
268
330
2
100
AcDbEntity
  8
0
 62
     3
100
AcDbLine
 10
144.8176828069999
 20
170.3384399414
 30
0.0
 11
147.7701059026998
 21
170.3384399414
 31
0.0
  0
LINE
  5
269
330
2
100
AcDbEntity
  8
0
 62
     3
100
AcDbLine
 10
144.8176828069999
 20
165.3886871336998
 30
0.0
 11
147.5517984076
 21
165.3886871336998
 31
0.0
  0
LINE
  5
26A
330
2
100
AcDbEntity
  8
0
 62
     3
100
AcDbLine
 10
143.8176828069999
 20
160.6999664306
 30
0.0
 11
144.3176828069999
 21
160.6999664306
 31
0.0
  0
ARC
  5
26B
330
2
100
AcDbEntity
  8
0
 62
     3
100
AcDbCircle
 10
144.3176828069999
 20
161.1999664305998
 30
0.0
 40
0.5
100
AcDbArc
 50
270.0000179861
 51
0.0
  0
ARC
  5
26C
330
2
100
AcDbEntity
  8
0
 62
     3
100
AcDbCircle
 10
144.0859018010999
 20
158.915649414
 30
0.0
 40
10.0
100
AcDbArc
 50
74.14651189369998
 51
85.80345914629999
  0
LINE
  5
26D
330
2
100
AcDbEntity
  8
0
 62
     3
100
AcDbLine
 10
144.8176828069999
 20
168.5352783203
 30
0.0
 11
146.8176828069999
 21
168.5352783203
 31
0.0
  0
LINE
  5
26E
330
2
100
AcDbEntity
  8
0
 62
     3
100
AcDbLine
 10
144.8176828069999
 20
170.1615753172999
 30
0.0
 11
146.8176828069999
 21
170.1615753172999
 31
0.0
  0
LINE
  5
26F
330
2
100
AcDbEntity
  8
0
 62
     3
100
AcDbLine
 10
146.8176828069999
 20
170.1615753172999
 30
0.0
 11
146.8176828069999
 21
168.5352783203
 31
0.0
  0
ARC
  5
270
330
2
100
AcDbEntity
  8
0
 62
     3
100
AcDbCircle
 10
147.5517984076
 20
164.5886840819999
 30
0.0
 40
0.8000000119
100
AcDbArc
 50
18.52613338779998
 51
89.99998201389999
  0
ARC
  5
271
330
2
100
AcDbEntity
  8
0
 62
     3
100
AcDbCircle
 10
157.3245492620999
 20
167.8635711669
 30
0.0
 40
9.506862640399999
100
AcDbArc
 50
198.5261317938999
 51
218.1199227866998
  0
ARC
  5
272
330
2
100
AcDbEntity
  8
0
 62
     3
100
AcDbCircle
 10
147.7701059026998
 20
170.8384399414
 30
0.0
 40
0.5
100
AcDbArc
 50
270.0000179861
 51
342.7054931535999
  0
LINE
  5
273
330
2
100
AcDbEntity
  8
0
 62
     3
100
AcDbLine
 10
144.8176828069999
 20
171.6112213134
 30
0.0
 11
147.7701059026998
 21
171.6112213134
 31
0.0
  0
LINE
  5
274
330
2
100
AcDbEntity
  8
0
 62
     3
100
AcDbLine
 10
143.8176828069999
 20
176.3001098631999
 30
0.0
 11
144.3176828069999
 21
176.3001098631999
 31
0.0
  0
ARC
  5
275
330
2
100
AcDbEntity
  8
0
 62
     3
100
AcDbCircle
 10
144.3176828069999
 20
175.8001098632
 30
0.0
 40
0.5
100
AcDbArc
 50
0.0
 51
89.99998201389999
  0
ARC
  5
276
330
2
100
AcDbEntity
  8
0
 62
     3
100
AcDbCircle
 10
157.3245492620999
 20
169.136352539
 30
0.0
 40
9.506862640399999
100
AcDbArc
 50
141.8800772133
 51
162.7054879172
  0
ARC
  5
277
330
2
100
AcDbEntity
  8
0
 62
     3
100
AcDbCircle
 10
147.7701059026998
 20
172.1112213133999
 30
0.0
 40
0.5
100
AcDbArc
 50
270.0000179861
 51
342.7054931535999
  0
LINE
  5
278
330
2
100
AcDbEntity
  8
0
 62
     3
100
AcDbLine
 10
149.8453012151998
 20
175.0050201416
 30
0.0
 11
149.8453012151998
 21
173.7322387694999
 31
0.0
  0
LINE
  5
279
330
2
100
AcDbEntity
  8
0
 62
     3
100
AcDbLine
 10
157.2676644965
 20
171.5789337158
 30
0.0
 11
157.2676644965
 21
170.9360961914
 31
0.0
  0
LINE
  5
27A
330
2
100
AcDbEntity
  8
0
 62
     3
100
AcDbLine
 10
155.9010110540999
 20
171.7289276123
 30
0.0
 11
155.9010110540999
 21
170.7860870361
 31
0.0
  0
LINE
  5
27B
330
2
100
AcDbEntity
  8
0
 62
     3
100
AcDbLine
 10
155.0010018987999
 20
171.7289276123
 30
0.0
 11
155.0010018987999
 21
170.7860870361
 31
0.0
  0
LINE
  5
27C
330
2
100
AcDbEntity
  8
0
 62
     3
100
AcDbLine
 10
151.2676797551999
 20
171.5789337158
 30
0.0
 11
151.2676797551999
 21
170.9360961914
 31
0.0
  0
LINE
  5
27D
330
2
100
AcDbEntity
  8
0
 62
     3
100
AcDbLine
 10
153.1343331975999
 20
166.2606811523
 30
0.0
 11
154.7009988469999
 21
166.2606811523
 31
0.0
  0
LINE
  5
27E
330
2
100
AcDbEntity
  8
0
 62
     3
100
AcDbLine
 10
151.5676828069999
 20
165.9778137206999
 30
0.0
 11
154.7009988469999
 21
165.9778137206999
 31
0.0
  0
LINE
  5
27F
330
2
100
AcDbEntity
  8
0
 62
     3
100
AcDbLine
 10
151.5676828069999
 20
168.2405242919
 30
0.0
 11
154.7009988469999
 21
168.2405242919
 31
0.0
  0
LINE
  5
280
330
2
100
AcDbEntity
  8
0
 62
     3
100
AcDbLine
 10
151.4176736517
 20
168.5233917236
 30
0.0
 11
157.1176553411999
 21
168.5233917236
 31
0.0
  0
LINE
  5
281
330
2
100
AcDbEntity
  8
0
 62
     3
100
AcDbLine
 10
151.5676828069999
 20
170.5033111571999
 30
0.0
 11
154.7009988469999
 21
170.5033111571999
 31
0.0
  0
LINE
  5
282
330
2
100
AcDbEntity
  8
0
 62
     3
100
AcDbLine
 10
151.4176736517
 20
170.7860870361
 30
0.0
 11
155.0010018987999
 21
170.7860870361
 31
0.0
  0
LINE
  5
283
330
2
100
AcDbEntity
  8
0
 62
     3
100
AcDbLine
 10
153.3343301458999
 20
163.9978790282999
 30
0.0
 11
154.7009988469999
 21
163.9978790282999
 31
0.0
  0
LINE
  5
284
330
2
100
AcDbEntity
  8
0
 62
     3
100
AcDbLine
 10
151.2676797551999
 20
165.6778106688999
 30
0.0
 11
151.2676797551999
 21
164.2978820799999
 31
0.0
  0
LINE
  5
285
330
2
100
AcDbEntity
  8
0
 62
     3
100
AcDbLine
 10
151.5676828069999
 20
163.9978790282999
 30
0.0
 11
152.9343515082
 21
163.9978790282999
 31
0.0
  0
LINE
  5
286
330
2
100
AcDbEntity
  8
0
 62
     3
100
AcDbLine
 10
152.0757852239999
 20
164.8464660644
 30
0.0
 11
152.9343515082
 21
164.8464660644
 31
0.0
  0
LINE
  5
287
330
2
100
AcDbEntity
  8
0
 62
     3
100
AcDbLine
 10
152.0757852239999
 20
165.1293182372999
 30
0.0
 11
154.1929116888
 21
165.1293182372999
 31
0.0
  0
ARC
  5
288
330
2
100
AcDbEntity
  8
0
 62
     3
100
AcDbCircle
 10
151.5676828069999
 20
164.2978820799999
 30
0.0
 40
0.3000000119
100
AcDbArc
 50
179.9999640277999
 51
270.0000006831999
  0
ARC
  5
289
330
2
100
AcDbEntity
  8
0
 62
     3
100
AcDbCircle
 10
152.0757852239999
 20
164.9878997802
 30
0.0
 40
0.1414299607
100
AcDbArc
 50
89.99998201389999
 51
270.0000006831999
  0
ARC
  5
28A
330
2
100
AcDbEntity
  8
0
 62
     3
100
AcDbCircle
 10
154.1929116888
 20
164.9878997802
 30
0.0
 40
0.1414299607
100
AcDbArc
 50
270.0000179861
 51
89.99998201389994
  0
LINE
  5
28B
330
2
100
AcDbEntity
  8
0
 62
     3
100
AcDbLine
 10
153.3343301458999
 20
164.8464660644
 30
0.0
 11
153.3343301458999
 21
163.9978790282999
 31
0.0
  0
LINE
  5
28C
330
2
100
AcDbEntity
  8
0
 62
     3
100
AcDbLine
 10
152.9343515082
 20
164.8464660644
 30
0.0
 11
152.9343515082
 21
163.9978790282999
 31
0.0
  0
LINE
  5
28D
330
2
100
AcDbEntity
  8
0
 62
     3
100
AcDbLine
 10
153.3343301458999
 20
164.8464660644
 30
0.0
 11
154.1929116888
 21
164.8464660644
 31
0.0
  0
LINE
  5
28E
330
2
100
AcDbEntity
  8
0
 62
     3
100
AcDbLine
 10
152.0757852239999
 20
167.3920288085
 30
0.0
 11
153.1343331975999
 21
167.3920288085
 31
0.0
  0
LINE
  5
28F
330
2
100
AcDbEntity
  8
0
 62
     3
100
AcDbLine
 10
152.0757852239999
 20
169.3718719481998
 30
0.0
 11
154.1929116888
 21
169.3718719481998
 31
0.0
  0
LINE
  5
290
330
2
100
AcDbEntity
  8
0
 62
     3
100
AcDbLine
 10
152.0757852239999
 20
169.6547393798
 30
0.0
 11
154.1929116888
 21
169.6547393798
 31
0.0
  0
LINE
  5
291
330
2
100
AcDbEntity
  8
0
 62
     3
100
AcDbLine
 10
152.7343393010999
 20
167.1091766357
 30
0.0
 11
152.7343393010999
 21
166.2606811523
 31
0.0
  0
ARC
  5
292
330
2
100
AcDbEntity
  8
0
 62
     3
100
AcDbCircle
 10
151.4176736517
 20
168.6733856200999
 30
0.0
 40
0.1499999762
100
AcDbArc
 50
179.9999640277999
 51
270.0000006831999
  0
ARC
  5
293
330
2
100
AcDbEntity
  8
0
 62
     3
100
AcDbCircle
 10
151.4176736517
 20
170.9360961914
 30
0.0
 40
0.1499999762
100
AcDbArc
 50
179.9999640277999
 51
270.0000006831999
  0
ARC
  5
294
330
2
100
AcDbEntity
  8
0
 62
     3
100
AcDbCircle
 10
151.5676828069999
 20
166.5606842040999
 30
0.0
 40
0.3000000119
100
AcDbArc
 50
179.9999640277999
 51
270.0000006831999
  0
ARC
  5
295
330
2
100
AcDbEntity
  8
0
 62
     3
100
AcDbCircle
 10
151.5676828069999
 20
167.9405212402
 30
0.0
 40
0.3000000119
100
AcDbArc
 50
89.99998201389999
 51
179.9999640277999
  0
ARC
  5
296
330
2
100
AcDbEntity
  8
0
 62
     3
100
AcDbCircle
 10
151.5676828069999
 20
170.2033233642
 30
0.0
 40
0.3000000119
100
AcDbArc
 50
89.99998201389999
 51
179.9999640277999
  0
ARC
  5
297
330
2
100
AcDbEntity
  8
0
 62
     3
100
AcDbCircle
 10
151.5676828069999
 20
165.6778106688999
 30
0.0
 40
0.3000000119
100
AcDbArc
 50
89.99998201389999
 51
179.9999640277999
  0
LINE
  5
298
330
2
100
AcDbEntity
  8
0
 62
     3
100
AcDbLine
 10
151.2676797551999
 20
167.9405212402
 30
0.0
 11
151.2676797551999
 21
166.5606842040999
 31
0.0
  0
LINE
  5
299
330
2
100
AcDbEntity
  8
0
 62
     3
100
AcDbLine
 10
151.2676797551999
 20
170.2033233642
 30
0.0
 11
151.2676797551999
 21
168.6733856200999
 31
0.0
  0
ARC
  5
29A
330
2
100
AcDbEntity
  8
0
 62
     3
100
AcDbCircle
 10
152.0757852239999
 20
167.2505950926999
 30
0.0
 40
0.1414299607
100
AcDbArc
 50
89.99998201389999
 51
270.0000006831999
  0
ARC
  5
29B
330
2
100
AcDbEntity
  8
0
 62
     3
100
AcDbCircle
 10
152.0757852239999
 20
169.513305664
 30
0.0
 40
0.1414299607
100
AcDbArc
 50
89.99998201389999
 51
270.0000006831999
  0
LINE
  5
29C
330
2
100
AcDbEntity
  8
0
 62
     3
100
AcDbLine
 10
151.5676828069999
 20
166.2606811523
 30
0.0
 11
152.7343393010999
 21
166.2606811523
 31
0.0
  0
LINE
  5
29D
330
2
100
AcDbEntity
  8
0
 62
     3
100
AcDbLine
 10
152.0757852239999
 20
167.1091766357
 30
0.0
 11
152.7343393010999
 21
167.1091766357
 31
0.0
  0
ARC
  5
29E
330
2
100
AcDbEntity
  8
0
 62
     3
100
AcDbCircle
 10
154.1929116888
 20
167.2505950926999
 30
0.0
 40
0.1414299607
100
AcDbArc
 50
270.0000179861
 51
89.99998201389994
  0
ARC
  5
29F
330
2
100
AcDbEntity
  8
0
 62
     3
100
AcDbCircle
 10
154.1929116888
 20
169.513305664
 30
0.0
 40
0.1414299607
100
AcDbArc
 50
270.0000179861
 51
89.99998201389994
  0
LINE
  5
2A0
330
2
100
AcDbEntity
  8
0
 62
     3
100
AcDbLine
 10
153.5343423528999
 20
167.3920288085
 30
0.0
 11
153.5343423528999
 21
167.1091766357
 31
0.0
  0
LINE
  5
2A1
330
2
100
AcDbEntity
  8
0
 62
     3
100
AcDbLine
 10
153.1343331975999
 20
167.3920288085
 30
0.0
 11
153.1343331975999
 21
166.2606811523
 31
0.0
  0
LINE
  5
2A2
330
2
100
AcDbEntity
  8
0
 62
     3
100
AcDbLine
 10
153.5343423528999
 20
167.1091766357
 30
0.0
 11
154.1929116888
 21
167.1091766357
 31
0.0
  0
LINE
  5
2A3
330
2
100
AcDbEntity
  8
0
 62
     3
100
AcDbLine
 10
153.5343423528999
 20
167.3920288085
 30
0.0
 11
154.1929116888
 21
167.3920288085
 31
0.0
  0
LINE
  5
2A4
330
2
100
AcDbEntity
  8
0
 62
     3
100
AcDbLine
 10
155.0010018987999
 20
165.6778106688999
 30
0.0
 11
155.0010018987999
 21
164.2978820799999
 31
0.0
  0
LINE
  5
2A5
330
2
100
AcDbEntity
  8
0
 62
     3
100
AcDbLine
 10
156.4662295050998
 20
164.4346757435
 30
0.0
 11
156.3344365676998
 21
164.1325554119999
 31
0.0
  0
LINE
  5
2A6
330
2
100
AcDbEntity
  8
0
 62
     3
100
AcDbLine
 10
156.3344365676998
 20
163.8163886797
 30
0.0
 11
156.4662295050998
 21
163.5142683481998
 31
0.0
  0
LINE
  5
2A7
330
2
100
AcDbEntity
  8
0
 62
     3
100
AcDbLine
 10
156.3344365676998
 20
164.1325554119999
 30
0.0
 11
156.3344365676998
 21
163.8163886797
 31
0.0
  0
ARC
  5
2A8
330
2
100
AcDbEntity
  8
0
 62
     3
100
AcDbCircle
 10
154.7009988469999
 20
164.2978820799999
 30
0.0
 40
0.3000000119
100
AcDbArc
 50
270.0000179861
 51
0.0
  0
LINE
  5
2A9
330
2
100
AcDbEntity
  8
0
 62
     3
100
AcDbLine
 10
157.8178000195
 20
164.1865921051999
 30
0.0
 11
158.1623447277999
 21
164.2149712961
 31
0.0
  0
LINE
  5
2AA
330
2
100
AcDbEntity
  8
0
 62
     3
100
AcDbLine
 10
157.4839014061
 20
165.0085403680998
 30
0.0
 11
157.0676828069999
 21
164.8930316902
 31
0.0
  0
LINE
  5
2AB
330
2
100
AcDbEntity
  8
0
 62
     3
100
AcDbLine
 10
157.0676828069999
 20
164.8930316902
 30
0.0
 11
156.7181049992998
 21
164.6959049569
 31
0.0
  0
LINE
  5
2AC
330
2
100
AcDbEntity
  8
0
 62
     3
100
AcDbLine
 10
156.7181049992998
 20
164.6959049569
 30
0.0
 11
156.4662295050998
 21
164.4346757435
 31
0.0
  0
LINE
  5
2AD
330
2
100
AcDbEntity
  8
0
 62
     3
100
AcDbLine
 10
156.4662295050998
 20
163.5142683481998
 30
0.0
 11
156.7181049992998
 21
163.2530391348
 31
0.0
  0
LINE
  5
2AE
330
2
100
AcDbEntity
  8
0
 62
     3
100
AcDbLine
 10
156.7181049992998
 20
163.2530391348
 30
0.0
 11
157.0676828069999
 21
163.0559124014999
 31
0.0
  0
LINE
  5
2AF
330
2
100
AcDbEntity
  8
0
 62
     3
100
AcDbLine
 10
157.0676828069999
 20
163.0559124014999
 30
0.0
 11
157.4839014061
 21
162.9404037236
 31
0.0
  0
LINE
  5
2B0
330
2
100
AcDbEntity
  8
0
 62
     3
100
AcDbLine
 10
156.6179542564999
 20
164.6106007833999
 30
0.0
 11
156.8568446295999
 21
164.4327619018999
 31
0.0
  0
LINE
  5
2B1
330
2
100
AcDbEntity
  8
0
 62
     3
100
AcDbLine
 10
156.8568446295999
 20
164.4327619018999
 30
0.0
 11
157.1471171306999
 21
164.2984790616999
 31
0.0
  0
LINE
  5
2B2
330
2
100
AcDbEntity
  8
0
 62
     3
100
AcDbLine
 10
157.1471171306999
 20
164.2984790616999
 30
0.0
 11
157.4732490431999
 21
164.2149332204
 31
0.0
  0
LINE
  5
2B3
330
2
100
AcDbEntity
  8
0
 62
     3
100
AcDbLine
 10
157.9297779473999
 20
165.0321675376
 30
0.0
 11
157.4839014061
 21
165.0085403680998
 31
0.0
  0
LINE
  5
2B4
330
2
100
AcDbEntity
  8
0
 62
     3
100
AcDbLine
 10
157.4839014061
 20
162.9404037236
 30
0.0
 11
157.9297779473999
 21
162.9167765541
 31
0.0
  0
LINE
  5
2B5
330
2
100
AcDbEntity
  8
0
 62
     3
100
AcDbLine
 10
157.4732490431999
 20
164.2149332204
 30
0.0
 11
157.8178000195
 21
164.1865921051999
 31
0.0
  0
LINE
  5
2B6
330
2
100
AcDbEntity
  8
0
 62
     3
100
AcDbLine
 10
155.9010110540999
 20
170.7860870361
 30
0.0
 11
157.1176553411999
 21
170.7860870361
 31
0.0
  0
LINE
  5
2B7
330
2
100
AcDbEntity
  8
0
 62
     3
100
AcDbLine
 10
155.0010018987999
 20
169.3718719481998
 30
0.0
 11
157.1176553411999
 21
169.3718719481998
 31
0.0
  0
ARC
  5
2B8
330
2
100
AcDbEntity
  8
0
 62
     3
100
AcDbCircle
 10
154.7009988469999
 20
167.9405212402
 30
0.0
 40
0.3000000119
100
AcDbArc
 50
0.0
 51
89.99998201389999
  0
ARC
  5
2B9
330
2
100
AcDbEntity
  8
0
 62
     3
100
AcDbCircle
 10
154.7009988469999
 20
166.5606842040999
 30
0.0
 40
0.3000000119
100
AcDbArc
 50
270.0000179861
 51
0.0
  0
ARC
  5
2BA
330
2
100
AcDbEntity
  8
0
 62
     3
100
AcDbCircle
 10
154.7009988469999
 20
170.2033233642
 30
0.0
 40
0.3000000119
100
AcDbArc
 50
0.0
 51
89.99998201389999
  0
ARC
  5
2BB
330
2
100
AcDbEntity
  8
0
 62
     3
100
AcDbCircle
 10
154.7009988469999
 20
165.6778106688999
 30
0.0
 40
0.3000000119
100
AcDbArc
 50
0.0
 51
89.99998201389999
  0
LINE
  5
2BC
330
2
100
AcDbEntity
  8
0
 62
     3
100
AcDbLine
 10
155.0010018987999
 20
167.9405212402
 30
0.0
 11
155.0010018987999
 21
166.5606842040999
 31
0.0
  0
LINE
  5
2BD
330
2
100
AcDbEntity
  8
0
 62
     3
100
AcDbLine
 10
155.0010018987999
 20
170.2033233642
 30
0.0
 11
155.0010018987999
 21
169.3718719481998
 31
0.0
  0
ARC
  5
2BE
330
2
100
AcDbEntity
  8
0
 62
     3
100
AcDbCircle
 10
157.1176553411999
 20
168.6733856200999
 30
0.0
 40
0.1499999762
100
AcDbArc
 50
270.0000179861
 51
0.0
  0
ARC
  5
2BF
330
2
100
AcDbEntity
  8
0
 62
     3
100
AcDbCircle
 10
157.1176553411999
 20
169.2218780517
 30
0.0
 40
0.1499999762
100
AcDbArc
 50
0.0
 51
89.99998201389999
  0
ARC
  5
2C0
330
2
100
AcDbEntity
  8
0
 62
     3
100
AcDbCircle
 10
157.1176553411999
 20
170.9360961914
 30
0.0
 40
0.1499999762
100
AcDbArc
 50
270.0000179861
 51
0.0
  0
LINE
  5
2C1
330
2
100
AcDbEntity
  8
0
 62
     3
100
AcDbLine
 10
157.2676644965
 20
169.2218780517
 30
0.0
 11
157.2676644965
 21
168.6733856200999
 31
0.0
  0
LINE
  5
2C2
330
2
100
AcDbEntity
  8
0
 62
     3
100
AcDbLine
 10
151.4176736517
 20
171.7289276123
 30
0.0
 11
155.0010018987999
 21
171.7289276123
 31
0.0
  0
ARC
  5
2C3
330
2
100
AcDbEntity
  8
0
 62
     3
100
AcDbCircle
 10
151.4176736517
 20
171.5789337158
 30
0.0
 40
0.1499999762
100
AcDbArc
 50
89.99998201389999
 51
179.9999640277999
  0
LINE
  5
2C4
330
2
100
AcDbEntity
  8
0
 62
     3
100
AcDbLine
 10
155.9010110540999
 20
171.7289276123
 30
0.0
 11
157.1176553411999
 21
171.7289276123
 31
0.0
  0
ARC
  5
2C5
330
2
100
AcDbEntity
  8
0
 62
     3
100
AcDbCircle
 10
157.1176553411999
 20
171.5789337158
 30
0.0
 40
0.1499999762
100
AcDbArc
 50
0.0
 51
89.99998201389999
  0
LINE
  5
2C6
330
2
100
AcDbEntity
  8
0
 62
     3
100
AcDbLine
 10
144.8176828069999
 20
205.3887634276998
 30
0.0
 11
147.7701059026998
 21
205.3887634276998
 31
0.0
  0
LINE
  5
2C7
330
2
100
AcDbEntity
  8
0
 62
     3
100
AcDbLine
 10
143.8176828069999
 20
200.6999816893999
 30
0.0
 11
144.3176828069999
 21
200.6999816893999
 31
0.0
  0
ARC
  5
2C8
330
2
100
AcDbEntity
  8
0
 62
     3
100
AcDbCircle
 10
144.3176828069999
 20
201.1999816893999
 30
0.0
 40
0.5
100
AcDbArc
 50
270.0000179861
 51
0.0
  0
ARC
  5
2C9
330
2
100
AcDbEntity
  8
0
 62
     3
100
AcDbCircle
 10
157.3245492620999
 20
207.8636322020999
 30
0.0
 40
9.506862640399999
100
AcDbArc
 50
197.2945120828
 51
218.1199227866998
  0
ARC
  5
2CA
330
2
100
AcDbEntity
  8
0
 62
     3
100
AcDbCircle
 10
147.7701059026998
 20
204.8887634276999
 30
0.0
 40
0.5
100
AcDbArc
 50
17.2945068464
 51
89.99998201389999
  0
LINE
  5
2CB
330
2
100
AcDbEntity
  8
0
 62
     3
100
AcDbLine
 10
149.8453012151998
 20
201.9949493408
 30
0.0
 11
149.8453012151998
 21
203.2677459716
 31
0.0
  0
LINE
  5
2CC
330
2
100
AcDbEntity
  8
0
 62
     3
100
AcDbLine
 10
151.3176522893999
 20
205.6008911131999
 30
0.0
 11
154.3176522893999
 21
205.6008911131999
 31
0.0
  0
ARC
  5
2CD
330
2
100
AcDbEntity
  8
0
 62
     3
100
AcDbCircle
 10
152.3108316106998
 20
169.136352539
 30
0.0
 40
9.506862640399999
100
AcDbArc
 50
0.0
 51
38.11990389
  0
ARC
  5
2CE
330
2
100
AcDbEntity
  8
0
 62
     3
100
AcDbCircle
 10
152.3108316106998
 20
167.8635711669
 30
0.0
 40
9.506862640399999
100
AcDbArc
 50
321.88009611
 51
38.11990388999996
  0
ARC
  5
2CF
330
2
100
AcDbEntity
  8
0
 62
     3
100
AcDbCircle
 10
151.8875222844999
 20
167.8635711669
 30
0.0
 40
8.9301567078
100
AcDbArc
 50
323.8352958166
 51
36.16470418339995
  0
LINE
  5
2D0
330
2
100
AcDbEntity
  8
0
 62
     3
100
AcDbLine
 10
159.3176828069999
 20
163.9744720459
 30
0.0
 11
159.2510420156999
 21
164.2871074569999
 31
0.0
  0
LINE
  5
2D1
330
2
100
AcDbEntity
  8
0
 62
     3
100
AcDbLine
 10
159.2510420156999
 20
164.2871074569999
 30
0.0
 11
159.0570409685
 21
164.5719638399
 31
0.0
  0
LINE
  5
2D2
330
2
100
AcDbEntity
  8
0
 62
     3
100
AcDbLine
 10
159.0570409685
 20
164.5719638399
 30
0.0
 11
158.7529175098
 21
164.8037304548998
 31
0.0
  0
LINE
  5
2D3
330
2
100
AcDbEntity
  8
0
 62
     3
100
AcDbLine
 10
158.7529175098
 20
164.8037304548998
 30
0.0
 11
158.3656943435999
 21
164.9618138209999
 31
0.0
  0
LINE
  5
2D4
330
2
100
AcDbEntity
  8
0
 62
     3
100
AcDbLine
 10
158.3656943435999
 20
162.9871302706999
 30
0.0
 11
158.7529175098
 21
163.1452136368
 31
0.0
  0
LINE
  5
2D5
330
2
100
AcDbEntity
  8
0
 62
     3
100
AcDbLine
 10
158.7529175098
 20
163.1452136368
 30
0.0
 11
159.0570409685
 21
163.3769802518
 31
0.0
  0
LINE
  5
2D6
330
2
100
AcDbEntity
  8
0
 62
     3
100
AcDbLine
 10
159.0570409685
 20
163.3769802518
 30
0.0
 11
159.2510420156999
 21
163.6618366347
 31
0.0
  0
LINE
  5
2D7
330
2
100
AcDbEntity
  8
0
 62
     3
100
AcDbLine
 10
159.2510420156999
 20
163.6618366347
 30
0.0
 11
159.3176828069999
 21
163.9744720459
 31
0.0
  0
LINE
  5
2D8
330
2
100
AcDbEntity
  8
0
 62
     3
100
AcDbLine
 10
158.4884581711999
 20
164.2985531769999
 30
0.0
 11
158.7787009897998
 21
164.4328680932999
 31
0.0
  0
LINE
  5
2D9
330
2
100
AcDbEntity
  8
0
 62
     3
100
AcDbLine
 10
158.7787009897998
 20
164.4328680932999
 30
0.0
 11
159.0175520544998
 21
164.6107333722
 31
0.0
  0
LINE
  5
2DA
330
2
100
AcDbEntity
  8
0
 62
     3
100
AcDbLine
 10
161.817682807
 20
169.136352539
 30
0.0
 11
161.817682807
 21
167.8635711669
 31
0.0
  0
LINE
  5
2DB
330
2
100
AcDbEntity
  8
0
 62
     3
100
AcDbLine
 10
159.7900643987999
 20
175.0050201416
 30
0.0
 11
159.7900643987999
 21
173.7322387694999
 31
0.0
  0
LINE
  5
2DC
330
2
100
AcDbEntity
  8
0
 62
     3
100
AcDbLine
 10
159.7900643987999
 20
201.9949493408
 30
0.0
 11
159.7900643987999
 21
203.2677459716
 31
0.0
  0
LINE
  5
2DD
330
2
100
AcDbEntity
  8
0
 62
     3
100
AcDbLine
 10
158.4884581711999
 20
212.7014231293997
 30
0.0
 11
158.1623447277999
 21
212.7850056114999
 31
0.0
  0
LINE
  5
2DE
330
2
100
AcDbEntity
  8
0
 62
     3
100
AcDbLine
 10
158.3656943435999
 20
214.0128473684998
 30
0.0
 11
157.9297779473999
 21
214.083200579
 31
0.0
  0
LINE
  5
2DF
330
2
100
AcDbEntity
  8
0
 62
     3
100
AcDbLine
 10
157.9297779473999
 20
211.9678248116
 30
0.0
 11
158.3656943435999
 21
212.0381780220998
 31
0.0
  0
ARC
  5
2E0
330
2
100
AcDbEntity
  8
0
 62
     3
100
AcDbCircle
 10
154.8176828069999
 20
190.9451904295998
 30
0.0
 40
23.8480834961
100
AcDbArc
 50
79.6626819504
 51
100.3372820774
  0
ARC
  5
2E1
330
2
100
AcDbEntity
  8
0
 62
     3
100
AcDbCircle
 10
154.8176828069999
 20
190.2928924559999
 30
0.0
 40
25.2074737549
100
AcDbArc
 50
78.6232910833
 51
101.3766183030998
  0
LINE
  5
2E2
330
2
100
AcDbEntity
  8
0
 62
     3
100
AcDbLine
 10
144.8176828069999
 20
211.6112976074
 30
0.0
 11
147.5517984076
 21
211.6112976074
 31
0.0
  0
LINE
  5
2E3
330
2
100
AcDbEntity
  8
0
 62
     3
100
AcDbLine
 10
144.8176828069999
 20
206.6615447998
 30
0.0
 11
147.7701059026998
 21
206.6615447998
 31
0.0
  0
LINE
  5
2E4
330
2
100
AcDbEntity
  8
0
 62
     3
100
AcDbLine
 10
144.8176828069999
 20
211.4344177246
 30
0.0
 11
146.8176828069999
 21
211.4344177246
 31
0.0
  0
LINE
  5
2E5
330
2
100
AcDbEntity
  8
0
 62
     3
100
AcDbLine
 10
144.8176828069999
 20
209.8081359862998
 30
0.0
 11
146.8176828069999
 21
209.8081359862998
 31
0.0
  0
ARC
  5
2E6
330
2
100
AcDbEntity
  8
0
 62
     3
100
AcDbCircle
 10
144.0859018010999
 20
221.0540618895997
 30
0.0
 40
10.0
100
AcDbArc
 50
274.1965408537
 51
285.8534881063
  0
LINE
  5
2E7
330
2
100
AcDbEntity
  8
0
 62
     3
100
AcDbLine
 10
146.8176828069999
 20
209.8081359862998
 30
0.0
 11
146.8176828069999
 21
211.4344177246
 31
0.0
  0
LINE
  5
2E8
330
2
100
AcDbEntity
  8
0
 62
     3
100
AcDbLine
 10
144.3176828069999
 20
216.3001098631999
 30
0.0
 11
143.8176828069999
 21
216.3001098631999
 31
0.0
  0
ARC
  5
2E9
330
2
100
AcDbEntity
  8
0
 62
     3
100
AcDbCircle
 10
144.3176828069999
 20
215.8001251219999
 30
0.0
 40
0.5
100
AcDbArc
 50
0.0
 51
89.99998201389999
  0
ARC
  5
2EA
330
2
100
AcDbEntity
  8
0
 62
     3
100
AcDbCircle
 10
147.7701059026998
 20
206.1615447998
 30
0.0
 40
0.5
100
AcDbArc
 50
17.2945068464
 51
89.99998201389999
  0
ARC
  5
2EB
330
2
100
AcDbEntity
  8
0
 62
     3
100
AcDbCircle
 10
157.3245492620999
 20
209.1364135741999
 30
0.0
 40
9.506862640399999
100
AcDbArc
 50
141.8800772133
 51
161.4738682061
  0
ARC
  5
2EC
330
2
100
AcDbEntity
  8
0
 62
     3
100
AcDbCircle
 10
147.5517984076
 20
212.4112854003
 30
0.0
 40
0.8000000119
100
AcDbArc
 50
270.0000179861
 51
341.4738666122
  0
LINE
  5
2ED
330
2
100
AcDbEntity
  8
0
 62
     3
100
AcDbLine
 10
151.3176522893999
 20
212.6719360350999
 30
0.0
 11
154.3176522893999
 21
212.6719360350999
 31
0.0
  0
LINE
  5
2EE
330
2
100
AcDbEntity
  8
0
 62
     3
100
AcDbLine
 10
156.4662295050998
 20
213.4857130826998
 30
0.0
 11
156.3344365676998
 21
213.1835949242999
 31
0.0
  0
LINE
  5
2EF
330
2
100
AcDbEntity
  8
0
 62
     3
100
AcDbLine
 10
156.3344365676998
 20
212.8674304661998
 30
0.0
 11
156.4662295050998
 21
212.5653123077999
 31
0.0
  0
LINE
  5
2F0
330
2
100
AcDbEntity
  8
0
 62
     3
100
AcDbLine
 10
156.3344365676998
 20
213.1835949242999
 30
0.0
 11
156.3344365676998
 21
212.8674304661998
 31
0.0
  0
LINE
  5
2F1
330
2
100
AcDbEntity
  8
0
 62
     3
100
AcDbLine
 10
158.1623447277999
 20
212.7850056114999
 30
0.0
 11
157.8178000195
 21
212.8133850065
 31
0.0
  0
LINE
  5
2F2
330
2
100
AcDbEntity
  8
0
 62
     3
100
AcDbLine
 10
157.4732490431999
 20
212.7850436875
 30
0.0
 11
157.1471171306999
 21
212.7014972451997
 31
0.0
  0
LINE
  5
2F3
330
2
100
AcDbEntity
  8
0
 62
     3
100
AcDbLine
 10
157.1471171306999
 20
212.7014972451997
 30
0.0
 11
156.8568446295999
 21
212.5672134390999
 31
0.0
  0
LINE
  5
2F4
330
2
100
AcDbEntity
  8
0
 62
     3
100
AcDbLine
 10
156.8568446295999
 20
212.5672134390999
 30
0.0
 11
156.6179542564999
 21
212.3893732783999
 31
0.0
  0
LINE
  5
2F5
330
2
100
AcDbEntity
  8
0
 62
     3
100
AcDbLine
 10
157.4839014061
 20
214.0595735793999
 30
0.0
 11
157.0676828069999
 21
213.9440657324
 31
0.0
  0
LINE
  5
2F6
330
2
100
AcDbEntity
  8
0
 62
     3
100
AcDbLine
 10
157.0676828069999
 20
213.9440657324
 30
0.0
 11
156.7181049992998
 21
213.7469404170999
 31
0.0
  0
LINE
  5
2F7
330
2
100
AcDbEntity
  8
0
 62
     3
100
AcDbLine
 10
156.7181049992998
 20
213.7469404170999
 30
0.0
 11
156.4662295050998
 21
213.4857130826998
 31
0.0
  0
LINE
  5
2F8
330
2
100
AcDbEntity
  8
0
 62
     3
100
AcDbLine
 10
156.4662295050998
 20
212.5653123077999
 30
0.0
 11
156.7181049992998
 21
212.3040849734998
 31
0.0
  0
LINE
  5
2F9
330
2
100
AcDbEntity
  8
0
 62
     3
100
AcDbLine
 10
156.7181049992998
 20
212.3040849734998
 30
0.0
 11
157.0676828069999
 21
212.1069596580999
 31
0.0
  0
LINE
  5
2FA
330
2
100
AcDbEntity
  8
0
 62
     3
100
AcDbLine
 10
157.0676828069999
 20
212.1069596580999
 30
0.0
 11
157.4839014061
 21
211.9914518110999
 31
0.0
  0
LINE
  5
2FB
330
2
100
AcDbEntity
  8
0
 62
     3
100
AcDbLine
 10
157.8178000195
 20
212.8133850065
 30
0.0
 11
157.4732490431999
 21
212.7850436875
 31
0.0
  0
LINE
  5
2FC
330
2
100
AcDbEntity
  8
0
 62
     3
100
AcDbLine
 10
157.9297779473999
 20
214.083200579
 30
0.0
 11
157.4839014061
 21
214.0595735793999
 31
0.0
  0
LINE
  5
2FD
330
2
100
AcDbEntity
  8
0
 62
     3
100
AcDbLine
 10
157.4839014061
 20
211.9914518110999
 30
0.0
 11
157.9297779473999
 21
211.9678248116
 31
0.0
  0
LINE
  5
2FE
330
2
100
AcDbEntity
  8
0
 62
     3
100
AcDbLine
 10
161.817682807
 20
207.8636322020999
 30
0.0
 11
161.817682807
 21
209.1364135741999
 31
0.0
  0
LINE
  5
2FF
330
2
100
AcDbEntity
  8
0
 62
     3
100
AcDbLine
 10
159.0175520544998
 20
212.3892406885998
 30
0.0
 11
158.7787009897998
 21
212.5671072469999
 31
0.0
  0
LINE
  5
300
330
2
100
AcDbEntity
  8
0
 62
     3
100
AcDbLine
 10
158.7787009897998
 20
212.5671072469999
 30
0.0
 11
158.4884581711999
 21
212.7014231293997
 31
0.0
  0
LINE
  5
301
330
2
100
AcDbEntity
  8
0
 62
     3
100
AcDbLine
 10
159.3176828069999
 20
213.0255126953
 30
0.0
 11
159.2510420156999
 21
213.3381458575998
 31
0.0
  0
LINE
  5
302
330
2
100
AcDbEntity
  8
0
 62
     3
100
AcDbLine
 10
159.2510420156999
 20
213.3381458575998
 30
0.0
 11
159.0570409685
 21
213.6230001914999
 31
0.0
  0
LINE
  5
303
330
2
100
AcDbEntity
  8
0
 62
     3
100
AcDbLine
 10
159.0570409685
 20
213.6230001914999
 30
0.0
 11
158.7529175098
 21
213.8547651393999
 31
0.0
  0
LINE
  5
304
330
2
100
AcDbEntity
  8
0
 62
     3
100
AcDbLine
 10
158.7529175098
 20
213.8547651393999
 30
0.0
 11
158.3656943435999
 21
214.0128473684998
 31
0.0
  0
LINE
  5
305
330
2
100
AcDbEntity
  8
0
 62
     3
100
AcDbLine
 10
158.3656943435999
 20
212.0381780220998
 30
0.0
 11
158.7529175098
 21
212.1962602510998
 31
0.0
  0
LINE
  5
306
330
2
100
AcDbEntity
  8
0
 62
     3
100
AcDbLine
 10
158.7529175098
 20
212.1962602510998
 30
0.0
 11
159.0570409685
 21
212.428025199
 31
0.0
  0
LINE
  5
307
330
2
100
AcDbEntity
  8
0
 62
     3
100
AcDbLine
 10
159.0570409685
 20
212.428025199
 30
0.0
 11
159.2510420156999
 21
212.7128795328999
 31
0.0
  0
LINE
  5
308
330
2
100
AcDbEntity
  8
0
 62
     3
100
AcDbLine
 10
159.2510420156999
 20
212.7128795328999
 30
0.0
 11
159.3176828069999
 21
213.0255126953
 31
0.0
  0
ARC
  5
309
330
2
100
AcDbEntity
  8
0
 62
     3
100
AcDbCircle
 10
183.8140817328
 20
168.4999847412
 30
0.0
 40
7.7999992371
100
AcDbArc
 50
321.6257320306
 51
128.3742679693999
  0
LINE
  5
30A
330
2
100
AcDbEntity
  8
0
 62
     3
100
AcDbLine
 10
192.2139840764999
 20
177.2001037597
 30
0.0
 11
175.4153084565999
 21
177.2001037597
 31
0.0
  0
LINE
  5
30B
330
2
100
AcDbEntity
  8
0
 62
     3
100
AcDbLine
 10
192.2141061467998
 20
159.8002166747999
 30
0.0
 11
175.4140851770999
 21
159.8002166747999
 31
0.0
  0
LINE
  5
30C
330
2
100
AcDbEntity
  8
0
 62
     3
100
AcDbLine
 10
192.5140329046998
 20
177.5001525877999
 30
0.0
 11
175.1137796087999
 21
177.5001525877999
 31
0.0
  0
LINE
  5
30D
330
2
100
AcDbEntity
  8
0
 62
     3
100
AcDbLine
 10
190.8143050755998
 20
162.7725386524
 30
0.0
 11
178.0863938037998
 21
175.5004499242
 31
0.0
  0
LINE
  5
30E
330
2
100
AcDbEntity
  8
0
 62
     3
100
AcDbLine
 10
189.5415107115
 20
161.4997442883999
 30
0.0
 11
176.8135994397999
 21
174.2276555600999
 31
0.0
  0
LINE
  5
30F
330
2
100
AcDbEntity
  8
0
  6
CENTER
 62
     3
100
AcDbLine
 10
191.5921376403
 20
160.7219440924
 30
0.0
 11
176.0357992437998
 21
176.2782824889
 31
0.0
  0
LINE
  5
310
330
2
100
AcDbEntity
  8
0
 62
     3
100
AcDbLine
 10
175.1142678899999
 20
160.0992736816
 30
0.0
 11
175.1142678899999
 21
176.8992614745999
 31
0.0
  0
LINE
  5
311
330
2
100
AcDbEntity
  8
0
 62
     3
100
AcDbLine
 10
174.8143411321999
 20
159.7993621826
 30
0.0
 11
174.8143411321999
 21
177.1994018553999
 31
0.0
  0
LINE
  5
312
330
2
100
AcDbEntity
  8
0
 62
     3
100
AcDbLine
 10
175.1146911249999
 20
160.0997083036
 30
0.0
 11
174.8148152797999
 21
159.7998554095999
 31
0.0
  0
LINE
  5
313
330
2
100
AcDbEntity
  8
0
 62
     3
100
AcDbLine
 10
175.4147305103998
 20
159.7995713407999
 30
0.0
 11
175.1147799756999
 21
160.0995222040999
 31
0.0
  0
LINE
  5
314
330
2
100
AcDbEntity
  8
0
 62
     3
100
AcDbLine
 10
175.1143795984999
 20
176.8991150031999
 30
0.0
 11
174.8143211693997
 21
177.1993032136999
 31
0.0
  0
LINE
  5
315
330
2
100
AcDbEntity
  8
0
 62
     3
100
AcDbLine
 10
175.1146856082999
 20
176.8994816209999
 30
0.0
 11
175.4145503318
 21
177.1993456367998
 31
0.0
  0
LINE
  5
316
330
2
100
AcDbEntity
  8
0
 62
     3
100
AcDbLine
 10
175.4144814735998
 20
177.1990871341999
 30
0.0
 11
175.1144230444998
 21
177.4992753447
 31
0.0
  0
LINE
  5
317
330
2
100
AcDbEntity
  8
0
 62
     3
100
AcDbLine
 10
174.8146671495999
 20
177.1997055071
 30
0.0
 11
175.1145314685999
 21
177.4995699272
 31
0.0
  0
LINE
  5
318
330
2
100
AcDbEntity
  8
0
 62
     3
100
AcDbLine
 10
178.0863938037998
 20
175.5004499242
 30
0.0
 11
176.8135994397999
 21
174.2276555600999
 31
0.0
  0
LINE
  5
319
330
2
100
AcDbEntity
  8
0
 62
     3
100
AcDbLine
 10
182.9140420599
 20
177.4999847411999
 30
0.0
 11
184.7140451117
 21
177.4999847411999
 31
0.0
  0
LINE
  5
31A
330
2
100
AcDbEntity
  8
0
 62
     3
100
AcDbLine
 10
192.514154975
 20
160.0999908446999
 30
0.0
 11
192.514154975
 21
176.9004821777
 31
0.0
  0
LINE
  5
31B
330
2
100
AcDbEntity
  8
0
 62
     3
100
AcDbLine
 10
192.8139596625
 20
159.8005523681
 30
0.0
 11
192.8139596625
 21
177.1990814208999
 31
0.0
  0
LINE
  5
31C
330
2
100
AcDbEntity
  8
0
 62
     3
100
AcDbLine
 10
190.8143050755998
 20
162.7725386524
 30
0.0
 11
189.5415107115
 21
161.4997442883999
 31
0.0
  0
LINE
  5
31D
330
2
100
AcDbEntity
  8
0
 62
     3
100
AcDbLine
 10
192.5144872529999
 20
160.0995518443999
 30
0.0
 11
192.8147790166999
 21
159.7996186487999
 31
0.0
  0
LINE
  5
31E
330
2
100
AcDbEntity
  8
0
 62
     3
100
AcDbLine
 10
192.2145362460998
 20
159.7996425454
 30
0.0
 11
192.5144006156999
 21
160.0995069402999
 31
0.0
  0
LINE
  5
31F
330
2
100
AcDbEntity
  8
0
 62
     3
100
AcDbLine
 10
192.8144417845
 20
177.1994955703
 30
0.0
 11
192.5146460410998
 21
176.8995625745
 31
0.0
  0
LINE
  5
320
330
2
100
AcDbEntity
  8
0
 62
     3
100
AcDbLine
 10
192.5147223647999
 20
176.8997463423
 30
0.0
 11
192.2146851593999
 21
177.1997831431
 31
0.0
  0
LINE
  5
321
330
2
100
AcDbEntity
  8
0
 62
     3
100
AcDbLine
 10
192.8146654484999
 20
177.1996482691999
 30
0.0
 11
192.5147149643999
 21
177.4995991579
 31
0.0
  0
LINE
  5
322
330
2
100
AcDbEntity
  8
0
 62
     3
100
AcDbLine
 10
192.5145224090999
 20
177.4992520705
 30
0.0
 11
192.2146236631999
 21
177.1994220772
 31
0.0
  0
LINE
  5
339
330
2
100
AcDbEntity
  8
0
100
AcDbLine
 10
210.0
 20
297.0
 30
0.0
 11
0.0
 21
297.0
 31
0.0
  0
TEXT
  5
365
330
2
100
AcDbEntity
  8
0
 62
     7
100
AcDbText
 10
108.0
 20
115.0000029552499
 30
0.0
 40
2.999994089499998
  1
AS6Q-2#KT1P*
 11
108.0
 21
116.5
 31
0.0
100
AcDbText
 73
     2
  0
TEXT
  5
367
330
2
100
AcDbEntity
  8
0
 62
     7
100
AcDbText
 10
108.0
 20
100.00000295525
 30
0.0
 40
2.999994089499998
  1
AS6Q-2#KT2*
 11
108.0
 21
101.5
 31
0.0
100
AcDbText
 73
     2
  0
TEXT
  5
369
330
2
100
AcDbEntity
  8
0
 62
     7
100
AcDbText
 10
108.0
 20
105.00000295525
 30
0.0
 40
2.999994089499998
  1
AS6Q-2#KT2P*
 11
108.0
 21
106.4999999999999
 31
0.0
100
AcDbText
 73
     2
  0
TEXT
  5
36B
330
2
100
AcDbEntity
  8
0
 62
     7
100
AcDbText
 10
108.0
 20
110.0000029552498
 30
0.0
 40
2.999994089499998
  1
AS6Q-2#KT1*
 11
108.0
 21
111.4999999999999
 31
0.0
100
AcDbText
 73
     2
  0
TEXT
  5
36F
330
2
100
AcDbEntity
  8
0
 62
     7
100
AcDbText
 10
146.0
 20
100.00000295525
 30
0.0
 40
2.999994089499998
  1
AS6Q-3#KT2*
 11
146.0
 21
101.5
 31
0.0
100
AcDbText
 73
     2
  0
TEXT
  5
371
330
2
100
AcDbEntity
  8
0
 62
     7
100
AcDbText
 10
146.0
 20
105.00000295525
 30
0.0
 40
2.999994089499998
  1
AS6Q-3#KT2P*
 11
146.0
 21
106.4999999999999
 31
0.0
100
AcDbText
 73
     2
  0
ENDSEC
  0
SECTION
  2
OBJECTS
  0
DICTIONARY
  5
7
330
0
100
AcDbDictionary
281
     1
  3
ACAD_GROUP
350
1F
  3
ACAD_LAYOUT
350
B
  3
ACAD_MLINESTYLE
350
20
  3
ACAD_PLOTSETTINGS
350
21
  3
ACAD_PLOTSTYLENAME
350
6
  3
AcDbVariableDictionary
350
375
  3
ASE_INDEX_DICTIONARY
350
37E
  0
DICTIONARY
  5
1F
102
{ACAD_REACTORS
330
7
102
}
330
7
100
AcDbDictionary
281
     1
  0
DICTIONARY
  5
B
102
{ACAD_REACTORS
330
7
102
}
330
7
100
AcDbDictionary
281
     1
  3
Model
350
A
  3
ﾚｲｱｳﾄ1
350
F
  0
DICTIONARY
  5
20
102
{ACAD_REACTORS
330
7
102
}
330
7
100
AcDbDictionary
281
     1
  3
Standard
350
22
  0
DICTIONARY
  5
21
102
{ACAD_REACTORS
330
7
102
}
330
7
100
AcDbDictionary
281
     1
  0
ACDBDICTIONARYWDFLT
  5
6
102
{ACAD_REACTORS
330
7
102
}
330
7
100
AcDbDictionary
281
     1
  3
Normal
350
5
100
AcDbDictionaryWithDefault
340
5
  0
DICTIONARY
  5
375
102
{ACAD_REACTORS
330
7
102
}
330
7
100
AcDbDictionary
281
     1
  3
DIMASSOC
350
376
  0
DICTIONARY
  5
37E
102
{ACAD_REACTORS
330
7
102
}
330
7
100
AcDbDictionary
281
     1
  3
ASEBlockHierarchyIndexRecord
350
380
1001
DCO15
1040
1518870543.546
  0
LAYOUT
  5
A
102
{ACAD_REACTORS
330
B
102
}
330
B
100
AcDbPlotSettings
  1

  2
C:\Program Files\AutoCAD 2000i\plotters\DWF Classic.pc3
  4

  6

 40
0.0
 41
0.0
 42
0.0
 43
0.0
 44
0.0
 45
0.0
 46
0.0
 47
0.0
 48
0.0
 49
0.0
140
0.0
141
0.0
142
1.0
143
1.0
 70
  1712
 72
     0
 73
     0
 74
     0
  7

 75
     0
147
1.0
148
0.0
149
0.0
100
AcDbLayout
  1
Model
 70
     1
 71
     0
 10
0.0
 20
0.0
 11
12.0
 21
9.0
 12
0.0
 22
0.0
 32
0.0
 14
0.0
 24
0.0
 34
0.0
 15
0.0
 25
0.0
 35
0.0
146
0.0
 13
0.0
 23
0.0
 33
0.0
 16
1.0
 26
0.0
 36
0.0
 17
0.0
 27
1.0
 37
0.0
 76
     0
330
2
  0
LAYOUT
  5
F
102
{ACAD_REACTORS
330
B
102
}
330
B
100
AcDbPlotSettings
  1

  2
C:\Program Files\AutoCAD 2000i\plotters\DWF Classic.pc3
  4

  6

 40
0.0
 41
0.0
 42
0.0
 43
0.0
 44
0.0
 45
0.0
 46
0.0
 47
0.0
 48
0.0
 49
0.0
140
0.0
141
0.0
142
1.0
143
1.0
 70
   688
 72
     0
 73
     0
 74
     5
  7

 75
    16
147
1.0
148
0.0
149
0.0
100
AcDbLayout
  1
ﾚｲｱｳﾄ1
 70
     1
 71
     1
 10
0.0
 20
0.0
 11
12.0
 21
9.0
 12
0.0
 22
0.0
 32
0.0
 14
1.000000000000000E+20
 24
1.000000000000000E+20
 34
1.000000000000000E+20
 15
-1.000000000000000E+20
 25
-1.000000000000000E+20
 35
-1.000000000000000E+20
146
0.0
 13
0.0
 23
0.0
 33
0.0
 16
1.0
 26
0.0
 36
0.0
 17
0.0
 27
1.0
 37
0.0
 76
     0
330
C
  0
MLINESTYLE
  5
22
102
{ACAD_REACTORS
330
20
102
}
330
20
100
AcDbMlineStyle
  2
STANDARD
 70
     0
  3

 62
   256
 51
90.0
 52
90.0
 71
     2
 49
0.5
 62
   256
  6
BYLAYER
 49
-0.5
 62
   256
  6
BYLAYER
  0
ACDBPLACEHOLDER
  5
5
102
{ACAD_REACTORS
330
6
102
}
330
6
  0
DICTIONARYVAR
  5
376
102
{ACAD_REACTORS
330
375
102
}
330
375
100
DictionaryVariables
280
     0
  1
1
  0
XRECORD
  5
380
102
{ACAD_REACTORS
330
37E
102
}
330
37E
100
AcDbXrecord
280
     1
  0
ENDSEC
  0
EOF
