  0
SECTION
  2
HEADER
  9
$ACADVER
  1
AC1015
  9
$ACADMAINTVER
 70
    13
  9
$DWGCODEPAGE
  3
ANSI_932
  9
$INSBASE
 10
0.0
 20
0.0
 30
0.0
  9
$EXTMIN
 10
-0.001222290580472
 20
-0.0007496668014255
 30
-0.0000000349181948
  9
$EXTMAX
 10
210.0239018996493
 20
297.0183229054498
 30
0.0000000814935747
  9
$LIMMIN
 10
-181.5728729248
 20
-3.174999999999998
  9
$LIMMAX
 10
3.174999999999998
 20
291.2585876465
  9
$ORTHOMODE
 70
     0
  9
$REGENMODE
 70
     1
  9
$FILLMODE
 70
     1
  9
$QTEXTMODE
 70
     0
  9
$MIRRTEXT
 70
     0
  9
$LTSCALE
 40
1.0
  9
$ATTMODE
 70
     1
  9
$TEXTSIZE
 40
2.999994039499997
  9
$TRACEWID
 40
0.05
  9
$TEXTSTYLE
  7
STANDARD
  9
$CLAYER
  8
0
  9
$CELTYPE
  6
ByLayer
  9
$CECOLOR
 62
   256
  9
$CELTSCALE
 40
1.0
  9
$DISPSILH
 70
     0
  9
$DIMSCALE
 40
1.0
  9
$DIMASZ
 40
1.9727878465
  9
$DIMEXO
 40
2.539999961899999
  9
$DIMDLI
 40
0.38
  9
$DIMRND
 40
0.0
  9
$DIMDLE
 40
0.0
  9
$DIMEXE
 40
3.809999942799997
  9
$DIMTP
 40
0.0
  9
$DIMTM
 40
0.0
  9
$DIMTXT
 40
2.999994039499997
  9
$DIMCEN
 40
0.09
  9
$DIMTSZ
 40
0.0
  9
$DIMTOL
 70
     0
  9
$DIMLIM
 70
     0
  9
$DIMTIH
 70
     0
  9
$DIMTOH
 70
     1
  9
$DIMSE1
 70
     0
  9
$DIMSE2
 70
     0
  9
$DIMTAD
 70
     0
  9
$DIMZIN
 70
     0
  9
$DIMBLK
  1

  9
$DIMASO
 70
     1
  9
$DIMSHO
 70
     0
  9
$DIMPOST
  1

  9
$DIMAPOST
  1

  9
$DIMALT
 70
     0
  9
$DIMALTD
 70
     2
  9
$DIMALTF
 40
25.4
  9
$DIMLFAC
 40
1.0
  9
$DIMTOFL
 70
     0
  9
$DIMTVP
 40
0.0
  9
$DIMTIX
 70
     0
  9
$DIMSOXD
 70
     0
  9
$DIMSAH
 70
     0
  9
$DIMBLK1
  1

  9
$DIMBLK2
  1

  9
$DIMSTYLE
  2
Standard
  9
$DIMCLRD
 70
     0
  9
$DIMCLRE
 70
     0
  9
$DIMCLRT
 70
     0
  9
$DIMTFAC
 40
1.0
  9
$DIMGAP
 40
0.09
  9
$DIMJUST
 70
     0
  9
$DIMSD1
 70
     0
  9
$DIMSD2
 70
     0
  9
$DIMTOLJ
 70
     1
  9
$DIMTZIN
 70
     0
  9
$DIMALTZ
 70
     0
  9
$DIMALTTZ
 70
     0
  9
$DIMUPT
 70
     0
  9
$DIMDEC
 70
     4
  9
$DIMTDEC
 70
     4
  9
$DIMALTU
 70
     2
  9
$DIMALTTD
 70
     2
  9
$DIMTXSTY
  7
STANDARD
  9
$DIMAUNIT
 70
     0
  9
$DIMADEC
 70
     0
  9
$DIMALTRND
 40
0.0
  9
$DIMAZIN
 70
     0
  9
$DIMDSEP
 70
    46
  9
$DIMATFIT
 70
     3
  9
$DIMFRAC
 70
     0
  9
$DIMLDRBLK
  1

  9
$DIMLUNIT
 70
     2
  9
$DIMLWD
 70
    -2
  9
$DIMLWE
 70
    -2
  9
$DIMTMOVE
 70
     0
  9
$LUNITS
 70
     2
  9
$LUPREC
 70
     3
  9
$SKETCHINC
 40
0.1
  9
$FILLETRAD
 40
0.0625
  9
$AUNITS
 70
     0
  9
$AUPREC
 70
     0
  9
$MENU
  1
ACAD
  9
$ELEVATION
 40
0.0
  9
$PELEVATION
 40
0.0
  9
$THICKNESS
 40
0.0
  9
$LIMCHECK
 70
     0
  9
$CHAMFERA
 40
0.0
  9
$CHAMFERB
 40
0.0
  9
$CHAMFERC
 40
0.0
  9
$CHAMFERD
 40
0.0
  9
$SKPOLY
 70
     0
  9
$TDCREATE
 40
2452272.493923611
  9
$TDUCREATE
 40
2452272.118923611
  9
$TDUPDATE
 40
2453382.731003507
  9
$TDUUPDATE
 40
2453382.356003507
  9
$TDINDWG
 40
0.0114650231
  9
$TDUSRTIMER
 40
0.0114648380
  9
$USRTIMER
 70
     1
  9
$ANGBASE
 50
0.0
  9
$ANGDIR
 70
     0
  9
$PDMODE
 70
     0
  9
$PDSIZE
 40
0.0
  9
$PLINEWID
 40
0.0
  9
$SPLFRAME
 70
     0
  9
$SPLINETYPE
 70
     6
  9
$SPLINESEGS
 70
     8
  9
$HANDSEED
  5
31A
  9
$SURFTAB1
 70
     6
  9
$SURFTAB2
 70
     6
  9
$SURFTYPE
 70
     6
  9
$SURFU
 70
     6
  9
$SURFV
 70
     6
  9
$UCSBASE
  2

  9
$UCSNAME
  2

  9
$UCSORG
 10
0.0
 20
0.0
 30
0.0
  9
$UCSXDIR
 10
1.0
 20
0.0
 30
0.0
  9
$UCSYDIR
 10
0.0
 20
1.0
 30
0.0
  9
$UCSORTHOREF
  2

  9
$UCSORTHOVIEW
 70
     0
  9
$UCSORGTOP
 10
0.0
 20
0.0
 30
0.0
  9
$UCSORGBOTTOM
 10
0.0
 20
0.0
 30
0.0
  9
$UCSORGLEFT
 10
0.0
 20
0.0
 30
0.0
  9
$UCSORGRIGHT
 10
0.0
 20
0.0
 30
0.0
  9
$UCSORGFRONT
 10
0.0
 20
0.0
 30
0.0
  9
$UCSORGBACK
 10
0.0
 20
0.0
 30
0.0
  9
$PUCSBASE
  2

  9
$PUCSNAME
  2

  9
$PUCSORG
 10
0.0
 20
0.0
 30
0.0
  9
$PUCSXDIR
 10
1.0
 20
0.0
 30
0.0
  9
$PUCSYDIR
 10
0.0
 20
1.0
 30
0.0
  9
$PUCSORTHOREF
  2

  9
$PUCSORTHOVIEW
 70
     0
  9
$PUCSORGTOP
 10
0.0
 20
0.0
 30
0.0
  9
$PUCSORGBOTTOM
 10
0.0
 20
0.0
 30
0.0
  9
$PUCSORGLEFT
 10
0.0
 20
0.0
 30
0.0
  9
$PUCSORGRIGHT
 10
0.0
 20
0.0
 30
0.0
  9
$PUCSORGFRONT
 10
0.0
 20
0.0
 30
0.0
  9
$PUCSORGBACK
 10
0.0
 20
0.0
 30
0.0
  9
$USERI1
 70
     9
  9
$USERI2
 70
     0
  9
$USERI3
 70
     0
  9
$USERI4
 70
     0
  9
$USERI5
 70
     0
  9
$USERR1
 40
0.0
  9
$USERR2
 40
0.0
  9
$USERR3
 40
0.0
  9
$USERR4
 40
0.0
  9
$USERR5
 40
0.0
  9
$WORLDVIEW
 70
     1
  9
$SHADEDGE
 70
     3
  9
$SHADEDIF
 70
    70
  9
$TILEMODE
 70
     1
  9
$MAXACTVP
 70
    64
  9
$PINSBASE
 10
0.0
 20
0.0
 30
0.0
  9
$PLIMCHECK
 70
     0
  9
$PEXTMIN
 10
1.000000000000000E+20
 20
1.000000000000000E+20
 30
1.000000000000000E+20
  9
$PEXTMAX
 10
-1.000000000000000E+20
 20
-1.000000000000000E+20
 30
-1.000000000000000E+20
  9
$PLIMMIN
 10
0.0
 20
0.0
  9
$PLIMMAX
 10
12.0
 20
9.0
  9
$UNITMODE
 70
     0
  9
$VISRETAIN
 70
     1
  9
$PLINEGEN
 70
     0
  9
$PSLTSCALE
 70
     1
  9
$TREEDEPTH
 70
  3020
  9
$CMLSTYLE
  2
Standard
  9
$CMLJUST
 70
     0
  9
$CMLSCALE
 40
1.0
  9
$PROXYGRAPHICS
 70
     1
  9
$MEASUREMENT
 70
     0
  9
$CELWEIGHT
370
    -1
  9
$ENDCAPS
280
     0
  9
$JOINSTYLE
280
     0
  9
$LWDISPLAY
290
     0
  9
$INSUNITS
 70
     0
  9
$HYPERLINKBASE
  1

  9
$STYLESHEET
  1

  9
$XEDIT
290
     1
  9
$CEPSNTYPE
380
     0
  9
$PSTYLEMODE
290
     1
  9
$FINGERPRINTGUID
  2
{7CE4F43B-838E-4547-97C1-46B35AADB5B5}
  9
$VERSIONGUID
  2
{D70D2F58-ACE9-43A5-ACC4-EA4DDBCCA621}
  9
$EXTNAMES
290
     1
  9
$PSVPSCALE
 40
0.0
  9
$OLESTARTUP
290
     0
  0
ENDSEC
  0
SECTION
  2
CLASSES
  0
CLASS
  1
ACDBDICTIONARYWDFLT
  2
AcDbDictionaryWithDefault
  3
AutoCAD 2000
 90
        0
280
     0
281
     0
  0
CLASS
  1
ACDBPLACEHOLDER
  2
AcDbPlaceHolder
  3
AutoCAD 2000
 90
        0
280
     0
281
     0
  0
CLASS
  1
LAYOUT
  2
AcDbLayout
  3
AutoCAD 2000
 90
        0
280
     0
281
     0
  0
CLASS
  1
DICTIONARYVAR
  2
AcDbDictionaryVar
  3
AutoCAD 2000
 90
        0
280
     0
281
     0
  0
ENDSEC
  0
SECTION
  2
TABLES
  0
TABLE
  2
VPORT
  5
19
330
0
100
AcDbSymbolTable
 70
     2
  0
VPORT
  5
319
330
19
100
AcDbSymbolTableRecord
100
AcDbViewportTableRecord
  2
*Active
 70
     0
 10
0.0
 20
0.0
 11
1.0
 21
1.0
 12
105.0113398045344
 22
148.5087866193242
 13
0.0
 23
0.0
 14
1.0
 24
1.0
 15
0.0
 25
0.0
 16
0.0
 26
0.0
 36
1.0
 17
0.0
 27
0.0
 37
0.0
 40
301.3551174273207
 41
2.407317073170731
 42
50.0
 43
0.0
 44
0.0
 50
0.0
 51
0.0
 71
     0
 72
   100
 73
     1
 74
     1
 75
     0
 76
     0
 77
     0
 78
     0
281
     0
 65
     1
110
0.0
120
0.0
130
0.0
111
1.0
121
0.0
131
0.0
112
0.0
122
1.0
132
0.0
 79
     0
146
0.0
  0
ENDTAB
  0
TABLE
  2
LTYPE
  5
14
330
0
100
AcDbSymbolTable
 70
     3
  0
LTYPE
  5
15
330
14
100
AcDbSymbolTableRecord
100
AcDbLinetypeTableRecord
  2
ByBlock
 70
     0
  3

 72
    65
 73
     0
 40
0.0
  0
LTYPE
  5
16
330
14
100
AcDbSymbolTableRecord
100
AcDbLinetypeTableRecord
  2
ByLayer
 70
     0
  3

 72
    65
 73
     0
 40
0.0
  0
LTYPE
  5
8
330
14
100
AcDbSymbolTableRecord
100
AcDbLinetypeTableRecord
  2
Continuous
 70
     0
  3
Solid line
 72
    65
 73
     0
 40
0.0
  0
LTYPE
  5
3D
330
14
100
AcDbSymbolTableRecord
100
AcDbLinetypeTableRecord
  2
DASH
 70
     0
  3
Dash
 72
    65
 73
     2
 40
1.9999960661
 49
0.9999980329999999
 74
     0
 49
-0.9999980329999999
 74
     0
  0
LTYPE
  5
2B
330
14
100
AcDbSymbolTableRecord
100
AcDbLinetypeTableRecord
  2
CENTER
 70
     0
  3
Center
 72
    65
 73
     4
 40
9.100006759199999
 49
6.5000119209
 74
     0
 49
-0.7999984026000001
 74
     0
 49
0.9999980329999999
 74
     0
 49
-0.7999984026000001
 74
     0
  0
ENDTAB
  0
TABLE
  2
LAYER
  5
10
330
0
100
AcDbSymbolTable
 70
     1
  0
LAYER
  5
4
330
10
100
AcDbSymbolTableRecord
100
AcDbLayerTableRecord
  2
0
 70
     0
 62
     7
  6
Continuous
370
    -3
390
5
  0
ENDTAB
  0
TABLE
  2
STYLE
  5
11
330
0
100
AcDbSymbolTable
 70
     1
  0
STYLE
  5
12
330
11
100
AcDbSymbolTableRecord
100
AcDbTextStyleTableRecord
  2
STANDARD
 70
     0
 40
0.0
 41
1.0
 50
0.0
 71
     0
 42
2.999994039499997
  3
romans.shx
  4
bigfont.shx
  0
ENDTAB
  0
TABLE
  2
VIEW
  5
17
330
0
100
AcDbSymbolTable
 70
     0
  0
ENDTAB
  0
TABLE
  2
UCS
  5
18
330
0
100
AcDbSymbolTable
 70
     0
  0
ENDTAB
  0
TABLE
  2
APPID
  5
1B
330
0
100
AcDbSymbolTable
 70
     2
  0
APPID
  5
1C
330
1B
100
AcDbSymbolTableRecord
100
AcDbRegAppTableRecord
  2
ACAD
 70
     0
  0
APPID
  5
317
330
1B
100
AcDbSymbolTableRecord
100
AcDbRegAppTableRecord
  2
DCO15
 70
     0
  0
ENDTAB
  0
TABLE
  2
DIMSTYLE
  5
1D
330
0
100
AcDbSymbolTable
 70
     1
100
AcDbDimStyleTable
 71
     0
  0
DIMSTYLE
105
23
330
1D
100
AcDbSymbolTableRecord
100
AcDbDimStyleTableRecord
  2
Standard
 70
     0
340
12
  0
ENDTAB
  0
TABLE
  2
BLOCK_RECORD
  5
1
330
0
100
AcDbSymbolTable
 70
     0
  0
BLOCK_RECORD
  5
2
330
1
100
AcDbSymbolTableRecord
100
AcDbBlockTableRecord
  2
*Model_Space
340
A
  0
BLOCK_RECORD
  5
C
330
1
100
AcDbSymbolTableRecord
100
AcDbBlockTableRecord
  2
*Paper_Space
340
F
  0
ENDTAB
  0
ENDSEC
  0
SECTION
  2
BLOCKS
  0
BLOCK
  5
3
330
2
100
AcDbEntity
  8
0
100
AcDbBlockBegin
  2
*Model_Space
 70
     2
 10
0.0
 20
0.0
 30
0.0
  3
*Model_Space
  1

  0
ENDBLK
  5
9
330
2
100
AcDbEntity
  8
0
100
AcDbBlockEnd
  0
BLOCK
  5
D
330
C
100
AcDbEntity
 67
     1
  8
0
100
AcDbBlockBegin
  2
*Paper_Space
 70
     0
 10
0.0
 20
0.0
 30
0.0
  3
*Paper_Space
  1

  0
ENDBLK
  5
E
330
C
100
AcDbEntity
 67
     1
  8
0
100
AcDbBlockEnd
  0
ENDSEC
  0
SECTION
  2
ENTITIES
  0
LINE
  5
24
330
2
100
AcDbEntity
  8
0
100
AcDbLine
 10
210.0
 20
0.0
 30
0.0
 11
210.0
 21
297.0
 31
0.0
  0
LINE
  5
25
330
2
100
AcDbEntity
  8
0
100
AcDbLine
 10
0.0
 20
297.0
 30
0.0
 11
0.0
 21
0.0
 31
0.0
  0
ARC
  5
26
330
2
100
AcDbEntity
  8
0
 62
     3
100
AcDbCircle
 10
141.6176858587999
 20
215.8999786377
 30
0.0
 40
0.3999999762
100
AcDbArc
 50
0.0
 51
89.99998201389999
  0
ARC
  5
27
330
2
100
AcDbEntity
  8
0
 62
     3
100
AcDbCircle
 10
141.6176858587999
 20
201.0999908447
 30
0.0
 40
0.3999999762
100
AcDbArc
 50
269.9999633446
 51
0.0
  0
ARC
  5
28
330
2
100
AcDbEntity
  8
0
 62
     3
100
AcDbCircle
 10
141.6176858587999
 20
175.8999786377
 30
0.0
 40
0.3999999762
100
AcDbArc
 50
0.0
 51
89.99998201389999
  0
ARC
  5
29
330
2
100
AcDbEntity
  8
0
 62
     3
100
AcDbCircle
 10
141.6176858587999
 20
161.0999908446999
 30
0.0
 40
0.3999999762
100
AcDbArc
 50
270.0000179861
 51
0.0
  0
LINE
  5
2A
330
2
100
AcDbEntity
  8
0
  6
CENTER
 62
     3
100
AcDbLine
 10
102.3177133245999
 20
208.5000152587999
 30
0.0
 11
150.8176828069999
 21
208.5000152587999
 31
0.0
  0
LINE
  5
2C
330
2
100
AcDbEntity
  8
0
100
AcDbLine
 10
0.0
 20
0.0
 30
0.0
 11
210.0
 21
0.0
 31
0.0
  0
LINE
  5
2D
330
2
100
AcDbEntity
  8
0
  6
CENTER
 62
     3
100
AcDbLine
 10
100.8173623723999
 20
168.5000152587999
 30
0.0
 11
150.8176828069999
 21
168.5000152587999
 31
0.0
  0
CIRCLE
  5
2E
330
2
100
AcDbEntity
  8
0
 62
     3
100
AcDbCircle
 10
75.11410004330001
 20
168.5000152587999
 30
0.0
 40
9.0
  0
LINE
  5
2F
330
2
100
AcDbEntity
  8
0
 62
     3
100
AcDbLine
 10
66.11771637630003
 20
177.4500122069999
 30
0.0
 11
84.11771637630002
 21
177.4500122069999
 31
0.0
  0
LINE
  5
30
330
2
100
AcDbEntity
  8
0
 62
     3
100
AcDbLine
 10
66.11771637630003
 20
159.5500030516999
 30
0.0
 11
84.11771637630002
 21
159.5500030516999
 31
0.0
  0
LINE
  5
31
330
2
100
AcDbEntity
  8
0
  6
CENTER
 62
     3
100
AcDbLine
 10
63.6141153021
 20
168.5000152587999
 30
0.0
 11
86.61411530210001
 21
168.5000152587999
 31
0.0
  0
LINE
  5
32
330
2
100
AcDbEntity
  8
0
  6
CENTER
 62
     3
100
AcDbLine
 10
33.11387116149997
 20
168.5001220703
 30
0.0
 11
56.11387116150002
 21
168.5001220703
 31
0.0
  0
LINE
  5
33
330
2
100
AcDbEntity
  8
0
 62
     3
100
AcDbLine
 10
41.11384734569996
 20
174.2000778702999
 30
0.0
 11
39.61384683909999
 21
172.2000782875998
 31
0.0
  0
LINE
  5
34
330
2
100
AcDbEntity
  8
0
 62
     3
100
AcDbLine
 10
39.61398920080003
 20
172.1998432075
 30
0.0
 11
41.11398911139999
 21
174.1998432373
 31
0.0
  0
LINE
  5
35
330
2
100
AcDbEntity
  8
0
 62
     3
100
AcDbLine
 10
40.81385323790001
 20
163.0001164661999
 30
0.0
 11
39.61389555350001
 21
164.8000522191999
 31
0.0
  0
LINE
  5
36
330
2
100
AcDbEntity
  8
0
 62
     3
100
AcDbLine
 10
39.61388957950001
 20
164.7998582187999
 30
0.0
 11
40.81383549330001
 21
162.9999513393
 31
0.0
  0
CIRCLE
  5
37
330
2
100
AcDbEntity
  8
0
 62
     3
100
AcDbCircle
 10
44.6138711615
 20
168.5001220703
 30
0.0
 40
8.0
  0
CIRCLE
  5
38
330
2
100
AcDbEntity
  8
0
 62
     3
100
AcDbCircle
 10
44.6138711615
 20
168.5001220703
 30
0.0
 40
7.399999618499996
  0
CIRCLE
  5
39
330
2
100
AcDbEntity
  8
0
 62
     3
100
AcDbCircle
 10
44.6138711615
 20
168.5001220703
 30
0.0
 40
9.0
  0
LINE
  5
3A
330
2
100
AcDbEntity
  8
0
 62
     3
100
AcDbLine
 10
35.61771637629998
 20
177.4500122069999
 30
0.0
 11
53.61771637630003
 21
177.4500122069999
 31
0.0
  0
LINE
  5
3B
330
2
100
AcDbEntity
  8
0
 62
     3
100
AcDbLine
 10
35.61771637629998
 20
159.5500030516999
 30
0.0
 11
53.61771637630003
 21
159.5500030516999
 31
0.0
  0
LINE
  5
3C
330
2
100
AcDbEntity
  8
0
  6
DASH
 62
     3
100
AcDbLine
 10
38.61376435
 20
167.1000213622999
 30
0.0
 11
38.61376435
 21
166.0000152587999
 31
0.0
  0
ARC
  5
3E
330
2
100
AcDbEntity
  8
0
 62
     3
100
AcDbCircle
 10
44.61376435000001
 20
168.5000152587999
 30
0.0
 40
7.2999992371
100
AcDbArc
 50
159.9727565511
 51
200.0271168631
  0
LINE
  5
3F
330
2
100
AcDbEntity
  8
0
 62
     3
100
AcDbLine
 10
37.21387726499996
 20
165.4604187010999
 30
0.0
 11
37.21387726499996
 21
171.5398712157998
 31
0.0
  0
LINE
  5
40
330
2
100
AcDbEntity
  8
0
 62
     3
100
AcDbLine
 10
40.4137826605
 20
173.2667541504
 30
0.0
 11
40.4137826605
 21
163.6001586914
 31
0.0
  0
LINE
  5
41
330
2
100
AcDbEntity
  8
0
  6
DASH
 62
     3
100
AcDbLine
 10
39.61376435
 20
172.2000122069998
 30
0.0
 11
39.61376435
 21
164.8000183104999
 31
0.0
  0
LINE
  5
42
330
2
100
AcDbEntity
  8
0
 62
     3
100
AcDbLine
 10
40.41376740170003
 20
172.2000122069998
 30
0.0
 11
40.41376740170003
 21
164.8000183104999
 31
0.0
  0
LINE
  5
43
330
2
100
AcDbEntity
  8
0
 62
     3
100
AcDbLine
 10
35.61771637629998
 20
177.4500122069999
 30
0.0
 11
35.61771637629998
 21
159.5500030516999
 31
0.0
  0
LINE
  5
44
330
2
100
AcDbEntity
  8
0
 62
     3
100
AcDbLine
 10
36.12859589289998
 20
165.5001220703
 30
0.0
 11
37.1976113959
 21
165.5001220703
 31
0.0
  0
LINE
  5
45
330
2
100
AcDbEntity
  8
0
 62
     3
100
AcDbLine
 10
36.1177646852
 20
161.8439289312
 30
0.0
 11
37.94395297210002
 21
160.0500073732999
 31
0.0
  0
LINE
  5
46
330
2
100
AcDbEntity
  8
0
 62
     3
100
AcDbLine
 10
38.61388332679999
 20
165.9998649339999
 30
0.0
 11
39.11382516330002
 21
164.8000027288999
 31
0.0
  0
LINE
  5
47
330
2
100
AcDbEntity
  8
0
 62
     3
100
AcDbLine
 10
39.1138302839
 20
164.8000088696
 30
0.0
 11
38.61382944990001
 21
166.0000118475998
 31
0.0
  0
LINE
  5
48
330
2
100
AcDbEntity
  8
0
 62
     3
100
AcDbLine
 10
37.75524384219999
 20
165.9998931884
 30
0.0
 11
38.61376435
 21
165.9998931884
 31
0.0
  0
LINE
  5
49
330
2
100
AcDbEntity
  8
0
 62
     3
100
AcDbLine
 10
37.75519806579997
 20
166.0000152587999
 30
0.0
 11
38.61376435
 21
166.0000152587999
 31
0.0
  0
LINE
  5
4A
330
2
100
AcDbEntity
  8
0
 62
     3
100
AcDbLine
 10
39.11379486749999
 20
164.7999877928999
 30
0.0
 11
39.61379486749999
 21
164.7999877928999
 31
0.0
  0
LINE
  5
4B
330
2
100
AcDbEntity
  8
0
 62
     3
100
AcDbLine
 10
40.41376740170003
 20
164.8000183104999
 30
0.0
 11
39.11376434999999
 21
164.8000183104999
 31
0.0
  0
LINE
  5
4C
330
2
100
AcDbEntity
  8
0
 62
     3
100
AcDbLine
 10
37.94398143310002
 20
176.950011602
 30
0.0
 11
36.11776425299999
 21
175.1560321661
 31
0.0
  0
LINE
  5
4D
330
2
100
AcDbEntity
  8
0
 62
     3
100
AcDbLine
 10
36.12859589289998
 20
171.5000915526998
 30
0.0
 11
37.1976113959
 21
171.5000915526998
 31
0.0
  0
LINE
  5
4E
330
2
100
AcDbEntity
  8
0
 62
     3
100
AcDbLine
 10
38.61388041429997
 20
170.9997958535
 30
0.0
 11
39.11387537960001
 21
172.1997847463999
 31
0.0
  0
LINE
  5
4F
330
2
100
AcDbEntity
  8
0
 62
     3
100
AcDbLine
 10
39.1137795507
 20
172.1999341524
 30
0.0
 11
38.61377840670002
 21
170.9999313294
 31
0.0
  0
LINE
  5
50
330
2
100
AcDbEntity
  8
0
 62
     3
100
AcDbLine
 10
37.91373688420002
 20
169.1999511718
 30
0.0
 11
37.91373688420002
 21
167.7999420166
 31
0.0
  0
LINE
  5
51
330
2
100
AcDbEntity
  8
0
 62
     3
100
AcDbLine
 10
37.91373688420002
 20
167.7999420166
 30
0.0
 11
38.26378876400002
 21
167.7999420166
 31
0.0
  0
LINE
  5
52
330
2
100
AcDbEntity
  8
0
 62
     3
100
AcDbLine
 10
37.91373688420002
 20
169.1999511718
 30
0.0
 11
38.26378876400002
 21
169.1999511718
 31
0.0
  0
LINE
  5
53
330
2
100
AcDbEntity
  8
0
 62
     3
100
AcDbLine
 10
37.75515228940003
 20
170.9998779297
 30
0.0
 11
38.61376435
 21
170.9998779297
 31
0.0
  0
LINE
  5
54
330
2
100
AcDbEntity
  8
0
 62
     3
100
AcDbLine
 10
38.26377350519999
 20
169.2000122069998
 30
0.0
 11
37.91376740170003
 21
169.2000122069998
 31
0.0
  0
LINE
  5
55
330
2
100
AcDbEntity
  8
0
 62
     3
100
AcDbLine
 10
38.26377350519999
 20
167.8000183104998
 30
0.0
 11
37.91376740170003
 21
167.8000183104998
 31
0.0
  0
LINE
  5
56
330
2
100
AcDbEntity
  8
0
 62
     3
100
AcDbLine
 10
37.91376740170003
 20
169.2000122069998
 30
0.0
 11
37.91376740170003
 21
167.8000183104998
 31
0.0
  0
LINE
  5
57
330
2
100
AcDbEntity
  8
0
 62
     3
100
AcDbLine
 10
37.75519806579997
 20
171.0000152587999
 30
0.0
 11
38.61376435
 21
171.0000152587999
 31
0.0
  0
LINE
  5
58
330
2
100
AcDbEntity
  8
0
  6
DASH
 62
     3
100
AcDbLine
 10
38.61376435
 20
171.0000152587999
 30
0.0
 11
38.61376435
 21
169.9000091552
 31
0.0
  0
LINE
  5
59
330
2
100
AcDbEntity
  8
0
 62
     3
100
AcDbLine
 10
38.76377350519999
 20
169.900024414
 30
0.0
 11
38.26377350519999
 21
169.900024414
 31
0.0
  0
LINE
  5
5A
330
2
100
AcDbEntity
  8
0
 62
     3
100
AcDbLine
 10
38.76377350519999
 20
169.9000091552
 30
0.0
 11
38.76377350519999
 21
167.1000213622999
 31
0.0
  0
LINE
  5
5B
330
2
100
AcDbEntity
  8
0
 62
     3
100
AcDbLine
 10
38.26377350519999
 20
169.9000091552
 30
0.0
 11
38.26377350519999
 21
167.1000213622999
 31
0.0
  0
LINE
  5
5C
330
2
100
AcDbEntity
  8
0
 62
     3
100
AcDbLine
 10
38.76377350519999
 20
167.1000213622999
 30
0.0
 11
38.26377350519999
 21
167.1000213622999
 31
0.0
  0
LINE
  5
5D
330
2
100
AcDbEntity
  8
0
 62
     3
100
AcDbLine
 10
40.21377045350003
 20
168.4000091551999
 30
0.0
 11
39.71377045350001
 21
168.4000091551999
 31
0.0
  0
LINE
  5
5E
330
2
100
AcDbEntity
  8
0
 62
     3
100
AcDbLine
 10
40.21377045350003
 20
168.6000213623
 30
0.0
 11
39.71377045350001
 21
168.6000213623
 31
0.0
  0
LINE
  5
5F
330
2
100
AcDbEntity
  8
0
 62
     3
100
AcDbLine
 10
39.71377045350001
 20
169.1000061035
 30
0.0
 11
39.71377045350001
 21
168.6000061034999
 31
0.0
  0
LINE
  5
60
330
2
100
AcDbEntity
  8
0
 62
     3
100
AcDbLine
 10
39.51377350519999
 20
169.1000061035
 30
0.0
 11
39.51377350519999
 21
168.6000061034999
 31
0.0
  0
LINE
  5
61
330
2
100
AcDbEntity
  8
0
 62
     3
100
AcDbLine
 10
39.51377350519999
 20
168.4000091551999
 30
0.0
 11
39.51377350519999
 21
167.9000091552
 31
0.0
  0
LINE
  5
62
330
2
100
AcDbEntity
  8
0
 62
     3
100
AcDbLine
 10
39.71377045350001
 20
168.4000091551999
 30
0.0
 11
39.71377045350001
 21
167.9000091552
 31
0.0
  0
ARC
  5
63
330
2
100
AcDbEntity
  8
0
 62
     3
100
AcDbCircle
 10
39.61376435
 20
169.1000061035
 30
0.0
 40
0.099999964237
100
AcDbArc
 50
0.0
 51
179.9998547448
  0
ARC
  5
64
330
2
100
AcDbEntity
  8
0
 62
     3
100
AcDbCircle
 10
40.21377045350003
 20
168.5000152587999
 30
0.0
 40
0.099999964237
100
AcDbArc
 50
270.0000726275999
 51
89.9999273723999
  0
ARC
  5
65
330
2
100
AcDbEntity
  8
0
 62
     3
100
AcDbCircle
 10
39.61376435
 20
167.9000091552
 30
0.0
 40
0.099999964237
100
AcDbArc
 50
180.0000906136999
 51
0.0
  0
ARC
  5
66
330
2
100
AcDbEntity
  8
0
 62
     3
100
AcDbCircle
 10
39.01377350519999
 20
168.5000152587999
 30
0.0
 40
0.099999964237
100
AcDbArc
 50
90.00003665540001
 51
270.0000006831999
  0
LINE
  5
67
330
2
100
AcDbEntity
  8
0
 62
     3
100
AcDbLine
 10
39.51377350519999
 20
168.6000213623
 30
0.0
 11
39.01377350519999
 21
168.6000213623
 31
0.0
  0
LINE
  5
68
330
2
100
AcDbEntity
  8
0
 62
     3
100
AcDbLine
 10
39.51377350519999
 20
168.4000091551999
 30
0.0
 11
39.01377350519999
 21
168.4000091551999
 31
0.0
  0
LINE
  5
69
330
2
100
AcDbEntity
  8
0
 62
     3
100
AcDbLine
 10
39.11376434999999
 20
172.1999511717998
 30
0.0
 11
39.61376435
 21
172.1999511717998
 31
0.0
  0
LINE
  5
6A
330
2
100
AcDbEntity
  8
0
 62
     3
100
AcDbLine
 10
40.41376740170003
 20
172.2000122069998
 30
0.0
 11
39.11376434999999
 21
172.2000122069998
 31
0.0
  0
LINE
  5
6B
330
2
100
AcDbEntity
  8
0
  6
CENTER
 62
     3
100
AcDbLine
 10
44.61388642030001
 20
157.2501220702999
 30
0.0
 11
44.61388642030001
 21
179.7501068115
 31
0.0
  0
LINE
  5
6C
330
2
100
AcDbEntity
  8
0
 62
     3
100
AcDbLine
 10
48.11374909120003
 20
174.2001342772999
 30
0.0
 11
46.6137490912
 21
174.2001342772999
 31
0.0
  0
LINE
  5
6D
330
2
100
AcDbEntity
  8
0
 62
     3
100
AcDbLine
 10
48.0137582465
 20
173.2001342772999
 30
0.0
 11
45.91375214290001
 21
173.2001342772999
 31
0.0
  0
LINE
  5
6E
330
2
100
AcDbEntity
  8
0
 62
     3
100
AcDbLine
 10
47.8637796088
 20
163.0001678465999
 30
0.0
 11
48.41376740170002
 21
163.0001678465999
 31
0.0
  0
LINE
  5
6F
330
2
100
AcDbEntity
  8
0
 62
     3
100
AcDbLine
 10
48.0137582465
 20
163.8001251219999
 30
0.0
 11
45.91375214290001
 21
163.8001251219999
 31
0.0
  0
LINE
  5
70
330
2
100
AcDbEntity
  8
0
 62
     3
100
AcDbLine
 10
48.41375214290001
 20
163.0001373290999
 30
0.0
 11
46.31376129819996
 21
163.0001373290999
 31
0.0
  0
LINE
  5
71
330
2
100
AcDbEntity
  8
0
 62
     3
100
AcDbLine
 10
46.3138223334
 20
163.0000152587999
 30
0.0
 11
48.41379791929997
 21
163.0000152587999
 31
0.0
  0
LINE
  5
72
330
2
100
AcDbEntity
  8
0
 62
     3
100
AcDbLine
 10
45.91375214290001
 20
163.8001251219999
 30
0.0
 11
45.91375214290001
 21
173.2001342772999
 31
0.0
  0
LINE
  5
73
330
2
100
AcDbEntity
  8
0
 62
     3
100
AcDbLine
 10
43.313776557
 20
173.2667999266999
 30
0.0
 11
43.313776557
 21
163.6001281737998
 31
0.0
  0
ARC
  5
74
330
2
100
AcDbEntity
  8
0
 62
     3
100
AcDbCircle
 10
44.61376435000001
 20
168.5001373291
 30
0.0
 40
6.6999959946
100
AcDbArc
 50
255.3432516499
 51
284.6984757969
  0
LINE
  5
75
330
2
100
AcDbEntity
  8
0
 62
     3
100
AcDbLine
 10
41.61390167910002
 20
160.0148315428999
 30
0.0
 11
41.61390167910002
 21
161.0837554931
 31
0.0
  0
LINE
  5
76
330
2
100
AcDbEntity
  8
0
 62
     3
100
AcDbLine
 10
42.3637796088
 20
163.0001678465999
 30
0.0
 11
42.9137826605
 21
163.0001678465999
 31
0.0
  0
LINE
  5
77
330
2
100
AcDbEntity
  8
0
 62
     3
100
AcDbLine
 10
42.4138184854
 20
162.5001790524999
 30
0.0
 11
42.51382198579999
 21
163.0001949434999
 31
0.0
  0
LINE
  5
78
330
2
100
AcDbEntity
  8
0
 62
     3
100
AcDbLine
 10
42.3637796088
 20
162.5001678465999
 30
0.0
 11
42.4137826605
 21
162.5001678465999
 31
0.0
  0
LINE
  5
79
330
2
100
AcDbEntity
  8
0
 62
     3
100
AcDbLine
 10
42.3637796088
 20
164.9001464842999
 30
0.0
 11
42.3637796088
 21
162.1002197264998
 31
0.0
  0
LINE
  5
7A
330
2
100
AcDbEntity
  8
0
 62
     3
100
AcDbLine
 10
41.8637796088
 20
164.9001464842999
 30
0.0
 11
41.8637796088
 21
162.1002197264998
 31
0.0
  0
LINE
  5
7B
330
2
100
AcDbEntity
  8
0
 62
     3
100
AcDbLine
 10
41.8637796088
 20
164.9001464842999
 30
0.0
 11
42.3637796088
 21
164.9001464842999
 31
0.0
  0
LINE
  5
7C
330
2
100
AcDbEntity
  8
0
 62
     3
100
AcDbLine
 10
41.8637796088
 20
162.1002197264998
 30
0.0
 11
42.3637796088
 21
162.1002197264998
 31
0.0
  0
LINE
  5
7D
330
2
100
AcDbEntity
  8
0
 62
     3
100
AcDbLine
 10
41.31379181579997
 20
162.5001678465999
 30
0.0
 11
41.8637796088
 21
162.5001678465999
 31
0.0
  0
LINE
  5
7E
330
2
100
AcDbEntity
  8
0
 62
     3
100
AcDbLine
 10
41.21382360450001
 20
163.0001192932
 30
0.0
 11
41.31382411240003
 21
162.5001183646998
 31
0.0
  0
ARC
  5
7F
330
2
100
AcDbEntity
  8
0
 62
     3
100
AcDbCircle
 10
35.40566498470002
 20
163.5002288818
 30
0.0
 40
6.6081047058
100
AcDbArc
 50
347.7685894419
 51
12.23099050149996
  0
ARC
  5
80
330
2
100
AcDbEntity
  8
0
 62
     3
100
AcDbCircle
 10
48.8218637152
 20
163.5002288818
 30
0.0
 40
6.6081047058
100
AcDbArc
 50
167.7689530357999
 51
192.2313575105
  0
LINE
  5
81
330
2
100
AcDbEntity
  8
0
 62
     3
100
AcDbLine
 10
40.81379181580003
 20
163.0001678465999
 30
0.0
 11
41.8637796088
 21
163.0001678465999
 31
0.0
  0
LINE
  5
82
330
2
100
AcDbEntity
  8
0
 62
     3
100
AcDbLine
 10
42.91376740170003
 20
163.0001373290999
 30
0.0
 11
42.91376740170003
 21
162.0193939209
 31
0.0
  0
LINE
  5
83
330
2
100
AcDbEntity
  8
0
 62
     3
100
AcDbLine
 10
42.9137826605
 20
163.0000305175
 30
0.0
 11
42.9137826605
 21
162.0192871092999
 31
0.0
  0
LINE
  5
84
330
2
100
AcDbEntity
  8
0
 62
     3
100
AcDbLine
 10
42.9138131781
 20
162.9998168944998
 30
0.0
 11
42.9138131781
 21
162.0189819335999
 31
0.0
  0
LINE
  5
85
330
2
100
AcDbEntity
  8
0
 62
     3
100
AcDbLine
 10
42.91379152210001
 20
163.0000860183999
 30
0.0
 11
43.31379413009996
 21
163.6000901237999
 31
0.0
  0
LINE
  5
86
330
2
100
AcDbEntity
  8
0
 62
     3
100
AcDbLine
 10
47.6138864203
 20
160.0148315428999
 30
0.0
 11
47.6138864203
 21
161.0837554931
 31
0.0
  0
LINE
  5
87
330
2
100
AcDbEntity
  8
0
 62
     3
100
AcDbLine
 10
47.0138192816
 20
163.4999847411999
 30
0.0
 11
47.0138192816
 21
162.9999847411999
 31
0.0
  0
LINE
  5
88
330
2
100
AcDbEntity
  8
0
 62
     3
100
AcDbLine
 10
46.31376129819996
 20
163.0001373290999
 30
0.0
 11
46.31376129819996
 21
162.0192871092999
 31
0.0
  0
LINE
  5
89
330
2
100
AcDbEntity
  8
0
 62
     3
100
AcDbLine
 10
46.3138223334
 20
162.9999847411999
 30
0.0
 11
46.3138223334
 21
163.4999847411999
 31
0.0
  0
LINE
  5
8A
330
2
100
AcDbEntity
  8
0
 62
     3
100
AcDbLine
 10
46.31394440370002
 20
162.0193176269
 30
0.0
 11
46.31394440370002
 21
163.0000305175
 31
0.0
  0
LINE
  5
8B
330
2
100
AcDbEntity
  8
0
 62
     3
100
AcDbLine
 10
46.3138223334
 20
162.9998168944998
 30
0.0
 11
46.3138223334
 21
162.0189819335999
 31
0.0
  0
LINE
  5
8C
330
2
100
AcDbEntity
  8
0
 62
     3
100
AcDbLine
 10
46.313776557
 20
163.0001678465999
 30
0.0
 11
47.3637796088
 21
163.0001678465999
 31
0.0
  0
LINE
  5
8D
330
2
100
AcDbEntity
  8
0
 62
     3
100
AcDbLine
 10
46.3138223334
 20
163.4999847411999
 30
0.0
 11
47.0138192816
 21
163.4999847411999
 31
0.0
  0
ARC
  5
8E
330
2
100
AcDbEntity
  8
0
 62
     3
100
AcDbCircle
 10
44.61376435000001
 20
168.5001373291
 30
0.0
 40
6.6999959946
100
AcDbArc
 50
72.6320130679
 51
107.3679509599999
  0
LINE
  5
8F
330
2
100
AcDbEntity
  8
0
 62
     3
100
AcDbLine
 10
42.3637796088
 20
167.100112915
 30
0.0
 11
42.3637796088
 21
169.9000854491998
 31
0.0
  0
LINE
  5
90
330
2
100
AcDbEntity
  8
0
 62
     3
100
AcDbLine
 10
41.8637796088
 20
167.100112915
 30
0.0
 11
41.8637796088
 21
169.9000854491998
 31
0.0
  0
LINE
  5
91
330
2
100
AcDbEntity
  8
0
 62
     3
100
AcDbLine
 10
41.8637796088
 20
169.9000854491998
 30
0.0
 11
42.3637796088
 21
169.9000854491998
 31
0.0
  0
LINE
  5
92
330
2
100
AcDbEntity
  8
0
 62
     3
100
AcDbLine
 10
41.8637796088
 20
167.100112915
 30
0.0
 11
42.3637796088
 21
167.100112915
 31
0.0
  0
ARC
  5
93
330
2
100
AcDbEntity
  8
0
 62
     3
100
AcDbCircle
 10
35.40543610289997
 20
168.5001373291
 30
0.0
 40
6.608330726599997
100
AcDbArc
 50
347.769026574
 51
12.23099050149996
  0
ARC
  5
94
330
2
100
AcDbEntity
  8
0
 62
     3
100
AcDbCircle
 10
48.82209259700003
 20
168.5001373291
 30
0.0
 40
6.608330726599997
100
AcDbArc
 50
167.7689530357999
 51
192.2309203783
  0
LINE
  5
95
330
2
100
AcDbEntity
  8
0
 62
     3
100
AcDbLine
 10
42.41384372429999
 20
174.7000885690999
 30
0.0
 11
42.51384459679999
 21
174.2000877318
 31
0.0
  0
LINE
  5
96
330
2
100
AcDbEntity
  8
0
 62
     3
100
AcDbLine
 10
42.61377960879999
 20
174.2000885009
 30
0.0
 11
42.3637796088
 21
174.2000885009
 31
0.0
  0
LINE
  5
97
330
2
100
AcDbEntity
  8
0
 62
     3
100
AcDbLine
 10
42.3637796088
 20
174.7000885009
 30
0.0
 11
42.4137826605
 21
174.7000885009
 31
0.0
  0
LINE
  5
98
330
2
100
AcDbEntity
  8
0
 62
     3
100
AcDbLine
 10
42.3637796088
 20
172.1000823974
 30
0.0
 11
42.3637796088
 21
174.9000854491999
 31
0.0
  0
LINE
  5
99
330
2
100
AcDbEntity
  8
0
 62
     3
100
AcDbLine
 10
41.8637796088
 20
172.1000823974
 30
0.0
 11
41.8637796088
 21
174.9000854491999
 31
0.0
  0
LINE
  5
9A
330
2
100
AcDbEntity
  8
0
 62
     3
100
AcDbLine
 10
41.8637796088
 20
174.9000854491999
 30
0.0
 11
42.3637796088
 21
174.9000854491999
 31
0.0
  0
LINE
  5
9B
330
2
100
AcDbEntity
  8
0
 62
     3
100
AcDbLine
 10
41.8637796088
 20
172.1000823974
 30
0.0
 11
42.3637796088
 21
172.1000823974
 31
0.0
  0
LINE
  5
9C
330
2
100
AcDbEntity
  8
0
 62
     3
100
AcDbLine
 10
41.31379181579997
 20
174.7000885009
 30
0.0
 11
41.8637796088
 21
174.7000885009
 31
0.0
  0
LINE
  5
9D
330
2
100
AcDbEntity
  8
0
 62
     3
100
AcDbLine
 10
41.2138040893
 20
174.2000608265
 30
0.0
 11
41.31380496179999
 21
174.7000616638
 31
0.0
  0
ARC
  5
9E
330
2
100
AcDbEntity
  8
0
 62
     3
100
AcDbCircle
 10
35.40543610289997
 20
173.5001220702999
 30
0.0
 40
6.608330726599997
100
AcDbArc
 50
347.769026574
 51
12.23099050149996
  0
ARC
  5
9F
330
2
100
AcDbEntity
  8
0
 62
     3
100
AcDbCircle
 10
48.82209259700003
 20
173.5001220702999
 30
0.0
 40
6.608330726599997
100
AcDbArc
 50
167.7689530357999
 51
192.2309203783
  0
LINE
  5
A0
330
2
100
AcDbEntity
  8
0
 62
     3
100
AcDbLine
 10
41.61390167910002
 20
175.9162445068
 30
0.0
 11
41.61390167910002
 21
176.9853973388
 31
0.0
  0
LINE
  5
A1
330
2
100
AcDbEntity
  8
0
 62
     3
100
AcDbLine
 10
41.8637796088
 20
174.2000885009
 30
0.0
 11
41.1137796088
 21
174.2000885009
 31
0.0
  0
LINE
  5
A2
330
2
100
AcDbEntity
  8
0
 62
     3
100
AcDbLine
 10
42.61377960879999
 20
174.89453125
 30
0.0
 11
42.61377960879999
 21
174.1999969481999
 31
0.0
  0
LINE
  5
A3
330
2
100
AcDbEntity
  8
0
 62
     3
100
AcDbLine
 10
42.61376434999998
 20
174.1999511718
 30
0.0
 11
42.61376434999998
 21
174.8946533203
 31
0.0
  0
LINE
  5
A4
330
2
100
AcDbEntity
  8
0
 62
     3
100
AcDbLine
 10
42.61392706700002
 20
174.1999512150998
 30
0.0
 11
43.3139026807
 21
173.2666504199
 31
0.0
  0
LINE
  5
A5
330
2
100
AcDbEntity
  8
0
 62
     3
100
AcDbLine
 10
46.6137490912
 20
174.1999511718
 30
0.0
 11
46.6137490912
 21
174.8946533203
 31
0.0
  0
LINE
  5
A6
330
2
100
AcDbEntity
  8
0
 62
     3
100
AcDbLine
 10
47.6138864203
 20
175.9162445068
 30
0.0
 11
47.6138864203
 21
176.9853973388
 31
0.0
  0
LINE
  5
A7
330
2
100
AcDbEntity
  8
0
  6
DASH
 62
     3
100
AcDbLine
 10
50.61374909120003
 20
166.0000152587999
 30
0.0
 11
50.61374909120003
 21
167.1000213622999
 31
0.0
  0
ARC
  5
A8
330
2
100
AcDbEntity
  8
0
 62
     3
100
AcDbCircle
 10
44.61376435000001
 20
168.5000152587999
 30
0.0
 40
7.2999992371
100
AcDbArc
 50
339.9728300892998
 51
20.02713234470002
  0
LINE
  5
A9
330
2
100
AcDbEntity
  8
0
 62
     3
100
AcDbLine
 10
52.01378876400003
 20
165.4604187010999
 30
0.0
 11
52.01378876400003
 21
171.5398712157998
 31
0.0
  0
LINE
  5
AA
330
2
100
AcDbEntity
  8
0
 62
     3
100
AcDbLine
 10
53.61771637630003
 20
177.4500122069999
 30
0.0
 11
53.61771637630003
 21
159.5500030516999
 31
0.0
  0
LINE
  5
AB
330
2
100
AcDbEntity
  8
0
 62
     3
100
AcDbLine
 10
48.0137582465
 20
163.8001251219999
 30
0.0
 11
48.0137582465
 21
173.2001342772999
 31
0.0
  0
LINE
  5
AC
330
2
100
AcDbEntity
  8
0
 62
     3
100
AcDbLine
 10
48.81376129820001
 20
163.6001281737998
 30
0.0
 11
48.81376129820001
 21
173.2667999266999
 31
0.0
  0
LINE
  5
AD
330
2
100
AcDbEntity
  8
0
  6
DASH
 62
     3
100
AcDbLine
 10
49.61374909120003
 20
164.8000183104999
 30
0.0
 11
49.61374909120003
 21
172.2000122069998
 31
0.0
  0
LINE
  5
AE
330
2
100
AcDbEntity
  8
0
 62
     3
100
AcDbLine
 10
48.81374603939999
 20
164.8000183104999
 30
0.0
 11
48.81374603939999
 21
172.2000122069998
 31
0.0
  0
LINE
  5
AF
330
2
100
AcDbEntity
  8
0
 62
     3
100
AcDbLine
 10
51.29169775650002
 20
160.0500244808
 30
0.0
 11
53.1177616322
 21
161.8439203172
 31
0.0
  0
LINE
  5
B0
330
2
100
AcDbEntity
  8
0
 62
     3
100
AcDbLine
 10
50.11388218230003
 20
164.7999848048
 30
0.0
 11
49.61380588830003
 21
164.8001040140998
 31
0.0
  0
LINE
  5
B1
330
2
100
AcDbEntity
  8
0
 62
     3
100
AcDbLine
 10
50.11374909120003
 20
164.8000183104999
 30
0.0
 11
48.81374603939999
 21
164.8000183104999
 31
0.0
  0
LINE
  5
B2
330
2
100
AcDbEntity
  8
0
 62
     3
100
AcDbLine
 10
48.41379951820002
 20
163.0001004969
 30
0.0
 11
49.61380003870003
 21
164.8000993434999
 31
0.0
  0
LINE
  5
B3
330
2
100
AcDbEntity
  8
0
 62
     3
100
AcDbLine
 10
50.61374909120003
 20
165.9998931884
 30
0.0
 11
51.47228485780003
 21
165.9998931884
 31
0.0
  0
LINE
  5
B4
330
2
100
AcDbEntity
  8
0
 62
     3
100
AcDbLine
 10
50.61374909120003
 20
166.0000152587999
 30
0.0
 11
51.47233063419999
 21
166.0000152587999
 31
0.0
  0
LINE
  5
B5
330
2
100
AcDbEntity
  8
0
 62
     3
100
AcDbLine
 10
50.61382048110003
 20
165.9998111644
 30
0.0
 11
50.1138517018
 21
164.7999436294
 31
0.0
  0
LINE
  5
B6
330
2
100
AcDbEntity
  8
0
 62
     3
100
AcDbLine
 10
50.6138061388
 20
165.9999251848
 30
0.0
 11
50.11380538230003
 21
164.7999222069
 31
0.0
  0
LINE
  5
B7
330
2
100
AcDbEntity
  8
0
 62
     3
100
AcDbLine
 10
52.02991730410002
 20
165.5001220703
 30
0.0
 11
53.09914643000002
 21
165.5001220703
 31
0.0
  0
LINE
  5
B8
330
2
100
AcDbEntity
  8
0
 62
     3
100
AcDbLine
 10
53.11774468730003
 20
175.1560694474
 30
0.0
 11
51.2916628041
 21
176.9500124688999
 31
0.0
  0
LINE
  5
B9
330
2
100
AcDbEntity
  8
0
 62
     3
100
AcDbLine
 10
50.61386282880002
 20
170.9999720964
 30
0.0
 11
50.1138701061
 21
172.1999545224
 31
0.0
  0
LINE
  5
BA
330
2
100
AcDbEntity
  8
0
 62
     3
100
AcDbLine
 10
50.21375519469997
 20
168.4000091551999
 30
0.0
 11
49.01375824649996
 21
168.4000091551999
 31
0.0
  0
LINE
  5
BB
330
2
100
AcDbEntity
  8
0
 62
     3
100
AcDbLine
 10
50.21375519469997
 20
168.6000213623
 30
0.0
 11
49.01375824649996
 21
168.6000213623
 31
0.0
  0
ARC
  5
BC
330
2
100
AcDbEntity
  8
0
 62
     3
100
AcDbCircle
 10
49.01375824649996
 20
168.5000152587999
 30
0.0
 40
0.099999964237
100
AcDbArc
 50
89.99992737239997
 51
179.9998547448
  0
ARC
  5
BD
330
2
100
AcDbEntity
  8
0
 62
     3
100
AcDbCircle
 10
49.01375824649996
 20
168.5000152587999
 30
0.0
 40
0.099999964237
100
AcDbArc
 50
180.0000906136999
 51
270.0000726275999
  0
LINE
  5
BE
330
2
100
AcDbEntity
  8
0
 62
     3
100
AcDbLine
 10
50.96384674740003
 20
167.7999420166
 30
0.0
 11
51.31373078060002
 21
167.7999420166
 31
0.0
  0
LINE
  5
BF
330
2
100
AcDbEntity
  8
0
 62
     3
100
AcDbLine
 10
50.96384674740003
 20
169.1999511718
 30
0.0
 11
51.31373078060002
 21
169.1999511718
 31
0.0
  0
LINE
  5
C0
330
2
100
AcDbEntity
  8
0
 62
     3
100
AcDbLine
 10
50.61374909120003
 20
170.9998779297
 30
0.0
 11
51.47237641050001
 21
170.9998779297
 31
0.0
  0
LINE
  5
C1
330
2
100
AcDbEntity
  8
0
 62
     3
100
AcDbLine
 10
51.31374603939999
 20
169.2000122069998
 30
0.0
 11
50.96375519469997
 21
169.2000122069998
 31
0.0
  0
LINE
  5
C2
330
2
100
AcDbEntity
  8
0
 62
     3
100
AcDbLine
 10
51.31374603939999
 20
167.8000183104998
 30
0.0
 11
50.96375519469997
 21
167.8000183104998
 31
0.0
  0
LINE
  5
C3
330
2
100
AcDbEntity
  8
0
 62
     3
100
AcDbLine
 10
51.31374603939999
 20
167.7999420166
 30
0.0
 11
51.31374603939999
 21
169.2000122069998
 31
0.0
  0
LINE
  5
C4
330
2
100
AcDbEntity
  8
0
 62
     3
100
AcDbLine
 10
50.61374909120003
 20
171.0000152587999
 30
0.0
 11
51.47233063419999
 21
171.0000152587999
 31
0.0
  0
LINE
  5
C5
330
2
100
AcDbEntity
  8
0
  6
DASH
 62
     3
100
AcDbLine
 10
50.61374909120003
 20
169.9000091552
 30
0.0
 11
50.61374909120003
 21
171.0000152587999
 31
0.0
  0
LINE
  5
C6
330
2
100
AcDbEntity
  8
0
 62
     3
100
AcDbLine
 10
50.96375519469997
 20
169.900024414
 30
0.0
 11
50.46375519469997
 21
169.900024414
 31
0.0
  0
LINE
  5
C7
330
2
100
AcDbEntity
  8
0
 62
     3
100
AcDbLine
 10
50.46375519469997
 20
167.1000213622999
 30
0.0
 11
50.46375519469997
 21
169.900024414
 31
0.0
  0
LINE
  5
C8
330
2
100
AcDbEntity
  8
0
 62
     3
100
AcDbLine
 10
50.96375519469997
 20
167.1000213622999
 30
0.0
 11
50.96375519469997
 21
169.900024414
 31
0.0
  0
LINE
  5
C9
330
2
100
AcDbEntity
  8
0
 62
     3
100
AcDbLine
 10
50.96375519469997
 20
167.1000213622999
 30
0.0
 11
50.46375519469997
 21
167.1000213622999
 31
0.0
  0
ARC
  5
CA
330
2
100
AcDbEntity
  8
0
 62
     3
100
AcDbCircle
 10
50.21375519469997
 20
168.5000152587999
 30
0.0
 40
0.099999964237
100
AcDbArc
 50
270.0000726275999
 51
89.99987273089994
  0
LINE
  5
CB
330
2
100
AcDbEntity
  8
0
 62
     3
100
AcDbLine
 10
49.61374909120003
 20
172.1999511717998
 30
0.0
 11
50.11374909120003
 21
172.1999511717998
 31
0.0
  0
LINE
  5
CC
330
2
100
AcDbEntity
  8
0
 62
     3
100
AcDbLine
 10
50.11374909120003
 20
172.2000122069998
 30
0.0
 11
48.81374603939999
 21
172.2000122069998
 31
0.0
  0
LINE
  5
CD
330
2
100
AcDbEntity
  8
0
 62
     3
100
AcDbLine
 10
49.61382044620001
 20
172.2000580623999
 30
0.0
 11
48.11386616290001
 21
174.199997057
 31
0.0
  0
LINE
  5
CE
330
2
100
AcDbEntity
  8
0
 62
     3
100
AcDbLine
 10
52.02991730410002
 20
171.5000915526998
 30
0.0
 11
53.09914643000002
 21
171.5000915526998
 31
0.0
  0
LINE
  5
CF
330
2
100
AcDbEntity
  8
0
 62
     3
100
AcDbLine
 10
70.01410919860001
 20
168.6000366211
 30
0.0
 11
69.51410919860001
 21
168.6000366211
 31
0.0
  0
LINE
  5
D0
330
2
100
AcDbEntity
  8
0
 62
     3
100
AcDbLine
 10
70.01410919860001
 20
168.4000244139998
 30
0.0
 11
69.51410919860001
 21
168.4000244139998
 31
0.0
  0
LINE
  5
D1
330
2
100
AcDbEntity
  8
0
 62
     3
100
AcDbLine
 10
69.61414537240003
 20
164.800027237
 30
0.0
 11
69.1141504071
 21
166.0000161298999
 31
0.0
  0
LINE
  5
D2
330
2
100
AcDbEntity
  8
0
 62
     3
100
AcDbLine
 10
69.61411631690001
 20
172.1999593789
 30
0.0
 11
69.11411517300002
 21
170.9999565559999
 31
0.0
  0
CIRCLE
  5
D3
330
2
100
AcDbEntity
  8
0
 62
     3
100
AcDbCircle
 10
75.11410004330001
 20
168.5000152587999
 30
0.0
 40
8.0
  0
CIRCLE
  5
D4
330
2
100
AcDbEntity
  8
0
 62
     3
100
AcDbCircle
 10
75.11410004330001
 20
168.5000152587999
 30
0.0
 40
7.399999618499996
  0
LINE
  5
D5
330
2
100
AcDbEntity
  8
0
  6
DASH
 62
     3
100
AcDbLine
 10
69.1141153021
 20
167.1000366211
 30
0.0
 11
69.1141153021
 21
166.0000305175
 31
0.0
  0
LINE
  5
D6
330
2
100
AcDbEntity
  8
0
 62
     3
100
AcDbLine
 10
67.71410614679999
 20
165.4603118895999
 30
0.0
 11
67.71410614679999
 21
171.5397644043
 31
0.0
  0
ARC
  5
D7
330
2
100
AcDbEntity
  8
0
 62
     3
100
AcDbCircle
 10
75.11410004330001
 20
168.5000305174999
 30
0.0
 40
7.2999992371
100
AcDbArc
 50
159.9727565511
 51
200.0271168631
  0
LINE
  5
D8
330
2
100
AcDbEntity
  8
0
 62
     3
100
AcDbLine
 10
66.11771637630003
 20
177.4500122069999
 30
0.0
 11
66.11771637630003
 21
159.5500030516999
 31
0.0
  0
LINE
  5
D9
330
2
100
AcDbEntity
  8
0
 62
     3
100
AcDbLine
 10
66.61773816269998
 20
161.8439311674999
 30
0.0
 11
68.44392644969999
 21
160.0500096095999
 31
0.0
  0
LINE
  5
DA
330
2
100
AcDbEntity
  8
0
 62
     3
100
AcDbLine
 10
66.62882477480002
 20
165.5000305175
 30
0.0
 11
67.6978402777
 21
165.5000305175
 31
0.0
  0
LINE
  5
DB
330
2
100
AcDbEntity
  8
0
 62
     3
100
AcDbLine
 10
68.25553375920003
 20
166.0000305175
 30
0.0
 11
69.1141153021
 21
166.0000305175
 31
0.0
  0
LINE
  5
DC
330
2
100
AcDbEntity
  8
0
 62
     3
100
AcDbLine
 10
66.62882477480002
 20
171.5
 30
0.0
 11
67.6978402777
 21
171.5
 31
0.0
  0
LINE
  5
DD
330
2
100
AcDbEntity
  8
0
 62
     3
100
AcDbLine
 10
68.76410919860001
 20
169.2000274657999
 30
0.0
 11
68.41411835390002
 21
169.2000274657999
 31
0.0
  0
LINE
  5
DE
330
2
100
AcDbEntity
  8
0
 62
     3
100
AcDbLine
 10
68.76410919860001
 20
167.8000335693
 30
0.0
 11
68.41411835390002
 21
167.8000335693
 31
0.0
  0
LINE
  5
DF
330
2
100
AcDbEntity
  8
0
 62
     3
100
AcDbLine
 10
68.41411835390002
 20
169.2000274657999
 30
0.0
 11
68.41411835390002
 21
167.8000335693
 31
0.0
  0
LINE
  5
E0
330
2
100
AcDbEntity
  8
0
 62
     3
100
AcDbLine
 10
68.25553375920003
 20
171.0000305174999
 30
0.0
 11
69.1141153021
 21
171.0000305174999
 31
0.0
  0
LINE
  5
E1
330
2
100
AcDbEntity
  8
0
  6
DASH
 62
     3
100
AcDbLine
 10
69.1141153021
 20
171.0000152587999
 30
0.0
 11
69.1141153021
 21
169.900024414
 31
0.0
  0
LINE
  5
E2
330
2
100
AcDbEntity
  8
0
 62
     3
100
AcDbLine
 10
69.26410919860001
 20
169.9000396728
 30
0.0
 11
68.76410919860001
 21
169.9000396728
 31
0.0
  0
LINE
  5
E3
330
2
100
AcDbEntity
  8
0
 62
     3
100
AcDbLine
 10
69.26410919860001
 20
169.900024414
 30
0.0
 11
69.26410919860001
 21
167.1000366211
 31
0.0
  0
LINE
  5
E4
330
2
100
AcDbEntity
  8
0
 62
     3
100
AcDbLine
 10
68.76410919860001
 20
169.900024414
 30
0.0
 11
68.76410919860001
 21
167.1000366211
 31
0.0
  0
LINE
  5
E5
330
2
100
AcDbEntity
  8
0
 62
     3
100
AcDbLine
 10
69.26410919860001
 20
167.1000366211
 30
0.0
 11
68.76410919860001
 21
167.1000366211
 31
0.0
  0
ARC
  5
E6
330
2
100
AcDbEntity
  8
0
 62
     3
100
AcDbCircle
 10
69.51410919860001
 20
168.5000305174999
 30
0.0
 40
0.099999964237
100
AcDbArc
 50
90.00003665540001
 51
270.0000006831999
  0
LINE
  5
E7
330
2
100
AcDbEntity
  8
0
 62
     3
100
AcDbLine
 10
68.4140878363
 20
169.1999664306
 30
0.0
 11
68.4140878363
 21
167.7999572754
 31
0.0
  0
LINE
  5
E8
330
2
100
AcDbEntity
  8
0
 62
     3
100
AcDbLine
 10
68.41407257750001
 20
167.7999572754
 30
0.0
 11
68.7641244574
 21
167.7999572754
 31
0.0
  0
LINE
  5
E9
330
2
100
AcDbEntity
  8
0
 62
     3
100
AcDbLine
 10
68.41407257750001
 20
169.1999664306
 30
0.0
 11
68.7641244574
 21
169.1999664306
 31
0.0
  0
LINE
  5
EA
330
2
100
AcDbEntity
  8
0
 62
     3
100
AcDbLine
 10
68.4439324709
 20
176.9499982213
 30
0.0
 11
66.61773706140002
 21
175.1560401716
 31
0.0
  0
LINE
  5
EB
330
2
100
AcDbEntity
  8
0
  6
CENTER
 62
     3
100
AcDbLine
 10
75.11411530210001
 20
157.2500152587999
 30
0.0
 11
75.11411530210001
 21
179.75
 31
0.0
  0
LINE
  5
EC
330
2
100
AcDbEntity
  8
0
 62
     3
100
AcDbLine
 10
76.41413130430001
 20
173.2663151159998
 30
0.0
 11
77.11428079870002
 21
174.1998478446998
 31
0.0
  0
ARC
  5
ED
330
2
100
AcDbEntity
  8
0
 62
     3
100
AcDbCircle
 10
75.11410004330001
 20
168.5001525879
 30
0.0
 40
6.6999959946
100
AcDbArc
 50
72.6320130679
 51
107.3679509599999
  0
LINE
  5
EE
330
2
100
AcDbEntity
  8
0
 62
     3
100
AcDbLine
 10
76.81412824310001
 20
163.0001462557
 30
0.0
 11
76.41412542009994
 21
163.6001502321999
 31
0.0
  0
ARC
  5
EF
330
2
100
AcDbEntity
  8
0
 62
     3
100
AcDbCircle
 10
75.11410004330001
 20
168.5001525879
 30
0.0
 40
6.6999959946
100
AcDbArc
 50
255.3432516499
 51
284.6984757969
  0
LINE
  5
F0
330
2
100
AcDbEntity
  8
0
  6
DASH
 62
     3
100
AcDbLine
 10
70.11410004330002
 20
172.2000122069998
 30
0.0
 11
70.11410004330002
 21
164.8000335693
 31
0.0
  0
LINE
  5
F1
330
2
100
AcDbEntity
  8
0
 62
     3
100
AcDbLine
 10
76.41410309510002
 20
173.2663726806
 30
0.0
 11
76.41410309510002
 21
163.6001739502
 31
0.0
  0
LINE
  5
F2
330
2
100
AcDbEntity
  8
0
 62
     3
100
AcDbLine
 10
73.8141122504
 20
173.2667999266999
 30
0.0
 11
73.8141122504
 21
163.6001434325999
 31
0.0
  0
LINE
  5
F3
330
2
100
AcDbEntity
  8
0
 62
     3
100
AcDbLine
 10
70.91410309510002
 20
173.2663726806
 30
0.0
 11
70.91410309510002
 21
163.6001739502
 31
0.0
  0
LINE
  5
F4
330
2
100
AcDbEntity
  8
0
 62
     3
100
AcDbLine
 10
72.86413056090001
 20
163.0001983642
 30
0.0
 11
73.41411835389997
 21
163.0001983642
 31
0.0
  0
LINE
  5
F5
330
2
100
AcDbEntity
  8
0
 62
     3
100
AcDbLine
 10
72.11413056090001
 20
160.0147399901999
 30
0.0
 11
72.11413056090001
 21
161.0836639403999
 31
0.0
  0
LINE
  5
F6
330
2
100
AcDbEntity
  8
0
 62
     3
100
AcDbLine
 10
71.31412750920003
 20
163.0001983642
 30
0.0
 11
72.3641305609
 21
163.0001983642
 31
0.0
  0
LINE
  5
F7
330
2
100
AcDbEntity
  8
0
 62
     3
100
AcDbLine
 10
70.11421353450001
 20
164.7998904228999
 30
0.0
 11
71.3141594484
 21
162.9999835433999
 31
0.0
  0
LINE
  5
F8
330
2
100
AcDbEntity
  8
0
 62
     3
100
AcDbLine
 10
70.91410309510002
 20
164.8000335693
 30
0.0
 11
69.61410004330002
 21
164.8000335693
 31
0.0
  0
ARC
  5
F9
330
2
100
AcDbEntity
  8
0
 62
     3
100
AcDbCircle
 10
65.9060006781
 20
163.5002441405999
 30
0.0
 40
6.6081047058
100
AcDbArc
 50
347.7685894419
 51
12.23099050149996
  0
ARC
  5
FA
330
2
100
AcDbEntity
  8
0
 62
     3
100
AcDbCircle
 10
79.3221994086
 20
163.5002441405999
 30
0.0
 40
6.6081047058
100
AcDbArc
 50
167.7689530357999
 51
192.2313575105
  0
LINE
  5
FB
330
2
100
AcDbEntity
  8
0
 62
     3
100
AcDbLine
 10
72.86413056090001
 20
162.5001983641999
 30
0.0
 11
72.9141336127
 21
162.5001983641999
 31
0.0
  0
LINE
  5
FC
330
2
100
AcDbEntity
  8
0
 62
     3
100
AcDbLine
 10
72.86413056090001
 20
164.9001770019
 30
0.0
 11
72.86413056090001
 21
162.1002502440999
 31
0.0
  0
LINE
  5
FD
330
2
100
AcDbEntity
  8
0
 62
     3
100
AcDbLine
 10
72.3641305609
 20
164.9001770019
 30
0.0
 11
72.3641305609
 21
162.1002502440999
 31
0.0
  0
LINE
  5
FE
330
2
100
AcDbEntity
  8
0
 62
     3
100
AcDbLine
 10
72.3641305609
 20
164.9001770019
 30
0.0
 11
72.86413056090001
 21
164.9001770019
 31
0.0
  0
LINE
  5
FF
330
2
100
AcDbEntity
  8
0
 62
     3
100
AcDbLine
 10
72.3641305609
 20
162.1002502440999
 30
0.0
 11
72.86413056090001
 21
162.1002502440999
 31
0.0
  0
LINE
  5
100
330
2
100
AcDbEntity
  8
0
 62
     3
100
AcDbLine
 10
72.91414513090001
 20
162.5002093746998
 30
0.0
 11
73.0141486313
 21
163.0002252656999
 31
0.0
  0
LINE
  5
101
330
2
100
AcDbEntity
  8
0
 62
     3
100
AcDbLine
 10
71.81412750920003
 20
162.5001983641999
 30
0.0
 11
72.3641305609
 21
162.5001983641999
 31
0.0
  0
LINE
  5
102
330
2
100
AcDbEntity
  8
0
 62
     3
100
AcDbLine
 10
71.71415324240001
 20
163.0001518134
 30
0.0
 11
71.81415674280002
 21
162.5001359224
 31
0.0
  0
LINE
  5
103
330
2
100
AcDbEntity
  8
0
 62
     3
100
AcDbLine
 10
73.41413361269998
 20
162.9998626708999
 30
0.0
 11
73.41413361269998
 21
162.0190277098999
 31
0.0
  0
LINE
  5
104
330
2
100
AcDbEntity
  8
0
 62
     3
100
AcDbLine
 10
73.41410754189998
 20
163.0001093937999
 30
0.0
 11
73.81411014990002
 21
163.6001134992
 31
0.0
  0
LINE
  5
105
330
2
100
AcDbEntity
  8
0
 62
     3
100
AcDbLine
 10
73.11421789
 20
174.1999364093
 30
0.0
 11
73.81419350370001
 21
173.2666356140999
 31
0.0
  0
LINE
  5
106
330
2
100
AcDbEntity
  8
0
 62
     3
100
AcDbLine
 10
70.71410614679996
 20
168.4000244139998
 30
0.0
 11
70.21410614679999
 21
168.4000244139998
 31
0.0
  0
LINE
  5
107
330
2
100
AcDbEntity
  8
0
 62
     3
100
AcDbLine
 10
70.71410614679996
 20
168.6000366211
 30
0.0
 11
70.21410614679999
 21
168.6000366211
 31
0.0
  0
LINE
  5
108
330
2
100
AcDbEntity
  8
0
 62
     3
100
AcDbLine
 10
70.21410614679999
 20
169.1000213623
 30
0.0
 11
70.21410614679999
 21
168.6000213623
 31
0.0
  0
LINE
  5
109
330
2
100
AcDbEntity
  8
0
 62
     3
100
AcDbLine
 10
70.01410919860001
 20
169.1000213623
 30
0.0
 11
70.01410919860001
 21
168.6000213623
 31
0.0
  0
LINE
  5
10A
330
2
100
AcDbEntity
  8
0
 62
     3
100
AcDbLine
 10
70.01410919860001
 20
168.4000244139998
 30
0.0
 11
70.01410919860001
 21
167.900024414
 31
0.0
  0
LINE
  5
10B
330
2
100
AcDbEntity
  8
0
 62
     3
100
AcDbLine
 10
70.21410614679999
 20
168.4000244139998
 30
0.0
 11
70.21410614679999
 21
167.900024414
 31
0.0
  0
ARC
  5
10C
330
2
100
AcDbEntity
  8
0
 62
     3
100
AcDbCircle
 10
70.11410004330002
 20
169.1000213623
 30
0.0
 40
0.099999964237
100
AcDbArc
 50
0.0
 51
179.9998547448
  0
ARC
  5
10D
330
2
100
AcDbEntity
  8
0
 62
     3
100
AcDbCircle
 10
70.71410614679996
 20
168.5000305174999
 30
0.0
 40
0.099999964237
100
AcDbArc
 50
270.0000726275999
 51
89.9999273723999
  0
ARC
  5
10E
330
2
100
AcDbEntity
  8
0
 62
     3
100
AcDbCircle
 10
70.11410004330002
 20
167.900024414
 30
0.0
 40
0.099999964237
100
AcDbArc
 50
180.0000906136999
 51
0.0
  0
ARC
  5
10F
330
2
100
AcDbEntity
  8
0
 62
     3
100
AcDbCircle
 10
65.9057717963
 20
168.5001525879
 30
0.0
 40
6.608330726599997
100
AcDbArc
 50
347.769026574
 51
12.23099050149996
  0
ARC
  5
110
330
2
100
AcDbEntity
  8
0
 62
     3
100
AcDbCircle
 10
79.32242829040001
 20
168.5001525879
 30
0.0
 40
6.608330726599997
100
AcDbArc
 50
167.7689530357999
 51
192.2309203783
  0
LINE
  5
111
330
2
100
AcDbEntity
  8
0
 62
     3
100
AcDbLine
 10
72.86413056090001
 20
167.1001434326
 30
0.0
 11
72.86413056090001
 21
169.9001159668
 31
0.0
  0
LINE
  5
112
330
2
100
AcDbEntity
  8
0
 62
     3
100
AcDbLine
 10
72.3641305609
 20
167.1001434326
 30
0.0
 11
72.3641305609
 21
169.9001159668
 31
0.0
  0
LINE
  5
113
330
2
100
AcDbEntity
  8
0
 62
     3
100
AcDbLine
 10
72.3641305609
 20
169.9001159668
 30
0.0
 11
72.86413056090001
 21
169.9001159668
 31
0.0
  0
LINE
  5
114
330
2
100
AcDbEntity
  8
0
 62
     3
100
AcDbLine
 10
72.3641305609
 20
167.1001434326
 30
0.0
 11
72.86413056090001
 21
167.1001434326
 31
0.0
  0
LINE
  5
115
330
2
100
AcDbEntity
  8
0
 62
     3
100
AcDbLine
 10
70.11428400540001
 20
172.1998415146998
 30
0.0
 11
71.61428391599999
 21
174.1998415445
 31
0.0
  0
LINE
  5
116
330
2
100
AcDbEntity
  8
0
 62
     3
100
AcDbLine
 10
70.91410309510002
 20
172.2000274657998
 30
0.0
 11
69.61410004330002
 21
172.2000274657998
 31
0.0
  0
ARC
  5
117
330
2
100
AcDbEntity
  8
0
 62
     3
100
AcDbCircle
 10
65.9057717963
 20
173.5001373291
 30
0.0
 40
6.608330726599997
100
AcDbArc
 50
347.769026574
 51
12.23099050149996
  0
ARC
  5
118
330
2
100
AcDbEntity
  8
0
 62
     3
100
AcDbCircle
 10
79.32242829040001
 20
173.5001373291
 30
0.0
 40
6.608330726599997
100
AcDbArc
 50
167.7689530357999
 51
192.2309203783
  0
LINE
  5
119
330
2
100
AcDbEntity
  8
0
 62
     3
100
AcDbLine
 10
72.11413056090001
 20
175.9161529541
 30
0.0
 11
72.11413056090001
 21
176.9853057861
 31
0.0
  0
LINE
  5
11A
330
2
100
AcDbEntity
  8
0
 62
     3
100
AcDbLine
 10
72.86413056090001
 20
174.7001190184999
 30
0.0
 11
72.9141336127
 21
174.7001190184999
 31
0.0
  0
LINE
  5
11B
330
2
100
AcDbEntity
  8
0
 62
     3
100
AcDbLine
 10
72.86413056090001
 20
172.100112915
 30
0.0
 11
72.86413056090001
 21
174.9001159667998
 31
0.0
  0
LINE
  5
11C
330
2
100
AcDbEntity
  8
0
 62
     3
100
AcDbLine
 10
72.3641305609
 20
172.100112915
 30
0.0
 11
72.3641305609
 21
174.9001159667998
 31
0.0
  0
LINE
  5
11D
330
2
100
AcDbEntity
  8
0
 62
     3
100
AcDbLine
 10
72.3641305609
 20
174.9001159667998
 30
0.0
 11
72.86413056090001
 21
174.9001159667998
 31
0.0
  0
LINE
  5
11E
330
2
100
AcDbEntity
  8
0
 62
     3
100
AcDbLine
 10
72.3641305609
 20
172.100112915
 30
0.0
 11
72.86413056090001
 21
172.100112915
 31
0.0
  0
LINE
  5
11F
330
2
100
AcDbEntity
  8
0
 62
     3
100
AcDbLine
 10
72.91413611969999
 20
174.7000952090999
 30
0.0
 11
73.01413699230001
 21
174.2000943717998
 31
0.0
  0
LINE
  5
120
330
2
100
AcDbEntity
  8
0
 62
     3
100
AcDbLine
 10
71.81412750920003
 20
174.7001190184999
 30
0.0
 11
72.3641305609
 21
174.7001190184999
 31
0.0
  0
LINE
  5
121
330
2
100
AcDbEntity
  8
0
 62
     3
100
AcDbLine
 10
73.11413056090001
 20
174.2001190184999
 30
0.0
 11
72.86413056090001
 21
174.2001190184999
 31
0.0
  0
LINE
  5
122
330
2
100
AcDbEntity
  8
0
 62
     3
100
AcDbLine
 10
73.11410004330001
 20
174.1999664306
 30
0.0
 11
73.11410004330001
 21
174.8944244383999
 31
0.0
  0
LINE
  5
123
330
2
100
AcDbEntity
  8
0
 62
     3
100
AcDbLine
 10
72.3641305609
 20
174.2001190184999
 30
0.0
 11
71.61413056090001
 21
174.2001190184999
 31
0.0
  0
LINE
  5
124
330
2
100
AcDbEntity
  8
0
 62
     3
100
AcDbLine
 10
71.71413538719999
 20
174.2000930888999
 30
0.0
 11
71.81413326719997
 21
174.7000789636999
 31
0.0
  0
ARC
  5
125
330
2
100
AcDbEntity
  8
0
 62
     3
100
AcDbCircle
 10
75.11410004330001
 20
168.5000305174999
 30
0.0
 40
7.2999992371
100
AcDbArc
 50
339.9728300892998
 51
20.02713234470002
  0
LINE
  5
126
330
2
100
AcDbEntity
  8
0
  6
DASH
 62
     3
100
AcDbLine
 10
81.11408478450002
 20
166.0000305175
 30
0.0
 11
81.11408478450002
 21
167.1000366211
 31
0.0
  0
LINE
  5
127
330
2
100
AcDbEntity
  8
0
 62
     3
100
AcDbLine
 10
82.51400238710003
 20
165.4603118895999
 30
0.0
 11
82.51400238710003
 21
171.5397644043
 31
0.0
  0
LINE
  5
128
330
2
100
AcDbEntity
  8
0
  6
DASH
 62
     3
100
AcDbLine
 10
80.11408478450002
 20
164.8000335693
 30
0.0
 11
80.11408478450002
 21
172.2000274657998
 31
0.0
  0
LINE
  5
129
330
2
100
AcDbEntity
  8
0
 62
     3
100
AcDbLine
 10
79.31408173280002
 20
163.6001281737998
 30
0.0
 11
79.31408173280002
 21
173.2667694090999
 31
0.0
  0
LINE
  5
12A
330
2
100
AcDbEntity
  8
0
 62
     3
100
AcDbLine
 10
80.61408478450003
 20
164.8000335693
 30
0.0
 11
79.31408173280002
 21
164.8000335693
 31
0.0
  0
LINE
  5
12B
330
2
100
AcDbEntity
  8
0
 62
     3
100
AcDbLine
 10
78.1141153021
 20
160.0147399901999
 30
0.0
 11
78.1141153021
 21
161.0836639403999
 31
0.0
  0
LINE
  5
12C
330
2
100
AcDbEntity
  8
0
 62
     3
100
AcDbLine
 10
78.3641153021
 20
163.0001983642
 30
0.0
 11
78.91411835390001
 21
163.0001983642
 31
0.0
  0
ARC
  5
12D
330
2
100
AcDbEntity
  8
0
 62
     3
100
AcDbCircle
 10
71.40600067810002
 20
163.5002441405999
 30
0.0
 40
6.6081047058
100
AcDbArc
 50
347.7685894419
 51
12.23099050149996
  0
ARC
  5
12E
330
2
100
AcDbEntity
  8
0
 62
     3
100
AcDbCircle
 10
84.82219940860002
 20
163.5002441405999
 30
0.0
 40
6.6081047058
100
AcDbArc
 50
167.7689530357999
 51
192.2313575105
  0
LINE
  5
12F
330
2
100
AcDbEntity
  8
0
 62
     3
100
AcDbLine
 10
78.36413056090001
 20
162.5001983641999
 30
0.0
 11
78.41413361269998
 21
162.5001983641999
 31
0.0
  0
LINE
  5
130
330
2
100
AcDbEntity
  8
0
 62
     3
100
AcDbLine
 10
78.36413056090001
 20
164.9001770019
 30
0.0
 11
78.36413056090001
 21
162.1002502440999
 31
0.0
  0
LINE
  5
131
330
2
100
AcDbEntity
  8
0
 62
     3
100
AcDbLine
 10
77.86413056090001
 20
164.9001770019
 30
0.0
 11
77.86413056090001
 21
162.1002502440999
 31
0.0
  0
LINE
  5
132
330
2
100
AcDbEntity
  8
0
 62
     3
100
AcDbLine
 10
77.86413056090001
 20
164.9001770019
 30
0.0
 11
78.36413056090001
 21
164.9001770019
 31
0.0
  0
LINE
  5
133
330
2
100
AcDbEntity
  8
0
 62
     3
100
AcDbLine
 10
77.86413056090001
 20
162.1002502440999
 30
0.0
 11
78.36413056090001
 21
162.1002502440999
 31
0.0
  0
LINE
  5
134
330
2
100
AcDbEntity
  8
0
 62
     3
100
AcDbLine
 10
78.4141410636
 20
162.5002119522
 30
0.0
 11
78.51414456400002
 21
163.0002278432
 31
0.0
  0
LINE
  5
135
330
2
100
AcDbEntity
  8
0
 62
     3
100
AcDbLine
 10
77.31412750920005
 20
162.5001983641999
 30
0.0
 11
77.86413056090001
 21
162.5001983641999
 31
0.0
  0
LINE
  5
136
330
2
100
AcDbEntity
  8
0
 62
     3
100
AcDbLine
 10
77.21414917509996
 20
163.0001492358998
 30
0.0
 11
77.31415267550001
 21
162.5001333449
 31
0.0
  0
LINE
  5
137
330
2
100
AcDbEntity
  8
0
 62
     3
100
AcDbLine
 10
76.81414276789999
 20
162.9998626708999
 30
0.0
 11
76.81414276789999
 21
162.0190277098999
 31
0.0
  0
LINE
  5
138
330
2
100
AcDbEntity
  8
0
 62
     3
100
AcDbLine
 10
76.81412750920003
 20
163.0001983642
 30
0.0
 11
77.86413056090001
 21
163.0001983642
 31
0.0
  0
LINE
  5
139
330
2
100
AcDbEntity
  8
0
 62
     3
100
AcDbLine
 10
78.9141038963
 20
163.0001009544999
 30
0.0
 11
80.1141117204
 21
164.8001132708
 31
0.0
  0
LINE
  5
13A
330
2
100
AcDbEntity
  8
0
 62
     3
100
AcDbLine
 10
81.79164095359999
 20
160.0500085288
 30
0.0
 11
83.61769394420001
 21
161.8438936718999
 31
0.0
  0
LINE
  5
13B
330
2
100
AcDbEntity
  8
0
 62
     3
100
AcDbLine
 10
81.11408478450002
 20
166.0000305175
 30
0.0
 11
81.97266632749999
 21
166.0000305175
 31
0.0
  0
LINE
  5
13C
330
2
100
AcDbEntity
  8
0
 62
     3
100
AcDbLine
 10
81.1141514636
 20
165.9998491314999
 30
0.0
 11
80.6141768153
 21
164.7999675115
 31
0.0
  0
LINE
  5
13D
330
2
100
AcDbEntity
  8
0
 62
     3
100
AcDbLine
 10
81.11412204340002
 20
165.9999526306
 30
0.0
 11
80.61412128690001
 21
164.7999496525999
 31
0.0
  0
LINE
  5
13E
330
2
100
AcDbEntity
  8
0
 62
     3
100
AcDbLine
 10
82.5301461859
 20
165.5000305175
 30
0.0
 11
83.59937531189999
 21
165.5000305175
 31
0.0
  0
LINE
  5
13F
330
2
100
AcDbEntity
  8
0
 62
     3
100
AcDbLine
 10
80.61408478450003
 20
172.2000274657998
 30
0.0
 11
79.31408173280002
 21
172.2000274657998
 31
0.0
  0
LINE
  5
140
330
2
100
AcDbEntity
  8
0
 62
     3
100
AcDbLine
 10
80.71409088810002
 20
168.4000244139998
 30
0.0
 11
79.51409393979999
 21
168.4000244139998
 31
0.0
  0
LINE
  5
141
330
2
100
AcDbEntity
  8
0
 62
     3
100
AcDbLine
 10
80.71409088810002
 20
168.6000366211
 30
0.0
 11
79.51409393979999
 21
168.6000366211
 31
0.0
  0
ARC
  5
142
330
2
100
AcDbEntity
  8
0
 62
     3
100
AcDbCircle
 10
71.4057717963
 20
168.5001525879
 30
0.0
 40
6.608330726599997
100
AcDbArc
 50
347.769026574
 51
12.23099050149996
  0
ARC
  5
143
330
2
100
AcDbEntity
  8
0
 62
     3
100
AcDbCircle
 10
84.82242829040002
 20
168.5001525879
 30
0.0
 40
6.608330726599997
100
AcDbArc
 50
167.7689530357999
 51
192.2309203783
  0
LINE
  5
144
330
2
100
AcDbEntity
  8
0
 62
     3
100
AcDbLine
 10
78.36413056090001
 20
167.1001434326
 30
0.0
 11
78.36413056090001
 21
169.9001159668
 31
0.0
  0
LINE
  5
145
330
2
100
AcDbEntity
  8
0
 62
     3
100
AcDbLine
 10
77.86413056090001
 20
167.1001434326
 30
0.0
 11
77.86413056090001
 21
169.9001159668
 31
0.0
  0
LINE
  5
146
330
2
100
AcDbEntity
  8
0
 62
     3
100
AcDbLine
 10
77.86413056090001
 20
169.9001159668
 30
0.0
 11
78.36413056090001
 21
169.9001159668
 31
0.0
  0
LINE
  5
147
330
2
100
AcDbEntity
  8
0
 62
     3
100
AcDbLine
 10
77.86413056090001
 20
167.1001434326
 30
0.0
 11
78.36413056090001
 21
167.1001434326
 31
0.0
  0
ARC
  5
148
330
2
100
AcDbEntity
  8
0
 62
     3
100
AcDbCircle
 10
79.51409393979999
 20
168.5000305174999
 30
0.0
 40
0.099999964237
100
AcDbArc
 50
89.99992737239997
 51
179.9998547448
  0
ARC
  5
149
330
2
100
AcDbEntity
  8
0
 62
     3
100
AcDbCircle
 10
79.51409393979999
 20
168.5000305174999
 30
0.0
 40
0.099999964237
100
AcDbArc
 50
180.0000906136999
 51
270.0000726275999
  0
LINE
  5
14A
330
2
100
AcDbEntity
  8
0
 62
     3
100
AcDbLine
 10
78.6141305609
 20
174.2001190184999
 30
0.0
 11
78.36413056090001
 21
174.2001190184999
 31
0.0
  0
ARC
  5
14B
330
2
100
AcDbEntity
  8
0
 62
     3
100
AcDbCircle
 10
71.4057717963
 20
173.5001373291
 30
0.0
 40
6.608330726599997
100
AcDbArc
 50
347.769026574
 51
12.23099050149996
  0
ARC
  5
14C
330
2
100
AcDbEntity
  8
0
 62
     3
100
AcDbCircle
 10
84.82242829040002
 20
173.5001373291
 30
0.0
 40
6.608330726599997
100
AcDbArc
 50
167.7689530357999
 51
192.2309203783
  0
LINE
  5
14D
330
2
100
AcDbEntity
  8
0
 62
     3
100
AcDbLine
 10
78.1141153021
 20
175.9161529541
 30
0.0
 11
78.1141153021
 21
176.9853057861
 31
0.0
  0
LINE
  5
14E
330
2
100
AcDbEntity
  8
0
 62
     3
100
AcDbLine
 10
78.36413056090001
 20
174.7001190184999
 30
0.0
 11
78.41413361269998
 21
174.7001190184999
 31
0.0
  0
LINE
  5
14F
330
2
100
AcDbEntity
  8
0
 62
     3
100
AcDbLine
 10
78.36413056090001
 20
172.100112915
 30
0.0
 11
78.36413056090001
 21
174.9001159667998
 31
0.0
  0
LINE
  5
150
330
2
100
AcDbEntity
  8
0
 62
     3
100
AcDbLine
 10
77.86413056090001
 20
172.100112915
 30
0.0
 11
77.86413056090001
 21
174.9001159667998
 31
0.0
  0
LINE
  5
151
330
2
100
AcDbEntity
  8
0
 62
     3
100
AcDbLine
 10
77.86413056090001
 20
174.9001159667998
 30
0.0
 11
78.36413056090001
 21
174.9001159667998
 31
0.0
  0
LINE
  5
152
330
2
100
AcDbEntity
  8
0
 62
     3
100
AcDbLine
 10
77.86413056090001
 20
172.100112915
 30
0.0
 11
78.36413056090001
 21
172.100112915
 31
0.0
  0
LINE
  5
153
330
2
100
AcDbEntity
  8
0
 62
     3
100
AcDbLine
 10
78.4141318596
 20
174.700096682
 30
0.0
 11
78.51413273210003
 21
174.2000958445999
 31
0.0
  0
LINE
  5
154
330
2
100
AcDbEntity
  8
0
 62
     3
100
AcDbLine
 10
77.31412750920005
 20
174.7001190184999
 30
0.0
 11
77.86413056090001
 21
174.7001190184999
 31
0.0
  0
LINE
  5
155
330
2
100
AcDbEntity
  8
0
 62
     3
100
AcDbLine
 10
77.214131127
 20
174.2000916159998
 30
0.0
 11
77.31413199960002
 21
174.7000924532999
 31
0.0
  0
LINE
  5
156
330
2
100
AcDbEntity
  8
0
 62
     3
100
AcDbLine
 10
77.11408478450002
 20
174.1999664306
 30
0.0
 11
77.11408478450002
 21
174.8944244383999
 31
0.0
  0
LINE
  5
157
330
2
100
AcDbEntity
  8
0
 62
     3
100
AcDbLine
 10
77.86413056090001
 20
174.2001190184999
 30
0.0
 11
77.11413056090001
 21
174.2001190184999
 31
0.0
  0
LINE
  5
158
330
2
100
AcDbEntity
  8
0
 62
     3
100
AcDbLine
 10
78.61419360700002
 20
174.1999334231
 30
0.0
 11
80.11415704550001
 21
172.1999822213999
 31
0.0
  0
LINE
  5
159
330
2
100
AcDbEntity
  8
0
 62
     3
100
AcDbLine
 10
80.61416057249997
 20
172.1999535013999
 30
0.0
 11
81.11414966900001
 21
170.9999786935999
 31
0.0
  0
LINE
  5
15A
330
2
100
AcDbEntity
  8
0
 62
     3
100
AcDbLine
 10
81.1141126438
 20
171.0000010429
 30
0.0
 11
80.61414663500002
 21
172.1999193557
 31
0.0
  0
LINE
  5
15B
330
2
100
AcDbEntity
  8
0
 62
     3
100
AcDbLine
 10
81.46418244080001
 20
167.7999572754
 30
0.0
 11
81.81406647400001
 21
167.7999572754
 31
0.0
  0
LINE
  5
15C
330
2
100
AcDbEntity
  8
0
 62
     3
100
AcDbLine
 10
81.46418244080001
 20
169.1999664306
 30
0.0
 11
81.81406647400001
 21
169.1999664306
 31
0.0
  0
LINE
  5
15D
330
2
100
AcDbEntity
  8
0
 62
     3
100
AcDbLine
 10
81.81408173280003
 20
169.2000274657999
 30
0.0
 11
81.46409088809999
 21
169.2000274657999
 31
0.0
  0
LINE
  5
15E
330
2
100
AcDbEntity
  8
0
 62
     3
100
AcDbLine
 10
81.81408173280003
 20
167.8000335693
 30
0.0
 11
81.46409088809999
 21
167.8000335693
 31
0.0
  0
LINE
  5
15F
330
2
100
AcDbEntity
  8
0
 62
     3
100
AcDbLine
 10
81.81408173280003
 20
167.7999572754
 30
0.0
 11
81.81408173280003
 21
169.2000274657999
 31
0.0
  0
LINE
  5
160
330
2
100
AcDbEntity
  8
0
 62
     3
100
AcDbLine
 10
81.11408478450002
 20
171.0000305174999
 30
0.0
 11
81.97266632749999
 21
171.0000305174999
 31
0.0
  0
LINE
  5
161
330
2
100
AcDbEntity
  8
0
  6
DASH
 62
     3
100
AcDbLine
 10
81.11408478450002
 20
169.900024414
 30
0.0
 11
81.11408478450002
 21
171.0000152587999
 31
0.0
  0
LINE
  5
162
330
2
100
AcDbEntity
  8
0
 62
     3
100
AcDbLine
 10
81.46409088809999
 20
169.9000396728
 30
0.0
 11
80.96409088809998
 21
169.9000396728
 31
0.0
  0
LINE
  5
163
330
2
100
AcDbEntity
  8
0
 62
     3
100
AcDbLine
 10
80.96409088809998
 20
167.1000366211
 30
0.0
 11
80.96409088809998
 21
169.9000396728
 31
0.0
  0
LINE
  5
164
330
2
100
AcDbEntity
  8
0
 62
     3
100
AcDbLine
 10
81.46409088809999
 20
167.1000366211
 30
0.0
 11
81.46409088809999
 21
169.9000396728
 31
0.0
  0
LINE
  5
165
330
2
100
AcDbEntity
  8
0
 62
     3
100
AcDbLine
 10
81.46409088809999
 20
167.1000366211
 30
0.0
 11
80.96409088809998
 21
167.1000366211
 31
0.0
  0
ARC
  5
166
330
2
100
AcDbEntity
  8
0
 62
     3
100
AcDbCircle
 10
80.71409088810002
 20
168.5000305174999
 30
0.0
 40
0.099999964237
100
AcDbArc
 50
270.0000726275999
 51
89.99987273089994
  0
LINE
  5
167
330
2
100
AcDbEntity
  8
0
 62
     3
100
AcDbLine
 10
82.5301461859
 20
171.5
 30
0.0
 11
83.59937531189999
 21
171.5
 31
0.0
  0
LINE
  5
168
330
2
100
AcDbEntity
  8
0
 62
     3
100
AcDbLine
 10
83.61770881020001
 20
175.1560753497
 30
0.0
 11
81.79163781190002
 21
176.9500076777999
 31
0.0
  0
LINE
  5
169
330
2
100
AcDbEntity
  8
0
 62
     3
100
AcDbLine
 10
112.8177133245999
 20
212.0000152588
 30
0.0
 11
114.3177133245999
 21
212.0000152588
 31
0.0
  0
LINE
  5
16A
330
2
100
AcDbEntity
  8
0
 62
     3
100
AcDbLine
 10
112.8177133245999
 20
210.2002105713
 30
0.0
 11
114.3177133245999
 21
210.2002105713
 31
0.0
  0
LINE
  5
16B
330
2
100
AcDbEntity
  8
0
 62
     3
100
AcDbLine
 10
112.8177133245999
 20
206.8001861572
 30
0.0
 11
114.3177133245999
 21
206.8001861572
 31
0.0
  0
LINE
  5
16C
330
2
100
AcDbEntity
  8
0
 62
     3
100
AcDbLine
 10
112.8177133245999
 20
206.5000152587999
 30
0.0
 11
114.3177133245999
 21
206.5000152587999
 31
0.0
  0
LINE
  5
16D
330
2
100
AcDbEntity
  8
0
 62
     3
100
AcDbLine
 10
112.8175912542999
 20
210.5000152587999
 30
0.0
 11
114.3177133245999
 21
210.5000152587999
 31
0.0
  0
LINE
  5
16E
330
2
100
AcDbEntity
  8
0
 62
     3
100
AcDbLine
 10
112.8177133245999
 20
205.0000152588
 30
0.0
 11
114.3177133245999
 21
205.0000152588
 31
0.0
  0
LINE
  5
16F
330
2
100
AcDbEntity
  8
0
 62
     3
100
AcDbLine
 10
111.3175454778999
 20
215.8495941162
 30
0.0
 11
116.3175454778999
 21
215.8495941162
 31
0.0
  0
LINE
  5
170
330
2
100
AcDbEntity
  8
0
 62
     3
100
AcDbLine
 10
111.3175454778999
 20
201.1499938964
 30
0.0
 11
116.3175454778999
 21
201.1499938964
 31
0.0
  0
LINE
  5
171
330
2
100
AcDbEntity
  8
0
 62
     3
100
AcDbLine
 10
111.3175454778999
 20
215.4992523193
 30
0.0
 11
116.3175454778999
 21
215.4992523193
 31
0.0
  0
LINE
  5
172
330
2
100
AcDbEntity
  8
0
 62
     3
100
AcDbLine
 10
111.3175454778999
 20
201.4997253418
 30
0.0
 11
116.3175454778999
 21
201.4997253418
 31
0.0
  0
LINE
  5
173
330
2
100
AcDbEntity
  8
0
 62
     3
100
AcDbLine
 10
121.3177133245999
 20
175.8997955322
 30
0.0
 11
111.3177133245999
 21
175.8997955322
 31
0.0
  0
LINE
  5
174
330
2
100
AcDbEntity
  8
0
 62
     3
100
AcDbLine
 10
111.3173085525999
 20
170.9994899505999
 30
0.0
 11
116.3173047257999
 21
170.9496853235
 31
0.0
  0
LINE
  5
175
330
2
100
AcDbEntity
  8
0
 62
     3
100
AcDbLine
 10
116.3174656132997
 20
166.0501836748998
 30
0.0
 11
111.3174631022999
 21
166.0000127500999
 31
0.0
  0
LINE
  5
176
330
2
100
AcDbEntity
  8
0
 62
     3
100
AcDbLine
 10
111.3177133245999
 20
161.1004943846998
 30
0.0
 11
121.3177133245999
 21
161.1004943846998
 31
0.0
  0
LINE
  5
177
330
2
100
AcDbEntity
  8
0
 62
     3
100
AcDbLine
 10
84.11771637630002
 20
177.4500122069999
 30
0.0
 11
84.11771637630002
 21
159.5500030516999
 31
0.0
  0
LINE
  5
178
330
2
100
AcDbEntity
  8
0
 62
     3
100
AcDbLine
 10
104.9206338567999
 20
174.0999603270999
 30
0.0
 11
106.3206430120999
 21
174.0999603270999
 31
0.0
  0
LINE
  5
179
330
2
100
AcDbEntity
  8
0
 62
     3
100
AcDbLine
 10
104.9206338567999
 20
172.8999633788999
 30
0.0
 11
106.3206430120999
 21
172.8999633788999
 31
0.0
  0
LINE
  5
17A
330
2
100
AcDbEntity
  8
0
  6
CENTER
 62
     3
100
AcDbLine
 10
102.3010202092997
 20
173.4999542236
 30
0.0
 11
107.7691751166
 21
173.4999542236
 31
0.0
  0
LINE
  5
17B
330
2
100
AcDbEntity
  8
0
 62
     3
100
AcDbLine
 10
104.9206185979998
 20
169.1000518797999
 30
0.0
 11
106.3206277532999
 21
169.1000518797999
 31
0.0
  0
LINE
  5
17C
330
2
100
AcDbEntity
  8
0
 62
     3
100
AcDbLine
 10
104.9206185979998
 20
167.9000549315999
 30
0.0
 11
106.3206277532999
 21
167.9000549315999
 31
0.0
  0
LINE
  5
17D
330
2
100
AcDbEntity
  8
0
 62
     3
100
AcDbLine
 10
104.9206796331998
 20
164.0999755858999
 30
0.0
 11
106.3206430120999
 21
164.0999755858999
 31
0.0
  0
LINE
  5
17E
330
2
100
AcDbEntity
  8
0
 62
     3
100
AcDbLine
 10
104.9206796331998
 20
162.8999786377
 30
0.0
 11
106.3206430120999
 21
162.8999786377
 31
0.0
  0
LINE
  5
17F
330
2
100
AcDbEntity
  8
0
  6
CENTER
 62
     3
100
AcDbLine
 10
102.4190316839999
 20
163.4999694823999
 30
0.0
 11
107.7691751166
 21
163.4999694823999
 31
0.0
  0
LINE
  5
180
330
2
100
AcDbEntity
  8
0
 62
     3
100
AcDbLine
 10
111.0177102727999
 20
162.0999755858998
 30
0.0
 11
103.8206430120999
 21
162.0999755858998
 31
0.0
  0
LINE
  5
181
330
2
100
AcDbEntity
  8
0
 62
     3
100
AcDbLine
 10
110.3177591008999
 20
164.8999786377
 30
0.0
 11
103.8206430120999
 21
164.8999786377
 31
0.0
  0
LINE
  5
182
330
2
100
AcDbEntity
  8
0
 62
     3
100
AcDbLine
 10
110.3177285833999
 20
167.1000518797999
 30
0.0
 11
103.8206430120999
 21
167.1000518797999
 31
0.0
  0
LINE
  5
183
330
2
100
AcDbEntity
  8
0
 62
     3
100
AcDbLine
 10
110.3177591008999
 20
169.9000549315998
 30
0.0
 11
103.8206430120999
 21
169.9000549315998
 31
0.0
  0
LINE
  5
184
330
2
100
AcDbEntity
  8
0
 62
     3
100
AcDbLine
 10
110.3177438421999
 20
172.0999603270999
 30
0.0
 11
103.8206430120999
 21
172.0999603270999
 31
0.0
  0
LINE
  5
185
330
2
100
AcDbEntity
  8
0
 62
     3
100
AcDbLine
 10
111.0177102727999
 20
174.8999633788999
 30
0.0
 11
103.8206430120999
 21
174.8999633788999
 31
0.0
  0
LINE
  5
186
330
2
100
AcDbEntity
  8
0
 62
     3
100
AcDbLine
 10
103.8206430120999
 20
164.8999786377
 30
0.0
 11
103.8206430120999
 21
162.0999755858998
 31
0.0
  0
ARC
  5
187
330
2
100
AcDbEntity
  8
0
 62
     3
100
AcDbCircle
 10
105.5177102727999
 20
163.5000305174999
 30
0.0
 40
2.199997901899997
100
AcDbArc
 50
140.4787956031999
 51
219.5211870939
  0
ARC
  5
188
330
2
100
AcDbEntity
  8
0
 62
     3
100
AcDbCircle
 10
104.9206948919999
 20
163.5000305174999
 30
0.0
 40
0.599998951
100
AcDbArc
 50
89.99998201389999
 51
269.9998914002
  0
LINE
  5
189
330
2
100
AcDbEntity
  8
0
 62
     3
100
AcDbLine
 10
103.8206430120999
 20
169.9000549315998
 30
0.0
 11
103.8206430120999
 21
167.1000518797999
 31
0.0
  0
ARC
  5
18A
330
2
100
AcDbEntity
  8
0
 62
     3
100
AcDbCircle
 10
105.5176950139999
 20
168.5001068114999
 30
0.0
 40
2.199997901899997
100
AcDbArc
 50
140.4787409617
 51
219.5211324524
  0
ARC
  5
18B
330
2
100
AcDbEntity
  8
0
 62
     3
100
AcDbCircle
 10
104.9206338567999
 20
168.5001068114999
 30
0.0
 40
0.599998951
100
AcDbArc
 50
89.99998201389999
 51
269.9998914002
  0
ARC
  5
18C
330
2
100
AcDbEntity
  8
0
 62
     3
100
AcDbCircle
 10
105.5177102727999
 20
173.5000152587999
 30
0.0
 40
2.199997901899997
100
AcDbArc
 50
140.4787409617
 51
219.5211324524
  0
LINE
  5
18D
330
2
100
AcDbEntity
  8
0
 62
     3
100
AcDbLine
 10
103.8206430120999
 20
174.8999633788999
 30
0.0
 11
103.8206430120999
 21
172.0999603270999
 31
0.0
  0
ARC
  5
18E
330
2
100
AcDbEntity
  8
0
 62
     3
100
AcDbCircle
 10
104.9206491155999
 20
173.5000152587999
 30
0.0
 40
0.599998951
100
AcDbArc
 50
89.99998201389999
 51
269.9998914002
  0
LINE
  5
18F
330
2
100
AcDbEntity
  8
0
 62
     3
100
AcDbLine
 10
110.3177591008999
 20
163.2999725341
 30
0.0
 11
110.3177591008999
 21
173.8999633788999
 31
0.0
  0
LINE
  5
190
330
2
100
AcDbEntity
  8
0
 62
     3
100
AcDbLine
 10
111.3177133245999
 20
161.1004943846998
 30
0.0
 11
111.3177133245999
 21
175.8997955322
 31
0.0
  0
ARC
  5
191
330
2
100
AcDbEntity
  8
0
 62
     3
100
AcDbCircle
 10
106.3206430120999
 20
163.5000305174999
 30
0.0
 40
0.599998951
100
AcDbArc
 50
270.0000726275999
 51
89.99998201389994
  0
LINE
  5
192
330
2
100
AcDbEntity
  8
0
 62
     3
100
AcDbLine
 10
110.6177621526999
 20
163.5999755858998
 30
0.0
 11
111.3177133245999
 21
163.5999755858998
 31
0.0
  0
LINE
  5
193
330
2
100
AcDbEntity
  8
0
 62
     3
100
AcDbLine
 10
110.6177621526999
 20
162.9999847411999
 30
0.0
 11
111.3177133245999
 21
162.9999847411999
 31
0.0
  0
LINE
  5
194
330
2
100
AcDbEntity
  8
0
 62
     3
100
AcDbLine
 10
111.0177102727999
 20
162.9999694823998
 30
0.0
 11
111.0177102727999
 21
162.0999755858998
 31
0.0
  0
ARC
  5
195
330
2
100
AcDbEntity
  8
0
 62
     3
100
AcDbCircle
 10
110.6177621526999
 20
163.3000335693
 30
0.0
 40
0.2999997735
100
AcDbArc
 50
179.9999640277999
 51
269.9999460416999
  0
ARC
  5
196
330
2
100
AcDbEntity
  8
0
 62
     3
100
AcDbCircle
 10
110.6177621526999
 20
163.900024414
 30
0.0
 40
0.2999997735
100
AcDbArc
 50
179.9999640277999
 51
269.9999460416999
  0
ARC
  5
197
330
2
100
AcDbEntity
  8
0
 62
     3
100
AcDbCircle
 10
106.3206277532999
 20
168.5001068114999
 30
0.0
 40
0.599998951
100
AcDbArc
 50
270.0000726275999
 51
89.99998201389994
  0
ARC
  5
198
330
2
100
AcDbEntity
  8
0
 62
     3
100
AcDbCircle
 10
106.3206430120999
 20
173.5000152587999
 30
0.0
 40
0.599998951
100
AcDbArc
 50
270.0000726275999
 51
89.99998201389994
  0
LINE
  5
199
330
2
100
AcDbEntity
  8
0
 62
     3
100
AcDbLine
 10
110.6177621526999
 20
173.2499542236
 30
0.0
 11
111.3177133245999
 21
173.2499542236
 31
0.0
  0
LINE
  5
19A
330
2
100
AcDbEntity
  8
0
 62
     3
100
AcDbLine
 10
111.3176980657997
 20
174.1999664306
 30
0.0
 11
110.6177468939
 21
174.1999664306
 31
0.0
  0
LINE
  5
19B
330
2
100
AcDbEntity
  8
0
 62
     3
100
AcDbLine
 10
111.0177102727999
 20
174.8999633788999
 30
0.0
 11
111.0177102727999
 21
174.1999511718
 31
0.0
  0
ARC
  5
19C
330
2
100
AcDbEntity
  8
0
 62
     3
100
AcDbCircle
 10
110.6177621526999
 20
173.9000091552
 30
0.0
 40
0.2999997735
100
AcDbArc
 50
89.99998201389999
 51
180.0000186692996
  0
ARC
  5
19D
330
2
100
AcDbEntity
  8
0
 62
     3
100
AcDbCircle
 10
110.6177621526999
 20
172.9500122069999
 30
0.0
 40
0.2999997735
100
AcDbArc
 50
89.99998201389999
 51
179.9999640277999
  0
LINE
  5
19E
330
2
100
AcDbEntity
  8
0
 62
     3
100
AcDbLine
 10
110.3147531194999
 20
210.7501068114999
 30
0.0
 11
103.8177285833999
 21
210.7501068114999
 31
0.0
  0
LINE
  5
19F
330
2
100
AcDbEntity
  8
0
 62
     3
100
AcDbLine
 10
103.8177133245999
 20
211.2499694823998
 30
0.0
 11
110.3147531194999
 21
211.2499694823998
 31
0.0
  0
LINE
  5
1A0
330
2
100
AcDbEntity
  8
0
 62
     3
100
AcDbLine
 10
110.3147531194999
 20
205.2501068114996
 30
0.0
 11
103.8177285833999
 21
205.2501068114996
 31
0.0
  0
LINE
  5
1A1
330
2
100
AcDbEntity
  8
0
 62
     3
100
AcDbLine
 10
103.8177133245999
 20
205.7499847412
 30
0.0
 11
110.3147531194999
 21
205.7499847412
 31
0.0
  0
LINE
  5
1A2
330
2
100
AcDbEntity
  8
0
 62
     3
100
AcDbLine
 10
103.3175068712999
 20
205.6005055777998
 30
0.0
 11
103.8171152513998
 21
205.7503880389996
 31
0.0
  0
LINE
  5
1A3
330
2
100
AcDbEntity
  8
0
 62
     3
100
AcDbLine
 10
103.3176980657999
 20
205.4000091552
 30
0.0
 11
103.3176980657999
 21
205.6000823973998
 31
0.0
  0
LINE
  5
1A4
330
2
100
AcDbEntity
  8
0
 62
     3
100
AcDbLine
 10
103.8176423909999
 20
205.2501906724998
 30
0.0
 11
103.3176540138998
 21
205.4001871637999
 31
0.0
  0
LINE
  5
1A5
330
2
100
AcDbEntity
  8
0
 62
     3
100
AcDbLine
 10
103.8169198674999
 20
205.2499847412
 30
0.0
 11
103.8169198674999
 21
205.7498626709
 31
0.0
  0
LINE
  5
1A6
330
2
100
AcDbEntity
  8
0
 62
     3
100
AcDbLine
 10
103.3175103281999
 20
211.1004974111
 30
0.0
 11
103.8171187082999
 21
211.2503798722999
 31
0.0
  0
LINE
  5
1A7
330
2
100
AcDbEntity
  8
0
 62
     3
100
AcDbLine
 10
103.3177133245999
 20
210.8999938963999
 30
0.0
 11
103.3177133245999
 21
211.1000671385999
 31
0.0
  0
LINE
  5
1A8
330
2
100
AcDbEntity
  8
0
 62
     3
100
AcDbLine
 10
103.8176392481998
 20
210.7501826
 30
0.0
 11
103.3176508710999
 21
210.9001790913
 31
0.0
  0
LINE
  5
1A9
330
2
100
AcDbEntity
  8
0
 62
     3
100
AcDbLine
 10
103.8169351262999
 20
210.7499694823998
 30
0.0
 11
103.8169351262999
 21
211.2498474120999
 31
0.0
  0
ARC
  5
1AA
330
2
100
AcDbEntity
  8
0
 62
     3
100
AcDbCircle
 10
110.6147409125
 20
212.0000915527
 30
0.0
 40
0.2999999522999999
100
AcDbArc
 50
90.00156661780001
 51
180.0000186692996
  0
LINE
  5
1AB
330
2
100
AcDbEntity
  8
0
 62
     3
100
AcDbLine
 10
110.3147531194999
 20
212.3999938963998
 30
0.0
 11
110.3147531194999
 21
210.1000671386
 31
0.0
  0
LINE
  5
1AC
330
2
100
AcDbEntity
  8
0
 62
     3
100
AcDbLine
 10
111.3177133245999
 20
201.1500396727999
 30
0.0
 11
111.3177133245999
 21
215.8499908447
 31
0.0
  0
LINE
  5
1AD
330
2
100
AcDbEntity
  8
0
 62
     3
100
AcDbLine
 10
112.8177133245999
 20
205.0000152588
 30
0.0
 11
112.8177133245999
 21
206.5000152587999
 31
0.0
  0
LINE
  5
1AE
330
2
100
AcDbEntity
  8
0
 62
     3
100
AcDbLine
 10
110.3147378606999
 20
206.8999938963999
 30
0.0
 11
110.3147378606999
 21
204.6000823973999
 31
0.0
  0
LINE
  5
1AF
330
2
100
AcDbEntity
  8
0
 62
     3
100
AcDbLine
 10
111.3177133245999
 20
204.3001556395998
 30
0.0
 11
110.6147561712999
 21
204.3001556395998
 31
0.0
  0
LINE
  5
1B0
330
2
100
AcDbEntity
  8
0
 62
     3
100
AcDbLine
 10
111.3177133245999
 20
204.6998138426999
 30
0.0
 11
110.6147409125
 21
204.6998138426999
 31
0.0
  0
ARC
  5
1B1
330
2
100
AcDbEntity
  8
0
 62
     3
100
AcDbCircle
 10
110.6147561712999
 20
204.6005554198998
 30
0.0
 40
0.2999997735
100
AcDbArc
 50
180.0000359722
 51
270.0000179861
  0
ARC
  5
1B2
330
2
100
AcDbEntity
  8
0
 62
     3
100
AcDbCircle
 10
110.6147409125
 20
205.0000915526998
 30
0.0
 40
0.2999999522999999
100
AcDbArc
 50
180.0000359722
 51
269.9985426651998
  0
LINE
  5
1B3
330
2
100
AcDbEntity
  8
0
 62
     3
100
AcDbLine
 10
111.3177133245999
 20
209.8001556395999
 30
0.0
 11
110.6147561712999
 21
209.8001556395999
 31
0.0
  0
LINE
  5
1B4
330
2
100
AcDbEntity
  8
0
 62
     3
100
AcDbLine
 10
111.3177133245999
 20
210.1998138427
 30
0.0
 11
110.6147409125
 21
210.1998138427
 31
0.0
  0
LINE
  5
1B5
330
2
100
AcDbEntity
  8
0
 62
     3
100
AcDbLine
 10
111.3177133245999
 20
207.2001647948998
 30
0.0
 11
110.6147561712999
 21
207.2001647948998
 31
0.0
  0
LINE
  5
1B6
330
2
100
AcDbEntity
  8
0
 62
     3
100
AcDbLine
 10
111.3177133245999
 20
206.7997741698998
 30
0.0
 11
110.6147409125
 21
206.7997741698998
 31
0.0
  0
ARC
  5
1B7
330
2
100
AcDbEntity
  8
0
 62
     3
100
AcDbCircle
 10
110.6147561712999
 20
210.1005554198998
 30
0.0
 40
0.2999997735
100
AcDbArc
 50
180.0000359722
 51
270.0000179861
  0
ARC
  5
1B8
330
2
100
AcDbEntity
  8
0
 62
     3
100
AcDbCircle
 10
110.6147409125
 20
210.5000915526999
 30
0.0
 40
0.2999999522999999
100
AcDbArc
 50
180.0000359722
 51
269.9985426651998
  0
ARC
  5
1B9
330
2
100
AcDbEntity
  8
0
 62
     3
100
AcDbCircle
 10
110.6147561712999
 20
206.9004821776998
 30
0.0
 40
0.2999997735
100
AcDbArc
 50
89.99998201389999
 51
179.9999093863
  0
ARC
  5
1BA
330
2
100
AcDbEntity
  8
0
 62
     3
100
AcDbCircle
 10
110.6147409125
 20
206.5000915526999
 30
0.0
 40
0.2999999522999999
100
AcDbArc
 50
90.00156661780001
 51
180.0000186692996
  0
LINE
  5
1BB
330
2
100
AcDbEntity
  8
0
 62
     3
100
AcDbLine
 10
112.8175454778999
 20
210.1994476318
 30
0.0
 11
112.8175454778999
 21
206.7995605467998
 31
0.0
  0
LINE
  5
1BC
330
2
100
AcDbEntity
  8
0
 62
     3
100
AcDbLine
 10
112.8177133245999
 20
210.5000152587999
 30
0.0
 11
112.8177133245999
 21
212.0000152588
 31
0.0
  0
LINE
  5
1BD
330
2
100
AcDbEntity
  8
0
 62
     3
100
AcDbLine
 10
111.3177133245999
 20
212.7001647948998
 30
0.0
 11
110.6147561712999
 21
212.7001647948998
 31
0.0
  0
LINE
  5
1BE
330
2
100
AcDbEntity
  8
0
 62
     3
100
AcDbLine
 10
111.3177133245999
 20
212.2997741698998
 30
0.0
 11
110.6147409125
 21
212.2997741698998
 31
0.0
  0
ARC
  5
1BF
330
2
100
AcDbEntity
  8
0
 62
     3
100
AcDbCircle
 10
110.6147561712999
 20
212.4004821777
 30
0.0
 40
0.2999997735
100
AcDbArc
 50
89.99998201389999
 51
179.9999093863
  0
LINE
  5
1C0
330
2
100
AcDbEntity
  8
0
 62
     3
100
AcDbLine
 10
141.0177255315999
 20
199.6443634032999
 30
0.0
 11
141.0177255315999
 21
217.3556060790999
 31
0.0
  0
LINE
  5
1C1
330
2
100
AcDbEntity
  8
0
 62
     3
100
AcDbLine
 10
141.3176828069999
 20
199.9557800293
 30
0.0
 11
141.3176828069999
 21
217.0441894530998
 31
0.0
  0
LINE
  5
1C2
330
2
100
AcDbEntity
  8
0
 62
     3
100
AcDbLine
 10
130.5171505832997
 20
202.5002299107
 30
0.0
 11
131.4083117632999
 21
199.8712558183999
 31
0.0
  0
LINE
  5
1C3
330
2
100
AcDbEntity
  8
0
 62
     3
100
AcDbLine
 10
132.7176767034997
 20
199.8002624511
 30
0.0
 11
132.7176767034997
 21
217.2002563475999
 31
0.0
  0
LINE
  5
1C4
330
2
100
AcDbEntity
  8
0
 62
     3
100
AcDbLine
 10
133.3176828069999
 20
199.5005187988
 30
0.0
 11
133.3176828069999
 21
217.4997711180998
 31
0.0
  0
LINE
  5
1C5
330
2
100
AcDbEntity
  8
0
 62
     3
100
AcDbLine
 10
124.5171609563999
 20
205.5000457763
 30
0.0
 11
124.5171609563999
 21
200.1209259032999
 31
0.0
  0
LINE
  5
1C6
330
2
100
AcDbEntity
  8
0
 62
     3
100
AcDbLine
 10
129.5170236272997
 20
217.3999328612999
 30
0.0
 11
129.5170236272997
 21
199.5999450682999
 31
0.0
  0
LINE
  5
1C7
330
2
100
AcDbEntity
  8
0
 62
     3
100
AcDbLine
 10
129.5171151799999
 20
199.6002349852999
 30
0.0
 11
129.5171151799999
 21
217.3997802733999
 31
0.0
  0
LINE
  5
1C8
330
2
100
AcDbEntity
  8
0
 62
     3
100
AcDbLine
 10
129.5171585454999
 20
202.3353257045
 30
0.0
 11
130.4612440852999
 21
199.5502218638
 31
0.0
  0
LINE
  5
1C9
330
2
100
AcDbEntity
  8
0
 62
     3
100
AcDbLine
 10
129.5171304387999
 20
200.5099487304
 30
0.0
 11
126.5171456975999
 21
200.5099487304
 31
0.0
  0
LINE
  5
1CA
330
2
100
AcDbEntity
  8
0
 62
     3
100
AcDbLine
 10
129.5171304387999
 20
200.0868225097
 30
0.0
 11
126.5171456975999
 21
200.0868225097
 31
0.0
  0
LINE
  5
1CB
330
2
100
AcDbEntity
  8
0
 62
     3
100
AcDbLine
 10
129.5171151799999
 20
199.6000366210998
 30
0.0
 11
125.7171426458999
 21
199.6000366210998
 31
0.0
  0
LINE
  5
1CC
330
2
100
AcDbEntity
  8
0
 62
     3
100
AcDbLine
 10
126.5175424260999
 20
172.4203033447
 30
0.0
 11
129.5175271673999
 21
172.4203033447
 31
0.0
  0
LINE
  5
1CD
330
2
100
AcDbEntity
  8
0
 62
     3
100
AcDbLine
 10
126.5175424260999
 20
173.4595184325999
 30
0.0
 11
129.5175271673999
 21
173.4595184325999
 31
0.0
  0
LINE
  5
1CE
330
2
100
AcDbEntity
  8
0
 62
     3
100
AcDbLine
 10
126.5175424260999
 20
174.3345336913999
 30
0.0
 11
129.5175271673999
 21
174.3345336913999
 31
0.0
  0
LINE
  5
1CF
330
2
100
AcDbEntity
  8
0
 62
     3
100
AcDbLine
 10
126.5175424260999
 20
175.2032318115
 30
0.0
 11
129.5175271673999
 21
175.2032318115
 31
0.0
  0
LINE
  5
1D0
330
2
100
AcDbEntity
  8
0
 62
     3
100
AcDbLine
 10
126.5175424260999
 20
175.8901214598999
 30
0.0
 11
129.5175271673999
 21
175.8901214598999
 31
0.0
  0
LINE
  5
1D1
330
2
100
AcDbEntity
  8
0
 62
     3
100
AcDbLine
 10
126.5175424260999
 20
176.4901123046998
 30
0.0
 11
129.5175271673999
 21
176.4901123046998
 31
0.0
  0
LINE
  5
1D2
330
2
100
AcDbEntity
  8
0
 62
     3
100
AcDbLine
 10
126.5175424260999
 20
176.9132385254
 30
0.0
 11
129.5175271673999
 21
176.9132385254
 31
0.0
  0
LINE
  5
1D3
330
2
100
AcDbEntity
  8
0
 62
     3
100
AcDbLine
 10
125.7175546331998
 20
177.4000244139998
 30
0.0
 11
129.5175271673999
 21
177.4000244139998
 31
0.0
  0
LINE
  5
1D4
330
2
100
AcDbEntity
  8
0
 62
     3
100
AcDbLine
 10
126.5175424260999
 20
169.1000366211
 30
0.0
 11
129.5175271673999
 21
169.1000366211
 31
0.0
  0
LINE
  5
1D5
330
2
100
AcDbEntity
  8
0
 62
     3
100
AcDbLine
 10
126.5175424260999
 20
170.1924896239999
 30
0.0
 11
129.5175271673999
 21
170.1924896239999
 31
0.0
  0
LINE
  5
1D6
330
2
100
AcDbEntity
  8
0
 62
     3
100
AcDbLine
 10
126.5175424260999
 20
171.3778533934999
 30
0.0
 11
129.5175271673999
 21
171.3778533934999
 31
0.0
  0
LINE
  5
1D7
330
2
100
AcDbEntity
  8
0
 62
     3
100
AcDbLine
 10
129.5175271673999
 20
167.900024414
 30
0.0
 11
126.5175424260999
 21
167.900024414
 31
0.0
  0
LINE
  5
1D8
330
2
100
AcDbEntity
  8
0
 62
     3
100
AcDbLine
 10
129.5175271673999
 20
166.8075714111
 30
0.0
 11
126.5175424260999
 21
166.8075714111
 31
0.0
  0
LINE
  5
1D9
330
2
100
AcDbEntity
  8
0
 62
     3
100
AcDbLine
 10
129.5175271673999
 20
165.6222076416
 30
0.0
 11
126.5175424260999
 21
165.6222076416
 31
0.0
  0
LINE
  5
1DA
330
2
100
AcDbEntity
  8
0
 62
     3
100
AcDbLine
 10
129.5175271673999
 20
164.5797576903999
 30
0.0
 11
126.5175424260999
 21
164.5797576903999
 31
0.0
  0
LINE
  5
1DB
330
2
100
AcDbEntity
  8
0
 62
     3
100
AcDbLine
 10
129.5175271673999
 20
163.5405426025
 30
0.0
 11
126.5175424260999
 21
163.5405426025
 31
0.0
  0
LINE
  5
1DC
330
2
100
AcDbEntity
  8
0
 62
     3
100
AcDbLine
 10
129.5175271673999
 20
162.6655273436999
 30
0.0
 11
126.5175424260999
 21
162.6655273436999
 31
0.0
  0
LINE
  5
1DD
330
2
100
AcDbEntity
  8
0
 62
     3
100
AcDbLine
 10
129.5175271673999
 20
161.7968292236
 30
0.0
 11
126.5175424260999
 21
161.7968292236
 31
0.0
  0
LINE
  5
1DE
330
2
100
AcDbEntity
  8
0
 62
     3
100
AcDbLine
 10
129.5175271673999
 20
161.1099395752
 30
0.0
 11
126.5175424260999
 21
161.1099395752
 31
0.0
  0
LINE
  5
1DF
330
2
100
AcDbEntity
  8
0
 62
     3
100
AcDbLine
 10
129.5175271673999
 20
160.5099487304
 30
0.0
 11
126.5175424260999
 21
160.5099487304
 31
0.0
  0
LINE
  5
1E0
330
2
100
AcDbEntity
  8
0
 62
     3
100
AcDbLine
 10
129.5175271673999
 20
160.0868225097
 30
0.0
 11
126.5175424260999
 21
160.0868225097
 31
0.0
  0
LINE
  5
1E1
330
2
100
AcDbEntity
  8
0
 62
     3
100
AcDbLine
 10
129.5175119085999
 20
159.6000366211
 30
0.0
 11
125.7175393744
 21
159.6000366211
 31
0.0
  0
LINE
  5
1E2
330
2
100
AcDbEntity
  8
0
 62
     3
100
AcDbLine
 10
116.3175149602999
 20
170.9498138427
 30
0.0
 11
116.3175149602999
 21
166.0501098631999
 31
0.0
  0
LINE
  5
1E3
330
2
100
AcDbEntity
  8
0
 62
     3
100
AcDbLine
 10
116.3172708196998
 20
169.2997894287
 30
0.0
 11
116.3172708196998
 21
168.8997650145999
 31
0.0
  0
LINE
  5
1E4
330
2
100
AcDbEntity
  8
0
 62
     3
100
AcDbLine
 10
116.3172708196998
 20
168.0999603270999
 30
0.0
 11
116.3172708196998
 21
167.6999359131
 31
0.0
  0
LINE
  5
1E5
330
2
100
AcDbEntity
  8
0
 62
     3
100
AcDbLine
 10
125.7175546331998
 20
171.5000305174999
 30
0.0
 11
125.7175546331998
 21
165.5000457763
 31
0.0
  0
ARC
  5
1E6
330
2
100
AcDbEntity
  8
0
 62
     3
100
AcDbCircle
 10
141.5176339789
 20
168.4997863769
 30
0.0
 40
20.200012207
100
AcDbArc
 50
168.5787949053
 51
191.4211331503
  0
LINE
  5
1E7
330
2
100
AcDbEntity
  8
0
 62
     3
100
AcDbLine
 10
121.3176980657999
 20
161.1005096435
 30
0.0
 11
121.3176980657999
 21
175.8998107909999
 31
0.0
  0
LINE
  5
1E8
330
2
100
AcDbEntity
  8
0
 62
     3
100
AcDbLine
 10
124.5175424260999
 20
161.1005096435
 30
0.0
 11
121.3176980657999
 21
161.1005096435
 31
0.0
  0
LINE
  5
1E9
330
2
100
AcDbEntity
  8
0
 62
     3
100
AcDbLine
 10
124.5175424260999
 20
164.5004425048
 30
0.0
 11
121.7176004094999
 21
164.5004425048
 31
0.0
  0
LINE
  5
1EA
330
2
100
AcDbEntity
  8
0
 62
     3
100
AcDbLine
 10
124.5175424260999
 20
160.5005340575999
 30
0.0
 11
121.7176004094999
 21
160.5005340575999
 31
0.0
  0
LINE
  5
1EB
330
2
100
AcDbEntity
  8
0
 62
     3
100
AcDbLine
 10
121.7158429289999
 20
160.4993276969
 30
0.0
 11
121.3158657991
 21
161.099293757
 31
0.0
  0
LINE
  5
1EC
330
2
100
AcDbEntity
  8
0
 62
     3
100
AcDbLine
 10
121.7176004094999
 20
160.5005187987998
 30
0.0
 11
121.7176004094999
 21
164.5004425048
 31
0.0
  0
LINE
  5
1ED
330
2
100
AcDbEntity
  8
0
 62
     3
100
AcDbLine
 10
126.5174661321998
 20
160.5098571776998
 30
0.0
 11
126.5174661321998
 21
160.0867462157999
 31
0.0
  0
LINE
  5
1EE
330
2
100
AcDbEntity
  8
0
 62
     3
100
AcDbLine
 10
124.5175576848997
 20
165.5000457763
 30
0.0
 11
124.5175576848997
 21
160.1209259033
 31
0.0
  0
LINE
  5
1EF
330
2
100
AcDbEntity
  8
0
 62
     3
100
AcDbLine
 10
124.5175576848997
 20
160.1209259033
 30
0.0
 11
125.7175546331998
 21
160.1209259033
 31
0.0
  0
LINE
  5
1F0
330
2
100
AcDbEntity
  8
0
 62
     3
100
AcDbLine
 10
125.7175207023
 20
159.6000413905999
 30
0.0
 11
125.7175359610999
 21
160.1209306728
 31
0.0
  0
LINE
  5
1F1
330
2
100
AcDbEntity
  8
0
 62
     3
100
AcDbLine
 10
125.7175546331998
 20
165.5000457763
 30
0.0
 11
124.5175576848997
 21
165.5000457763
 31
0.0
  0
LINE
  5
1F2
330
2
100
AcDbEntity
  8
0
 62
     3
100
AcDbLine
 10
126.5175424260999
 20
165.6222076416
 30
0.0
 11
126.5175424260999
 21
164.5797576903999
 31
0.0
  0
LINE
  5
1F3
330
2
100
AcDbEntity
  8
0
 62
     3
100
AcDbLine
 10
126.5175424260999
 20
162.6655273436999
 30
0.0
 11
126.5175424260999
 21
163.5405426025
 31
0.0
  0
LINE
  5
1F4
330
2
100
AcDbEntity
  8
0
 62
     3
100
AcDbLine
 10
126.5175424260999
 20
161.1099395752
 30
0.0
 11
126.5175424260999
 21
161.7968292236
 31
0.0
  0
LINE
  5
1F5
330
2
100
AcDbEntity
  8
0
 62
     3
100
AcDbLine
 10
121.7176004094999
 20
172.4999084472
 30
0.0
 11
124.5175424260999
 21
172.4999084472
 31
0.0
  0
LINE
  5
1F6
330
2
100
AcDbEntity
  8
0
 62
     3
100
AcDbLine
 10
121.3176980657999
 20
175.8998107909999
 30
0.0
 11
124.5175424260999
 21
175.8998107909999
 31
0.0
  0
LINE
  5
1F7
330
2
100
AcDbEntity
  8
0
 62
     3
100
AcDbLine
 10
121.7176004094999
 20
176.4999084472
 30
0.0
 11
124.5175424260999
 21
176.4999084472
 31
0.0
  0
LINE
  5
1F8
330
2
100
AcDbEntity
  8
0
 62
     3
100
AcDbLine
 10
121.3165448802999
 20
175.8992875832998
 30
0.0
 11
121.7165897225999
 21
176.4993552121999
 31
0.0
  0
LINE
  5
1F9
330
2
100
AcDbEntity
  8
0
 62
     3
100
AcDbLine
 10
121.7176004094999
 20
172.4998931883999
 30
0.0
 11
121.7176004094999
 21
176.4999084472
 31
0.0
  0
LINE
  5
1FA
330
2
100
AcDbEntity
  8
0
 62
     3
100
AcDbLine
 10
126.5175424260999
 20
172.4203033447
 30
0.0
 11
126.5175424260999
 21
171.3778533934999
 31
0.0
  0
LINE
  5
1FB
330
2
100
AcDbEntity
  8
0
 62
     3
100
AcDbLine
 10
124.5175576848997
 20
176.879196167
 30
0.0
 11
124.5175576848997
 21
171.5000305174999
 31
0.0
  0
LINE
  5
1FC
330
2
100
AcDbEntity
  8
0
 62
     3
100
AcDbLine
 10
124.5175576848997
 20
171.5000305174999
 30
0.0
 11
125.7175546331998
 21
171.5000305174999
 31
0.0
  0
LINE
  5
1FD
330
2
100
AcDbEntity
  8
0
 62
     3
100
AcDbLine
 10
126.5175424260999
 20
170.1924896239999
 30
0.0
 11
126.5175424260999
 21
169.1000366211
 31
0.0
  0
LINE
  5
1FE
330
2
100
AcDbEntity
  8
0
 62
     3
100
AcDbLine
 10
126.5175424260999
 20
167.900024414
 30
0.0
 11
126.5175424260999
 21
166.8075714111
 31
0.0
  0
LINE
  5
1FF
330
2
100
AcDbEntity
  8
0
 62
     3
100
AcDbLine
 10
125.7175546331998
 20
176.879196167
 30
0.0
 11
124.5175576848997
 21
176.879196167
 31
0.0
  0
LINE
  5
200
330
2
100
AcDbEntity
  8
0
 62
     3
100
AcDbLine
 10
126.5175424260999
 20
173.4595184325999
 30
0.0
 11
126.5175424260999
 21
174.3345336913999
 31
0.0
  0
LINE
  5
201
330
2
100
AcDbEntity
  8
0
 62
     3
100
AcDbLine
 10
126.5175424260999
 20
175.2032318115
 30
0.0
 11
126.5175424260999
 21
175.8901214598999
 31
0.0
  0
LINE
  5
202
330
2
100
AcDbEntity
  8
0
 62
     3
100
AcDbLine
 10
126.5176034612999
 20
176.9132843016999
 30
0.0
 11
126.5176034612999
 21
176.4901733397999
 31
0.0
  0
LINE
  5
203
330
2
100
AcDbEntity
  8
0
 62
     3
100
AcDbLine
 10
125.7175546331998
 20
177.4000244139998
 30
0.0
 11
125.7175546331998
 21
176.879196167
 31
0.0
  0
LINE
  5
204
330
2
100
AcDbEntity
  8
0
 62
     3
100
AcDbLine
 10
124.5171609563999
 20
200.1209259032999
 30
0.0
 11
125.7171579046999
 21
200.1209259032999
 31
0.0
  0
LINE
  5
205
330
2
100
AcDbEntity
  8
0
 62
     3
100
AcDbLine
 10
126.5170236272999
 20
200.5098419188999
 30
0.0
 11
126.5170236272999
 21
200.0867309569998
 31
0.0
  0
LINE
  5
206
330
2
100
AcDbEntity
  8
0
 62
     3
100
AcDbLine
 10
125.7171146790999
 20
199.6000261822999
 30
0.0
 11
125.7171299378999
 21
200.1209154645998
 31
0.0
  0
LINE
  5
207
330
2
100
AcDbEntity
  8
0
 62
     3
100
AcDbLine
 10
141.0176922764
 20
159.6443539071
 30
0.0
 11
133.3176447672999
 21
159.4999839092
 31
0.0
  0
LINE
  5
208
330
2
100
AcDbEntity
  8
0
 62
     3
100
AcDbLine
 10
133.3176602146997
 20
177.4999733443999
 30
0.0
 11
141.0177072647998
 21
177.3555886571999
 31
0.0
  0
LINE
  5
209
330
2
100
AcDbEntity
  8
0
 62
     3
100
AcDbLine
 10
129.5174508733997
 20
177.3999328613
 30
0.0
 11
129.5174508733997
 21
159.5999603270999
 31
0.0
  0
LINE
  5
20A
330
2
100
AcDbEntity
  8
0
 62
     3
100
AcDbLine
 10
130.5175119085999
 20
162.5
 30
0.0
 11
130.5175119085999
 21
174.4999847412
 31
0.0
  0
LINE
  5
20B
330
2
100
AcDbEntity
  8
0
 62
     3
100
AcDbLine
 10
129.5175119085999
 20
159.5999755858999
 30
0.0
 11
129.5175119085999
 21
177.3999328613
 31
0.0
  0
LINE
  5
20C
330
2
100
AcDbEntity
  8
0
 62
     3
100
AcDbLine
 10
132.7176767034997
 20
177.2000274657998
 30
0.0
 11
132.7176767034997
 21
159.8000183104999
 31
0.0
  0
LINE
  5
20D
330
2
100
AcDbEntity
  8
0
 62
     3
100
AcDbLine
 10
133.3176828069999
 20
159.5005187987998
 30
0.0
 11
133.3176828069999
 21
177.4997711181
 31
0.0
  0
LINE
  5
20E
330
2
100
AcDbEntity
  8
0
 62
     3
100
AcDbLine
 10
132.7176767034997
 20
164.5004425048
 30
0.0
 11
130.5175119085999
 21
164.5004425048
 31
0.0
  0
LINE
  5
20F
330
2
100
AcDbEntity
  8
0
 62
     3
100
AcDbLine
 10
130.4616068314998
 20
159.5499893971999
 30
0.0
 11
131.4086613101
 21
159.8710146981999
 31
0.0
  0
LINE
  5
210
330
2
100
AcDbEntity
  8
0
 62
     3
100
AcDbLine
 10
130.5175221727999
 20
162.4999887633999
 30
0.0
 11
131.4086833527997
 21
159.8710146711
 31
0.0
  0
LINE
  5
211
330
2
100
AcDbEntity
  8
0
 62
     3
100
AcDbLine
 10
129.5175301349999
 20
162.3350845572
 30
0.0
 11
130.4616156747999
 21
159.5499807164999
 31
0.0
  0
LINE
  5
212
330
2
100
AcDbEntity
  8
0
 62
     3
100
AcDbLine
 10
129.5175119085999
 20
159.5500183104999
 30
0.0
 11
130.4616037053999
 21
159.5500183104999
 31
0.0
  0
LINE
  5
213
330
2
100
AcDbEntity
  8
0
 62
     3
100
AcDbLine
 10
132.7176767034997
 20
159.8000183104999
 30
0.0
 11
133.3176828069999
 21
159.8000183104999
 31
0.0
  0
LINE
  5
214
330
2
100
AcDbEntity
  8
0
 62
     3
100
AcDbLine
 10
132.7194183032997
 20
161.0998591557
 30
0.0
 11
132.4194318787999
 21
160.4999015795999
 31
0.0
  0
LINE
  5
215
330
2
100
AcDbEntity
  8
0
 62
     3
100
AcDbLine
 10
132.7176767034997
 20
161.1005096435
 30
0.0
 11
130.9919076604998
 21
161.1005096435
 31
0.0
  0
LINE
  5
216
330
2
100
AcDbEntity
  8
0
 62
     3
100
AcDbLine
 10
132.4197183294999
 20
160.5005340575999
 30
0.0
 11
131.1952768010999
 21
160.5005340575999
 31
0.0
  0
LINE
  5
217
330
2
100
AcDbEntity
  8
0
 62
     3
100
AcDbLine
 10
130.4616426226999
 20
177.4499935603
 30
0.0
 11
131.4086924521997
 21
177.1289545504999
 31
0.0
  0
LINE
  5
218
330
2
100
AcDbEntity
  8
0
 62
     3
100
AcDbLine
 10
130.5175161133999
 20
174.5000124083999
 30
0.0
 11
131.4086716325999
 21
177.1289562749
 31
0.0
  0
LINE
  5
219
330
2
100
AcDbEntity
  8
0
 62
     3
100
AcDbLine
 10
130.5175119085999
 20
172.4999084472
 30
0.0
 11
132.7176767034997
 21
172.4999084472
 31
0.0
  0
LINE
  5
21A
330
2
100
AcDbEntity
  8
0
 62
     3
100
AcDbLine
 10
129.5175119085999
 20
177.4500274657999
 30
0.0
 11
130.4616189642
 21
177.4500274657999
 31
0.0
  0
LINE
  5
21B
330
2
100
AcDbEntity
  8
0
 62
     3
100
AcDbLine
 10
129.5175191633999
 20
174.6648554802999
 30
0.0
 11
130.4616237811997
 21
177.4500012720999
 31
0.0
  0
LINE
  5
21C
330
2
100
AcDbEntity
  8
0
 62
     3
100
AcDbLine
 10
132.7186732528999
 20
175.8992018847999
 30
0.0
 11
132.4186811418999
 21
176.4992930763999
 31
0.0
  0
LINE
  5
21D
330
2
100
AcDbEntity
  8
0
 62
     3
100
AcDbLine
 10
130.9920144719999
 20
175.8998107909999
 30
0.0
 11
132.7176767034997
 21
175.8998107909999
 31
0.0
  0
LINE
  5
21E
330
2
100
AcDbEntity
  8
0
 62
     3
100
AcDbLine
 10
131.1954446477999
 20
176.4999084472
 30
0.0
 11
132.4184060735997
 21
176.4999084472
 31
0.0
  0
LINE
  5
21F
330
2
100
AcDbEntity
  8
0
 62
     3
100
AcDbLine
 10
132.7176767034997
 20
177.2000274657998
 30
0.0
 11
133.3176828069999
 21
177.2000274657998
 31
0.0
  0
LINE
  5
220
330
2
100
AcDbEntity
  8
0
 62
     3
100
AcDbLine
 10
141.0177255315999
 20
159.6443634032999
 30
0.0
 11
141.0177255315999
 21
177.3556060790999
 31
0.0
  0
LINE
  5
221
330
2
100
AcDbEntity
  8
0
 62
     3
100
AcDbLine
 10
141.3176828069999
 20
159.9557800292999
 30
0.0
 11
141.3176828069999
 21
177.0441894530998
 31
0.0
  0
LINE
  5
222
330
2
100
AcDbEntity
  8
0
 62
     3
100
AcDbLine
 10
141.0177310379999
 20
159.6443438640999
 30
0.0
 11
141.3176811903999
 21
159.9557541128
 31
0.0
  0
LINE
  5
223
330
2
100
AcDbEntity
  8
0
 62
     3
100
AcDbLine
 10
141.3176828069999
 20
160.6999816894
 30
0.0
 11
141.6176858587999
 21
160.6999816894
 31
0.0
  0
LINE
  5
224
330
2
100
AcDbEntity
  8
0
 62
     3
100
AcDbLine
 10
141.3176828069999
 20
176.2999725340999
 30
0.0
 11
141.6176858587999
 21
176.2999725340999
 31
0.0
  0
LINE
  5
225
330
2
100
AcDbEntity
  8
0
 62
     3
100
AcDbLine
 10
141.0177407850999
 20
177.3555729119
 30
0.0
 11
141.3176817885999
 21
177.0441538493999
 31
0.0
  0
LINE
  5
226
330
2
100
AcDbEntity
  8
0
 62
     3
100
AcDbLine
 10
141.0176572766999
 20
199.6443022299
 30
0.0
 11
133.3176097676
 21
199.4999322319999
 31
0.0
  0
LINE
  5
227
330
2
100
AcDbEntity
  8
0
 62
     3
100
AcDbLine
 10
130.4612252512999
 20
199.5502142138
 30
0.0
 11
131.4082941809999
 21
199.8712444132999
 31
0.0
  0
LINE
  5
228
330
2
100
AcDbEntity
  8
0
 62
     3
100
AcDbLine
 10
129.5171304387999
 20
199.5502624510998
 30
0.0
 11
130.4612222356998
 21
199.5502624510998
 31
0.0
  0
LINE
  5
229
330
2
100
AcDbEntity
  8
0
 62
     3
100
AcDbLine
 10
132.7176767034997
 20
199.8002624511
 30
0.0
 11
133.3176828069999
 21
199.8002624511
 31
0.0
  0
LINE
  5
22A
330
2
100
AcDbEntity
  8
0
 62
     3
100
AcDbLine
 10
141.3176828069999
 20
200.6999816893999
 30
0.0
 11
141.6176858587999
 21
200.6999816893999
 31
0.0
  0
LINE
  5
22B
330
2
100
AcDbEntity
  8
0
 62
     3
100
AcDbLine
 10
141.0177261199999
 20
199.6442792355999
 30
0.0
 11
141.3176762723999
 21
199.9556894841999
 31
0.0
  0
LINE
  5
22C
330
2
100
AcDbEntity
  8
0
 62
     3
100
AcDbLine
 10
126.5171456975999
 20
212.4203033447
 30
0.0
 11
129.5171304387999
 21
212.4203033447
 31
0.0
  0
LINE
  5
22D
330
2
100
AcDbEntity
  8
0
 62
     3
100
AcDbLine
 10
126.5171456975999
 20
213.4595184325998
 30
0.0
 11
129.5171304387999
 21
213.4595184325998
 31
0.0
  0
LINE
  5
22E
330
2
100
AcDbEntity
  8
0
 62
     3
100
AcDbLine
 10
126.5171456975999
 20
214.3345336913998
 30
0.0
 11
129.5171304387999
 21
214.3345336913998
 31
0.0
  0
LINE
  5
22F
330
2
100
AcDbEntity
  8
0
 62
     3
100
AcDbLine
 10
126.5171456975999
 20
215.2032318114998
 30
0.0
 11
129.5171304387999
 21
215.2032318114998
 31
0.0
  0
LINE
  5
230
330
2
100
AcDbEntity
  8
0
 62
     3
100
AcDbLine
 10
126.5171456975999
 20
215.8901214598996
 30
0.0
 11
129.5171304387999
 21
215.8901214598996
 31
0.0
  0
LINE
  5
231
330
2
100
AcDbEntity
  8
0
 62
     3
100
AcDbLine
 10
126.5171456975999
 20
216.4901123047
 30
0.0
 11
129.5171304387999
 21
216.4901123047
 31
0.0
  0
LINE
  5
232
330
2
100
AcDbEntity
  8
0
 62
     3
100
AcDbLine
 10
126.5171456975999
 20
216.9132385254
 30
0.0
 11
129.5171304387999
 21
216.9132385254
 31
0.0
  0
LINE
  5
233
330
2
100
AcDbEntity
  8
0
 62
     3
100
AcDbLine
 10
126.5171456975999
 20
209.1000366210999
 30
0.0
 11
129.5171304387999
 21
209.1000366210999
 31
0.0
  0
LINE
  5
234
330
2
100
AcDbEntity
  8
0
 62
     3
100
AcDbLine
 10
126.5171456975999
 20
210.1924896239998
 30
0.0
 11
129.5171304387999
 21
210.1924896239998
 31
0.0
  0
LINE
  5
235
330
2
100
AcDbEntity
  8
0
 62
     3
100
AcDbLine
 10
126.5171456975999
 20
211.3778533934999
 30
0.0
 11
129.5171304387999
 21
211.3778533934999
 31
0.0
  0
LINE
  5
236
330
2
100
AcDbEntity
  8
0
 62
     3
100
AcDbLine
 10
129.5171304387999
 20
207.9000244139999
 30
0.0
 11
126.5171456975999
 21
207.9000244139999
 31
0.0
  0
LINE
  5
237
330
2
100
AcDbEntity
  8
0
 62
     3
100
AcDbLine
 10
129.5171304387999
 20
206.8075714110999
 30
0.0
 11
126.5171456975999
 21
206.8075714110999
 31
0.0
  0
LINE
  5
238
330
2
100
AcDbEntity
  8
0
 62
     3
100
AcDbLine
 10
125.7171579046999
 20
217.4000244139998
 30
0.0
 11
129.5171304387999
 21
217.4000244139998
 31
0.0
  0
LINE
  5
239
330
2
100
AcDbEntity
  8
0
 62
     3
100
AcDbLine
 10
129.5171304387999
 20
205.6222076415999
 30
0.0
 11
126.5171456975999
 21
205.6222076415999
 31
0.0
  0
LINE
  5
23A
330
2
100
AcDbEntity
  8
0
 62
     3
100
AcDbLine
 10
129.5171304387999
 20
204.5797576903999
 30
0.0
 11
126.5171456975999
 21
204.5797576903999
 31
0.0
  0
LINE
  5
23B
330
2
100
AcDbEntity
  8
0
 62
     3
100
AcDbLine
 10
129.5171304387999
 20
203.5405426025
 30
0.0
 11
126.5171456975999
 21
203.5405426025
 31
0.0
  0
LINE
  5
23C
330
2
100
AcDbEntity
  8
0
 62
     3
100
AcDbLine
 10
129.5171304387999
 20
202.6655273437
 30
0.0
 11
126.5171456975999
 21
202.6655273437
 31
0.0
  0
LINE
  5
23D
330
2
100
AcDbEntity
  8
0
 62
     3
100
AcDbLine
 10
129.5171304387999
 20
201.7968292236
 30
0.0
 11
126.5171456975999
 21
201.7968292236
 31
0.0
  0
LINE
  5
23E
330
2
100
AcDbEntity
  8
0
 62
     3
100
AcDbLine
 10
129.5171304387999
 20
201.1099395752
 30
0.0
 11
126.5171456975999
 21
201.1099395752
 31
0.0
  0
LINE
  5
23F
330
2
100
AcDbEntity
  8
0
 62
     3
100
AcDbLine
 10
116.3175912542999
 20
201.1002502440999
 30
0.0
 11
124.5171456975999
 21
201.1002502440999
 31
0.0
  0
LINE
  5
240
330
2
100
AcDbEntity
  8
0
 62
     3
100
AcDbLine
 10
124.5171456975999
 20
215.9001770018999
 30
0.0
 11
116.3175912542999
 21
215.9001770018999
 31
0.0
  0
LINE
  5
241
330
2
100
AcDbEntity
  8
0
 62
     3
100
AcDbLine
 10
114.3177133245999
 20
205.0000152588
 30
0.0
 11
114.3177133245999
 21
206.5000152587999
 31
0.0
  0
LINE
  5
242
330
2
100
AcDbEntity
  8
0
 62
     3
100
AcDbLine
 10
116.3175454778999
 20
201.4997253418
 30
0.0
 11
116.3175454778999
 21
201.0997009276998
 31
0.0
  0
LINE
  5
243
330
2
100
AcDbEntity
  8
0
 62
     3
100
AcDbLine
 10
114.3175454778999
 20
210.1994476318
 30
0.0
 11
114.3175454778999
 21
206.7995605467998
 31
0.0
  0
LINE
  5
244
330
2
100
AcDbEntity
  8
0
 62
     3
100
AcDbLine
 10
114.3177133245999
 20
210.5000152587999
 30
0.0
 11
114.3177133245999
 21
212.0000152588
 31
0.0
  0
LINE
  5
245
330
2
100
AcDbEntity
  8
0
 62
     3
100
AcDbLine
 10
116.3172601668999
 20
215.8996833459999
 30
0.0
 11
116.3172525375
 21
215.4997810021999
 31
0.0
  0
LINE
  5
246
330
2
100
AcDbEntity
  8
0
 62
     3
100
AcDbLine
 10
126.5171456975999
 20
212.4203033447
 30
0.0
 11
126.5171456975999
 21
211.3778533934999
 31
0.0
  0
LINE
  5
247
330
2
100
AcDbEntity
  8
0
 62
     3
100
AcDbLine
 10
124.5171609563999
 20
216.8791961669998
 30
0.0
 11
124.5171609563999
 21
211.5000305174999
 31
0.0
  0
LINE
  5
248
330
2
100
AcDbEntity
  8
0
 62
     3
100
AcDbLine
 10
122.7171968103999
 20
215.9006399397
 30
0.0
 11
123.1699261660999
 21
209.2002342678998
 31
0.0
  0
LINE
  5
249
330
2
100
AcDbEntity
  8
0
 62
     3
100
AcDbLine
 10
121.6735106803999
 20
209.2002311446
 30
0.0
 11
121.3176916724999
 21
214.466361271
 31
0.0
  0
LINE
  5
24A
330
2
100
AcDbEntity
  8
0
 62
     3
100
AcDbLine
 10
122.1746506807999
 20
209.2002319110998
 30
0.0
 11
121.7219182391999
 21
215.9006832550999
 31
0.0
  0
LINE
  5
24B
330
2
100
AcDbEntity
  8
0
 62
     3
100
AcDbLine
 10
121.3177133245999
 20
201.1003570555998
 30
0.0
 11
121.3177133245999
 21
215.9002990722
 31
0.0
  0
LINE
  5
24C
330
2
100
AcDbEntity
  8
0
 62
     3
100
AcDbLine
 10
122.2219705409999
 20
215.9002587763
 30
0.0
 11
122.6746741802999
 21
209.2002337063997
 31
0.0
  0
LINE
  5
24D
330
2
100
AcDbEntity
  8
0
 62
     3
100
AcDbLine
 10
123.3144884963998
 20
207.8001785338
 30
0.0
 11
123.7671859637999
 21
201.1002448084
 31
0.0
  0
LINE
  5
24E
330
2
100
AcDbEntity
  8
0
 62
     3
100
AcDbLine
 10
121.7700753850997
 20
207.8002624510999
 30
0.0
 11
125.7171426458999
 21
207.8002624510999
 31
0.0
  0
LINE
  5
24F
330
2
100
AcDbEntity
  8
0
 62
     3
100
AcDbLine
 10
121.3177133245999
 20
209.2002716064
 30
0.0
 11
125.7171426458999
 21
209.2002716064
 31
0.0
  0
LINE
  5
250
330
2
100
AcDbEntity
  8
0
 62
     3
100
AcDbLine
 10
122.8192365106
 20
207.8001779722998
 30
0.0
 11
123.2719288348
 21
201.1003203672999
 31
0.0
  0
LINE
  5
251
330
2
100
AcDbEntity
  8
0
 62
     3
100
AcDbLine
 10
122.7695846960999
 20
201.1346640904
 30
0.0
 11
122.3192119824999
 21
207.8001914010998
 31
0.0
  0
LINE
  5
252
330
2
100
AcDbEntity
  8
0
 62
     3
100
AcDbLine
 10
121.7696870333
 20
207.7987836928
 30
0.0
 11
121.3661593916999
 21
206.3539544069
 31
0.0
  0
LINE
  5
253
330
2
100
AcDbEntity
  8
0
 62
     3
100
AcDbLine
 10
122.3645958431999
 20
206.4220533225999
 30
0.0
 11
121.7704067059999
 21
207.7993475351997
 31
0.0
  0
LINE
  5
254
330
2
100
AcDbEntity
  8
0
 62
     3
100
AcDbLine
 10
121.9047430762999
 20
205.8033295932998
 30
0.0
 11
121.3664267816999
 21
206.3540655701999
 31
0.0
  0
LINE
  5
255
330
2
100
AcDbEntity
  8
0
 62
     3
100
AcDbLine
 10
121.7236753622999
 20
201.063994659
 30
0.0
 11
121.3662238833999
 21
206.3542853960998
 31
0.0
  0
LINE
  5
256
330
2
100
AcDbEntity
  8
0
 62
     3
100
AcDbLine
 10
122.2207556816
 20
201.1009915793998
 30
0.0
 11
121.9029021671999
 21
205.8052314613
 31
0.0
  0
LINE
  5
257
330
2
100
AcDbEntity
  8
0
 62
     3
100
AcDbLine
 10
122.3639826196998
 20
206.4220027938
 30
0.0
 11
121.9046123154999
 21
205.8037107341998
 31
0.0
  0
LINE
  5
258
330
2
100
AcDbEntity
  8
0
 62
     3
100
AcDbLine
 10
125.7171579046999
 20
211.5000305174999
 30
0.0
 11
125.7171579046999
 21
205.5000457763
 31
0.0
  0
LINE
  5
259
330
2
100
AcDbEntity
  8
0
 62
     3
100
AcDbLine
 10
125.7171579046999
 20
205.5000457763
 30
0.0
 11
124.5171609563999
 21
205.5000457763
 31
0.0
  0
LINE
  5
25A
330
2
100
AcDbEntity
  8
0
 62
     3
100
AcDbLine
 10
126.5171456975999
 20
205.6222076415999
 30
0.0
 11
126.5171456975999
 21
204.5797576903999
 31
0.0
  0
LINE
  5
25B
330
2
100
AcDbEntity
  8
0
 62
     3
100
AcDbLine
 10
126.5171456975999
 20
202.6655273437
 30
0.0
 11
126.5171456975999
 21
203.5405426025
 31
0.0
  0
LINE
  5
25C
330
2
100
AcDbEntity
  8
0
 62
     3
100
AcDbLine
 10
126.5171456975999
 20
201.1099395752
 30
0.0
 11
126.5171456975999
 21
201.7968292236
 31
0.0
  0
LINE
  5
25D
330
2
100
AcDbEntity
  8
0
 62
     3
100
AcDbLine
 10
124.5171609563999
 20
211.5000305174999
 30
0.0
 11
125.7171579046999
 21
211.5000305174999
 31
0.0
  0
LINE
  5
25E
330
2
100
AcDbEntity
  8
0
 62
     3
100
AcDbLine
 10
126.5171456975999
 20
210.1924896239998
 30
0.0
 11
126.5171456975999
 21
209.1000366210999
 31
0.0
  0
LINE
  5
25F
330
2
100
AcDbEntity
  8
0
 62
     3
100
AcDbLine
 10
126.5171456975999
 20
207.9000244139999
 30
0.0
 11
126.5171456975999
 21
206.8075714110999
 31
0.0
  0
LINE
  5
260
330
2
100
AcDbEntity
  8
0
 62
     3
100
AcDbLine
 10
125.7171579046999
 20
216.8791961669998
 30
0.0
 11
124.5171609563999
 21
216.8791961669998
 31
0.0
  0
LINE
  5
261
330
2
100
AcDbEntity
  8
0
 62
     3
100
AcDbLine
 10
126.5171456975999
 20
213.4595184325998
 30
0.0
 11
126.5171456975999
 21
214.3345336913998
 31
0.0
  0
LINE
  5
262
330
2
100
AcDbEntity
  8
0
 62
     3
100
AcDbLine
 10
126.5171456975999
 20
215.2032318114998
 30
0.0
 11
126.5171456975999
 21
215.8901214598996
 31
0.0
  0
LINE
  5
263
330
2
100
AcDbEntity
  8
0
 62
     3
100
AcDbLine
 10
126.5172219915997
 20
216.9132843016999
 30
0.0
 11
126.5172219915997
 21
216.4901733398
 31
0.0
  0
LINE
  5
264
330
2
100
AcDbEntity
  8
0
 62
     3
100
AcDbLine
 10
125.7171579046999
 20
217.4000244139998
 30
0.0
 11
125.7171579046999
 21
216.8791961669998
 31
0.0
  0
LINE
  5
265
330
2
100
AcDbEntity
  8
0
 62
     3
100
AcDbLine
 10
133.3176342345999
 20
217.4999232882
 30
0.0
 11
141.0176660285999
 21
217.3555388870999
 31
0.0
  0
LINE
  5
266
330
2
100
AcDbEntity
  8
0
 62
     3
100
AcDbLine
 10
130.5171151799999
 20
202.5002441405999
 30
0.0
 11
130.5171151799999
 21
214.5002288818
 31
0.0
  0
LINE
  5
267
330
2
100
AcDbEntity
  8
0
 62
     3
100
AcDbLine
 10
130.5171304387999
 20
207.8002624510999
 30
0.0
 11
132.7176767034997
 21
207.8002624510999
 31
0.0
  0
LINE
  5
268
330
2
100
AcDbEntity
  8
0
 62
     3
100
AcDbLine
 10
130.5171304387999
 20
209.2002716064
 30
0.0
 11
132.7176767034997
 21
209.2002716064
 31
0.0
  0
LINE
  5
269
330
2
100
AcDbEntity
  8
0
 62
     3
100
AcDbLine
 10
130.9916940374999
 20
201.1002502440999
 30
0.0
 11
132.7176767034997
 21
201.1002502440999
 31
0.0
  0
LINE
  5
26A
330
2
100
AcDbEntity
  8
0
 62
     3
100
AcDbLine
 10
130.4612569692999
 20
217.4502158365999
 30
0.0
 11
131.4083212497999
 21
217.129171928
 31
0.0
  0
LINE
  5
26B
330
2
100
AcDbEntity
  8
0
 62
     3
100
AcDbLine
 10
130.5171424692999
 20
214.5002251199997
 30
0.0
 11
131.4082979884997
 21
217.1291689863999
 31
0.0
  0
LINE
  5
26C
330
2
100
AcDbEntity
  8
0
 62
     3
100
AcDbLine
 10
129.5171304387999
 20
217.4502716064
 30
0.0
 11
130.4612374944999
 21
217.4502716064
 31
0.0
  0
LINE
  5
26D
330
2
100
AcDbEntity
  8
0
 62
     3
100
AcDbLine
 10
129.5171310681997
 20
214.6650730904999
 30
0.0
 11
130.4612356858999
 21
217.4502188822998
 31
0.0
  0
LINE
  5
26E
330
2
100
AcDbEntity
  8
0
 62
     3
100
AcDbLine
 10
132.7176767034997
 20
215.9001770018999
 30
0.0
 11
130.9916940374999
 21
215.9001770018999
 31
0.0
  0
LINE
  5
26F
330
2
100
AcDbEntity
  8
0
 62
     3
100
AcDbLine
 10
132.7176767034997
 20
217.2002563475999
 30
0.0
 11
133.3176828069999
 21
217.2002563475999
 31
0.0
  0
LINE
  5
270
330
2
100
AcDbEntity
  8
0
 62
     3
100
AcDbLine
 10
141.3176828069999
 20
216.2999725340999
 30
0.0
 11
141.6176858587999
 21
216.2999725340999
 31
0.0
  0
LINE
  5
271
330
2
100
AcDbEntity
  8
0
 62
     3
100
AcDbLine
 10
141.0177198889997
 20
217.3555167792998
 30
0.0
 11
141.3176608925
 21
217.0440977167998
 31
0.0
  0
TEXT
  5
272
330
2
100
AcDbEntity
  8
0
 62
     5
100
AcDbText
 10
145.0
 20
10.0
 30
0.0
 40
5.0
  1
ＭＡ４－Ｈ００１４５Ｂ
 41
0.84439677439531
 72
     5
 11
199.0413935612998
 21
10.0
 31
0.0
100
AcDbText
  0
LINE
  5
273
330
2
100
AcDbEntity
  8
0
  6
CENTER
 62
     3
100
AcDbLine
 10
169.8141122503999
 20
168.5
 30
0.0
 11
192.8141122504
 21
168.5
 31
0.0
  0
LINE
  5
274
330
2
100
AcDbEntity
  8
0
 62
     3
100
AcDbLine
 10
148.8176828069999
 20
162.7864379882
 30
0.0
 11
148.8176828069999
 21
174.2115783690999
 31
0.0
  0
LINE
  5
275
330
2
100
AcDbEntity
  8
0
 62
     3
100
AcDbLine
 10
142.0176950139999
 20
161.0999908446999
 30
0.0
 11
142.0176950139999
 21
175.8999786377
 31
0.0
  0
LINE
  5
276
330
2
100
AcDbEntity
  8
0
 62
     3
100
AcDbLine
 10
142.0176734478999
 20
162.2045666240999
 30
0.0
 11
148.3241182081999
 21
162.2864610341
 31
0.0
  0
ARC
  5
277
330
2
100
AcDbEntity
  8
0
 62
     3
100
AcDbCircle
 10
148.3176828069999
 20
162.7864379882
 30
0.0
 40
0.5
100
AcDbArc
 50
270.744016832
 51
359.998576049
  0
LINE
  5
278
330
2
100
AcDbEntity
  8
0
 62
     3
100
AcDbLine
 10
142.5176950139999
 20
174.0153961180998
 30
0.0
 11
148.3176828069999
 21
174.0153961180998
 31
0.0
  0
LINE
  5
279
330
2
100
AcDbEntity
  8
0
 62
     3
100
AcDbLine
 10
148.3241320763999
 20
174.7115129458999
 30
0.0
 11
142.0176876919999
 21
174.7934198319998
 31
0.0
  0
LINE
  5
27A
330
2
100
AcDbEntity
  8
0
 62
     3
100
AcDbLine
 10
142.5176950139999
 20
170.1990356444999
 30
0.0
 11
148.3176828069999
 21
170.1990356444999
 31
0.0
  0
ARC
  5
27B
330
2
100
AcDbEntity
  8
0
 62
     3
100
AcDbCircle
 10
148.3176828069999
 20
174.2115783690999
 30
0.0
 40
0.5
100
AcDbArc
 50
359.9997753887998
 51
89.25587388500003
  0
LINE
  5
27C
330
2
100
AcDbEntity
  8
0
 62
     3
100
AcDbLine
 10
148.8176828069999
 20
202.7864379881999
 30
0.0
 11
148.8176828069999
 21
214.2115783691
 31
0.0
  0
LINE
  5
27D
330
2
100
AcDbEntity
  8
0
 62
     3
100
AcDbLine
 10
142.0176950139999
 20
201.0999908447
 30
0.0
 11
142.0176950139999
 21
215.8999786377
 31
0.0
  0
LINE
  5
27E
330
2
100
AcDbEntity
  8
0
 62
     3
100
AcDbLine
 10
148.3176828069999
 20
206.8009948729999
 30
0.0
 11
142.5176950139999
 21
206.8009948729999
 31
0.0
  0
LINE
  5
27F
330
2
100
AcDbEntity
  8
0
 62
     3
100
AcDbLine
 10
148.3176828069999
 20
202.9846343993999
 30
0.0
 11
142.5176950139999
 21
202.9846343993999
 31
0.0
  0
LINE
  5
280
330
2
100
AcDbEntity
  8
0
 62
     3
100
AcDbLine
 10
142.0176782177998
 20
202.2045524115999
 30
0.0
 11
148.3241229780998
 21
202.2864468215999
 31
0.0
  0
ARC
  5
281
330
2
100
AcDbEntity
  8
0
 62
     3
100
AcDbCircle
 10
148.3176828069999
 20
202.7864379881999
 30
0.0
 40
0.5
100
AcDbArc
 50
270.744016832
 51
359.998576049
  0
LINE
  5
282
330
2
100
AcDbEntity
  8
0
 62
     3
100
AcDbLine
 10
148.3241454258999
 20
214.7114981695999
 30
0.0
 11
142.0176857839997
 21
214.7934052538
 31
0.0
  0
ARC
  5
283
330
2
100
AcDbEntity
  8
0
 62
     3
100
AcDbCircle
 10
148.3176828069999
 20
214.2115783691
 30
0.0
 40
0.5
100
AcDbArc
 50
359.9997753887998
 51
89.25587388500003
  0
LINE
  5
284
330
2
100
AcDbEntity
  8
0
 62
     3
100
AcDbLine
 10
182.6520181341998
 20
177.3999938963999
 30
0.0
 11
187.2633462591998
 21
177.3999938963999
 31
0.0
  0
ARC
  5
285
330
2
100
AcDbEntity
  8
0
 62
     3
100
AcDbCircle
 10
184.9186349553998
 20
164.89503479
 30
0.0
 40
2.7021045685
100
AcDbArc
 50
227.4137885111
 51
44.9999431956
  0
CIRCLE
  5
286
330
2
100
AcDbEntity
  8
0
 62
     3
100
AcDbCircle
 10
181.3140817327997
 20
168.5
 30
0.0
 40
9.0
  0
CIRCLE
  5
287
330
2
100
AcDbEntity
  8
0
 62
     3
100
AcDbCircle
 10
181.3140817327997
 20
168.5
 30
0.0
 40
8.8499994278
  0
CIRCLE
  5
288
330
2
100
AcDbEntity
  8
0
 62
     3
100
AcDbCircle
 10
181.3140969915999
 20
168.5
 30
0.0
 40
7.7999992371
  0
LINE
  5
289
330
2
100
AcDbEntity
  8
0
 62
     3
100
AcDbLine
 10
187.2633462591998
 20
159.5999908447
 30
0.0
 11
175.3648629827999
 21
159.5999908447
 31
0.0
  0
LINE
  5
28A
330
2
100
AcDbEntity
  8
0
  6
CENTER
 62
     3
100
AcDbLine
 10
190.1529004329999
 20
159.6611507576
 30
0.0
 11
172.4752419954999
 21
177.3388091950999
 31
0.0
  0
LINE
  5
28B
330
2
100
AcDbEntity
  8
0
 62
     3
100
AcDbLine
 10
186.8280118123998
 20
166.8044116154999
 30
0.0
 11
179.6150178147999
 21
174.0174056130999
 31
0.0
  0
LINE
  5
28C
330
2
100
AcDbEntity
  8
0
  6
CENTER
 62
     3
100
AcDbLine
 10
181.3140664739998
 20
157.2499999999999
 30
0.0
 11
181.3140664739998
 21
179.7499847411999
 31
0.0
  0
LINE
  5
28D
330
2
100
AcDbEntity
  8
0
 62
     3
100
AcDbLine
 10
175.3648629827999
 20
177.3999938963999
 30
0.0
 11
179.9761300725999
 21
177.3999938963999
 31
0.0
  0
ARC
  5
28E
330
2
100
AcDbEntity
  8
0
 62
     3
100
AcDbCircle
 10
177.7056070012999
 20
172.1079864502
 30
0.0
 40
2.6971597672
100
AcDbArc
 50
45.00001491259999
 51
224.999927714
  0
CIRCLE
  5
28F
330
2
100
AcDbEntity
  8
0
 62
     3
100
AcDbCircle
 10
177.6371255559999
 20
172.1769409179
 30
0.0
 40
1.1999998093
  0
LINE
  5
290
330
2
100
AcDbEntity
  8
0
 62
     3
100
AcDbLine
 10
183.0901191495999
 20
162.9055598038
 30
0.0
 11
175.7966455774999
 21
170.1990333759
 31
0.0
  0
LINE
  5
291
330
2
100
AcDbEntity
  8
0
 62
     3
100
AcDbLine
 10
172.4141030950999
 20
162.5508270262999
 30
0.0
 11
172.4141030950999
 21
167.1619415282999
 31
0.0
  0
LINE
  5
292
330
2
100
AcDbEntity
  8
0
 62
     3
100
AcDbLine
 10
175.3648923144998
 20
159.5999447752999
 30
0.0
 11
172.8639630207998
 21
160.0497728888999
 31
0.0
  0
LINE
  5
293
330
2
100
AcDbEntity
  8
0
 62
     3
100
AcDbLine
 10
174.8649210606999
 20
160.0998448208
 30
0.0
 11
172.9143136943999
 21
162.0504521870999
 31
0.0
  0
LINE
  5
294
330
2
100
AcDbEntity
  8
0
 62
     3
100
AcDbLine
 10
172.3556179458999
 20
159.5414305667
 30
0.0
 11
175.3648911650999
 21
159.5999367665
 31
0.0
  0
LINE
  5
295
330
2
100
AcDbEntity
  8
0
 62
     3
100
AcDbLine
 10
172.4141272687998
 20
162.5507214698999
 30
0.0
 11
172.3556210689999
 21
159.5414482507
 31
0.0
  0
LINE
  5
296
330
2
100
AcDbEntity
  8
0
 62
     3
100
AcDbLine
 10
172.8639473520999
 20
160.0497869285999
 30
0.0
 11
172.4141192384999
 21
162.5507162221999
 31
0.0
  0
LINE
  5
297
330
2
100
AcDbEntity
  8
0
 62
     3
100
AcDbLine
 10
172.3556223274999
 20
159.5415001652999
 30
0.0
 11
172.8638969159
 21
160.0500799399
 31
0.0
  0
LINE
  5
298
330
2
100
AcDbEntity
  8
0
 62
     3
100
AcDbLine
 10
172.8639877256999
 20
176.9498979979999
 30
0.0
 11
175.3649170193999
 21
177.3997261116998
 31
0.0
  0
LINE
  5
299
330
2
100
AcDbEntity
  8
0
 62
     3
100
AcDbLine
 10
172.9143136943999
 20
174.9489359172999
 30
0.0
 11
174.8650721149999
 21
176.8996943377999
 31
0.0
  0
LINE
  5
29A
330
2
100
AcDbEntity
  8
0
 62
     3
100
AcDbLine
 10
175.3648887889999
 20
177.3999625882
 30
0.0
 11
172.3556155697997
 21
177.4584687879999
 31
0.0
  0
LINE
  5
29B
330
2
100
AcDbEntity
  8
0
 62
     3
100
AcDbLine
 10
172.4141030950999
 20
169.8380432129
 30
0.0
 11
172.4141030950999
 21
174.4492340087998
 31
0.0
  0
LINE
  5
29C
330
2
100
AcDbEntity
  8
0
 62
     3
100
AcDbLine
 10
172.3556234449999
 20
177.458451104
 30
0.0
 11
172.4141293481999
 21
174.4491931406999
 31
0.0
  0
LINE
  5
29D
330
2
100
AcDbEntity
  8
0
 62
     3
100
AcDbLine
 10
172.8638987731999
 20
176.9498868962998
 30
0.0
 11
172.3556241847999
 21
177.4584666708999
 31
0.0
  0
LINE
  5
29E
330
2
100
AcDbEntity
  8
0
 62
     3
100
AcDbLine
 10
172.4141227344999
 20
174.4491976506999
 30
0.0
 11
172.8639508480999
 21
176.9501269442998
 31
0.0
  0
ARC
  5
29F
330
2
100
AcDbEntity
  8
0
 62
     3
100
AcDbCircle
 10
181.3140969915499
 20
168.5
 30
0.0
 40
0.1499999761499993
100
AcDbArc
 50
180.0
 51
0.0
  0
ARC
  5
2A0
330
2
100
AcDbEntity
  8
0
 62
     3
100
AcDbCircle
 10
181.3140969915499
 20
168.5
 30
0.0
 40
0.1499999761500028
100
AcDbArc
 50
0.0
 51
180.0
  0
LINE
  5
2A1
330
2
100
AcDbEntity
  8
0
 62
     3
100
AcDbLine
 10
190.2141061467998
 20
167.1622467040999
 30
0.0
 11
190.2141061467998
 21
162.5507507323999
 31
0.0
  0
LINE
  5
2A2
330
2
100
AcDbEntity
  8
0
 62
     3
100
AcDbLine
 10
189.7642968290999
 20
160.049789436
 30
0.0
 11
187.2633675354999
 21
159.5999613223999
 31
0.0
  0
LINE
  5
2A3
330
2
100
AcDbEntity
  8
0
 62
     3
100
AcDbLine
 10
187.2633680905
 20
159.5999446937999
 30
0.0
 11
190.2726260537998
 21
159.5414387905999
 31
0.0
  0
LINE
  5
2A4
330
2
100
AcDbEntity
  8
0
 62
     3
100
AcDbLine
 10
189.7140768946998
 20
162.0506895581
 30
0.0
 11
187.7633184740999
 21
160.0999311375
 31
0.0
  0
LINE
  5
2A5
330
2
100
AcDbEntity
  8
0
 62
     3
100
AcDbLine
 10
190.2726384832
 20
159.5414250674999
 30
0.0
 11
190.2141319867997
 21
162.5507135426
 31
0.0
  0
LINE
  5
2A6
330
2
100
AcDbEntity
  8
0
 62
     3
100
AcDbLine
 10
190.2141274709
 20
162.5507020386999
 30
0.0
 11
189.7642993572999
 21
160.0497727449998
 31
0.0
  0
LINE
  5
2A7
330
2
100
AcDbEntity
  8
0
 62
     3
100
AcDbLine
 10
189.7642855431999
 20
160.0501021928
 30
0.0
 11
190.2725601315999
 21
159.5415224182
 31
0.0
  0
LINE
  5
2A8
330
2
100
AcDbEntity
  8
0
 62
     3
100
AcDbLine
 10
187.2633729086999
 20
177.3999522128999
 30
0.0
 11
189.7643022022999
 21
176.9501240993
 31
0.0
  0
LINE
  5
2A9
330
2
100
AcDbEntity
  8
0
 62
     3
100
AcDbLine
 10
190.2726284297999
 20
177.4584605640999
 30
0.0
 11
187.2633704665999
 21
177.3999546608999
 31
0.0
  0
LINE
  5
2AA
330
2
100
AcDbEntity
  8
0
 62
     3
100
AcDbLine
 10
187.7635558451999
 20
176.8996943377999
 30
0.0
 11
189.7141632114999
 21
174.9490869715999
 31
0.0
  0
LINE
  5
2AB
330
2
100
AcDbEntity
  8
0
 62
     3
100
AcDbLine
 10
190.2141061467998
 20
174.4492340087998
 30
0.0
 11
190.2141061467998
 21
169.8377380371
 31
0.0
  0
LINE
  5
2AC
330
2
100
AcDbEntity
  8
0
 62
     3
100
AcDbLine
 10
190.2725582743999
 20
177.458444418
 30
0.0
 11
189.7642836858999
 21
176.9498646432999
 31
0.0
  0
LINE
  5
2AD
330
2
100
AcDbEntity
  8
0
 62
     3
100
AcDbLine
 10
190.2141299072999
 20
174.4492010679999
 30
0.0
 11
190.2726361070999
 21
177.4584742872
 31
0.0
  0
LINE
  5
2AE
330
2
100
AcDbEntity
  8
0
 62
     3
100
AcDbLine
 10
189.7643101910998
 20
176.9500506833999
 30
0.0
 11
190.2141302011999
 21
174.4491664432
 31
0.0
  0
LINE
  5
2AF
330
2
100
AcDbEntity
  8
0
100
AcDbLine
 10
210.0
 20
297.0
 30
0.0
 11
0.0
 21
297.0
 31
0.0
  0
TEXT
  5
2F3
330
2
100
AcDbEntity
  8
0
 62
     7
100
AcDbText
 10
108.0
 20
115.0000029552499
 30
0.0
 40
2.999994089499998
  1
AS6M-2#Y1P
 11
108.0
 21
116.5
 31
0.0
100
AcDbText
 73
     2
  0
TEXT
  5
2FB
330
2
100
AcDbEntity
  8
0
 62
     7
100
AcDbText
 10
108.0
 20
110.0000029552498
 30
0.0
 40
2.999994089499998
  1
AS6M-2#Y1
 11
108.0
 21
111.4999999999999
 31
0.0
100
AcDbText
 73
     2
  0
TEXT
  5
309
330
2
100
AcDbEntity
  8
0
 62
     7
100
AcDbText
 10
108.0
 20
105.0000029552498
 30
0.0
 40
2.999994089499998
  1
AS6M-2#Y2P
 11
108.0
 21
106.4999999999999
 31
0.0
100
AcDbText
 73
     2
  0
TEXT
  5
30A
330
2
100
AcDbEntity
  8
0
 62
     7
100
AcDbText
 10
108.0
 20
100.0000029552498
 30
0.0
 40
2.999994089499998
  1
AS6M-2#Y2
 11
108.0
 21
101.4999999999999
 31
0.0
100
AcDbText
 73
     2
  0
TEXT
  5
30B
330
2
100
AcDbEntity
  8
0
 62
     7
100
AcDbText
 10
146.0
 20
100.0000029552498
 30
0.0
 40
2.999994089499998
  1
AS6M-3#Y2
 11
146.0
 21
101.4999999999999
 31
0.0
100
AcDbText
 73
     2
  0
TEXT
  5
30C
330
2
100
AcDbEntity
  8
0
 62
     7
100
AcDbText
 10
146.0
 20
105.0000029552498
 30
0.0
 40
2.999994089499998
  1
AS6M-3#Y2P
 11
146.0
 21
106.4999999999999
 31
0.0
100
AcDbText
 73
     2
  0
ENDSEC
  0
SECTION
  2
OBJECTS
  0
DICTIONARY
  5
7
330
0
100
AcDbDictionary
281
     1
  3
ACAD_GROUP
350
1F
  3
ACAD_LAYOUT
350
B
  3
ACAD_MLINESTYLE
350
20
  3
ACAD_PLOTSETTINGS
350
21
  3
ACAD_PLOTSTYLENAME
350
6
  3
AcDbVariableDictionary
350
30D
  3
ASE_INDEX_DICTIONARY
350
316
  0
DICTIONARY
  5
1F
102
{ACAD_REACTORS
330
7
102
}
330
7
100
AcDbDictionary
281
     1
  0
DICTIONARY
  5
B
102
{ACAD_REACTORS
330
7
102
}
330
7
100
AcDbDictionary
281
     1
  3
Model
350
A
  3
ﾚｲｱｳﾄ1
350
F
  0
DICTIONARY
  5
20
102
{ACAD_REACTORS
330
7
102
}
330
7
100
AcDbDictionary
281
     1
  3
Standard
350
22
  0
DICTIONARY
  5
21
102
{ACAD_REACTORS
330
7
102
}
330
7
100
AcDbDictionary
281
     1
  0
ACDBDICTIONARYWDFLT
  5
6
102
{ACAD_REACTORS
330
7
102
}
330
7
100
AcDbDictionary
281
     1
  3
Normal
350
5
100
AcDbDictionaryWithDefault
340
5
  0
DICTIONARY
  5
30D
102
{ACAD_REACTORS
330
7
102
}
330
7
100
AcDbDictionary
281
     1
  3
DIMASSOC
350
30E
  0
DICTIONARY
  5
316
102
{ACAD_REACTORS
330
7
102
}
330
7
100
AcDbDictionary
281
     1
  3
ASEBlockHierarchyIndexRecord
350
318
1001
DCO15
1040
1518870454.703
  0
LAYOUT
  5
A
102
{ACAD_REACTORS
330
B
102
}
330
B
100
AcDbPlotSettings
  1

  2
C:\Program Files\AutoCAD 2000i\plotters\DWF Classic.pc3
  4

  6

 40
0.0
 41
0.0
 42
0.0
 43
0.0
 44
0.0
 45
0.0
 46
0.0
 47
0.0
 48
0.0
 49
0.0
140
0.0
141
0.0
142
1.0
143
1.0
 70
  1712
 72
     0
 73
     0
 74
     0
  7

 75
     0
147
1.0
148
0.0
149
0.0
100
AcDbLayout
  1
Model
 70
     1
 71
     0
 10
0.0
 20
0.0
 11
12.0
 21
9.0
 12
0.0
 22
0.0
 32
0.0
 14
0.0
 24
0.0
 34
0.0
 15
0.0
 25
0.0
 35
0.0
146
0.0
 13
0.0
 23
0.0
 33
0.0
 16
1.0
 26
0.0
 36
0.0
 17
0.0
 27
1.0
 37
0.0
 76
     0
330
2
  0
LAYOUT
  5
F
102
{ACAD_REACTORS
330
B
102
}
330
B
100
AcDbPlotSettings
  1

  2
C:\Program Files\AutoCAD 2000i\plotters\DWF Classic.pc3
  4

  6

 40
0.0
 41
0.0
 42
0.0
 43
0.0
 44
0.0
 45
0.0
 46
0.0
 47
0.0
 48
0.0
 49
0.0
140
0.0
141
0.0
142
1.0
143
1.0
 70
   688
 72
     0
 73
     0
 74
     5
  7

 75
    16
147
1.0
148
0.0
149
0.0
100
AcDbLayout
  1
ﾚｲｱｳﾄ1
 70
     1
 71
     1
 10
0.0
 20
0.0
 11
12.0
 21
9.0
 12
0.0
 22
0.0
 32
0.0
 14
1.000000000000000E+20
 24
1.000000000000000E+20
 34
1.000000000000000E+20
 15
-1.000000000000000E+20
 25
-1.000000000000000E+20
 35
-1.000000000000000E+20
146
0.0
 13
0.0
 23
0.0
 33
0.0
 16
1.0
 26
0.0
 36
0.0
 17
0.0
 27
1.0
 37
0.0
 76
     0
330
C
  0
MLINESTYLE
  5
22
102
{ACAD_REACTORS
330
20
102
}
330
20
100
AcDbMlineStyle
  2
STANDARD
 70
     0
  3

 62
   256
 51
90.0
 52
90.0
 71
     2
 49
0.5
 62
   256
  6
BYLAYER
 49
-0.5
 62
   256
  6
BYLAYER
  0
ACDBPLACEHOLDER
  5
5
102
{ACAD_REACTORS
330
6
102
}
330
6
  0
DICTIONARYVAR
  5
30E
102
{ACAD_REACTORS
330
30D
102
}
330
30D
100
DictionaryVariables
280
     0
  1
1
  0
XRECORD
  5
318
102
{ACAD_REACTORS
330
316
102
}
330
316
100
AcDbXrecord
280
     1
  0
ENDSEC
  0
EOF
