  0
SECTION
  2
HEADER
  9
$ACADVER
  1
AC1015
  9
$ACADMAINTVER
 70
    13
  9
$DWGCODEPAGE
  3
ANSI_932
  9
$INSBASE
 10
0.0
 20
0.0
 30
0.0
  9
$EXTMIN
 10
-0.0140589148071513
 20
-0.0006861695501357
 30
-0.0000000000112498
  9
$EXTMAX
 10
210.0172611458603
 20
297.0014252377497
 30
0.0000000000002956
  9
$LIMMIN
 10
-187.0700805663999
 20
-3.174999999999998
  9
$LIMMAX
 10
3.174999999999998
 20
291.2585876465
  9
$ORTHOMODE
 70
     0
  9
$REGENMODE
 70
     1
  9
$FILLMODE
 70
     1
  9
$QTEXTMODE
 70
     0
  9
$MIRRTEXT
 70
     0
  9
$LTSCALE
 40
1.0
  9
$ATTMODE
 70
     1
  9
$TEXTSIZE
 40
2.999994039499997
  9
$TRACEWID
 40
0.05
  9
$TEXTSTYLE
  7
STANDARD
  9
$CLAYER
  8
0
  9
$CELTYPE
  6
ByLayer
  9
$CECOLOR
 62
   256
  9
$CELTSCALE
 40
1.0
  9
$DISPSILH
 70
     0
  9
$DIMSCALE
 40
1.0
  9
$DIMASZ
 40
1.9727878465
  9
$DIMEXO
 40
2.539999961899999
  9
$DIMDLI
 40
0.38
  9
$DIMRND
 40
0.0
  9
$DIMDLE
 40
0.0
  9
$DIMEXE
 40
3.809999942799997
  9
$DIMTP
 40
0.0
  9
$DIMTM
 40
0.0
  9
$DIMTXT
 40
2.999994039499997
  9
$DIMCEN
 40
0.09
  9
$DIMTSZ
 40
0.0
  9
$DIMTOL
 70
     0
  9
$DIMLIM
 70
     0
  9
$DIMTIH
 70
     0
  9
$DIMTOH
 70
     1
  9
$DIMSE1
 70
     0
  9
$DIMSE2
 70
     0
  9
$DIMTAD
 70
     0
  9
$DIMZIN
 70
     0
  9
$DIMBLK
  1

  9
$DIMASO
 70
     1
  9
$DIMSHO
 70
     0
  9
$DIMPOST
  1

  9
$DIMAPOST
  1

  9
$DIMALT
 70
     0
  9
$DIMALTD
 70
     2
  9
$DIMALTF
 40
25.4
  9
$DIMLFAC
 40
1.0
  9
$DIMTOFL
 70
     0
  9
$DIMTVP
 40
0.0
  9
$DIMTIX
 70
     0
  9
$DIMSOXD
 70
     0
  9
$DIMSAH
 70
     0
  9
$DIMBLK1
  1

  9
$DIMBLK2
  1

  9
$DIMSTYLE
  2
Standard
  9
$DIMCLRD
 70
     0
  9
$DIMCLRE
 70
     0
  9
$DIMCLRT
 70
     0
  9
$DIMTFAC
 40
1.0
  9
$DIMGAP
 40
0.09
  9
$DIMJUST
 70
     0
  9
$DIMSD1
 70
     0
  9
$DIMSD2
 70
     0
  9
$DIMTOLJ
 70
     1
  9
$DIMTZIN
 70
     0
  9
$DIMALTZ
 70
     0
  9
$DIMALTTZ
 70
     0
  9
$DIMUPT
 70
     0
  9
$DIMDEC
 70
     4
  9
$DIMTDEC
 70
     4
  9
$DIMALTU
 70
     2
  9
$DIMALTTD
 70
     2
  9
$DIMTXSTY
  7
STANDARD
  9
$DIMAUNIT
 70
     0
  9
$DIMADEC
 70
     0
  9
$DIMALTRND
 40
0.0
  9
$DIMAZIN
 70
     0
  9
$DIMDSEP
 70
    46
  9
$DIMATFIT
 70
     3
  9
$DIMFRAC
 70
     0
  9
$DIMLDRBLK
  1

  9
$DIMLUNIT
 70
     2
  9
$DIMLWD
 70
    -2
  9
$DIMLWE
 70
    -2
  9
$DIMTMOVE
 70
     0
  9
$LUNITS
 70
     2
  9
$LUPREC
 70
     3
  9
$SKETCHINC
 40
0.1
  9
$FILLETRAD
 40
0.0625
  9
$AUNITS
 70
     0
  9
$AUPREC
 70
     0
  9
$MENU
  1
ACAD
  9
$ELEVATION
 40
0.0
  9
$PELEVATION
 40
0.0
  9
$THICKNESS
 40
0.0
  9
$LIMCHECK
 70
     0
  9
$CHAMFERA
 40
0.0
  9
$CHAMFERB
 40
0.0
  9
$CHAMFERC
 40
0.0
  9
$CHAMFERD
 40
0.0
  9
$SKPOLY
 70
     0
  9
$TDCREATE
 40
2452272.496157407
  9
$TDUCREATE
 40
2452272.121157407
  9
$TDUPDATE
 40
2453382.729163946
  9
$TDUUPDATE
 40
2453382.354163946
  9
$TDINDWG
 40
0.0034968171
  9
$TDUSRTIMER
 40
0.0034968171
  9
$USRTIMER
 70
     1
  9
$ANGBASE
 50
0.0
  9
$ANGDIR
 70
     0
  9
$PDMODE
 70
     0
  9
$PDSIZE
 40
0.0
  9
$PLINEWID
 40
0.0
  9
$SPLFRAME
 70
     0
  9
$SPLINETYPE
 70
     6
  9
$SPLINESEGS
 70
     8
  9
$HANDSEED
  5
37F
  9
$SURFTAB1
 70
     6
  9
$SURFTAB2
 70
     6
  9
$SURFTYPE
 70
     6
  9
$SURFU
 70
     6
  9
$SURFV
 70
     6
  9
$UCSBASE
  2

  9
$UCSNAME
  2

  9
$UCSORG
 10
0.0
 20
0.0
 30
0.0
  9
$UCSXDIR
 10
1.0
 20
0.0
 30
0.0
  9
$UCSYDIR
 10
0.0
 20
1.0
 30
0.0
  9
$UCSORTHOREF
  2

  9
$UCSORTHOVIEW
 70
     0
  9
$UCSORGTOP
 10
0.0
 20
0.0
 30
0.0
  9
$UCSORGBOTTOM
 10
0.0
 20
0.0
 30
0.0
  9
$UCSORGLEFT
 10
0.0
 20
0.0
 30
0.0
  9
$UCSORGRIGHT
 10
0.0
 20
0.0
 30
0.0
  9
$UCSORGFRONT
 10
0.0
 20
0.0
 30
0.0
  9
$UCSORGBACK
 10
0.0
 20
0.0
 30
0.0
  9
$PUCSBASE
  2

  9
$PUCSNAME
  2

  9
$PUCSORG
 10
0.0
 20
0.0
 30
0.0
  9
$PUCSXDIR
 10
1.0
 20
0.0
 30
0.0
  9
$PUCSYDIR
 10
0.0
 20
1.0
 30
0.0
  9
$PUCSORTHOREF
  2

  9
$PUCSORTHOVIEW
 70
     0
  9
$PUCSORGTOP
 10
0.0
 20
0.0
 30
0.0
  9
$PUCSORGBOTTOM
 10
0.0
 20
0.0
 30
0.0
  9
$PUCSORGLEFT
 10
0.0
 20
0.0
 30
0.0
  9
$PUCSORGRIGHT
 10
0.0
 20
0.0
 30
0.0
  9
$PUCSORGFRONT
 10
0.0
 20
0.0
 30
0.0
  9
$PUCSORGBACK
 10
0.0
 20
0.0
 30
0.0
  9
$USERI1
 70
     9
  9
$USERI2
 70
     0
  9
$USERI3
 70
     0
  9
$USERI4
 70
     0
  9
$USERI5
 70
     0
  9
$USERR1
 40
0.0
  9
$USERR2
 40
0.0
  9
$USERR3
 40
0.0
  9
$USERR4
 40
0.0
  9
$USERR5
 40
0.0
  9
$WORLDVIEW
 70
     1
  9
$SHADEDGE
 70
     3
  9
$SHADEDIF
 70
    70
  9
$TILEMODE
 70
     1
  9
$MAXACTVP
 70
    64
  9
$PINSBASE
 10
0.0
 20
0.0
 30
0.0
  9
$PLIMCHECK
 70
     0
  9
$PEXTMIN
 10
1.000000000000000E+20
 20
1.000000000000000E+20
 30
1.000000000000000E+20
  9
$PEXTMAX
 10
-1.000000000000000E+20
 20
-1.000000000000000E+20
 30
-1.000000000000000E+20
  9
$PLIMMIN
 10
0.0
 20
0.0
  9
$PLIMMAX
 10
12.0
 20
9.0
  9
$UNITMODE
 70
     0
  9
$VISRETAIN
 70
     1
  9
$PLINEGEN
 70
     0
  9
$PSLTSCALE
 70
     1
  9
$TREEDEPTH
 70
  3020
  9
$CMLSTYLE
  2
Standard
  9
$CMLJUST
 70
     0
  9
$CMLSCALE
 40
1.0
  9
$PROXYGRAPHICS
 70
     1
  9
$MEASUREMENT
 70
     0
  9
$CELWEIGHT
370
    -1
  9
$ENDCAPS
280
     0
  9
$JOINSTYLE
280
     0
  9
$LWDISPLAY
290
     0
  9
$INSUNITS
 70
     0
  9
$HYPERLINKBASE
  1

  9
$STYLESHEET
  1

  9
$XEDIT
290
     1
  9
$CEPSNTYPE
380
     0
  9
$PSTYLEMODE
290
     1
  9
$FINGERPRINTGUID
  2
{F80E0538-5671-4089-A096-F1B138F19C9F}
  9
$VERSIONGUID
  2
{B2A9BC40-142F-45C0-97AA-1F659F248198}
  9
$EXTNAMES
290
     1
  9
$PSVPSCALE
 40
0.0
  9
$OLESTARTUP
290
     0
  0
ENDSEC
  0
SECTION
  2
CLASSES
  0
CLASS
  1
ACDBDICTIONARYWDFLT
  2
AcDbDictionaryWithDefault
  3
AutoCAD 2000
 90
        0
280
     0
281
     0
  0
CLASS
  1
ACDBPLACEHOLDER
  2
AcDbPlaceHolder
  3
AutoCAD 2000
 90
        0
280
     0
281
     0
  0
CLASS
  1
LAYOUT
  2
AcDbLayout
  3
AutoCAD 2000
 90
        0
280
     0
281
     0
  0
CLASS
  1
DICTIONARYVAR
  2
AcDbDictionaryVar
  3
AutoCAD 2000
 90
        0
280
     0
281
     0
  0
ENDSEC
  0
SECTION
  2
TABLES
  0
TABLE
  2
VPORT
  5
19
330
0
100
AcDbSymbolTable
 70
     2
  0
VPORT
  5
37E
330
19
100
AcDbSymbolTableRecord
100
AcDbViewportTableRecord
  2
*Active
 70
     0
 10
0.0
 20
0.0
 11
1.0
 21
1.0
 12
105.0016011155265
 22
148.5003695340997
 13
0.0
 23
0.0
 14
1.0
 24
1.0
 15
0.0
 25
0.0
 16
0.0
 26
0.0
 36
1.0
 17
0.0
 27
0.0
 37
0.0
 40
301.3379086541217
 41
2.407317073170731
 42
50.0
 43
0.0
 44
0.0
 50
0.0
 51
0.0
 71
     0
 72
   100
 73
     1
 74
     1
 75
     0
 76
     0
 77
     0
 78
     0
281
     0
 65
     1
110
0.0
120
0.0
130
0.0
111
1.0
121
0.0
131
0.0
112
0.0
122
1.0
132
0.0
 79
     0
146
0.0
  0
ENDTAB
  0
TABLE
  2
LTYPE
  5
14
330
0
100
AcDbSymbolTable
 70
     2
  0
LTYPE
  5
15
330
14
100
AcDbSymbolTableRecord
100
AcDbLinetypeTableRecord
  2
ByBlock
 70
     0
  3

 72
    65
 73
     0
 40
0.0
  0
LTYPE
  5
16
330
14
100
AcDbSymbolTableRecord
100
AcDbLinetypeTableRecord
  2
ByLayer
 70
     0
  3

 72
    65
 73
     0
 40
0.0
  0
LTYPE
  5
8
330
14
100
AcDbSymbolTableRecord
100
AcDbLinetypeTableRecord
  2
Continuous
 70
     0
  3
Solid line
 72
    65
 73
     0
 40
0.0
  0
LTYPE
  5
33
330
14
100
AcDbSymbolTableRecord
100
AcDbLinetypeTableRecord
  2
CENTER
 70
     0
  3
Center
 72
    65
 73
     4
 40
9.100006759199999
 49
6.5000119209
 74
     0
 49
-0.7999984026000001
 74
     0
 49
0.9999980329999999
 74
     0
 49
-0.7999984026000001
 74
     0
  0
ENDTAB
  0
TABLE
  2
LAYER
  5
10
330
0
100
AcDbSymbolTable
 70
     1
  0
LAYER
  5
4
330
10
100
AcDbSymbolTableRecord
100
AcDbLayerTableRecord
  2
0
 70
     0
 62
     7
  6
Continuous
370
    -3
390
5
  0
ENDTAB
  0
TABLE
  2
STYLE
  5
11
330
0
100
AcDbSymbolTable
 70
     1
  0
STYLE
  5
12
330
11
100
AcDbSymbolTableRecord
100
AcDbTextStyleTableRecord
  2
STANDARD
 70
     0
 40
0.0
 41
1.0
 50
0.0
 71
     0
 42
2.999994039499997
  3
romans.shx
  4
bigfont.shx
  0
ENDTAB
  0
TABLE
  2
VIEW
  5
17
330
0
100
AcDbSymbolTable
 70
     0
  0
ENDTAB
  0
TABLE
  2
UCS
  5
18
330
0
100
AcDbSymbolTable
 70
     0
  0
ENDTAB
  0
TABLE
  2
APPID
  5
1B
330
0
100
AcDbSymbolTable
 70
     2
  0
APPID
  5
1C
330
1B
100
AcDbSymbolTableRecord
100
AcDbRegAppTableRecord
  2
ACAD
 70
     0
  0
APPID
  5
37C
330
1B
100
AcDbSymbolTableRecord
100
AcDbRegAppTableRecord
  2
DCO15
 70
     0
  0
ENDTAB
  0
TABLE
  2
DIMSTYLE
  5
1D
330
0
100
AcDbSymbolTable
 70
     1
100
AcDbDimStyleTable
 71
     0
  0
DIMSTYLE
105
23
330
1D
100
AcDbSymbolTableRecord
100
AcDbDimStyleTableRecord
  2
Standard
 70
     0
340
12
  0
ENDTAB
  0
TABLE
  2
BLOCK_RECORD
  5
1
330
0
100
AcDbSymbolTable
 70
     0
  0
BLOCK_RECORD
  5
2
330
1
100
AcDbSymbolTableRecord
100
AcDbBlockTableRecord
  2
*Model_Space
340
A
  0
BLOCK_RECORD
  5
C
330
1
100
AcDbSymbolTableRecord
100
AcDbBlockTableRecord
  2
*Paper_Space
340
F
  0
ENDTAB
  0
ENDSEC
  0
SECTION
  2
BLOCKS
  0
BLOCK
  5
3
330
2
100
AcDbEntity
  8
0
100
AcDbBlockBegin
  2
*Model_Space
 70
     2
 10
0.0
 20
0.0
 30
0.0
  3
*Model_Space
  1

  0
ENDBLK
  5
9
330
2
100
AcDbEntity
  8
0
100
AcDbBlockEnd
  0
BLOCK
  5
D
330
C
100
AcDbEntity
 67
     1
  8
0
100
AcDbBlockBegin
  2
*Paper_Space
 70
     0
 10
0.0
 20
0.0
 30
0.0
  3
*Paper_Space
  1

  0
ENDBLK
  5
E
330
C
100
AcDbEntity
 67
     1
  8
0
100
AcDbBlockEnd
  0
ENDSEC
  0
SECTION
  2
ENTITIES
  0
LINE
  5
24
330
2
100
AcDbEntity
  8
0
100
AcDbLine
 10
210.0
 20
0.0
 30
0.0
 11
210.0
 21
297.0
 31
0.0
  0
LINE
  5
25
330
2
100
AcDbEntity
  8
0
100
AcDbLine
 10
0.0
 20
297.0
 30
0.0
 11
0.0
 21
0.0
 31
0.0
  0
ARC
  5
26
330
2
100
AcDbEntity
  8
0
 62
     3
100
AcDbCircle
 10
149.8176828069999
 20
227.9799499510999
 30
0.0
 40
25.2074737549
100
AcDbArc
 50
258.6233816968999
 51
281.3767089166999
  0
ARC
  5
27
330
2
100
AcDbEntity
  8
0
 62
     3
100
AcDbCircle
 10
149.8176828069999
 20
190.9451904297
 30
0.0
 40
23.8480834961
100
AcDbArc
 50
79.6626819504
 51
100.3372820774
  0
ARC
  5
28
330
2
100
AcDbEntity
  8
0
 62
     3
100
AcDbCircle
 10
149.8176828069999
 20
227.3276519775
 30
0.0
 40
23.8480834961
100
AcDbArc
 50
259.6627179226
 51
280.3373180496
  0
ARC
  5
29
330
2
100
AcDbEntity
  8
0
 62
     3
100
AcDbCircle
 10
149.8176828069999
 20
190.2928924559999
 30
0.0
 40
25.2074737549
100
AcDbArc
 50
78.6232910833
 51
101.3766183030998
  0
ARC
  5
2A
330
2
100
AcDbEntity
  8
0
 62
     3
100
AcDbCircle
 10
149.8176828069999
 20
226.7071533203
 30
0.0
 40
25.2074737549
100
AcDbArc
 50
258.6233816968999
 51
281.3767089166999
  0
ARC
  5
2B
330
2
100
AcDbEntity
  8
0
 62
     3
100
AcDbCircle
 10
149.8176828069999
 20
149.0200500487999
 30
0.0
 40
25.2074737549
100
AcDbArc
 50
78.6232910833
 51
101.3766183030998
  0
ARC
  5
2C
330
2
100
AcDbEntity
  8
0
 62
     3
100
AcDbCircle
 10
149.8176828069999
 20
186.0548095703
 30
0.0
 40
23.8480834961
100
AcDbArc
 50
259.6627179226
 51
280.3373180496
  0
ARC
  5
2D
330
2
100
AcDbEntity
  8
0
 62
     3
100
AcDbCircle
 10
149.8176828069999
 20
149.6723480224
 30
0.0
 40
23.8480834961
100
AcDbArc
 50
79.6626819504
 51
100.3372820774
  0
ARC
  5
2E
330
2
100
AcDbEntity
  8
0
 62
     3
100
AcDbCircle
 10
149.8176828069999
 20
186.7071075438999
 30
0.0
 40
25.2074737549
100
AcDbArc
 50
258.6233816968999
 51
281.3767089166999
  0
ARC
  5
2F
330
2
100
AcDbEntity
  8
0
 62
     3
100
AcDbCircle
 10
149.8176828069999
 20
150.2928314208999
 30
0.0
 40
25.2074737549
100
AcDbArc
 50
78.6232910833
 51
101.3766183030998
  0
TEXT
  5
30
330
2
100
AcDbEntity
  8
0
 62
     5
100
AcDbText
 10
145.0
 20
10.0
 30
0.0
 40
5.0
  1
ＭＡ４－Ｈ００７３３Ｂ
 41
0.8443967743953097
 72
     5
 11
199.0413935612998
 21
10.0
 31
0.0
100
AcDbText
  0
LINE
  5
31
330
2
100
AcDbEntity
  8
0
100
AcDbLine
 10
0.0
 20
0.0
 30
0.0
 11
210.0
 21
0.0
 31
0.0
  0
LINE
  5
32
330
2
100
AcDbEntity
  8
0
  6
CENTER
 62
     3
100
AcDbLine
 10
98.760462348
 20
168.5
 30
0.0
 11
159.3176828069999
 21
168.5
 31
0.0
  0
LINE
  5
34
330
2
100
AcDbEntity
  8
0
  6
CENTER
 62
     3
100
AcDbLine
 10
99.83202606870001
 20
208.4999999999999
 30
0.0
 11
159.3176828069999
 21
208.4999999999999
 31
0.0
  0
LINE
  5
35
330
2
100
AcDbEntity
  8
0
  6
CENTER
 62
     3
100
AcDbLine
 10
58.1168924017
 20
168.5
 30
0.0
 11
87.11687714289999
 21
168.5
 31
0.0
  0
LINE
  5
36
330
2
100
AcDbEntity
  8
0
 62
     3
100
AcDbLine
 10
83.61687714289997
 20
168.0
 30
0.0
 11
83.61687714289997
 21
160.5000457762999
 31
0.0
  0
LINE
  5
37
330
2
100
AcDbEntity
  8
0
 62
     3
100
AcDbLine
 10
84.61687714289999
 20
177.1999359131
 30
0.0
 11
84.61687714289999
 21
159.8000793456999
 31
0.0
  0
ARC
  5
38
330
2
100
AcDbEntity
  8
0
 62
     3
100
AcDbCircle
 10
68.90877777769998
 20
163.5002288818
 30
0.0
 40
6.6081047058
100
AcDbArc
 50
347.7685894419
 51
12.23099050149996
  0
ARC
  5
39
330
2
100
AcDbEntity
  8
0
 62
     3
100
AcDbCircle
 10
82.32497650819999
 20
163.5002288818
 30
0.0
 40
6.6081047058
100
AcDbArc
 50
167.7689530357999
 51
192.2313575105
  0
LINE
  5
3A
330
2
100
AcDbEntity
  8
0
 62
     3
100
AcDbLine
 10
75.8668924017
 20
164.9001617430998
 30
0.0
 11
75.8668924017
 21
162.1002349853
 31
0.0
  0
LINE
  5
3B
330
2
100
AcDbEntity
  8
0
 62
     3
100
AcDbLine
 10
75.3668924017
 20
164.9001617430998
 30
0.0
 11
75.3668924017
 21
162.1002349853
 31
0.0
  0
LINE
  5
3C
330
2
100
AcDbEntity
  8
0
 62
     3
100
AcDbLine
 10
81.6168771429
 20
177.4999084472
 30
0.0
 11
81.6168771429
 21
159.5000457762999
 31
0.0
  0
LINE
  5
3D
330
2
100
AcDbEntity
  8
0
 62
     3
100
AcDbLine
 10
74.31695038509996
 20
162.9998168945
 30
0.0
 11
74.31695038509996
 21
162.0189819335999
 31
0.0
  0
ARC
  5
3E
330
2
100
AcDbEntity
  8
0
 62
     3
100
AcDbCircle
 10
63.40877777769996
 20
163.5002288818
 30
0.0
 40
6.6081047058
100
AcDbArc
 50
347.7685894419
 51
12.23099050149996
  0
LINE
  5
3F
330
2
100
AcDbEntity
  8
0
 62
     3
100
AcDbLine
 10
70.9169412299
 20
162.9998168945
 30
0.0
 11
70.9169412299
 21
162.0189819335999
 31
0.0
  0
ARC
  5
40
330
2
100
AcDbEntity
  8
0
 62
     3
100
AcDbCircle
 10
76.8249765082
 20
163.5002288818
 30
0.0
 40
6.6081047058
100
AcDbArc
 50
167.7689530357999
 51
192.2313575105
  0
LINE
  5
41
330
2
100
AcDbEntity
  8
0
 62
     3
100
AcDbLine
 10
70.3668924017
 20
164.9001617430998
 30
0.0
 11
70.3668924017
 21
162.1002349853
 31
0.0
  0
LINE
  5
42
330
2
100
AcDbEntity
  8
0
 62
     3
100
AcDbLine
 10
69.8668924017
 20
164.9001617430998
 30
0.0
 11
69.8668924017
 21
162.1002349853
 31
0.0
  0
LINE
  5
43
330
2
100
AcDbEntity
  8
0
 62
     3
100
AcDbLine
 10
63.61687714289999
 20
177.4999084472
 30
0.0
 11
63.61687714289999
 21
159.5000457762999
 31
0.0
  0
LINE
  5
44
330
2
100
AcDbEntity
  8
0
 62
     3
100
AcDbLine
 10
61.6168924017
 20
168.0
 30
0.0
 11
61.6168924017
 21
160.5000457762999
 31
0.0
  0
LINE
  5
45
330
2
100
AcDbEntity
  8
0
 62
     3
100
AcDbLine
 10
60.6168924017
 20
177.200012207
 30
0.0
 11
60.6168924017
 21
159.8000030517
 31
0.0
  0
LINE
  5
46
330
2
100
AcDbEntity
  8
0
  6
CENTER
 62
     3
100
AcDbLine
 10
72.61687714289998
 20
157.2499694823999
 30
0.0
 11
72.61687714289998
 21
179.7499694824
 31
0.0
  0
CIRCLE
  5
47
330
2
100
AcDbEntity
  8
0
 62
     3
100
AcDbCircle
 10
72.61687714289998
 20
168.5
 30
0.0
 40
9.0
  0
CIRCLE
  5
48
330
2
100
AcDbEntity
  8
0
 62
     3
100
AcDbCircle
 10
72.61687714289998
 20
168.5
 30
0.0
 40
8.0
  0
CIRCLE
  5
49
330
2
100
AcDbEntity
  8
0
 62
     3
100
AcDbCircle
 10
72.61687714289998
 20
168.5
 30
0.0
 40
7.399999618499996
  0
LINE
  5
4A
330
2
100
AcDbEntity
  8
0
 62
     3
100
AcDbLine
 10
53.11664826109997
 20
168.0001068114999
 30
0.0
 11
53.11664826109997
 21
160.5001525879
 31
0.0
  0
LINE
  5
4B
330
2
100
AcDbEntity
  8
0
 62
     3
100
AcDbLine
 10
54.11664826109998
 20
177.2000427245998
 30
0.0
 11
54.11664826109998
 21
159.8001861571999
 31
0.0
  0
LINE
  5
4C
330
2
100
AcDbEntity
  8
0
 62
     3
100
AcDbLine
 10
51.11664826109997
 20
177.5000152588
 30
0.0
 11
51.11664826109997
 21
159.5001525878999
 31
0.0
  0
LINE
  5
4D
330
2
100
AcDbEntity
  8
0
 62
     3
100
AcDbLine
 10
43.81653839779996
 20
163.0001220702999
 30
0.0
 11
43.81653839779996
 21
162.0192718506
 31
0.0
  0
LINE
  5
4E
330
2
100
AcDbEntity
  8
0
 62
     3
100
AcDbLine
 10
43.81669098569997
 20
162.0193023680998
 30
0.0
 11
43.81669098569997
 21
163.0000152588
 31
0.0
  0
LINE
  5
4F
330
2
100
AcDbEntity
  8
0
 62
     3
100
AcDbLine
 10
43.81658417419996
 20
162.9998016356998
 30
0.0
 11
43.81658417419996
 21
162.0189666747999
 31
0.0
  0
LINE
  5
50
330
2
100
AcDbEntity
  8
0
 62
     3
100
AcDbLine
 10
40.41654450129999
 20
163.0001220702999
 30
0.0
 11
40.41654450129999
 21
162.0193786620999
 31
0.0
  0
LINE
  5
51
330
2
100
AcDbEntity
  8
0
 62
     3
100
AcDbLine
 10
39.86654144959999
 20
164.9001312256
 30
0.0
 11
39.86654144959999
 21
162.1002044676999
 31
0.0
  0
ARC
  5
52
330
2
100
AcDbEntity
  8
0
 62
     3
100
AcDbCircle
 10
46.32464081479997
 20
163.5002136229998
 30
0.0
 40
6.6081047058
100
AcDbArc
 50
167.7689530357999
 51
192.2313575105
  0
LINE
  5
53
330
2
100
AcDbEntity
  8
0
 62
     3
100
AcDbLine
 10
40.41655976009997
 20
163.0000152588
 30
0.0
 11
40.41655976009997
 21
162.0192718506
 31
0.0
  0
LINE
  5
54
330
2
100
AcDbEntity
  8
0
 62
     3
100
AcDbLine
 10
40.41657501889996
 20
162.9998016356998
 30
0.0
 11
40.41657501889996
 21
162.0189666747999
 31
0.0
  0
ARC
  5
55
330
2
100
AcDbEntity
  8
0
 62
     3
100
AcDbCircle
 10
32.90844208429996
 20
163.5002136229998
 30
0.0
 40
6.6081047058
100
AcDbArc
 50
347.7685894419
 51
12.23099050149996
  0
LINE
  5
56
330
2
100
AcDbEntity
  8
0
 62
     3
100
AcDbLine
 10
39.36654144959999
 20
164.9001312256
 30
0.0
 11
39.36654144959999
 21
162.1002044676999
 31
0.0
  0
LINE
  5
57
330
2
100
AcDbEntity
  8
0
 62
     3
100
AcDbLine
 10
33.11664826109998
 20
177.5000152588
 30
0.0
 11
33.11664826109998
 21
159.5001525878999
 31
0.0
  0
LINE
  5
58
330
2
100
AcDbEntity
  8
0
 62
     3
100
AcDbLine
 10
31.11666351989998
 20
168.0001068114999
 30
0.0
 11
31.11666351989998
 21
160.5001525879
 31
0.0
  0
LINE
  5
59
330
2
100
AcDbEntity
  8
0
  6
CENTER
 62
     3
100
AcDbLine
 10
42.11664826109998
 20
157.2501068114999
 30
0.0
 11
42.11664826109998
 21
179.7501068115
 31
0.0
  0
CIRCLE
  5
5A
330
2
100
AcDbEntity
  8
0
 62
     3
100
AcDbCircle
 10
42.11664826109998
 20
168.5001068114999
 30
0.0
 40
9.0
  0
CIRCLE
  5
5B
330
2
100
AcDbEntity
  8
0
 62
     3
100
AcDbCircle
 10
42.11664826109998
 20
168.5001068114999
 30
0.0
 40
8.0
  0
CIRCLE
  5
5C
330
2
100
AcDbEntity
  8
0
 62
     3
100
AcDbCircle
 10
42.11664826109998
 20
168.5001068114999
 30
0.0
 40
7.399999618499996
  0
LINE
  5
5D
330
2
100
AcDbEntity
  8
0
 62
     3
100
AcDbLine
 10
30.11666351989996
 20
177.2001190184999
 30
0.0
 11
30.11666351989996
 21
159.8001098631999
 31
0.0
  0
ARC
  5
5E
330
2
100
AcDbEntity
  8
0
 62
     3
100
AcDbCircle
 10
42.11654144959999
 20
168.5001220703
 30
0.0
 40
6.6999959946
100
AcDbArc
 50
255.3432516499
 51
284.6984757969
  0
LINE
  5
5F
330
2
100
AcDbEntity
  8
0
 62
     3
100
AcDbLine
 10
53.8166604681
 20
159.5001678465999
 30
0.0
 11
30.41660553649998
 21
159.5001678465999
 31
0.0
  0
LINE
  5
60
330
2
100
AcDbEntity
  8
0
 62
     3
100
AcDbLine
 10
33.61672989780001
 20
161.8440041264999
 30
0.0
 11
35.44289641409998
 21
160.0501039545999
 31
0.0
  0
LINE
  5
61
330
2
100
AcDbEntity
  8
0
 62
     3
100
AcDbLine
 10
30.41666387229998
 20
159.5001750352
 30
0.0
 11
30.11666987589999
 21
159.8001687535
 31
0.0
  0
LINE
  5
62
330
2
100
AcDbEntity
  8
0
 62
     3
100
AcDbLine
 10
33.11666351989998
 20
160.5001678465999
 30
0.0
 11
31.11667877869999
 21
160.5001678465999
 31
0.0
  0
LINE
  5
63
330
2
100
AcDbEntity
  8
0
 62
     3
100
AcDbLine
 10
39.36654144959999
 20
162.1002044676999
 30
0.0
 11
39.86654144959999
 21
162.1002044676999
 31
0.0
  0
LINE
  5
64
330
2
100
AcDbEntity
  8
0
 62
     3
100
AcDbLine
 10
39.11666351989998
 20
160.0148162840999
 30
0.0
 11
39.11666351989998
 21
161.0837402342999
 31
0.0
  0
LINE
  5
65
330
2
100
AcDbEntity
  8
0
 62
     3
100
AcDbLine
 10
48.79059693239998
 20
160.0500775074999
 30
0.0
 11
50.61664992299998
 21
161.8439626505999
 31
0.0
  0
LINE
  5
66
330
2
100
AcDbEntity
  8
0
 62
     3
100
AcDbLine
 10
45.11664826109997
 20
160.0148162840999
 30
0.0
 11
45.11664826109997
 21
161.0837402342999
 31
0.0
  0
LINE
  5
67
330
2
100
AcDbEntity
  8
0
 62
     3
100
AcDbLine
 10
53.11666351989998
 20
160.5001678465999
 30
0.0
 11
51.11666351989999
 21
160.5001678465999
 31
0.0
  0
LINE
  5
68
330
2
100
AcDbEntity
  8
0
 62
     3
100
AcDbLine
 10
53.81667067849996
 20
159.5001650818
 30
0.0
 11
54.11667508529999
 21
159.8001699689999
 31
0.0
  0
ARC
  5
69
330
2
100
AcDbEntity
  8
0
 62
     3
100
AcDbCircle
 10
72.61687714289998
 20
168.5001373291
 30
0.0
 40
6.6999959946
100
AcDbArc
 50
255.3432516499
 51
284.6984757969
  0
LINE
  5
6A
330
2
100
AcDbEntity
  8
0
 62
     3
100
AcDbLine
 10
84.31688935
 20
159.5000610351
 30
0.0
 11
60.91683441829999
 21
159.5000610351
 31
0.0
  0
LINE
  5
6B
330
2
100
AcDbEntity
  8
0
 62
     3
100
AcDbLine
 10
63.6168924017
 20
160.5000457762999
 30
0.0
 11
61.61690766049997
 21
160.5000457762999
 31
0.0
  0
LINE
  5
6C
330
2
100
AcDbEntity
  8
0
 62
     3
100
AcDbLine
 10
60.91688095949999
 20
159.5000597005
 30
0.0
 11
60.61688696299999
 21
159.8000534187999
 31
0.0
  0
LINE
  5
6D
330
2
100
AcDbEntity
  8
0
 62
     3
100
AcDbLine
 10
64.11693816959999
 20
161.8438958081
 30
0.0
 11
65.94311557119997
 21
160.0499849432999
 31
0.0
  0
LINE
  5
6E
330
2
100
AcDbEntity
  8
0
 62
     3
100
AcDbLine
 10
69.6168924017
 20
160.0147247313999
 30
0.0
 11
69.6168924017
 21
161.0836486816
 31
0.0
  0
LINE
  5
6F
330
2
100
AcDbEntity
  8
0
 62
     3
100
AcDbLine
 10
69.8668924017
 20
162.1002349853
 30
0.0
 11
70.3668924017
 21
162.1002349853
 31
0.0
  0
LINE
  5
70
330
2
100
AcDbEntity
  8
0
 62
     3
100
AcDbLine
 10
75.3668924017
 20
162.1002349853
 30
0.0
 11
75.8668924017
 21
162.1002349853
 31
0.0
  0
LINE
  5
71
330
2
100
AcDbEntity
  8
0
 62
     3
100
AcDbLine
 10
75.61687714289998
 20
160.0147247313999
 30
0.0
 11
75.61687714289998
 21
161.0836486816
 31
0.0
  0
LINE
  5
72
330
2
100
AcDbEntity
  8
0
 62
     3
100
AcDbLine
 10
83.61689240169999
 20
160.5000457762999
 30
0.0
 11
81.6168924017
 21
160.5000457762999
 31
0.0
  0
LINE
  5
73
330
2
100
AcDbEntity
  8
0
 62
     3
100
AcDbLine
 10
79.29083955670002
 20
160.0499698596999
 30
0.0
 11
81.11689254729999
 21
161.8438550028
 31
0.0
  0
LINE
  5
74
330
2
100
AcDbEntity
  8
0
 62
     3
100
AcDbLine
 10
84.31689855529999
 20
159.5000492413998
 30
0.0
 11
84.61690296199998
 21
159.8000541286
 31
0.0
  0
ARC
  5
75
330
2
100
AcDbEntity
  8
0
 62
     3
100
AcDbCircle
 10
42.11654144959999
 20
168.5001220703
 30
0.0
 40
6.6999959946
100
AcDbArc
 50
72.6320130679
 51
107.3679509599999
  0
LINE
  5
76
330
2
100
AcDbEntity
  8
0
 62
     3
100
AcDbLine
 10
53.8166604681
 20
177.5000152588
 30
0.0
 11
30.4168496771
 21
177.5000152588
 31
0.0
  0
LINE
  5
77
330
2
100
AcDbEntity
  8
0
  6
CENTER
 62
     3
100
AcDbLine
 10
27.61666351989996
 20
168.5001068114999
 30
0.0
 11
56.61664826109998
 21
168.5001068114999
 31
0.0
  0
LINE
  5
78
330
2
100
AcDbEntity
  8
0
 62
     3
100
AcDbLine
 10
35.44287721549997
 20
176.9500518318
 30
0.0
 11
33.61669269129999
 21
175.1561044750999
 31
0.0
  0
LINE
  5
79
330
2
100
AcDbEntity
  8
0
 62
     3
100
AcDbLine
 10
33.63135773379996
 20
171.5000915527
 30
0.0
 11
34.70037323669998
 21
171.5000915527
 31
0.0
  0
LINE
  5
7A
330
2
100
AcDbEntity
  8
0
 62
     3
100
AcDbLine
 10
33.63135773379996
 20
165.5001068115
 30
0.0
 11
34.70037323669998
 21
165.5001068115
 31
0.0
  0
LINE
  5
7B
330
2
100
AcDbEntity
  8
0
 62
     3
100
AcDbLine
 10
31.11666351989998
 20
176.5
 30
0.0
 11
31.11666351989998
 21
169.0001068114999
 31
0.0
  0
LINE
  5
7C
330
2
100
AcDbEntity
  8
0
 62
     3
100
AcDbLine
 10
31.11666351989998
 20
168.0001068114999
 30
0.0
 11
33.13054901789998
 21
168.0001068114999
 31
0.0
  0
LINE
  5
7D
330
2
100
AcDbEntity
  8
0
 62
     3
100
AcDbLine
 10
31.11666351989998
 20
169.0001068114999
 30
0.0
 11
33.13054901789998
 21
169.0001068114999
 31
0.0
  0
LINE
  5
7E
330
2
100
AcDbEntity
  8
0
 62
     3
100
AcDbLine
 10
30.41680996459998
 20
177.4999375495999
 30
0.0
 11
30.11681599339997
 21
177.1999438059999
 31
0.0
  0
LINE
  5
7F
330
2
100
AcDbEntity
  8
0
 62
     3
100
AcDbLine
 10
33.11666351989998
 20
176.5000152588
 30
0.0
 11
31.11667877869999
 21
176.5000152588
 31
0.0
  0
LINE
  5
80
330
2
100
AcDbEntity
  8
0
 62
     3
100
AcDbLine
 10
40.11667071649998
 20
174.1999448732
 30
0.0
 11
40.81664633029999
 21
173.2666440779999
 31
0.0
  0
LINE
  5
81
330
2
100
AcDbEntity
  8
0
 62
     3
100
AcDbLine
 10
39.86654144959999
 20
172.1000823974
 30
0.0
 11
39.86654144959999
 21
174.9000854491999
 31
0.0
  0
ARC
  5
82
330
2
100
AcDbEntity
  8
0
 62
     3
100
AcDbCircle
 10
32.90821320249998
 20
173.5001068115
 30
0.0
 40
6.608330726599997
100
AcDbArc
 50
347.769026574
 51
12.23099050149996
  0
ARC
  5
83
330
2
100
AcDbEntity
  8
0
 62
     3
100
AcDbCircle
 10
46.3248696967
 20
173.5001068115
 30
0.0
 40
6.608330726599997
100
AcDbArc
 50
167.7689530357999
 51
192.2309203783
  0
LINE
  5
84
330
2
100
AcDbEntity
  8
0
 62
     3
100
AcDbLine
 10
39.36654144959999
 20
172.1000823974
 30
0.0
 11
39.36654144959999
 21
174.9000854491999
 31
0.0
  0
LINE
  5
85
330
2
100
AcDbEntity
  8
0
 62
     3
100
AcDbLine
 10
38.61658825339995
 20
174.2000535747999
 30
0.0
 11
37.11658774669999
 21
172.2000539919999
 31
0.0
  0
LINE
  5
86
330
2
100
AcDbEntity
  8
0
 62
     3
100
AcDbLine
 10
37.11673003699996
 20
172.199840275
 30
0.0
 11
38.61672994759999
 21
174.1998403048
 31
0.0
  0
LINE
  5
87
330
2
100
AcDbEntity
  8
0
 62
     3
100
AcDbLine
 10
38.3165907803
 20
163.0001097869
 30
0.0
 11
37.11663309589997
 21
164.8000455398999
 31
0.0
  0
LINE
  5
88
330
2
100
AcDbEntity
  8
0
 62
     3
100
AcDbLine
 10
37.1166389581
 20
164.7998771049
 30
0.0
 11
38.31658487199999
 21
162.9999702253
 31
0.0
  0
LINE
  5
89
330
2
100
AcDbEntity
  8
0
 62
     3
100
AcDbLine
 10
37.91654450129996
 20
173.2667541504
 30
0.0
 11
37.91654450129996
 21
163.6001434325999
 31
0.0
  0
LINE
  5
8A
330
2
100
AcDbEntity
  8
0
 62
     3
100
AcDbLine
 10
35.61666351989998
 20
167.3000793456999
 30
0.0
 11
35.61666351989998
 21
169.7000885008999
 31
0.0
  0
LINE
  5
8B
330
2
100
AcDbEntity
  8
0
 62
     3
100
AcDbLine
 10
36.41665131289997
 20
167.3000793456999
 30
0.0
 11
36.41665131289997
 21
169.7000885008999
 31
0.0
  0
ARC
  5
8C
330
2
100
AcDbEntity
  8
0
 62
     3
100
AcDbCircle
 10
42.11654144959999
 20
168.5
 30
0.0
 40
7.2999992371
100
AcDbArc
 50
159.9727565511
 51
200.0271168631
  0
LINE
  5
8D
330
2
100
AcDbEntity
  8
0
 62
     3
100
AcDbLine
 10
34.7166391058
 20
165.4604034422999
 30
0.0
 11
34.7166391058
 21
171.5398712157999
 31
0.0
  0
LINE
  5
8E
330
2
100
AcDbEntity
  8
0
 62
     3
100
AcDbLine
 10
36.11664337019997
 20
165.9998628142
 30
0.0
 11
36.61658520669999
 21
164.8000006091999
 31
0.0
  0
LINE
  5
8F
330
2
100
AcDbEntity
  8
0
 62
     3
100
AcDbLine
 10
36.61659862619997
 20
164.7999922987
 30
0.0
 11
36.1165977922
 21
165.9999952766999
 31
0.0
  0
LINE
  5
90
330
2
100
AcDbEntity
  8
0
 62
     3
100
AcDbLine
 10
35.61667877869999
 20
167.3000946045
 30
0.0
 11
36.4166665717
 21
167.3000946045
 31
0.0
  0
LINE
  5
91
330
2
100
AcDbEntity
  8
0
 62
     3
100
AcDbLine
 10
35.25802094179997
 20
165.9998779297
 30
0.0
 11
36.11654144959999
 21
165.9998779297
 31
0.0
  0
LINE
  5
92
330
2
100
AcDbEntity
  8
0
 62
     3
100
AcDbLine
 10
35.25797516539997
 20
166.0
 30
0.0
 11
36.11654144959999
 21
166.0
 31
0.0
  0
LINE
  5
93
330
2
100
AcDbEntity
  8
0
 62
     3
100
AcDbLine
 10
36.61655670839996
 20
164.7999725340999
 30
0.0
 11
37.11655670839997
 21
164.7999725340999
 31
0.0
  0
LINE
  5
94
330
2
100
AcDbEntity
  8
0
 62
     3
100
AcDbLine
 10
37.91654450129996
 20
164.8000030517
 30
0.0
 11
36.61654144959999
 21
164.8000030517
 31
0.0
  0
LINE
  5
95
330
2
100
AcDbEntity
  8
0
 62
     3
100
AcDbLine
 10
36.11662276909996
 20
170.9997877938999
 30
0.0
 11
36.61661773429997
 21
172.1997766868
 31
0.0
  0
LINE
  5
96
330
2
100
AcDbEntity
  8
0
 62
     3
100
AcDbLine
 10
36.61655401849995
 20
172.1999303836
 30
0.0
 11
36.11655287459999
 21
170.9999275607
 31
0.0
  0
LINE
  5
97
330
2
100
AcDbEntity
  8
0
 62
     3
100
AcDbLine
 10
35.61667877869999
 20
169.7001037596999
 30
0.0
 11
36.4166665717
 21
169.7001037596999
 31
0.0
  0
LINE
  5
98
330
2
100
AcDbEntity
  8
0
 62
     3
100
AcDbLine
 10
35.257929389
 20
170.9998626708999
 30
0.0
 11
36.11654144959999
 21
170.9998626708999
 31
0.0
  0
LINE
  5
99
330
2
100
AcDbEntity
  8
0
 62
     3
100
AcDbLine
 10
35.25797516539997
 20
171.0
 30
0.0
 11
36.11654144959999
 21
171.0
 31
0.0
  0
LINE
  5
9A
330
2
100
AcDbEntity
  8
0
 62
     3
100
AcDbLine
 10
36.61654144959999
 20
172.1999359131
 30
0.0
 11
37.11654144959999
 21
172.1999359131
 31
0.0
  0
LINE
  5
9B
330
2
100
AcDbEntity
  8
0
 62
     3
100
AcDbLine
 10
37.91654450129996
 20
172.1999969482
 30
0.0
 11
36.61654144959999
 21
172.1999969482
 31
0.0
  0
LINE
  5
9C
330
2
100
AcDbEntity
  8
0
 62
     3
100
AcDbLine
 10
40.81655365659995
 20
173.2667846678999
 30
0.0
 11
40.81655365659995
 21
163.600112915
 31
0.0
  0
LINE
  5
9D
330
2
100
AcDbEntity
  8
0
 62
     3
100
AcDbLine
 10
39.86654144959999
 20
167.1000976562
 30
0.0
 11
39.86654144959999
 21
169.9000854491998
 31
0.0
  0
ARC
  5
9E
330
2
100
AcDbEntity
  8
0
 62
     3
100
AcDbCircle
 10
32.90821320249998
 20
168.5001220703
 30
0.0
 40
6.608330726599997
100
AcDbArc
 50
347.769026574
 51
12.23099050149996
  0
ARC
  5
9F
330
2
100
AcDbEntity
  8
0
 62
     3
100
AcDbCircle
 10
46.3248696967
 20
168.5001220703
 30
0.0
 40
6.608330726599997
100
AcDbArc
 50
167.7689530357999
 51
192.2309203783
  0
LINE
  5
A0
330
2
100
AcDbEntity
  8
0
 62
     3
100
AcDbLine
 10
39.36654144959999
 20
167.1000976562
 30
0.0
 11
39.36654144959999
 21
169.9000854491998
 31
0.0
  0
LINE
  5
A1
330
2
100
AcDbEntity
  8
0
 62
     3
100
AcDbLine
 10
39.91657107389997
 20
162.500158945
 30
0.0
 11
40.01657457429994
 21
163.000174836
 31
0.0
  0
LINE
  5
A2
330
2
100
AcDbEntity
  8
0
 62
     3
100
AcDbLine
 10
39.86654144959999
 20
163.0001525879
 30
0.0
 11
40.41654450129999
 21
163.0001525879
 31
0.0
  0
LINE
  5
A3
330
2
100
AcDbEntity
  8
0
 62
     3
100
AcDbLine
 10
39.86654144959999
 20
162.5001525879
 30
0.0
 11
39.91654450129999
 21
162.5001525879
 31
0.0
  0
LINE
  5
A4
330
2
100
AcDbEntity
  8
0
 62
     3
100
AcDbLine
 10
38.81655365659997
 20
162.5001525879
 30
0.0
 11
39.36654144959999
 21
162.5001525879
 31
0.0
  0
LINE
  5
A5
330
2
100
AcDbEntity
  8
0
 62
     3
100
AcDbLine
 10
38.71657960629996
 20
163.0001021815999
 30
0.0
 11
38.81658011419998
 21
162.5001012530999
 31
0.0
  0
LINE
  5
A6
330
2
100
AcDbEntity
  8
0
 62
     3
100
AcDbLine
 10
38.31655365659997
 20
163.0001525879
 30
0.0
 11
39.36654144959999
 21
163.0001525879
 31
0.0
  0
LINE
  5
A7
330
2
100
AcDbEntity
  8
0
 62
     3
100
AcDbLine
 10
39.36654144959999
 20
167.1000976562
 30
0.0
 11
39.86654144959999
 21
167.1000976562
 31
0.0
  0
LINE
  5
A8
330
2
100
AcDbEntity
  8
0
 62
     3
100
AcDbLine
 10
39.36654144959999
 20
164.9001312256
 30
0.0
 11
39.86654144959999
 21
164.9001312256
 31
0.0
  0
LINE
  5
A9
330
2
100
AcDbEntity
  8
0
 62
     3
100
AcDbLine
 10
40.41654126449995
 20
163.0000710402
 30
0.0
 11
40.81654387259995
 21
163.6000751457
 31
0.0
  0
LINE
  5
AA
330
2
100
AcDbEntity
  8
0
 62
     3
100
AcDbLine
 10
39.36654144959999
 20
172.1000823974
 30
0.0
 11
39.86654144959999
 21
172.1000823974
 31
0.0
  0
LINE
  5
AB
330
2
100
AcDbEntity
  8
0
 62
     3
100
AcDbLine
 10
39.36654144959999
 20
169.9000854491998
 30
0.0
 11
39.86654144959999
 21
169.9000854491998
 31
0.0
  0
LINE
  5
AC
330
2
100
AcDbEntity
  8
0
 62
     3
100
AcDbLine
 10
40.11654144959999
 20
174.2000885009
 30
0.0
 11
39.86654144959999
 21
174.2000885009
 31
0.0
  0
LINE
  5
AD
330
2
100
AcDbEntity
  8
0
 62
     3
100
AcDbLine
 10
39.91658913529997
 20
174.7000837802
 30
0.0
 11
40.01659000789999
 21
174.2000829428998
 31
0.0
  0
LINE
  5
AE
330
2
100
AcDbEntity
  8
0
 62
     3
100
AcDbLine
 10
39.86654144959999
 20
174.7000885009
 30
0.0
 11
39.91654450129999
 21
174.7000885009
 31
0.0
  0
LINE
  5
AF
330
2
100
AcDbEntity
  8
0
 62
     3
100
AcDbLine
 10
39.36654144959999
 20
174.2000885009
 30
0.0
 11
38.61654144959999
 21
174.2000885009
 31
0.0
  0
LINE
  5
B0
330
2
100
AcDbEntity
  8
0
 62
     3
100
AcDbLine
 10
39.11666351989998
 20
175.9162445068
 30
0.0
 11
39.11666351989998
 21
176.9853973388
 31
0.0
  0
LINE
  5
B1
330
2
100
AcDbEntity
  8
0
 62
     3
100
AcDbLine
 10
38.81655365659997
 20
174.7000885009
 30
0.0
 11
39.36654144959999
 21
174.7000885009
 31
0.0
  0
LINE
  5
B2
330
2
100
AcDbEntity
  8
0
 62
     3
100
AcDbLine
 10
38.7165672683
 20
174.2000530376
 30
0.0
 11
38.81656814089996
 21
174.7000538749
 31
0.0
  0
LINE
  5
B3
330
2
100
AcDbEntity
  8
0
 62
     3
100
AcDbLine
 10
39.36654144959999
 20
174.9000854491999
 30
0.0
 11
39.86654144959999
 21
174.9000854491999
 31
0.0
  0
LINE
  5
B4
330
2
100
AcDbEntity
  8
0
 62
     3
100
AcDbLine
 10
40.11655670839997
 20
174.8945159912
 30
0.0
 11
40.11655670839997
 21
174.1999816893999
 31
0.0
  0
LINE
  5
B5
330
2
100
AcDbEntity
  8
0
 62
     3
100
AcDbLine
 10
40.11654144959999
 20
174.1999359131
 30
0.0
 11
40.11654144959999
 21
174.8946380615
 31
0.0
  0
LINE
  5
B6
330
2
100
AcDbEntity
  8
0
 62
     3
100
AcDbLine
 10
50.6166608966
 20
175.1561466966999
 30
0.0
 11
48.79060078329999
 21
176.9500683313999
 31
0.0
  0
ARC
  5
B7
330
2
100
AcDbEntity
  8
0
 62
     3
100
AcDbCircle
 10
42.11654144959999
 20
168.5
 30
0.0
 40
7.2999992371
100
AcDbArc
 50
339.9728300892998
 51
20.02713234470002
  0
LINE
  5
B8
330
2
100
AcDbEntity
  8
0
 62
     3
100
AcDbLine
 10
47.11657630279997
 20
172.2000608757998
 30
0.0
 11
45.61662201949997
 21
174.1999998704
 31
0.0
  0
LINE
  5
B9
330
2
100
AcDbEntity
  8
0
 62
     3
100
AcDbLine
 10
45.36654144959999
 20
163.0001525879
 30
0.0
 11
45.91652924249999
 21
163.0001525879
 31
0.0
  0
LINE
  5
BA
330
2
100
AcDbEntity
  8
0
 62
     3
100
AcDbLine
 10
45.91652924249999
 20
163.0001220702999
 30
0.0
 11
43.81653839779996
 21
163.0001220702999
 31
0.0
  0
LINE
  5
BB
330
2
100
AcDbEntity
  8
0
 62
     3
100
AcDbLine
 10
43.81659943299999
 20
163.0
 30
0.0
 11
45.91657501889996
 21
163.0
 31
0.0
  0
LINE
  5
BC
330
2
100
AcDbEntity
  8
0
 62
     3
100
AcDbLine
 10
45.51653534609997
 20
163.8001098631999
 30
0.0
 11
45.51653534609997
 21
173.2001190184999
 31
0.0
  0
LINE
  5
BD
330
2
100
AcDbEntity
  8
0
 62
     3
100
AcDbLine
 10
43.41652924249999
 20
163.8001098631999
 30
0.0
 11
43.41652924249999
 21
173.2001190184999
 31
0.0
  0
LINE
  5
BE
330
2
100
AcDbEntity
  8
0
 62
     3
100
AcDbLine
 10
45.51653534609997
 20
163.8001098631999
 30
0.0
 11
43.41652924249999
 21
163.8001098631999
 31
0.0
  0
LINE
  5
BF
330
2
100
AcDbEntity
  8
0
 62
     3
100
AcDbLine
 10
43.81653839779996
 20
163.0001525879
 30
0.0
 11
44.86654144959999
 21
163.0001525879
 31
0.0
  0
LINE
  5
C0
330
2
100
AcDbEntity
  8
0
 62
     3
100
AcDbLine
 10
44.51658112239999
 20
163.4999694823999
 30
0.0
 11
44.51658112239999
 21
162.9999694823999
 31
0.0
  0
LINE
  5
C1
330
2
100
AcDbEntity
  8
0
 62
     3
100
AcDbLine
 10
43.81658417419996
 20
163.4999694823999
 30
0.0
 11
44.51658112239999
 21
163.4999694823999
 31
0.0
  0
LINE
  5
C2
330
2
100
AcDbEntity
  8
0
 62
     3
100
AcDbLine
 10
43.81658417419996
 20
162.9999694823999
 30
0.0
 11
43.81658417419996
 21
163.4999694823999
 31
0.0
  0
LINE
  5
C3
330
2
100
AcDbEntity
  8
0
 62
     3
100
AcDbLine
 10
45.51653534609997
 20
173.2001190184999
 30
0.0
 11
43.41652924249999
 21
173.2001190184999
 31
0.0
  0
LINE
  5
C4
330
2
100
AcDbEntity
  8
0
 62
     3
100
AcDbLine
 10
46.31653839779996
 20
163.600112915
 30
0.0
 11
46.31653839779996
 21
173.2667846678999
 31
0.0
  0
LINE
  5
C5
330
2
100
AcDbEntity
  8
0
 62
     3
100
AcDbLine
 10
48.61666351989999
 20
167.3000793456999
 30
0.0
 11
48.61666351989999
 21
169.7000885008999
 31
0.0
  0
LINE
  5
C6
330
2
100
AcDbEntity
  8
0
 62
     3
100
AcDbLine
 10
47.81666046809999
 20
167.3000793456999
 30
0.0
 11
47.81666046809999
 21
169.7000885008999
 31
0.0
  0
LINE
  5
C7
330
2
100
AcDbEntity
  8
0
 62
     3
100
AcDbLine
 10
46.316523139
 20
164.8000030517
 30
0.0
 11
46.316523139
 21
172.1999969482
 31
0.0
  0
LINE
  5
C8
330
2
100
AcDbEntity
  8
0
 62
     3
100
AcDbLine
 10
47.61664057229999
 20
164.7999683165999
 30
0.0
 11
47.11656427839996
 21
164.8000875259
 31
0.0
  0
LINE
  5
C9
330
2
100
AcDbEntity
  8
0
 62
     3
100
AcDbLine
 10
47.61652619079998
 20
164.8000030517
 30
0.0
 11
46.316523139
 21
164.8000030517
 31
0.0
  0
LINE
  5
CA
330
2
100
AcDbEntity
  8
0
 62
     3
100
AcDbLine
 10
45.91654281339995
 20
163.000085517
 30
0.0
 11
47.11654333389995
 21
164.8000843634999
 31
0.0
  0
LINE
  5
CB
330
2
100
AcDbEntity
  8
0
 62
     3
100
AcDbLine
 10
47.81667572689993
 20
167.3000946045
 30
0.0
 11
48.61667877869999
 21
167.3000946045
 31
0.0
  0
LINE
  5
CC
330
2
100
AcDbEntity
  8
0
 62
     3
100
AcDbLine
 10
48.11658477019998
 20
165.9997953144
 30
0.0
 11
47.61661601390001
 21
164.7999278344
 31
0.0
  0
LINE
  5
CD
330
2
100
AcDbEntity
  8
0
 62
     3
100
AcDbLine
 10
48.11655491239998
 20
165.9999314396999
 30
0.0
 11
47.61655422469999
 21
164.7999286268
 31
0.0
  0
LINE
  5
CE
330
2
100
AcDbEntity
  8
0
 62
     3
100
AcDbLine
 10
48.11652619079999
 20
165.9998779297
 30
0.0
 11
48.97506195739999
 21
165.9998779297
 31
0.0
  0
LINE
  5
CF
330
2
100
AcDbEntity
  8
0
 62
     3
100
AcDbLine
 10
48.11652619079999
 20
166.0
 30
0.0
 11
48.97510773379997
 21
166.0
 31
0.0
  0
LINE
  5
D0
330
2
100
AcDbEntity
  8
0
 62
     3
100
AcDbLine
 10
47.11652619079997
 20
172.1999359131
 30
0.0
 11
47.61652619079998
 21
172.1999359131
 31
0.0
  0
LINE
  5
D1
330
2
100
AcDbEntity
  8
0
 62
     3
100
AcDbLine
 10
47.61652619079998
 20
172.1999969482
 30
0.0
 11
46.316523139
 21
172.1999969482
 31
0.0
  0
LINE
  5
D2
330
2
100
AcDbEntity
  8
0
 62
     3
100
AcDbLine
 10
47.81667572689993
 20
169.7001037596999
 30
0.0
 11
48.61667877869999
 21
169.7001037596999
 31
0.0
  0
LINE
  5
D3
330
2
100
AcDbEntity
  8
0
 62
     3
100
AcDbLine
 10
47.61662204259996
 20
172.199938517
 30
0.0
 11
48.1166111391
 21
170.9999637091
 31
0.0
  0
LINE
  5
D4
330
2
100
AcDbEntity
  8
0
 62
     3
100
AcDbLine
 10
48.11657949669997
 20
171.0000078562999
 30
0.0
 11
47.61660761909999
 21
172.199940254
 31
0.0
  0
LINE
  5
D5
330
2
100
AcDbEntity
  8
0
 62
     3
100
AcDbLine
 10
48.11652619079999
 20
170.9998626708999
 30
0.0
 11
48.97515351009996
 21
170.9998626708999
 31
0.0
  0
LINE
  5
D6
330
2
100
AcDbEntity
  8
0
 62
     3
100
AcDbLine
 10
48.11652619079999
 20
171.0
 30
0.0
 11
48.97510773379997
 21
171.0
 31
0.0
  0
LINE
  5
D7
330
2
100
AcDbEntity
  8
0
 62
     3
100
AcDbLine
 10
45.61652619079999
 20
174.2001190184999
 30
0.0
 11
44.11652619079998
 21
174.2001190184999
 31
0.0
  0
LINE
  5
D8
330
2
100
AcDbEntity
  8
0
 62
     3
100
AcDbLine
 10
45.11664826109997
 20
175.9162445068
 30
0.0
 11
45.11664826109997
 21
176.9853973388
 31
0.0
  0
LINE
  5
D9
330
2
100
AcDbEntity
  8
0
 62
     3
100
AcDbLine
 10
44.11652619079998
 20
174.1999359131
 30
0.0
 11
44.11652619079998
 21
174.8946380615
 31
0.0
  0
LINE
  5
DA
330
2
100
AcDbEntity
  8
0
 62
     3
100
AcDbLine
 10
53.11664826109997
 20
176.5
 30
0.0
 11
53.11664826109997
 21
169.0001068114999
 31
0.0
  0
LINE
  5
DB
330
2
100
AcDbEntity
  8
0
 62
     3
100
AcDbLine
 10
51.10276276309996
 20
169.0001068114999
 30
0.0
 11
53.11664826109997
 21
169.0001068114999
 31
0.0
  0
LINE
  5
DC
330
2
100
AcDbEntity
  8
0
 62
     3
100
AcDbLine
 10
51.10276276309996
 20
168.0001068114999
 30
0.0
 11
53.11664826109997
 21
168.0001068114999
 31
0.0
  0
LINE
  5
DD
330
2
100
AcDbEntity
  8
0
 62
     3
100
AcDbLine
 10
49.51655060490001
 20
165.4604034422999
 30
0.0
 11
49.51655060490001
 21
171.5398712157999
 31
0.0
  0
LINE
  5
DE
330
2
100
AcDbEntity
  8
0
 62
     3
100
AcDbLine
 10
49.53267914489998
 20
165.5001068115
 30
0.0
 11
50.60190827089996
 21
165.5001068115
 31
0.0
  0
LINE
  5
DF
330
2
100
AcDbEntity
  8
0
 62
     3
100
AcDbLine
 10
49.53267914489998
 20
171.5000915527
 30
0.0
 11
50.60190827089996
 21
171.5000915527
 31
0.0
  0
LINE
  5
E0
330
2
100
AcDbEntity
  8
0
 62
     3
100
AcDbLine
 10
53.11666351989998
 20
176.5000152588
 30
0.0
 11
51.11666351989999
 21
176.5000152588
 31
0.0
  0
LINE
  5
E1
330
2
100
AcDbEntity
  8
0
 62
     3
100
AcDbLine
 10
53.81667596339998
 20
177.5000230652
 30
0.0
 11
54.11668074949997
 21
177.2000185825999
 31
0.0
  0
ARC
  5
E2
330
2
100
AcDbEntity
  8
0
 62
     3
100
AcDbCircle
 10
72.61687714289998
 20
168.5001373291
 30
0.0
 40
6.6999959946
100
AcDbArc
 50
72.6320130679
 51
107.3679509599999
  0
LINE
  5
E3
330
2
100
AcDbEntity
  8
0
 62
     3
100
AcDbLine
 10
84.31688935
 20
177.4999084472
 30
0.0
 11
60.91707855899997
 21
177.4999084472
 31
0.0
  0
LINE
  5
E4
330
2
100
AcDbEntity
  8
0
 62
     3
100
AcDbLine
 10
61.6168924017
 20
176.4998931884
 30
0.0
 11
61.6168924017
 21
169.0
 31
0.0
  0
LINE
  5
E5
330
2
100
AcDbEntity
  8
0
 62
     3
100
AcDbLine
 10
61.6168924017
 20
168.0
 30
0.0
 11
63.6307778998
 21
168.0
 31
0.0
  0
LINE
  5
E6
330
2
100
AcDbEntity
  8
0
 62
     3
100
AcDbLine
 10
61.6168924017
 20
169.0
 30
0.0
 11
63.6307778998
 21
169.0
 31
0.0
  0
LINE
  5
E7
330
2
100
AcDbEntity
  8
0
 62
     3
100
AcDbLine
 10
63.6168924017
 20
176.4998931884
 30
0.0
 11
61.61690766049997
 21
176.4998931884
 31
0.0
  0
LINE
  5
E8
330
2
100
AcDbEntity
  8
0
 62
     3
100
AcDbLine
 10
60.9170270516
 20
177.4998396634999
 30
0.0
 11
60.61703308039998
 21
177.1998459199
 31
0.0
  0
ARC
  5
E9
330
2
100
AcDbEntity
  8
0
 62
     3
100
AcDbCircle
 10
63.40854889589998
 20
173.5001220702999
 30
0.0
 40
6.608330726599997
100
AcDbArc
 50
347.769026574
 51
12.23099050149996
  0
ARC
  5
EA
330
2
100
AcDbEntity
  8
0
 62
     3
100
AcDbCircle
 10
76.82520538999998
 20
173.5001220702999
 30
0.0
 40
6.608330726599997
100
AcDbArc
 50
167.7689530357999
 51
192.2309203783
  0
LINE
  5
EB
330
2
100
AcDbEntity
  8
0
 62
     3
100
AcDbLine
 10
69.8668924017
 20
172.100112915
 30
0.0
 11
69.8668924017
 21
174.9001159667998
 31
0.0
  0
LINE
  5
EC
330
2
100
AcDbEntity
  8
0
 62
     3
100
AcDbLine
 10
70.3668924017
 20
172.100112915
 30
0.0
 11
70.3668924017
 21
174.9001159667998
 31
0.0
  0
LINE
  5
ED
330
2
100
AcDbEntity
  8
0
 62
     3
100
AcDbLine
 10
67.61707757379998
 20
172.1998322105
 30
0.0
 11
69.11707748429996
 21
174.1998322403
 31
0.0
  0
LINE
  5
EE
330
2
100
AcDbEntity
  8
0
 62
     3
100
AcDbLine
 10
70.61700103349996
 20
174.1999025122
 30
0.0
 11
71.31697664729998
 21
173.266601717
 31
0.0
  0
LINE
  5
EF
330
2
100
AcDbEntity
  8
0
 62
     3
100
AcDbLine
 10
67.61697793549998
 20
164.7998735516999
 30
0.0
 11
68.81692384929997
 21
162.9999666720999
 31
0.0
  0
LINE
  5
F0
330
2
100
AcDbEntity
  8
0
 62
     3
100
AcDbLine
 10
68.41688019469997
 20
172.200012207
 30
0.0
 11
67.11687714289999
 21
172.200012207
 31
0.0
  0
LINE
  5
F1
330
2
100
AcDbEntity
  8
0
 62
     3
100
AcDbLine
 10
68.41688019469997
 20
164.8000183104999
 30
0.0
 11
67.11687714289999
 21
164.8000183104999
 31
0.0
  0
LINE
  5
F2
330
2
100
AcDbEntity
  8
0
 62
     3
100
AcDbLine
 10
66.1168924017
 20
167.2999420166
 30
0.0
 11
66.1168924017
 21
169.6999511717999
 31
0.0
  0
LINE
  5
F3
330
2
100
AcDbEntity
  8
0
 62
     3
100
AcDbLine
 10
66.91688019469999
 20
167.2999420166
 30
0.0
 11
66.91688019469999
 21
169.6999511717999
 31
0.0
  0
ARC
  5
F4
330
2
100
AcDbEntity
  8
0
 62
     3
100
AcDbCircle
 10
72.61687714289998
 20
168.5000152588
 30
0.0
 40
7.2999992371
100
AcDbArc
 50
159.9727565511
 51
200.0271168631
  0
LINE
  5
F5
330
2
100
AcDbEntity
  8
0
 62
     3
100
AcDbLine
 10
65.21686798769997
 20
165.4602661131999
 30
0.0
 11
65.21686798769997
 21
171.5397338866999
 31
0.0
  0
LINE
  5
F6
330
2
100
AcDbEntity
  8
0
 62
     3
100
AcDbLine
 10
65.75831085879997
 20
166.0000152588
 30
0.0
 11
66.6168924017
 21
166.0000152588
 31
0.0
  0
LINE
  5
F7
330
2
100
AcDbEntity
  8
0
 62
     3
100
AcDbLine
 10
64.13158661559996
 20
165.5000152588
 30
0.0
 11
65.20060211849997
 21
165.5000152588
 31
0.0
  0
LINE
  5
F8
330
2
100
AcDbEntity
  8
0
 62
     3
100
AcDbLine
 10
67.11691713279998
 20
164.7999952261999
 30
0.0
 11
66.61692216759997
 21
165.9999841190999
 31
0.0
  0
LINE
  5
F9
330
2
100
AcDbEntity
  8
0
 62
     3
100
AcDbLine
 10
66.11690766049997
 20
167.2999877929
 30
0.0
 11
66.91689545349999
 21
167.2999877929
 31
0.0
  0
LINE
  5
FA
330
2
100
AcDbEntity
  8
0
 62
     3
100
AcDbLine
 10
65.75831085879997
 20
171.0000152587999
 30
0.0
 11
66.6168924017
 21
171.0000152587999
 31
0.0
  0
LINE
  5
FB
330
2
100
AcDbEntity
  8
0
 62
     3
100
AcDbLine
 10
64.13158661559996
 20
171.5
 30
0.0
 11
65.20060211849997
 21
171.5
 31
0.0
  0
LINE
  5
FC
330
2
100
AcDbEntity
  8
0
 62
     3
100
AcDbLine
 10
67.11691187329998
 20
172.1999357779
 30
0.0
 11
66.61691072939999
 21
170.9999329549
 31
0.0
  0
LINE
  5
FD
330
2
100
AcDbEntity
  8
0
 62
     3
100
AcDbLine
 10
66.11690766049997
 20
169.6999969482
 30
0.0
 11
66.91689545349999
 21
169.6999969482
 31
0.0
  0
ARC
  5
FE
330
2
100
AcDbEntity
  8
0
 62
     3
100
AcDbCircle
 10
63.40854889589998
 20
168.5001373291
 30
0.0
 40
6.608330726599997
100
AcDbArc
 50
347.769026574
 51
12.23099050149996
  0
ARC
  5
FF
330
2
100
AcDbEntity
  8
0
 62
     3
100
AcDbCircle
 10
76.82520538999998
 20
168.5001373291
 30
0.0
 40
6.608330726599997
100
AcDbArc
 50
167.7689530357999
 51
192.2309203783
  0
LINE
  5
100
330
2
100
AcDbEntity
  8
0
 62
     3
100
AcDbLine
 10
71.31688934999998
 20
173.2667846678999
 30
0.0
 11
71.31688934999998
 21
163.6001281737998
 31
0.0
  0
LINE
  5
101
330
2
100
AcDbEntity
  8
0
 62
     3
100
AcDbLine
 10
70.3668924017
 20
167.1001281737999
 30
0.0
 11
70.3668924017
 21
169.9001159668
 31
0.0
  0
LINE
  5
102
330
2
100
AcDbEntity
  8
0
 62
     3
100
AcDbLine
 10
69.8668924017
 20
167.1001281737999
 30
0.0
 11
69.8668924017
 21
169.9001159668
 31
0.0
  0
LINE
  5
103
330
2
100
AcDbEntity
  8
0
 62
     3
100
AcDbLine
 10
68.41688019469997
 20
173.2663574217999
 30
0.0
 11
68.41688019469997
 21
163.6001586914
 31
0.0
  0
LINE
  5
104
330
2
100
AcDbEntity
  8
0
 62
     3
100
AcDbLine
 10
69.31688935
 20
162.5001831053999
 30
0.0
 11
69.8668924017
 21
162.5001831053999
 31
0.0
  0
LINE
  5
105
330
2
100
AcDbEntity
  8
0
 62
     3
100
AcDbLine
 10
68.81688934999999
 20
163.0001831054
 30
0.0
 11
69.8668924017
 21
163.0001831054
 31
0.0
  0
LINE
  5
106
330
2
100
AcDbEntity
  8
0
 62
     3
100
AcDbLine
 10
69.21692730459998
 20
163.0001180853
 30
0.0
 11
69.316930805
 21
162.5001021943
 31
0.0
  0
LINE
  5
107
330
2
100
AcDbEntity
  8
0
 62
     3
100
AcDbLine
 10
70.3668924017
 20
162.5001831053999
 30
0.0
 11
70.41689545349999
 21
162.5001831053999
 31
0.0
  0
LINE
  5
108
330
2
100
AcDbEntity
  8
0
 62
     3
100
AcDbLine
 10
70.3668924017
 20
163.0001831054
 30
0.0
 11
70.91688019469998
 21
163.0001831054
 31
0.0
  0
LINE
  5
109
330
2
100
AcDbEntity
  8
0
 62
     3
100
AcDbLine
 10
69.8668924017
 20
167.1001281737999
 30
0.0
 11
70.3668924017
 21
167.1001281737999
 31
0.0
  0
LINE
  5
10A
330
2
100
AcDbEntity
  8
0
 62
     3
100
AcDbLine
 10
70.41692475719997
 20
162.5001729662999
 30
0.0
 11
70.51692825759996
 21
163.0001888573
 31
0.0
  0
LINE
  5
10B
330
2
100
AcDbEntity
  8
0
 62
     3
100
AcDbLine
 10
69.8668924017
 20
164.9001617430998
 30
0.0
 11
70.3668924017
 21
164.9001617430998
 31
0.0
  0
LINE
  5
10C
330
2
100
AcDbEntity
  8
0
 62
     3
100
AcDbLine
 10
70.91685484949997
 20
163.0000798101999
 30
0.0
 11
71.31685745749997
 21
163.6000839155999
 31
0.0
  0
LINE
  5
10D
330
2
100
AcDbEntity
  8
0
 62
     3
100
AcDbLine
 10
69.8668924017
 20
169.9001159668
 30
0.0
 11
70.3668924017
 21
169.9001159668
 31
0.0
  0
LINE
  5
10E
330
2
100
AcDbEntity
  8
0
 62
     3
100
AcDbLine
 10
69.8668924017
 20
172.100112915
 30
0.0
 11
70.3668924017
 21
172.100112915
 31
0.0
  0
LINE
  5
10F
330
2
100
AcDbEntity
  8
0
 62
     3
100
AcDbLine
 10
65.94309376639997
 20
176.9499468144999
 30
0.0
 11
64.11690924209998
 21
175.1559994579
 31
0.0
  0
LINE
  5
110
330
2
100
AcDbEntity
  8
0
 62
     3
100
AcDbLine
 10
69.8668924017
 20
174.2001190184999
 30
0.0
 11
69.1168924017
 21
174.2001190184999
 31
0.0
  0
LINE
  5
111
330
2
100
AcDbEntity
  8
0
 62
     3
100
AcDbLine
 10
69.31688935
 20
174.7001190184999
 30
0.0
 11
69.8668924017
 21
174.7001190184999
 31
0.0
  0
LINE
  5
112
330
2
100
AcDbEntity
  8
0
 62
     3
100
AcDbLine
 10
69.6168924017
 20
175.9161529541
 30
0.0
 11
69.6168924017
 21
176.9853057861
 31
0.0
  0
LINE
  5
113
330
2
100
AcDbEntity
  8
0
 62
     3
100
AcDbLine
 10
69.21691090459998
 20
174.2000775148
 30
0.0
 11
69.31690878459997
 21
174.7000633897
 31
0.0
  0
LINE
  5
114
330
2
100
AcDbEntity
  8
0
 62
     3
100
AcDbLine
 10
70.61687714289998
 20
174.1999511718
 30
0.0
 11
70.61687714289998
 21
174.8944091797
 31
0.0
  0
LINE
  5
115
330
2
100
AcDbEntity
  8
0
 62
     3
100
AcDbLine
 10
70.3668924017
 20
174.7001190184999
 30
0.0
 11
70.41689545349999
 21
174.7001190184999
 31
0.0
  0
LINE
  5
116
330
2
100
AcDbEntity
  8
0
 62
     3
100
AcDbLine
 10
69.8668924017
 20
174.9001159667998
 30
0.0
 11
70.3668924017
 21
174.9001159667998
 31
0.0
  0
LINE
  5
117
330
2
100
AcDbEntity
  8
0
 62
     3
100
AcDbLine
 10
70.4169297791
 20
174.7000742654999
 30
0.0
 11
70.51693065169998
 21
174.2000734282
 31
0.0
  0
LINE
  5
118
330
2
100
AcDbEntity
  8
0
 62
     3
100
AcDbLine
 10
70.6168924017
 20
174.2001190184999
 30
0.0
 11
70.3668924017
 21
174.2001190184999
 31
0.0
  0
LINE
  5
119
330
2
100
AcDbEntity
  8
0
 62
     3
100
AcDbLine
 10
78.61686188420001
 20
171.0000152587999
 30
0.0
 11
79.47544342709997
 21
171.0000152587999
 31
0.0
  0
LINE
  5
11A
330
2
100
AcDbEntity
  8
0
 62
     3
100
AcDbLine
 10
78.31690460879997
 20
169.6999969482
 30
0.0
 11
79.11690766049997
 21
169.6999969482
 31
0.0
  0
LINE
  5
11B
330
2
100
AcDbEntity
  8
0
 62
     3
100
AcDbLine
 10
78.61686188420001
 20
166.0000152588
 30
0.0
 11
79.47544342709997
 21
166.0000152588
 31
0.0
  0
LINE
  5
11C
330
2
100
AcDbEntity
  8
0
 62
     3
100
AcDbLine
 10
78.31690460879997
 20
167.2999877929
 30
0.0
 11
79.11690766049997
 21
167.2999877929
 31
0.0
  0
ARC
  5
11D
330
2
100
AcDbEntity
  8
0
 62
     3
100
AcDbCircle
 10
68.90854889589997
 20
173.5001220702999
 30
0.0
 40
6.608330726599997
100
AcDbArc
 50
347.769026574
 51
12.23099050149996
  0
ARC
  5
11E
330
2
100
AcDbEntity
  8
0
 62
     3
100
AcDbCircle
 10
82.32520538999997
 20
173.5001220702999
 30
0.0
 40
6.608330726599997
100
AcDbArc
 50
167.7689530357999
 51
192.2309203783
  0
LINE
  5
11F
330
2
100
AcDbEntity
  8
0
 62
     3
100
AcDbLine
 10
76.11697675059996
 20
174.1998995259999
 30
0.0
 11
77.61694018909999
 21
172.1999483243
 31
0.0
  0
LINE
  5
120
330
2
100
AcDbEntity
  8
0
 62
     3
100
AcDbLine
 10
75.8668924017
 20
172.100112915
 30
0.0
 11
75.8668924017
 21
174.9001159667998
 31
0.0
  0
LINE
  5
121
330
2
100
AcDbEntity
  8
0
 62
     3
100
AcDbLine
 10
75.3668924017
 20
172.100112915
 30
0.0
 11
75.3668924017
 21
174.9001159667998
 31
0.0
  0
LINE
  5
122
330
2
100
AcDbEntity
  8
0
 62
     3
100
AcDbLine
 10
73.91692487259994
 20
173.2663058117998
 30
0.0
 11
74.61707436699999
 21
174.1998385406
 31
0.0
  0
LINE
  5
123
330
2
100
AcDbEntity
  8
0
 62
     3
100
AcDbLine
 10
74.81688935
 20
162.5001831053999
 30
0.0
 11
75.3668924017
 21
162.5001831053999
 31
0.0
  0
LINE
  5
124
330
2
100
AcDbEntity
  8
0
 62
     3
100
AcDbLine
 10
74.31688935
 20
163.0001831054
 30
0.0
 11
75.3668924017
 21
163.0001831054
 31
0.0
  0
LINE
  5
125
330
2
100
AcDbEntity
  8
0
 62
     3
100
AcDbLine
 10
73.91688019469999
 20
173.2663574217999
 30
0.0
 11
73.91688019469999
 21
163.6001586914
 31
0.0
  0
LINE
  5
126
330
2
100
AcDbEntity
  8
0
 62
     3
100
AcDbLine
 10
74.31689337979999
 20
163.0001338566
 30
0.0
 11
73.91689055679998
 21
163.6001378331
 31
0.0
  0
LINE
  5
127
330
2
100
AcDbEntity
  8
0
 62
     3
100
AcDbLine
 10
74.7169232373
 20
163.0001155078
 30
0.0
 11
74.81692673769998
 21
162.5000996168
 31
0.0
  0
LINE
  5
128
330
2
100
AcDbEntity
  8
0
 62
     3
100
AcDbLine
 10
76.81685883239999
 20
163.600112915
 30
0.0
 11
76.81685883239999
 21
173.2667541504
 31
0.0
  0
LINE
  5
129
330
2
100
AcDbEntity
  8
0
 62
     3
100
AcDbLine
 10
78.31688934999998
 20
167.2999420166
 30
0.0
 11
78.31688934999998
 21
169.6999511717999
 31
0.0
  0
ARC
  5
12A
330
2
100
AcDbEntity
  8
0
 62
     3
100
AcDbCircle
 10
68.90854889589997
 20
168.5001373291
 30
0.0
 40
6.608330726599997
100
AcDbArc
 50
347.769026574
 51
12.23099050149996
  0
ARC
  5
12B
330
2
100
AcDbEntity
  8
0
 62
     3
100
AcDbCircle
 10
82.32520538999997
 20
168.5001373291
 30
0.0
 40
6.608330726599997
100
AcDbArc
 50
167.7689530357999
 51
192.2309203783
  0
LINE
  5
12C
330
2
100
AcDbEntity
  8
0
 62
     3
100
AcDbLine
 10
75.8668924017
 20
167.1001281737999
 30
0.0
 11
75.8668924017
 21
169.9001159668
 31
0.0
  0
LINE
  5
12D
330
2
100
AcDbEntity
  8
0
 62
     3
100
AcDbLine
 10
75.3668924017
 20
167.1001281737999
 30
0.0
 11
75.3668924017
 21
169.9001159668
 31
0.0
  0
LINE
  5
12E
330
2
100
AcDbEntity
  8
0
 62
     3
100
AcDbLine
 10
78.11686188420002
 20
164.8000183104999
 30
0.0
 11
76.81685883239999
 21
164.8000183104999
 31
0.0
  0
LINE
  5
12F
330
2
100
AcDbEntity
  8
0
 62
     3
100
AcDbLine
 10
76.41685173289997
 20
163.0000721644
 30
0.0
 11
77.61685955699997
 21
164.8000844807
 31
0.0
  0
LINE
  5
130
330
2
100
AcDbEntity
  8
0
 62
     3
100
AcDbLine
 10
75.8668924017
 20
162.5001831053999
 30
0.0
 11
75.91689545349999
 21
162.5001831053999
 31
0.0
  0
LINE
  5
131
330
2
100
AcDbEntity
  8
0
 62
     3
100
AcDbLine
 10
75.86687714289998
 20
163.0001831054
 30
0.0
 11
76.41688019469999
 21
163.0001831054
 31
0.0
  0
LINE
  5
132
330
2
100
AcDbEntity
  8
0
 62
     3
100
AcDbLine
 10
75.3668924017
 20
167.1001281737999
 30
0.0
 11
75.8668924017
 21
167.1001281737999
 31
0.0
  0
LINE
  5
133
330
2
100
AcDbEntity
  8
0
 62
     3
100
AcDbLine
 10
75.3668924017
 20
164.9001617430998
 30
0.0
 11
75.8668924017
 21
164.9001617430998
 31
0.0
  0
LINE
  5
134
330
2
100
AcDbEntity
  8
0
 62
     3
100
AcDbLine
 10
75.91692068989998
 20
162.5001755438
 30
0.0
 11
76.01692419029999
 21
163.0001914348
 31
0.0
  0
LINE
  5
135
330
2
100
AcDbEntity
  8
0
 62
     3
100
AcDbLine
 10
78.61693911319995
 20
165.9998277402
 30
0.0
 11
78.1169644649
 21
164.7999461201998
 31
0.0
  0
LINE
  5
136
330
2
100
AcDbEntity
  8
0
 62
     3
100
AcDbLine
 10
78.61690675859998
 20
165.9999325379
 30
0.0
 11
78.11690600209998
 21
164.7999295598999
 31
0.0
  0
LINE
  5
137
330
2
100
AcDbEntity
  8
0
 62
     3
100
AcDbLine
 10
78.11686188420002
 20
172.200012207
 30
0.0
 11
76.81685883239999
 21
172.200012207
 31
0.0
  0
LINE
  5
138
330
2
100
AcDbEntity
  8
0
 62
     3
100
AcDbLine
 10
75.3668924017
 20
172.100112915
 30
0.0
 11
75.8668924017
 21
172.100112915
 31
0.0
  0
LINE
  5
139
330
2
100
AcDbEntity
  8
0
 62
     3
100
AcDbLine
 10
75.3668924017
 20
169.9001159668
 30
0.0
 11
75.8668924017
 21
169.9001159668
 31
0.0
  0
LINE
  5
13A
330
2
100
AcDbEntity
  8
0
 62
     3
100
AcDbLine
 10
78.1169264641
 20
172.1999355757
 30
0.0
 11
78.61691556059999
 21
170.9999607678
 31
0.0
  0
LINE
  5
13B
330
2
100
AcDbEntity
  8
0
 62
     3
100
AcDbLine
 10
78.61688992689997
 20
171.0000006189
 30
0.0
 11
78.116923918
 21
172.1999189316
 31
0.0
  0
LINE
  5
13C
330
2
100
AcDbEntity
  8
0
 62
     3
100
AcDbLine
 10
75.3668924017
 20
174.2001190184999
 30
0.0
 11
74.6168924017
 21
174.2001190184999
 31
0.0
  0
LINE
  5
13D
330
2
100
AcDbEntity
  8
0
 62
     3
100
AcDbLine
 10
74.81688935
 20
174.7001190184999
 30
0.0
 11
75.3668924017
 21
174.7001190184999
 31
0.0
  0
LINE
  5
13E
330
2
100
AcDbEntity
  8
0
 62
     3
100
AcDbLine
 10
74.6168618842
 20
174.1999511718
 30
0.0
 11
74.6168618842
 21
174.8944091797
 31
0.0
  0
LINE
  5
13F
330
2
100
AcDbEntity
  8
0
 62
     3
100
AcDbLine
 10
74.71690664439998
 20
174.2000760418999
 30
0.0
 11
74.81690751699997
 21
174.7000768793
 31
0.0
  0
LINE
  5
140
330
2
100
AcDbEntity
  8
0
 62
     3
100
AcDbLine
 10
76.1168924017
 20
174.2001190184999
 30
0.0
 11
75.8668924017
 21
174.2001190184999
 31
0.0
  0
LINE
  5
141
330
2
100
AcDbEntity
  8
0
 62
     3
100
AcDbLine
 10
75.61687714289998
 20
175.9161529541
 30
0.0
 11
75.61687714289998
 21
176.9853057861
 31
0.0
  0
LINE
  5
142
330
2
100
AcDbEntity
  8
0
 62
     3
100
AcDbLine
 10
75.8668924017
 20
174.7001190184999
 30
0.0
 11
75.91689545349999
 21
174.7001190184999
 31
0.0
  0
LINE
  5
143
330
2
100
AcDbEntity
  8
0
 62
     3
100
AcDbLine
 10
75.3668924017
 20
174.9001159667998
 30
0.0
 11
75.8668924017
 21
174.9001159667998
 31
0.0
  0
LINE
  5
144
330
2
100
AcDbEntity
  8
0
 62
     3
100
AcDbLine
 10
75.9169105565
 20
174.7000727459
 30
0.0
 11
76.01691142899999
 21
174.2000719084999
 31
0.0
  0
LINE
  5
145
330
2
100
AcDbEntity
  8
0
 62
     3
100
AcDbLine
 10
83.61687714289997
 20
176.4998931884
 30
0.0
 11
83.61687714289997
 21
169.0
 31
0.0
  0
LINE
  5
146
330
2
100
AcDbEntity
  8
0
 62
     3
100
AcDbLine
 10
81.60299164489998
 20
169.0
 30
0.0
 11
83.61687714289997
 21
169.0
 31
0.0
  0
LINE
  5
147
330
2
100
AcDbEntity
  8
0
 62
     3
100
AcDbLine
 10
81.60299164489998
 20
168.0
 30
0.0
 11
83.61687714289997
 21
168.0
 31
0.0
  0
LINE
  5
148
330
2
100
AcDbEntity
  8
0
 62
     3
100
AcDbLine
 10
79.1168924017
 20
167.2999420166
 30
0.0
 11
79.1168924017
 21
169.6999511717999
 31
0.0
  0
ARC
  5
149
330
2
100
AcDbEntity
  8
0
 62
     3
100
AcDbCircle
 10
72.61687714289998
 20
168.5000152588
 30
0.0
 40
7.2999992371
100
AcDbArc
 50
339.9728300892998
 51
20.02713234470002
  0
LINE
  5
14A
330
2
100
AcDbEntity
  8
0
 62
     3
100
AcDbLine
 10
80.01677948669998
 20
165.4602661131999
 30
0.0
 11
80.01677948669998
 21
171.5397338866999
 31
0.0
  0
LINE
  5
14B
330
2
100
AcDbEntity
  8
0
 62
     3
100
AcDbLine
 10
80.03290802669999
 20
165.5000152588
 30
0.0
 11
81.10213715269997
 21
165.5000152588
 31
0.0
  0
LINE
  5
14C
330
2
100
AcDbEntity
  8
0
 62
     3
100
AcDbLine
 10
80.03290802669999
 20
171.5
 30
0.0
 11
81.10213715269997
 21
171.5
 31
0.0
  0
LINE
  5
14D
330
2
100
AcDbEntity
  8
0
 62
     3
100
AcDbLine
 10
83.61689240169999
 20
176.4998931884
 30
0.0
 11
81.6168924017
 21
176.4998931884
 31
0.0
  0
LINE
  5
14E
330
2
100
AcDbEntity
  8
0
 62
     3
100
AcDbLine
 10
81.1168940741
 20
175.1560359215
 30
0.0
 11
79.2908230758
 21
176.9499682496
 31
0.0
  0
LINE
  5
14F
330
2
100
AcDbEntity
  8
0
 62
     3
100
AcDbLine
 10
84.31691334419998
 20
177.4999090159999
 30
0.0
 11
84.61691813029998
 21
177.1999045333999
 31
0.0
  0
ARC
  5
150
330
2
100
AcDbEntity
  8
0
 62
     3
100
AcDbCircle
 10
152.3245492620999
 20
167.8635864257
 30
0.0
 40
9.506862640399999
100
AcDbArc
 50
198.5261317938999
 51
218.1199227866998
  0
LINE
  5
151
330
2
100
AcDbEntity
  8
0
 62
     3
100
AcDbLine
 10
139.8176828069999
 20
161.1999969482
 30
0.0
 11
139.8176828069999
 21
175.8001403808
 31
0.0
  0
LINE
  5
152
330
2
100
AcDbEntity
  8
0
 62
     3
100
AcDbLine
 10
138.5177255315997
 20
159.6443634032999
 30
0.0
 11
138.5177255315997
 21
177.3556060790999
 31
0.0
  0
LINE
  5
153
330
2
100
AcDbEntity
  8
0
 62
     3
100
AcDbLine
 10
138.8176828069999
 20
159.9557800292999
 30
0.0
 11
138.8176828069999
 21
177.0441894531
 31
0.0
  0
LINE
  5
154
330
2
100
AcDbEntity
  8
0
 62
     3
100
AcDbLine
 10
128.0175221728
 20
162.4999735047
 30
0.0
 11
128.9086833527999
 21
159.8709994124
 31
0.0
  0
LINE
  5
155
330
2
100
AcDbEntity
  8
0
 62
     3
100
AcDbLine
 10
127.0175301349999
 20
162.3350692985
 30
0.0
 11
127.9616156747999
 21
159.5499654577
 31
0.0
  0
LINE
  5
156
330
2
100
AcDbEntity
  8
0
 62
     3
100
AcDbLine
 10
130.8176828069999
 20
159.5005187987998
 30
0.0
 11
130.8176828069999
 21
177.4997711181
 31
0.0
  0
LINE
  5
157
330
2
100
AcDbEntity
  8
0
 62
     3
100
AcDbLine
 10
130.2176767034999
 20
177.200012207
 30
0.0
 11
130.2176767034999
 21
159.7999877929
 31
0.0
  0
LINE
  5
158
330
2
100
AcDbEntity
  8
0
 62
     3
100
AcDbLine
 10
127.0175119085999
 20
159.5999450683
 30
0.0
 11
127.0175119085999
 21
177.3999176025
 31
0.0
  0
LINE
  5
159
330
2
100
AcDbEntity
  8
0
 62
     3
100
AcDbLine
 10
127.0174508733999
 20
177.3999176025
 30
0.0
 11
127.0174508733999
 21
159.5999450683
 31
0.0
  0
LINE
  5
15A
330
2
100
AcDbEntity
  8
0
 62
     3
100
AcDbLine
 10
122.0175576848999
 20
165.5000305175
 30
0.0
 11
122.0175576848999
 21
160.1209106445
 31
0.0
  0
LINE
  5
15B
330
2
100
AcDbEntity
  8
0
 62
     3
100
AcDbLine
 10
119.2176004094999
 20
160.50050354
 30
0.0
 11
119.2176004094999
 21
164.5004272461
 31
0.0
  0
LINE
  5
15C
330
2
100
AcDbEntity
  8
0
 62
     3
100
AcDbLine
 10
118.8176980657999
 20
161.1004943846999
 30
0.0
 11
118.8176980657999
 21
175.8997955322
 31
0.0
  0
LINE
  5
15D
330
2
100
AcDbEntity
  8
0
 62
     3
100
AcDbLine
 10
108.5177102727999
 20
162.9999542236
 30
0.0
 11
108.5177102727999
 21
162.0999603270999
 31
0.0
  0
LINE
  5
15E
330
2
100
AcDbEntity
  8
0
 62
     3
100
AcDbLine
 10
108.8177133245999
 20
161.1004791258999
 30
0.0
 11
108.8177133245999
 21
175.8997802734
 31
0.0
  0
LINE
  5
15F
330
2
100
AcDbEntity
  8
0
 62
     3
100
AcDbLine
 10
101.3206430120999
 20
164.8999633789
 30
0.0
 11
101.3206430120999
 21
162.0999603270999
 31
0.0
  0
ARC
  5
160
330
2
100
AcDbEntity
  8
0
 62
     3
100
AcDbCircle
 10
103.0177102727999
 20
163.5000152587999
 30
0.0
 40
2.199997901899997
100
AcDbArc
 50
140.4787956031999
 51
219.5211870939
  0
LINE
  5
161
330
2
100
AcDbEntity
  8
0
 62
     3
100
AcDbLine
 10
108.8176980657999
 20
161.1004791258999
 30
0.0
 11
118.8177133245999
 21
161.1004791258999
 31
0.0
  0
LINE
  5
162
330
2
100
AcDbEntity
  8
0
 62
     3
100
AcDbLine
 10
108.5177102727999
 20
162.0999603270999
 30
0.0
 11
101.3206430120999
 21
162.0999603270999
 31
0.0
  0
LINE
  5
163
330
2
100
AcDbEntity
  8
0
 62
     3
100
AcDbLine
 10
138.5176922764
 20
159.6443539071
 30
0.0
 11
130.8176447672998
 21
159.4999839092
 31
0.0
  0
LINE
  5
164
330
2
100
AcDbEntity
  8
0
 62
     3
100
AcDbLine
 10
127.0175119085999
 20
159.6000213623
 30
0.0
 11
123.2175393743996
 21
159.6000213623
 31
0.0
  0
LINE
  5
165
330
2
100
AcDbEntity
  8
0
 62
     3
100
AcDbLine
 10
122.0175424260999
 20
160.5005187987999
 30
0.0
 11
119.2176004094999
 21
160.5005187987999
 31
0.0
  0
LINE
  5
166
330
2
100
AcDbEntity
  8
0
 62
     3
100
AcDbLine
 10
122.0175424260999
 20
161.1004943846999
 30
0.0
 11
118.8176980657999
 21
161.1004943846999
 31
0.0
  0
LINE
  5
167
330
2
100
AcDbEntity
  8
0
 62
     3
100
AcDbLine
 10
119.2158429289999
 20
160.4993124381
 30
0.0
 11
118.8158657990999
 21
161.0992784983
 31
0.0
  0
LINE
  5
168
330
2
100
AcDbEntity
  8
0
 62
     3
100
AcDbLine
 10
123.2175207022998
 20
159.6000261318
 30
0.0
 11
123.2175359610999
 21
160.1209154141
 31
0.0
  0
LINE
  5
169
330
2
100
AcDbEntity
  8
0
 62
     3
100
AcDbLine
 10
122.0175576848999
 20
160.1209106445
 30
0.0
 11
123.2175546331998
 21
160.1209106445
 31
0.0
  0
LINE
  5
16A
330
2
100
AcDbEntity
  8
0
 62
     3
100
AcDbLine
 10
127.0175119085999
 20
159.5500030516999
 30
0.0
 11
127.9616037053999
 21
159.5500030516999
 31
0.0
  0
LINE
  5
16B
330
2
100
AcDbEntity
  8
0
 62
     3
100
AcDbLine
 10
127.0175271673999
 20
160.0868072508999
 30
0.0
 11
124.0175424260999
 21
160.0868072508999
 31
0.0
  0
LINE
  5
16C
330
2
100
AcDbEntity
  8
0
 62
     3
100
AcDbLine
 10
127.0175271673999
 20
160.5099334715999
 30
0.0
 11
124.0175424260999
 21
160.5099334715999
 31
0.0
  0
LINE
  5
16D
330
2
100
AcDbEntity
  8
0
 62
     3
100
AcDbLine
 10
127.0175271673999
 20
161.1099243164
 30
0.0
 11
124.0175424260999
 21
161.1099243164
 31
0.0
  0
LINE
  5
16E
330
2
100
AcDbEntity
  8
0
 62
     3
100
AcDbLine
 10
127.0175271673999
 20
161.7968139648
 30
0.0
 11
124.0175424260999
 21
161.7968139648
 31
0.0
  0
LINE
  5
16F
330
2
100
AcDbEntity
  8
0
 62
     3
100
AcDbLine
 10
124.0174661321999
 20
160.5098419188999
 30
0.0
 11
124.0174661321999
 21
160.086730957
 31
0.0
  0
LINE
  5
170
330
2
100
AcDbEntity
  8
0
 62
     3
100
AcDbLine
 10
124.0175424260999
 20
161.1099243164
 30
0.0
 11
124.0175424260999
 21
161.7968139648
 31
0.0
  0
LINE
  5
171
330
2
100
AcDbEntity
  8
0
 62
     3
100
AcDbLine
 10
130.2176767034999
 20
161.1004943846999
 30
0.0
 11
128.4919076604998
 21
161.1004943846999
 31
0.0
  0
LINE
  5
172
330
2
100
AcDbEntity
  8
0
 62
     3
100
AcDbLine
 10
129.9197183294999
 20
160.5005187987999
 30
0.0
 11
128.6952768010999
 21
160.5005187987999
 31
0.0
  0
LINE
  5
173
330
2
100
AcDbEntity
  8
0
 62
     3
100
AcDbLine
 10
127.9616068314999
 20
159.5499741383999
 30
0.0
 11
128.9086613101
 21
159.8709994394
 31
0.0
  0
LINE
  5
174
330
2
100
AcDbEntity
  8
0
 62
     3
100
AcDbLine
 10
130.2194183032999
 20
161.0998438969
 30
0.0
 11
129.9194318787999
 21
160.4998863207999
 31
0.0
  0
LINE
  5
175
330
2
100
AcDbEntity
  8
0
 62
     3
100
AcDbLine
 10
130.2176767034999
 20
159.8000030517
 30
0.0
 11
130.8176828069999
 21
159.8000030517
 31
0.0
  0
ARC
  5
176
330
2
100
AcDbEntity
  8
0
 62
     3
100
AcDbCircle
 10
139.3176828069999
 20
161.1999969482
 30
0.0
 40
0.5
100
AcDbArc
 50
270.0000179861
 51
0.0
  0
LINE
  5
177
330
2
100
AcDbEntity
  8
0
 62
     3
100
AcDbLine
 10
138.5177310379999
 20
159.6443438640999
 30
0.0
 11
138.8176811903999
 21
159.9557541128
 31
0.0
  0
LINE
  5
178
330
2
100
AcDbEntity
  8
0
 62
     3
100
AcDbLine
 10
138.8176828069999
 20
160.6999969482
 30
0.0
 11
139.3176828069999
 21
160.6999969482
 31
0.0
  0
LINE
  5
179
330
2
100
AcDbEntity
  8
0
 62
     3
100
AcDbLine
 10
118.8177133245999
 20
175.8997802734
 30
0.0
 11
108.8176980657999
 21
175.8997802734
 31
0.0
  0
LINE
  5
17A
330
2
100
AcDbEntity
  8
0
 62
     3
100
AcDbLine
 10
113.8175912542999
 20
201.1002349852999
 30
0.0
 11
122.0171456975996
 21
201.1002349852999
 31
0.0
  0
LINE
  5
17B
330
2
100
AcDbEntity
  8
0
 62
     3
100
AcDbLine
 10
122.0171456975996
 20
215.9001617430998
 30
0.0
 11
113.8175912542999
 21
215.9001617430998
 31
0.0
  0
LINE
  5
17C
330
2
100
AcDbEntity
  8
0
 62
     3
100
AcDbLine
 10
111.8175454778999
 20
210.1994323729999
 30
0.0
 11
111.8175454778999
 21
206.7995452881
 31
0.0
  0
LINE
  5
17D
330
2
100
AcDbEntity
  8
0
 62
     3
100
AcDbLine
 10
110.3175454778999
 20
210.1994323729999
 30
0.0
 11
110.3175454778999
 21
206.7995452881
 31
0.0
  0
LINE
  5
17E
330
2
100
AcDbEntity
  8
0
 62
     3
100
AcDbLine
 10
108.8177133245999
 20
201.150024414
 30
0.0
 11
108.8177133245999
 21
215.8499755859
 31
0.0
  0
LINE
  5
17F
330
2
100
AcDbEntity
  8
0
 62
     3
100
AcDbLine
 10
100.8175068712999
 20
205.600490319
 30
0.0
 11
101.3171152513999
 21
205.7503727802
 31
0.0
  0
LINE
  5
180
330
2
100
AcDbEntity
  8
0
 62
     3
100
AcDbLine
 10
101.3176423909999
 20
205.2501754136999
 30
0.0
 11
100.8176540138999
 21
205.4001719049999
 31
0.0
  0
ARC
  5
181
330
2
100
AcDbEntity
  8
0
 62
     3
100
AcDbCircle
 10
103.0177102727999
 20
173.5
 30
0.0
 40
2.199997901899997
100
AcDbArc
 50
140.4787409617
 51
219.5211324524
  0
ARC
  5
182
330
2
100
AcDbEntity
  8
0
 62
     3
100
AcDbCircle
 10
103.0176950139999
 20
168.5000915527
 30
0.0
 40
2.199997901899997
100
AcDbArc
 50
140.4787409617
 51
219.5211324524
  0
LINE
  5
183
330
2
100
AcDbEntity
  8
0
  6
CENTER
 62
     3
100
AcDbLine
 10
99.919031684
 20
163.4999542236
 30
0.0
 11
105.2691751165999
 21
163.4999542236
 31
0.0
  0
LINE
  5
184
330
2
100
AcDbEntity
  8
0
  6
CENTER
 62
     3
100
AcDbLine
 10
99.80102020929995
 20
173.4999389648
 30
0.0
 11
105.2691751165999
 21
173.4999389648
 31
0.0
  0
LINE
  5
185
330
2
100
AcDbEntity
  8
0
 62
     3
100
AcDbLine
 10
100.8176980657996
 20
205.3999938964
 30
0.0
 11
100.8176980657996
 21
205.6000671386
 31
0.0
  0
LINE
  5
186
330
2
100
AcDbEntity
  8
0
 62
     3
100
AcDbLine
 10
108.8176980657999
 20
174.1999511718
 30
0.0
 11
108.1177468938999
 21
174.1999511718
 31
0.0
  0
LINE
  5
187
330
2
100
AcDbEntity
  8
0
 62
     3
100
AcDbLine
 10
108.1177621526999
 20
173.2499389648
 30
0.0
 11
108.8177133245999
 21
173.2499389648
 31
0.0
  0
LINE
  5
188
330
2
100
AcDbEntity
  8
0
 62
     3
100
AcDbLine
 10
108.1177621526999
 20
162.9999694823999
 30
0.0
 11
108.8177133245999
 21
162.9999694823999
 31
0.0
  0
LINE
  5
189
330
2
100
AcDbEntity
  8
0
 62
     3
100
AcDbLine
 10
108.1177621526999
 20
163.5999603270999
 30
0.0
 11
108.8177133245999
 21
163.5999603270999
 31
0.0
  0
LINE
  5
18A
330
2
100
AcDbEntity
  8
0
 62
     3
100
AcDbLine
 10
107.8177591008999
 20
163.2999572754
 30
0.0
 11
107.8177591008999
 21
173.8999481200998
 31
0.0
  0
LINE
  5
18B
330
2
100
AcDbEntity
  8
0
 62
     3
100
AcDbLine
 10
101.3206430120999
 20
174.8999481200999
 30
0.0
 11
101.3206430120999
 21
172.0999450683
 31
0.0
  0
ARC
  5
18C
330
2
100
AcDbEntity
  8
0
 62
     3
100
AcDbCircle
 10
103.8206430120999
 20
173.5
 30
0.0
 40
0.599998951
100
AcDbArc
 50
270.0000726275999
 51
89.99998201389994
  0
ARC
  5
18D
330
2
100
AcDbEntity
  8
0
 62
     3
100
AcDbCircle
 10
102.4206491155998
 20
173.5
 30
0.0
 40
0.599998951
100
AcDbArc
 50
89.99998201389999
 51
269.9998914002
  0
LINE
  5
18E
330
2
100
AcDbEntity
  8
0
 62
     3
100
AcDbLine
 10
107.8177591008999
 20
169.9000396728
 30
0.0
 11
101.3206430120999
 21
169.9000396728
 31
0.0
  0
LINE
  5
18F
330
2
100
AcDbEntity
  8
0
 62
     3
100
AcDbLine
 10
107.8177285833999
 20
167.1000366211
 30
0.0
 11
101.3206430120999
 21
167.1000366211
 31
0.0
  0
LINE
  5
190
330
2
100
AcDbEntity
  8
0
 62
     3
100
AcDbLine
 10
107.8177591008999
 20
164.8999633789
 30
0.0
 11
101.3206430120999
 21
164.8999633789
 31
0.0
  0
LINE
  5
191
330
2
100
AcDbEntity
  8
0
 62
     3
100
AcDbLine
 10
107.8177438421999
 20
172.0999450683
 30
0.0
 11
101.3206430120999
 21
172.0999450683
 31
0.0
  0
ARC
  5
192
330
2
100
AcDbEntity
  8
0
 62
     3
100
AcDbCircle
 10
103.8206277532996
 20
168.5000915527
 30
0.0
 40
0.599998951
100
AcDbArc
 50
270.0000726275999
 51
89.99998201389994
  0
ARC
  5
193
330
2
100
AcDbEntity
  8
0
 62
     3
100
AcDbCircle
 10
102.4206338567999
 20
168.5000915527
 30
0.0
 40
0.599998951
100
AcDbArc
 50
89.99998201389999
 51
269.9998914002
  0
LINE
  5
194
330
2
100
AcDbEntity
  8
0
 62
     3
100
AcDbLine
 10
101.3206430120999
 20
169.9000396728
 30
0.0
 11
101.3206430120999
 21
167.1000366211
 31
0.0
  0
LINE
  5
195
330
2
100
AcDbEntity
  8
0
 62
     3
100
AcDbLine
 10
102.420618598
 20
167.9000396728
 30
0.0
 11
103.8206277532996
 21
167.9000396728
 31
0.0
  0
LINE
  5
196
330
2
100
AcDbEntity
  8
0
 62
     3
100
AcDbLine
 10
102.4206796332
 20
162.8999633789
 30
0.0
 11
103.8206430120999
 21
162.8999633789
 31
0.0
  0
LINE
  5
197
330
2
100
AcDbEntity
  8
0
 62
     3
100
AcDbLine
 10
102.4206796332
 20
164.0999603270999
 30
0.0
 11
103.8206430120999
 21
164.0999603270999
 31
0.0
  0
ARC
  5
198
330
2
100
AcDbEntity
  8
0
 62
     3
100
AcDbCircle
 10
102.4206948919999
 20
163.5000152587999
 30
0.0
 40
0.599998951
100
AcDbArc
 50
89.99998201389999
 51
269.9998914002
  0
ARC
  5
199
330
2
100
AcDbEntity
  8
0
 62
     3
100
AcDbCircle
 10
103.8206430120999
 20
163.5000152587999
 30
0.0
 40
0.599998951
100
AcDbArc
 50
270.0000726275999
 51
89.99998201389994
  0
LINE
  5
19A
330
2
100
AcDbEntity
  8
0
 62
     3
100
AcDbLine
 10
102.420618598
 20
169.1000366211
 30
0.0
 11
103.8206277532996
 21
169.1000366211
 31
0.0
  0
LINE
  5
19B
330
2
100
AcDbEntity
  8
0
 62
     3
100
AcDbLine
 10
102.4206338567999
 20
172.8999481200999
 30
0.0
 11
103.8206430120999
 21
172.8999481200999
 31
0.0
  0
ARC
  5
19C
330
2
100
AcDbEntity
  8
0
 62
     3
100
AcDbCircle
 10
108.1177621526999
 20
163.9000091551999
 30
0.0
 40
0.2999997735
100
AcDbArc
 50
179.9999640277999
 51
269.9999460416999
  0
ARC
  5
19D
330
2
100
AcDbEntity
  8
0
 62
     3
100
AcDbCircle
 10
108.1177621526999
 20
163.3000183104999
 30
0.0
 40
0.2999997735
100
AcDbArc
 50
179.9999640277999
 51
269.9999460416999
  0
ARC
  5
19E
330
2
100
AcDbEntity
  8
0
 62
     3
100
AcDbCircle
 10
108.1177621526999
 20
172.9499969482
 30
0.0
 40
0.2999997735
100
AcDbArc
 50
89.99998201389999
 51
179.9999640277999
  0
LINE
  5
19F
330
2
100
AcDbEntity
  8
0
 62
     3
100
AcDbLine
 10
108.5177102727999
 20
174.8999481200999
 30
0.0
 11
101.3206430120999
 21
174.8999481200999
 31
0.0
  0
LINE
  5
1A0
330
2
100
AcDbEntity
  8
0
 62
     3
100
AcDbLine
 10
102.4206338567999
 20
174.0999450682999
 30
0.0
 11
103.8206430120999
 21
174.0999450682999
 31
0.0
  0
LINE
  5
1A1
330
2
100
AcDbEntity
  8
0
 62
     3
100
AcDbLine
 10
108.5177102727999
 20
174.8999481200999
 30
0.0
 11
108.5177102727999
 21
174.1999359131
 31
0.0
  0
ARC
  5
1A2
330
2
100
AcDbEntity
  8
0
 62
     3
100
AcDbCircle
 10
108.1177621526999
 20
173.8999938963999
 30
0.0
 40
0.2999997735
100
AcDbArc
 50
89.99998201389999
 51
180.0000186692996
  0
LINE
  5
1A3
330
2
100
AcDbEntity
  8
0
 62
     3
100
AcDbLine
 10
113.8174656132999
 20
166.0501684161999
 30
0.0
 11
108.8174631022998
 21
165.9999974914
 31
0.0
  0
LINE
  5
1A4
330
2
100
AcDbEntity
  8
0
 62
     3
100
AcDbLine
 10
108.8173085525999
 20
170.9994746918
 30
0.0
 11
113.8173047257996
 21
170.9496700647999
 31
0.0
  0
LINE
  5
1A5
330
2
100
AcDbEntity
  8
0
 62
     3
100
AcDbLine
 10
113.8175149602999
 20
170.9497985839
 30
0.0
 11
113.8175149602999
 21
166.0500946044999
 31
0.0
  0
LINE
  5
1A6
330
2
100
AcDbEntity
  8
0
 62
     3
100
AcDbLine
 10
113.8172708196999
 20
168.0999450683
 30
0.0
 11
113.8172708196999
 21
167.6999206542999
 31
0.0
  0
LINE
  5
1A7
330
2
100
AcDbEntity
  8
0
 62
     3
100
AcDbLine
 10
113.8172708196999
 20
169.2997741698999
 30
0.0
 11
113.8172708196999
 21
168.8997497557999
 31
0.0
  0
LINE
  5
1A8
330
2
100
AcDbEntity
  8
0
 62
     3
100
AcDbLine
 10
108.8177133245999
 20
204.6997985838999
 30
0.0
 11
108.1147409124999
 21
204.6997985838999
 31
0.0
  0
LINE
  5
1A9
330
2
100
AcDbEntity
  8
0
 62
     3
100
AcDbLine
 10
108.8177133245999
 20
206.7997589111
 30
0.0
 11
108.1147409124999
 21
206.7997589111
 31
0.0
  0
LINE
  5
1AA
330
2
100
AcDbEntity
  8
0
 62
     3
100
AcDbLine
 10
108.8177133245999
 20
207.2001495360999
 30
0.0
 11
108.1147561712999
 21
207.2001495360999
 31
0.0
  0
LINE
  5
1AB
330
2
100
AcDbEntity
  8
0
 62
     3
100
AcDbLine
 10
108.8177133245999
 20
204.3001403807999
 30
0.0
 11
108.1147561712999
 21
204.3001403807999
 31
0.0
  0
LINE
  5
1AC
330
2
100
AcDbEntity
  8
0
 62
     3
100
AcDbLine
 10
107.8147531194999
 20
205.2500915527
 30
0.0
 11
101.3177285833999
 21
205.2500915527
 31
0.0
  0
LINE
  5
1AD
330
2
100
AcDbEntity
  8
0
 62
     3
100
AcDbLine
 10
101.3177133245999
 20
205.7499694824
 30
0.0
 11
107.8147531194999
 21
205.7499694824
 31
0.0
  0
LINE
  5
1AE
330
2
100
AcDbEntity
  8
0
 62
     3
100
AcDbLine
 10
101.3169198674999
 20
205.2499694823999
 30
0.0
 11
101.3169198674999
 21
205.7498474121
 31
0.0
  0
ARC
  5
1AF
330
2
100
AcDbEntity
  8
0
 62
     3
100
AcDbCircle
 10
108.1147561712999
 20
204.6005401611
 30
0.0
 40
0.2999997735
100
AcDbArc
 50
180.0000359722
 51
270.0000179861
  0
ARC
  5
1B0
330
2
100
AcDbEntity
  8
0
 62
     3
100
AcDbCircle
 10
108.1147561712999
 20
206.9004669188999
 30
0.0
 40
0.2999997735
100
AcDbArc
 50
89.99998201389999
 51
179.9999093863
  0
ARC
  5
1B1
330
2
100
AcDbEntity
  8
0
 62
     3
100
AcDbCircle
 10
108.1147409124999
 20
205.0000762938999
 30
0.0
 40
0.2999999522999999
100
AcDbArc
 50
180.0000359722
 51
269.9985426651998
  0
ARC
  5
1B2
330
2
100
AcDbEntity
  8
0
 62
     3
100
AcDbCircle
 10
108.1147409124999
 20
206.5000762938999
 30
0.0
 40
0.2999999522999999
100
AcDbArc
 50
90.00156661780001
 51
180.0000186692996
  0
LINE
  5
1B3
330
2
100
AcDbEntity
  8
0
 62
     3
100
AcDbLine
 10
107.8147378606999
 20
206.8999786377
 30
0.0
 11
107.8147378606999
 21
204.6000671385999
 31
0.0
  0
LINE
  5
1B4
330
2
100
AcDbEntity
  8
0
 62
     3
100
AcDbLine
 10
108.8175454778999
 20
201.1499786377
 30
0.0
 11
113.8175454778999
 21
201.1499786377
 31
0.0
  0
LINE
  5
1B5
330
2
100
AcDbEntity
  8
0
 62
     3
100
AcDbLine
 10
108.8175454778999
 20
201.499710083
 30
0.0
 11
113.8175454778999
 21
201.499710083
 31
0.0
  0
LINE
  5
1B6
330
2
100
AcDbEntity
  8
0
 62
     3
100
AcDbLine
 10
110.3176980657996
 20
206.8001708984
 30
0.0
 11
111.8177133245999
 21
206.8001708984
 31
0.0
  0
LINE
  5
1B7
330
2
100
AcDbEntity
  8
0
 62
     3
100
AcDbLine
 10
110.3176980657996
 20
205.0
 30
0.0
 11
111.8177133245999
 21
205.0
 31
0.0
  0
LINE
  5
1B8
330
2
100
AcDbEntity
  8
0
 62
     3
100
AcDbLine
 10
110.3176980657996
 20
206.4999999999999
 30
0.0
 11
111.8177133245999
 21
206.4999999999999
 31
0.0
  0
LINE
  5
1B9
330
2
100
AcDbEntity
  8
0
 62
     3
100
AcDbLine
 10
110.3177133245999
 20
205.0
 30
0.0
 11
110.3177133245999
 21
206.4999999999999
 31
0.0
  0
LINE
  5
1BA
330
2
100
AcDbEntity
  8
0
 62
     3
100
AcDbLine
 10
111.8177133245999
 20
205.0
 30
0.0
 11
111.8177133245999
 21
206.4999999999999
 31
0.0
  0
LINE
  5
1BB
330
2
100
AcDbEntity
  8
0
 62
     3
100
AcDbLine
 10
113.8175454778999
 20
201.499710083
 30
0.0
 11
113.8175454778999
 21
201.0996856688999
 31
0.0
  0
LINE
  5
1BC
330
2
100
AcDbEntity
  8
0
 62
     3
100
AcDbLine
 10
100.8175103281998
 20
211.1004821522997
 30
0.0
 11
101.3171187082999
 21
211.2503646134999
 31
0.0
  0
LINE
  5
1BD
330
2
100
AcDbEntity
  8
0
 62
     3
100
AcDbLine
 10
101.3176392481998
 20
210.7501673412
 30
0.0
 11
100.8176508710999
 21
210.9001638325998
 31
0.0
  0
LINE
  5
1BE
330
2
100
AcDbEntity
  8
0
 62
     3
100
AcDbLine
 10
100.8177133245999
 20
210.8999786377
 30
0.0
 11
100.8177133245999
 21
211.1000518797998
 31
0.0
  0
LINE
  5
1BF
330
2
100
AcDbEntity
  8
0
 62
     3
100
AcDbLine
 10
108.8177133245999
 20
212.7001495360999
 30
0.0
 11
108.1147561712999
 21
212.7001495360999
 31
0.0
  0
LINE
  5
1C0
330
2
100
AcDbEntity
  8
0
 62
     3
100
AcDbLine
 10
108.8177133245999
 20
209.8001403807999
 30
0.0
 11
108.1147561712999
 21
209.8001403807999
 31
0.0
  0
LINE
  5
1C1
330
2
100
AcDbEntity
  8
0
 62
     3
100
AcDbLine
 10
108.8177133245999
 20
210.1997985838999
 30
0.0
 11
108.1147409124999
 21
210.1997985838999
 31
0.0
  0
LINE
  5
1C2
330
2
100
AcDbEntity
  8
0
 62
     3
100
AcDbLine
 10
108.8177133245999
 20
212.2997589111
 30
0.0
 11
108.1147409124999
 21
212.2997589111
 31
0.0
  0
LINE
  5
1C3
330
2
100
AcDbEntity
  8
0
 62
     3
100
AcDbLine
 10
107.8147531194999
 20
210.7500915526999
 30
0.0
 11
101.3177285833999
 21
210.7500915526999
 31
0.0
  0
LINE
  5
1C4
330
2
100
AcDbEntity
  8
0
 62
     3
100
AcDbLine
 10
101.3177133245999
 20
211.2499542236
 30
0.0
 11
107.8147531194999
 21
211.2499542236
 31
0.0
  0
LINE
  5
1C5
330
2
100
AcDbEntity
  8
0
 62
     3
100
AcDbLine
 10
101.3169351262999
 20
210.7499542235999
 30
0.0
 11
101.3169351262999
 21
211.2498321533
 31
0.0
  0
ARC
  5
1C6
330
2
100
AcDbEntity
  8
0
 62
     3
100
AcDbCircle
 10
108.1147561712999
 20
210.1005401611
 30
0.0
 40
0.2999997735
100
AcDbArc
 50
180.0000359722
 51
270.0000179861
  0
ARC
  5
1C7
330
2
100
AcDbEntity
  8
0
 62
     3
100
AcDbCircle
 10
108.1147561712999
 20
212.4004669188999
 30
0.0
 40
0.2999997735
100
AcDbArc
 50
89.99998201389999
 51
179.9999093863
  0
ARC
  5
1C8
330
2
100
AcDbEntity
  8
0
 62
     3
100
AcDbCircle
 10
108.1147409124999
 20
210.5000762938999
 30
0.0
 40
0.2999999522999999
100
AcDbArc
 50
180.0000359722
 51
269.9985426651998
  0
ARC
  5
1C9
330
2
100
AcDbEntity
  8
0
 62
     3
100
AcDbCircle
 10
108.1147409124999
 20
212.0000762938999
 30
0.0
 40
0.2999999522999999
100
AcDbArc
 50
90.00156661780001
 51
180.0000186692996
  0
LINE
  5
1CA
330
2
100
AcDbEntity
  8
0
 62
     3
100
AcDbLine
 10
107.8147531194999
 20
212.3999786376999
 30
0.0
 11
107.8147531194999
 21
210.1000518798
 31
0.0
  0
LINE
  5
1CB
330
2
100
AcDbEntity
  8
0
 62
     3
100
AcDbLine
 10
108.8175149602999
 20
215.8495788573998
 30
0.0
 11
113.8175454778999
 21
215.8495788573998
 31
0.0
  0
LINE
  5
1CC
330
2
100
AcDbEntity
  8
0
 62
     3
100
AcDbLine
 10
108.8175149602999
 20
215.4992370605
 30
0.0
 11
113.8175454778999
 21
215.4992370605
 31
0.0
  0
LINE
  5
1CD
330
2
100
AcDbEntity
  8
0
 62
     3
100
AcDbLine
 10
110.3176980657996
 20
210.2001953124999
 30
0.0
 11
111.8177133245999
 21
210.2001953124999
 31
0.0
  0
LINE
  5
1CE
330
2
100
AcDbEntity
  8
0
 62
     3
100
AcDbLine
 10
110.3176980657996
 20
212.0
 30
0.0
 11
111.8177133245999
 21
212.0
 31
0.0
  0
LINE
  5
1CF
330
2
100
AcDbEntity
  8
0
 62
     3
100
AcDbLine
 10
110.3175759954998
 20
210.4999999999999
 30
0.0
 11
111.8177133245999
 21
210.4999999999999
 31
0.0
  0
LINE
  5
1D0
330
2
100
AcDbEntity
  8
0
 62
     3
100
AcDbLine
 10
110.3177133245999
 20
210.4999999999999
 30
0.0
 11
110.3177133245999
 21
212.0
 31
0.0
  0
LINE
  5
1D1
330
2
100
AcDbEntity
  8
0
 62
     3
100
AcDbLine
 10
111.8177133245999
 20
210.4999999999999
 30
0.0
 11
111.8177133245999
 21
212.0
 31
0.0
  0
LINE
  5
1D2
330
2
100
AcDbEntity
  8
0
 62
     3
100
AcDbLine
 10
113.8172601668999
 20
215.8996680872
 30
0.0
 11
113.8172525374999
 21
215.4997657434999
 31
0.0
  0
ARC
  5
1D3
330
2
100
AcDbEntity
  8
0
 62
     3
100
AcDbCircle
 10
152.7478433294999
 20
209.1364135741998
 30
0.0
 40
8.9301567078
100
AcDbArc
 50
143.8352598444
 51
216.1646682113
  0
LINE
  5
1D4
330
2
100
AcDbEntity
  8
0
 62
     3
100
AcDbLine
 10
128.0171151799999
 20
202.5002288818
 30
0.0
 11
128.0171151799999
 21
214.500213623
 31
0.0
  0
LINE
  5
1D5
330
2
100
AcDbEntity
  8
0
 62
     3
100
AcDbLine
 10
123.2171579046999
 20
211.5000152588
 30
0.0
 11
123.2171579046999
 21
205.5000305175
 31
0.0
  0
LINE
  5
1D6
330
2
100
AcDbEntity
  8
0
 62
     3
100
AcDbLine
 10
139.8176828069999
 20
201.1999969482
 30
0.0
 11
139.8176828069999
 21
215.8001403807999
 31
0.0
  0
LINE
  5
1D7
330
2
100
AcDbEntity
  8
0
 62
     3
100
AcDbLine
 10
138.5177255315997
 20
196.7999938833999
 30
0.0
 11
138.5177255315997
 21
220.1999844441999
 31
0.0
  0
LINE
  5
1D8
330
2
100
AcDbEntity
  8
0
 62
     3
100
AcDbLine
 10
138.8176828069999
 20
197.0999536939
 30
0.0
 11
138.8176828069999
 21
219.9000156588999
 31
0.0
  0
LINE
  5
1D9
330
2
100
AcDbEntity
  8
0
 62
     3
100
AcDbLine
 10
127.0170236272999
 20
217.3999176024998
 30
0.0
 11
127.0170236272999
 21
199.5999298095
 31
0.0
  0
LINE
  5
1DA
330
2
100
AcDbEntity
  8
0
 62
     3
100
AcDbLine
 10
130.2176767034999
 20
199.7999877928999
 30
0.0
 11
130.2176767034999
 21
217.2002410888
 31
0.0
  0
LINE
  5
1DB
330
2
100
AcDbEntity
  8
0
 62
     3
100
AcDbLine
 10
127.0171151799999
 20
199.6002197264998
 30
0.0
 11
127.0171151799999
 21
217.3997650145999
 31
0.0
  0
LINE
  5
1DC
330
2
100
AcDbEntity
  8
0
 62
     3
100
AcDbLine
 10
130.8176828069999
 20
196.6500000039
 30
0.0
 11
130.8176828069999
 21
220.349993596
 31
0.0
  0
LINE
  5
1DD
330
2
100
AcDbEntity
  8
0
 62
     3
100
AcDbLine
 10
118.8177133245999
 20
201.1003417967999
 30
0.0
 11
118.8177133245999
 21
215.9002838133996
 31
0.0
  0
LINE
  5
1DE
330
2
100
AcDbEntity
  8
0
 62
     3
100
AcDbLine
 10
130.8176803657999
 20
196.6499999563
 30
0.0
 11
138.5177272508999
 21
196.7999939168999
 31
0.0
  0
LINE
  5
1DF
330
2
100
AcDbEntity
  8
0
 62
     3
100
AcDbLine
 10
130.8176602146998
 20
177.4999733443999
 30
0.0
 11
138.5177072647999
 21
177.3555886571999
 31
0.0
  0
LINE
  5
1E0
330
2
100
AcDbEntity
  8
0
 62
     3
100
AcDbLine
 10
123.2175546331998
 20
177.4000091551998
 30
0.0
 11
127.0175271673999
 21
177.4000091551998
 31
0.0
  0
LINE
  5
1E1
330
2
100
AcDbEntity
  8
0
 62
     3
100
AcDbLine
 10
122.0175576848999
 20
176.8791809082
 30
0.0
 11
122.0175576848999
 21
171.5000152588
 31
0.0
  0
LINE
  5
1E2
330
2
100
AcDbEntity
  8
0
 62
     3
100
AcDbLine
 10
119.2176004094999
 20
172.4998779297
 30
0.0
 11
119.2176004094999
 21
176.4998931884
 31
0.0
  0
LINE
  5
1E3
330
2
100
AcDbEntity
  8
0
 62
     3
100
AcDbLine
 10
122.0175424260999
 20
164.5004272461
 30
0.0
 11
119.2176004094999
 21
164.5004272461
 31
0.0
  0
LINE
  5
1E4
330
2
100
AcDbEntity
  8
0
 62
     3
100
AcDbLine
 10
119.2176004094999
 20
172.4998931883999
 30
0.0
 11
122.0175424260999
 21
172.4998931883999
 31
0.0
  0
ARC
  5
1E5
330
2
100
AcDbEntity
  8
0
 62
     3
100
AcDbCircle
 10
139.0176339788999
 20
168.4997711180998
 30
0.0
 40
20.200012207
100
AcDbArc
 50
168.5787949053
 51
191.4211331503
  0
LINE
  5
1E6
330
2
100
AcDbEntity
  8
0
 62
     3
100
AcDbLine
 10
123.2175546331998
 20
171.5000152588
 30
0.0
 11
123.2175546331998
 21
165.5000305175
 31
0.0
  0
LINE
  5
1E7
330
2
100
AcDbEntity
  8
0
 62
     3
100
AcDbLine
 10
123.2175546331998
 20
165.5000305175
 30
0.0
 11
122.0175576848999
 21
165.5000305175
 31
0.0
  0
LINE
  5
1E8
330
2
100
AcDbEntity
  8
0
 62
     3
100
AcDbLine
 10
122.0175576848999
 20
171.5000152588
 30
0.0
 11
123.2175546331998
 21
171.5000152588
 31
0.0
  0
LINE
  5
1E9
330
2
100
AcDbEntity
  8
0
 62
     3
100
AcDbLine
 10
119.2176004094999
 20
176.4998931884
 30
0.0
 11
122.0175424260999
 21
176.4998931884
 31
0.0
  0
LINE
  5
1EA
330
2
100
AcDbEntity
  8
0
 62
     3
100
AcDbLine
 10
118.8176980657999
 20
175.8997955322
 30
0.0
 11
122.0175424260999
 21
175.8997955322
 31
0.0
  0
LINE
  5
1EB
330
2
100
AcDbEntity
  8
0
 62
     3
100
AcDbLine
 10
118.8165448802999
 20
175.8992723245
 30
0.0
 11
119.2165897225999
 21
176.4993399534
 31
0.0
  0
LINE
  5
1EC
330
2
100
AcDbEntity
  8
0
 62
     3
100
AcDbLine
 10
123.2175546331998
 20
177.4000091551998
 30
0.0
 11
123.2175546331998
 21
176.8791809082
 31
0.0
  0
LINE
  5
1ED
330
2
100
AcDbEntity
  8
0
 62
     3
100
AcDbLine
 10
123.2175546331998
 20
176.8791809082
 30
0.0
 11
122.0175576848999
 21
176.8791809082
 31
0.0
  0
LINE
  5
1EE
330
2
100
AcDbEntity
  8
0
 62
     3
100
AcDbLine
 10
128.0175119086
 20
162.4999694823999
 30
0.0
 11
128.0175119086
 21
174.4999694824
 31
0.0
  0
LINE
  5
1EF
330
2
100
AcDbEntity
  8
0
 62
     3
100
AcDbLine
 10
124.0175424260999
 20
173.4595031738
 30
0.0
 11
124.0175424260999
 21
174.3345184325999
 31
0.0
  0
LINE
  5
1F0
330
2
100
AcDbEntity
  8
0
 62
     3
100
AcDbLine
 10
127.0175271673999
 20
162.6655120849
 30
0.0
 11
124.0175424260999
 21
162.6655120849
 31
0.0
  0
LINE
  5
1F1
330
2
100
AcDbEntity
  8
0
 62
     3
100
AcDbLine
 10
127.0175271673999
 20
163.5405273437
 30
0.0
 11
124.0175424260999
 21
163.5405273437
 31
0.0
  0
LINE
  5
1F2
330
2
100
AcDbEntity
  8
0
 62
     3
100
AcDbLine
 10
127.0175271673999
 20
164.5797424316
 30
0.0
 11
124.0175424260999
 21
164.5797424316
 31
0.0
  0
LINE
  5
1F3
330
2
100
AcDbEntity
  8
0
 62
     3
100
AcDbLine
 10
127.0175271673999
 20
165.6221923828
 30
0.0
 11
124.0175424260999
 21
165.6221923828
 31
0.0
  0
LINE
  5
1F4
330
2
100
AcDbEntity
  8
0
 62
     3
100
AcDbLine
 10
127.0175271673999
 20
166.8075561523
 30
0.0
 11
124.0175424260999
 21
166.8075561523
 31
0.0
  0
LINE
  5
1F5
330
2
100
AcDbEntity
  8
0
 62
     3
100
AcDbLine
 10
127.0175271673999
 20
167.9000091552
 30
0.0
 11
124.0175424260999
 21
167.9000091552
 31
0.0
  0
LINE
  5
1F6
330
2
100
AcDbEntity
  8
0
 62
     3
100
AcDbLine
 10
124.0175424260999
 20
162.6655120849
 30
0.0
 11
124.0175424260999
 21
163.5405273437
 31
0.0
  0
LINE
  5
1F7
330
2
100
AcDbEntity
  8
0
 62
     3
100
AcDbLine
 10
124.0175424260999
 20
165.6221923828
 30
0.0
 11
124.0175424260999
 21
164.5797424316
 31
0.0
  0
LINE
  5
1F8
330
2
100
AcDbEntity
  8
0
 62
     3
100
AcDbLine
 10
124.0175424260999
 20
167.9000091552
 30
0.0
 11
124.0175424260999
 21
166.8075561523
 31
0.0
  0
LINE
  5
1F9
330
2
100
AcDbEntity
  8
0
 62
     3
100
AcDbLine
 10
124.0175424260999
 20
173.4595031738
 30
0.0
 11
127.0175271673999
 21
173.4595031738
 31
0.0
  0
LINE
  5
1FA
330
2
100
AcDbEntity
  8
0
 62
     3
100
AcDbLine
 10
124.0175424260999
 20
172.4202880859
 30
0.0
 11
127.0175271673999
 21
172.4202880859
 31
0.0
  0
LINE
  5
1FB
330
2
100
AcDbEntity
  8
0
 62
     3
100
AcDbLine
 10
124.0175424260999
 20
171.3778381346999
 30
0.0
 11
127.0175271673999
 21
171.3778381346999
 31
0.0
  0
LINE
  5
1FC
330
2
100
AcDbEntity
  8
0
 62
     3
100
AcDbLine
 10
124.0175424260999
 20
170.1924743652
 30
0.0
 11
127.0175271673999
 21
170.1924743652
 31
0.0
  0
LINE
  5
1FD
330
2
100
AcDbEntity
  8
0
 62
     3
100
AcDbLine
 10
124.0175424260999
 20
169.1000213623
 30
0.0
 11
127.0175271673999
 21
169.1000213623
 31
0.0
  0
LINE
  5
1FE
330
2
100
AcDbEntity
  8
0
 62
     3
100
AcDbLine
 10
124.0175424260999
 20
172.4202880859
 30
0.0
 11
124.0175424260999
 21
171.3778381346999
 31
0.0
  0
LINE
  5
1FF
330
2
100
AcDbEntity
  8
0
 62
     3
100
AcDbLine
 10
124.0175424260999
 20
170.1924743652
 30
0.0
 11
124.0175424260999
 21
169.1000213623
 31
0.0
  0
LINE
  5
200
330
2
100
AcDbEntity
  8
0
 62
     3
100
AcDbLine
 10
130.2176767034999
 20
164.5004272461
 30
0.0
 11
128.0175119086
 21
164.5004272461
 31
0.0
  0
LINE
  5
201
330
2
100
AcDbEntity
  8
0
 62
     3
100
AcDbLine
 10
128.0175119086
 20
172.4998931883999
 30
0.0
 11
130.2176767034999
 21
172.4998931883999
 31
0.0
  0
LINE
  5
202
330
2
100
AcDbEntity
  8
0
 62
     3
100
AcDbLine
 10
127.0175191633999
 20
174.6648402216
 30
0.0
 11
127.9616237811999
 21
177.4499860133
 31
0.0
  0
LINE
  5
203
330
2
100
AcDbEntity
  8
0
 62
     3
100
AcDbLine
 10
127.0175119085999
 20
177.450012207
 30
0.0
 11
127.9616189641999
 21
177.450012207
 31
0.0
  0
LINE
  5
204
330
2
100
AcDbEntity
  8
0
 62
     3
100
AcDbLine
 10
124.0175424260999
 20
176.9132232665999
 30
0.0
 11
127.0175271673999
 21
176.9132232665999
 31
0.0
  0
LINE
  5
205
330
2
100
AcDbEntity
  8
0
 62
     3
100
AcDbLine
 10
124.0175424260999
 20
176.4900970459
 30
0.0
 11
127.0175271673999
 21
176.4900970459
 31
0.0
  0
LINE
  5
206
330
2
100
AcDbEntity
  8
0
 62
     3
100
AcDbLine
 10
124.0175424260999
 20
175.8901062010999
 30
0.0
 11
127.0175271673999
 21
175.8901062010999
 31
0.0
  0
LINE
  5
207
330
2
100
AcDbEntity
  8
0
 62
     3
100
AcDbLine
 10
124.0175424260999
 20
175.2032165527
 30
0.0
 11
127.0175271673999
 21
175.2032165527
 31
0.0
  0
LINE
  5
208
330
2
100
AcDbEntity
  8
0
 62
     3
100
AcDbLine
 10
124.0175424260999
 20
174.3345184325999
 30
0.0
 11
127.0175271673999
 21
174.3345184325999
 31
0.0
  0
LINE
  5
209
330
2
100
AcDbEntity
  8
0
 62
     3
100
AcDbLine
 10
124.0176034612999
 20
176.9132690429
 30
0.0
 11
124.0176034612999
 21
176.4901580809999
 31
0.0
  0
LINE
  5
20A
330
2
100
AcDbEntity
  8
0
 62
     3
100
AcDbLine
 10
124.0175424260999
 20
175.2032165527
 30
0.0
 11
124.0175424260999
 21
175.8901062010999
 31
0.0
  0
LINE
  5
20B
330
2
100
AcDbEntity
  8
0
 62
     3
100
AcDbLine
 10
128.6954446477999
 20
176.4998931884
 30
0.0
 11
129.9184060735999
 21
176.4998931884
 31
0.0
  0
LINE
  5
20C
330
2
100
AcDbEntity
  8
0
 62
     3
100
AcDbLine
 10
128.492014472
 20
175.8997955322
 30
0.0
 11
130.2176767034999
 21
175.8997955322
 31
0.0
  0
LINE
  5
20D
330
2
100
AcDbEntity
  8
0
 62
     3
100
AcDbLine
 10
128.0175161133996
 20
174.4999971495999
 30
0.0
 11
128.9086716325999
 21
177.1289410161
 31
0.0
  0
LINE
  5
20E
330
2
100
AcDbEntity
  8
0
 62
     3
100
AcDbLine
 10
127.9616426226999
 20
177.4499783015
 30
0.0
 11
128.9086924522
 21
177.1289392916999
 31
0.0
  0
LINE
  5
20F
330
2
100
AcDbEntity
  8
0
 62
     3
100
AcDbLine
 10
130.2186732528999
 20
175.8991866259999
 30
0.0
 11
129.9186811418999
 21
176.4992778177
 31
0.0
  0
LINE
  5
210
330
2
100
AcDbEntity
  8
0
 62
     3
100
AcDbLine
 10
130.2176767034999
 20
177.200012207
 30
0.0
 11
130.8176828069999
 21
177.200012207
 31
0.0
  0
LINE
  5
211
330
2
100
AcDbEntity
  8
0
 62
     3
100
AcDbLine
 10
127.0171151799999
 20
199.6000213622999
 30
0.0
 11
123.2171426458999
 21
199.6000213622999
 31
0.0
  0
LINE
  5
212
330
2
100
AcDbEntity
  8
0
 62
     3
100
AcDbLine
 10
120.2695846960999
 20
201.1346488316
 30
0.0
 11
119.8192119825
 21
207.8001761422999
 31
0.0
  0
LINE
  5
213
330
2
100
AcDbEntity
  8
0
 62
     3
100
AcDbLine
 10
119.2700753850999
 20
207.8002471922999
 30
0.0
 11
123.2171426458999
 21
207.8002471922999
 31
0.0
  0
LINE
  5
214
330
2
100
AcDbEntity
  8
0
 62
     3
100
AcDbLine
 10
119.8639826196999
 20
206.421987535
 30
0.0
 11
119.4046123154999
 21
205.8036954754
 31
0.0
  0
LINE
  5
215
330
2
100
AcDbEntity
  8
0
 62
     3
100
AcDbLine
 10
119.8645958431999
 20
206.4220380639
 30
0.0
 11
119.2704067059999
 21
207.7993322763999
 31
0.0
  0
LINE
  5
216
330
2
100
AcDbEntity
  8
0
 62
     3
100
AcDbLine
 10
119.2236753622998
 20
201.0639794001999
 30
0.0
 11
118.8662238833999
 21
206.3542701373
 31
0.0
  0
LINE
  5
217
330
2
100
AcDbEntity
  8
0
 62
     3
100
AcDbLine
 10
119.7207556815999
 20
201.1009763206
 30
0.0
 11
119.4029021671999
 21
205.8052162025
 31
0.0
  0
LINE
  5
218
330
2
100
AcDbEntity
  8
0
 62
     3
100
AcDbLine
 10
119.4047430762999
 20
205.8033143345
 30
0.0
 11
118.8664267817
 21
206.3540503113999
 31
0.0
  0
LINE
  5
219
330
2
100
AcDbEntity
  8
0
 62
     3
100
AcDbLine
 10
119.2696870332996
 20
207.798768434
 30
0.0
 11
118.8661593916999
 21
206.3539391481
 31
0.0
  0
LINE
  5
21A
330
2
100
AcDbEntity
  8
0
 62
     3
100
AcDbLine
 10
122.0171609563999
 20
205.5000305175
 30
0.0
 11
122.0171609563999
 21
200.1209106445
 31
0.0
  0
LINE
  5
21B
330
2
100
AcDbEntity
  8
0
 62
     3
100
AcDbLine
 10
120.3192365105999
 20
207.8001627134999
 30
0.0
 11
120.7719288347999
 21
201.1003051084999
 31
0.0
  0
LINE
  5
21C
330
2
100
AcDbEntity
  8
0
 62
     3
100
AcDbLine
 10
120.8144884963999
 20
207.8001632749999
 30
0.0
 11
121.2671859637999
 21
201.1002295496
 31
0.0
  0
LINE
  5
21D
330
2
100
AcDbEntity
  8
0
 62
     3
100
AcDbLine
 10
122.0171609563999
 20
200.1209106445
 30
0.0
 11
123.2171579046999
 21
200.1209106445
 31
0.0
  0
LINE
  5
21E
330
2
100
AcDbEntity
  8
0
 62
     3
100
AcDbLine
 10
123.2171146790999
 20
199.6000109236
 30
0.0
 11
123.2171299378999
 21
200.1209002057998
 31
0.0
  0
LINE
  5
21F
330
2
100
AcDbEntity
  8
0
 62
     3
100
AcDbLine
 10
123.2171579046999
 20
205.5000305175
 30
0.0
 11
122.0171609563999
 21
205.5000305175
 31
0.0
  0
LINE
  5
220
330
2
100
AcDbEntity
  8
0
 62
     3
100
AcDbLine
 10
127.0171304387999
 20
199.5502471922998
 30
0.0
 11
127.9612222356999
 21
199.5502471922998
 31
0.0
  0
LINE
  5
221
330
2
100
AcDbEntity
  8
0
 62
     3
100
AcDbLine
 10
127.0171585454999
 20
202.3353104457
 30
0.0
 11
127.9612440852999
 21
199.550206605
 31
0.0
  0
LINE
  5
222
330
2
100
AcDbEntity
  8
0
 62
     3
100
AcDbLine
 10
127.0171304387999
 20
201.7968139648
 30
0.0
 11
124.0171456975996
 21
201.7968139648
 31
0.0
  0
LINE
  5
223
330
2
100
AcDbEntity
  8
0
 62
     3
100
AcDbLine
 10
127.0171304387999
 20
201.1099243163999
 30
0.0
 11
124.0171456975996
 21
201.1099243163999
 31
0.0
  0
LINE
  5
224
330
2
100
AcDbEntity
  8
0
 62
     3
100
AcDbLine
 10
127.0171304387999
 20
200.5099334715999
 30
0.0
 11
124.0171456975996
 21
200.5099334715999
 31
0.0
  0
LINE
  5
225
330
2
100
AcDbEntity
  8
0
 62
     3
100
AcDbLine
 10
127.0171304387999
 20
200.0868072508999
 30
0.0
 11
124.0171456975996
 21
200.0868072508999
 31
0.0
  0
LINE
  5
226
330
2
100
AcDbEntity
  8
0
 62
     3
100
AcDbLine
 10
124.0171456975996
 20
201.1099243163999
 30
0.0
 11
124.0171456975996
 21
201.7968139648
 31
0.0
  0
LINE
  5
227
330
2
100
AcDbEntity
  8
0
 62
     3
100
AcDbLine
 10
124.0170236273
 20
200.5098266600999
 30
0.0
 11
124.0170236273
 21
200.0867156982
 31
0.0
  0
LINE
  5
228
330
2
100
AcDbEntity
  8
0
 62
     3
100
AcDbLine
 10
127.0171304387999
 20
207.9000091551999
 30
0.0
 11
124.0171456975996
 21
207.9000091551999
 31
0.0
  0
LINE
  5
229
330
2
100
AcDbEntity
  8
0
 62
     3
100
AcDbLine
 10
127.0171304387999
 20
206.8075561522999
 30
0.0
 11
124.0171456975996
 21
206.8075561522999
 31
0.0
  0
LINE
  5
22A
330
2
100
AcDbEntity
  8
0
 62
     3
100
AcDbLine
 10
127.0171304387999
 20
205.6221923828
 30
0.0
 11
124.0171456975996
 21
205.6221923828
 31
0.0
  0
LINE
  5
22B
330
2
100
AcDbEntity
  8
0
 62
     3
100
AcDbLine
 10
127.0171304387999
 20
204.5797424315999
 30
0.0
 11
124.0171456975996
 21
204.5797424315999
 31
0.0
  0
LINE
  5
22C
330
2
100
AcDbEntity
  8
0
 62
     3
100
AcDbLine
 10
127.0171304387999
 20
203.5405273436999
 30
0.0
 11
124.0171456975996
 21
203.5405273436999
 31
0.0
  0
LINE
  5
22D
330
2
100
AcDbEntity
  8
0
 62
     3
100
AcDbLine
 10
127.0171304387999
 20
202.6655120849
 30
0.0
 11
124.0171456975996
 21
202.6655120849
 31
0.0
  0
LINE
  5
22E
330
2
100
AcDbEntity
  8
0
 62
     3
100
AcDbLine
 10
124.0171456975996
 20
207.9000091551999
 30
0.0
 11
124.0171456975996
 21
206.8075561522999
 31
0.0
  0
LINE
  5
22F
330
2
100
AcDbEntity
  8
0
 62
     3
100
AcDbLine
 10
124.0171456975996
 20
205.6221923828
 30
0.0
 11
124.0171456975996
 21
204.5797424315999
 31
0.0
  0
LINE
  5
230
330
2
100
AcDbEntity
  8
0
 62
     3
100
AcDbLine
 10
124.0171456975996
 20
202.6655120849
 30
0.0
 11
124.0171456975996
 21
203.5405273436999
 31
0.0
  0
LINE
  5
231
330
2
100
AcDbEntity
  8
0
 62
     3
100
AcDbLine
 10
128.0171505832996
 20
202.5002146518999
 30
0.0
 11
128.9083117632999
 21
199.8712405595999
 31
0.0
  0
LINE
  5
232
330
2
100
AcDbEntity
  8
0
 62
     3
100
AcDbLine
 10
128.4916940375
 20
201.1002349852999
 30
0.0
 11
130.2176767034999
 21
201.1002349852999
 31
0.0
  0
LINE
  5
233
330
2
100
AcDbEntity
  8
0
 62
     3
100
AcDbLine
 10
127.9612252512999
 20
199.550198955
 30
0.0
 11
128.9082941809999
 21
199.8712291545
 31
0.0
  0
LINE
  5
234
330
2
100
AcDbEntity
  8
0
 62
     3
100
AcDbLine
 10
130.2176767034999
 20
199.8002471923
 30
0.0
 11
130.8176828069999
 21
199.8002471923
 31
0.0
  0
LINE
  5
235
330
2
100
AcDbEntity
  8
0
 62
     3
100
AcDbLine
 10
128.0171304388
 20
207.8002471922999
 30
0.0
 11
130.2176767034999
 21
207.8002471922999
 31
0.0
  0
ARC
  5
236
330
2
100
AcDbEntity
  8
0
 62
     3
100
AcDbCircle
 10
152.3245492620999
 20
167.8635864257
 30
0.0
 40
9.506862640399999
100
AcDbArc
 50
141.8800772133
 51
162.7054879172
  0
ARC
  5
237
330
2
100
AcDbEntity
  8
0
 62
     3
100
AcDbCircle
 10
152.3245492620999
 20
169.1363677978
 30
0.0
 40
9.506862640399999
100
AcDbArc
 50
141.8800772133
 51
162.7054879172
  0
LINE
  5
238
330
2
100
AcDbEntity
  8
0
 62
     3
100
AcDbLine
 10
139.8176828069999
 20
170.3384552002
 30
0.0
 11
142.7701059026998
 21
170.3384552002
 31
0.0
  0
LINE
  5
239
330
2
100
AcDbEntity
  8
0
 62
     3
100
AcDbLine
 10
139.8176828069999
 20
165.3887023924999
 30
0.0
 11
142.5517984075999
 21
165.3887023924999
 31
0.0
  0
LINE
  5
23A
330
2
100
AcDbEntity
  8
0
 62
     3
100
AcDbLine
 10
139.8176828069999
 20
171.6112365722
 30
0.0
 11
142.7701059026998
 21
171.6112365722
 31
0.0
  0
ARC
  5
23B
330
2
100
AcDbEntity
  8
0
 62
     3
100
AcDbCircle
 10
139.0859018010999
 20
158.9156646728
 30
0.0
 40
10.0
100
AcDbArc
 50
74.14651189369998
 51
85.80345914629999
  0
LINE
  5
23C
330
2
100
AcDbEntity
  8
0
 62
     3
100
AcDbLine
 10
139.8176828069999
 20
170.1615905761
 30
0.0
 11
141.8176828069999
 21
170.1615905761
 31
0.0
  0
LINE
  5
23D
330
2
100
AcDbEntity
  8
0
 62
     3
100
AcDbLine
 10
139.8176828069999
 20
168.5352935791
 30
0.0
 11
141.8176828069999
 21
168.5352935791
 31
0.0
  0
LINE
  5
23E
330
2
100
AcDbEntity
  8
0
 62
     3
100
AcDbLine
 10
141.8176828069999
 20
170.1615905761
 30
0.0
 11
141.8176828069999
 21
168.5352935791
 31
0.0
  0
ARC
  5
23F
330
2
100
AcDbEntity
  8
0
 62
     3
100
AcDbCircle
 10
152.7478433294999
 20
167.8635864257
 30
0.0
 40
8.9301567078
100
AcDbArc
 50
143.8352598444
 51
216.1646682113
  0
ARC
  5
240
330
2
100
AcDbEntity
  8
0
 62
     3
100
AcDbCircle
 10
142.5517984075999
 20
164.5886993408
 30
0.0
 40
0.8000000119
100
AcDbArc
 50
18.52613338779998
 51
89.99998201389999
  0
ARC
  5
241
330
2
100
AcDbEntity
  8
0
 62
     3
100
AcDbCircle
 10
142.7701059026998
 20
170.8384552002
 30
0.0
 40
0.5
100
AcDbArc
 50
270.0000179861
 51
342.7054931535999
  0
ARC
  5
242
330
2
100
AcDbEntity
  8
0
 62
     3
100
AcDbCircle
 10
142.7701059026998
 20
172.1112365721999
 30
0.0
 40
0.5
100
AcDbArc
 50
270.0000179861
 51
342.7054931535999
  0
ARC
  5
243
330
2
100
AcDbEntity
  8
0
 62
     3
100
AcDbCircle
 10
139.3176828069999
 20
175.8001403808
 30
0.0
 40
0.5
100
AcDbArc
 50
0.0
 51
89.99998201389999
  0
LINE
  5
244
330
2
100
AcDbEntity
  8
0
 62
     3
100
AcDbLine
 10
138.5177407850999
 20
177.3555729119
 30
0.0
 11
138.8176817886
 21
177.0441538493999
 31
0.0
  0
LINE
  5
245
330
2
100
AcDbEntity
  8
0
 62
     3
100
AcDbLine
 10
138.8176828069999
 20
176.3001403807999
 30
0.0
 11
139.3176828069999
 21
176.3001403807999
 31
0.0
  0
LINE
  5
246
330
2
100
AcDbEntity
  8
0
 62
     3
100
AcDbLine
 10
144.8453012151998
 20
175.0050354004
 30
0.0
 11
144.8453012151998
 21
173.7322540283
 31
0.0
  0
LINE
  5
247
330
2
100
AcDbEntity
  8
0
 62
     3
100
AcDbLine
 10
139.8176828069999
 20
206.6615447998
 30
0.0
 11
142.7701059026998
 21
206.6615447998
 31
0.0
  0
LINE
  5
248
330
2
100
AcDbEntity
  8
0
 62
     3
100
AcDbLine
 10
139.8176828069999
 20
205.3887634277
 30
0.0
 11
142.7701059026998
 21
205.3887634277
 31
0.0
  0
LINE
  5
249
330
2
100
AcDbEntity
  8
0
 62
     3
100
AcDbLine
 10
138.5177087623999
 20
196.7999796493
 30
0.0
 11
138.8176702382999
 21
197.0999411252
 31
0.0
  0
ARC
  5
24A
330
2
100
AcDbEntity
  8
0
 62
     3
100
AcDbCircle
 10
139.3176828069999
 20
201.1999969482
 30
0.0
 40
0.5
100
AcDbArc
 50
270.0000179861
 51
0.0
  0
LINE
  5
24B
330
2
100
AcDbEntity
  8
0
 62
     3
100
AcDbLine
 10
138.8176828069999
 20
200.6999969481999
 30
0.0
 11
139.3176828069999
 21
200.6999969481999
 31
0.0
  0
ARC
  5
24C
330
2
100
AcDbEntity
  8
0
 62
     3
100
AcDbCircle
 10
152.3245492620999
 20
207.8636322021
 30
0.0
 40
9.506862640399999
100
AcDbArc
 50
197.2945120828
 51
218.1199227866998
  0
LINE
  5
24D
330
2
100
AcDbEntity
  8
0
 62
     3
100
AcDbLine
 10
144.8453012151998
 20
201.9949493408
 30
0.0
 11
144.8453012151998
 21
203.2677459716
 31
0.0
  0
ARC
  5
24E
330
2
100
AcDbEntity
  8
0
 62
     3
100
AcDbCircle
 10
152.3245492620999
 20
209.1364135741998
 30
0.0
 40
9.506862640399999
100
AcDbArc
 50
197.2945120828
 51
218.1199227866998
  0
ARC
  5
24F
330
2
100
AcDbEntity
  8
0
 62
     3
100
AcDbCircle
 10
142.7701059026998
 20
206.1615447998
 30
0.0
 40
0.5
100
AcDbArc
 50
17.2945068464
 51
89.99998201389999
  0
ARC
  5
250
330
2
100
AcDbEntity
  8
0
 62
     3
100
AcDbCircle
 10
142.7701059026998
 20
204.8887634277
 30
0.0
 40
0.5
100
AcDbArc
 50
17.2945068464
 51
89.99998201389999
  0
LINE
  5
251
330
2
100
AcDbEntity
  8
0
 62
     3
100
AcDbLine
 10
138.5177119840999
 20
220.1999847081999
 30
0.0
 11
130.8176808138999
 21
220.3499936347999
 31
0.0
  0
LINE
  5
252
330
2
100
AcDbEntity
  8
0
 62
     3
100
AcDbLine
 10
123.2171579046999
 20
217.4000091551998
 30
0.0
 11
127.0171304387999
 21
217.4000091551998
 31
0.0
  0
LINE
  5
253
330
2
100
AcDbEntity
  8
0
 62
     3
100
AcDbLine
 10
119.7219705409999
 20
215.9002435175
 30
0.0
 11
120.1746741802999
 21
209.2002184476999
 31
0.0
  0
LINE
  5
254
330
2
100
AcDbEntity
  8
0
 62
     3
100
AcDbLine
 10
118.8177133245999
 20
209.2002563475999
 30
0.0
 11
123.2171426458999
 21
209.2002563475999
 31
0.0
  0
LINE
  5
255
330
2
100
AcDbEntity
  8
0
 62
     3
100
AcDbLine
 10
119.1735106803999
 20
209.2002158858
 30
0.0
 11
118.8176916725
 21
214.4663460122
 31
0.0
  0
LINE
  5
256
330
2
100
AcDbEntity
  8
0
 62
     3
100
AcDbLine
 10
119.6746506807996
 20
209.2002166522999
 30
0.0
 11
119.2219182391999
 21
215.9006679963999
 31
0.0
  0
LINE
  5
257
330
2
100
AcDbEntity
  8
0
 62
     3
100
AcDbLine
 10
122.0171609563999
 20
216.8791809082
 30
0.0
 11
122.0171609563999
 21
211.5000152588
 31
0.0
  0
LINE
  5
258
330
2
100
AcDbEntity
  8
0
 62
     3
100
AcDbLine
 10
120.2171968103999
 20
215.9006246808999
 30
0.0
 11
120.6699261660999
 21
209.2002190091
 31
0.0
  0
LINE
  5
259
330
2
100
AcDbEntity
  8
0
 62
     3
100
AcDbLine
 10
122.0171609563999
 20
211.5000152588
 30
0.0
 11
123.2171579046999
 21
211.5000152588
 31
0.0
  0
LINE
  5
25A
330
2
100
AcDbEntity
  8
0
 62
     3
100
AcDbLine
 10
123.2171579046999
 20
216.8791809082
 30
0.0
 11
122.0171609563999
 21
216.8791809082
 31
0.0
  0
LINE
  5
25B
330
2
100
AcDbEntity
  8
0
 62
     3
100
AcDbLine
 10
123.2171579046999
 20
217.4000091551998
 30
0.0
 11
123.2171579046999
 21
216.8791809082
 31
0.0
  0
LINE
  5
25C
330
2
100
AcDbEntity
  8
0
 62
     3
100
AcDbLine
 10
127.0171304387999
 20
217.4502563476
 30
0.0
 11
127.9612374944999
 21
217.4502563476
 31
0.0
  0
LINE
  5
25D
330
2
100
AcDbEntity
  8
0
 62
     3
100
AcDbLine
 10
127.0171310681998
 20
214.6650578316999
 30
0.0
 11
127.9612356858999
 21
217.4502036234999
 31
0.0
  0
LINE
  5
25E
330
2
100
AcDbEntity
  8
0
 62
     3
100
AcDbLine
 10
124.0171456975996
 20
213.4595031738
 30
0.0
 11
124.0171456975996
 21
214.3345184325998
 31
0.0
  0
LINE
  5
25F
330
2
100
AcDbEntity
  8
0
 62
     3
100
AcDbLine
 10
124.0171456975996
 20
209.1000213622999
 30
0.0
 11
127.0171304387999
 21
209.1000213622999
 31
0.0
  0
LINE
  5
260
330
2
100
AcDbEntity
  8
0
 62
     3
100
AcDbLine
 10
124.0171456975996
 20
210.1924743651998
 30
0.0
 11
127.0171304387999
 21
210.1924743651998
 31
0.0
  0
LINE
  5
261
330
2
100
AcDbEntity
  8
0
 62
     3
100
AcDbLine
 10
124.0171456975996
 20
211.3778381347
 30
0.0
 11
127.0171304387999
 21
211.3778381347
 31
0.0
  0
LINE
  5
262
330
2
100
AcDbEntity
  8
0
 62
     3
100
AcDbLine
 10
124.0171456975996
 20
212.4202880858999
 30
0.0
 11
127.0171304387999
 21
212.4202880858999
 31
0.0
  0
LINE
  5
263
330
2
100
AcDbEntity
  8
0
 62
     3
100
AcDbLine
 10
124.0171456975996
 20
213.4595031738
 30
0.0
 11
127.0171304387999
 21
213.4595031738
 31
0.0
  0
LINE
  5
264
330
2
100
AcDbEntity
  8
0
 62
     3
100
AcDbLine
 10
124.0171456975996
 20
210.1924743651998
 30
0.0
 11
124.0171456975996
 21
209.1000213622999
 31
0.0
  0
LINE
  5
265
330
2
100
AcDbEntity
  8
0
 62
     3
100
AcDbLine
 10
124.0171456975996
 20
212.4202880858999
 30
0.0
 11
124.0171456975996
 21
211.3778381347
 31
0.0
  0
LINE
  5
266
330
2
100
AcDbEntity
  8
0
 62
     3
100
AcDbLine
 10
124.0171456975996
 20
214.3345184325998
 30
0.0
 11
127.0171304387999
 21
214.3345184325998
 31
0.0
  0
LINE
  5
267
330
2
100
AcDbEntity
  8
0
 62
     3
100
AcDbLine
 10
124.0171456975996
 20
215.2032165527
 30
0.0
 11
127.0171304387999
 21
215.2032165527
 31
0.0
  0
LINE
  5
268
330
2
100
AcDbEntity
  8
0
 62
     3
100
AcDbLine
 10
124.0171456975996
 20
215.8901062011
 30
0.0
 11
127.0171304387999
 21
215.8901062011
 31
0.0
  0
LINE
  5
269
330
2
100
AcDbEntity
  8
0
 62
     3
100
AcDbLine
 10
124.0171456975996
 20
216.4900970459
 30
0.0
 11
127.0171304387999
 21
216.4900970459
 31
0.0
  0
LINE
  5
26A
330
2
100
AcDbEntity
  8
0
 62
     3
100
AcDbLine
 10
124.0171456975996
 20
216.9132232666
 30
0.0
 11
127.0171304387999
 21
216.9132232666
 31
0.0
  0
LINE
  5
26B
330
2
100
AcDbEntity
  8
0
 62
     3
100
AcDbLine
 10
124.0171456975996
 20
215.2032165527
 30
0.0
 11
124.0171456975996
 21
215.8901062011
 31
0.0
  0
LINE
  5
26C
330
2
100
AcDbEntity
  8
0
 62
     3
100
AcDbLine
 10
124.0172219915999
 20
216.9132690429
 30
0.0
 11
124.0172219915999
 21
216.4901580809999
 31
0.0
  0
LINE
  5
26D
330
2
100
AcDbEntity
  8
0
 62
     3
100
AcDbLine
 10
128.0171304388
 20
209.2002563475999
 30
0.0
 11
130.2176767034999
 21
209.2002563475999
 31
0.0
  0
LINE
  5
26E
330
2
100
AcDbEntity
  8
0
 62
     3
100
AcDbLine
 10
130.2176767034999
 20
215.9001617430998
 30
0.0
 11
128.4916940375
 21
215.9001617430998
 31
0.0
  0
LINE
  5
26F
330
2
100
AcDbEntity
  8
0
 62
     3
100
AcDbLine
 10
127.9612569692999
 20
217.4502005777999
 30
0.0
 11
128.9083212498
 21
217.1291566691999
 31
0.0
  0
LINE
  5
270
330
2
100
AcDbEntity
  8
0
 62
     3
100
AcDbLine
 10
128.0171424692996
 20
214.5002098611999
 30
0.0
 11
128.9082979884996
 21
217.1291537275999
 31
0.0
  0
LINE
  5
271
330
2
100
AcDbEntity
  8
0
 62
     3
100
AcDbLine
 10
130.2176767034999
 20
217.2002410888
 30
0.0
 11
130.8176828069999
 21
217.2002410888
 31
0.0
  0
LINE
  5
272
330
2
100
AcDbEntity
  8
0
 62
     3
100
AcDbLine
 10
139.8176828069999
 20
211.6112823486
 30
0.0
 11
142.5517984075999
 21
211.6112823486
 31
0.0
  0
ARC
  5
273
330
2
100
AcDbEntity
  8
0
 62
     3
100
AcDbCircle
 10
139.0859018010999
 20
221.0540618895999
 30
0.0
 40
10.0
100
AcDbArc
 50
274.1965408537
 51
285.8534881063
  0
LINE
  5
274
330
2
100
AcDbEntity
  8
0
 62
     3
100
AcDbLine
 10
139.8176828069999
 20
211.4344177246
 30
0.0
 11
141.8176828069999
 21
211.4344177246
 31
0.0
  0
LINE
  5
275
330
2
100
AcDbEntity
  8
0
 62
     3
100
AcDbLine
 10
139.8176828069999
 20
209.8081359863
 30
0.0
 11
141.8176828069999
 21
209.8081359863
 31
0.0
  0
LINE
  5
276
330
2
100
AcDbEntity
  8
0
 62
     3
100
AcDbLine
 10
141.8176828069999
 20
209.8081359863
 30
0.0
 11
141.8176828069999
 21
211.4344177246
 31
0.0
  0
ARC
  5
277
330
2
100
AcDbEntity
  8
0
 62
     3
100
AcDbCircle
 10
139.3176828069999
 20
215.8001403807999
 30
0.0
 40
0.5
100
AcDbArc
 50
0.0
 51
89.99998201389999
  0
LINE
  5
278
330
2
100
AcDbEntity
  8
0
 62
     3
100
AcDbLine
 10
139.3176828069999
 20
216.3001251219998
 30
0.0
 11
138.8176828069999
 21
216.3001251219998
 31
0.0
  0
ARC
  5
279
330
2
100
AcDbEntity
  8
0
 62
     3
100
AcDbCircle
 10
152.3245492620999
 20
209.1364135741998
 30
0.0
 40
9.506862640399999
100
AcDbArc
 50
141.8800772133
 51
161.4738682061
  0
ARC
  5
27A
330
2
100
AcDbEntity
  8
0
 62
     3
100
AcDbCircle
 10
142.5517984075999
 20
212.4112854003998
 30
0.0
 40
0.8000000119
100
AcDbArc
 50
270.0000179861
 51
341.4738666122
  0
LINE
  5
27B
330
2
100
AcDbEntity
  8
0
 62
     3
100
AcDbLine
 10
138.5177195519996
 20
220.1999789138999
 30
0.0
 11
138.8176810278999
 21
219.900017438
 31
0.0
  0
LINE
  5
27C
330
2
100
AcDbEntity
  8
0
 62
     3
100
AcDbLine
 10
190.3642678899999
 20
160.1000061034999
 30
0.0
 11
190.3642678899999
 21
176.9004974365
 31
0.0
  0
LINE
  5
27D
330
2
100
AcDbEntity
  8
0
 62
     3
100
AcDbLine
 10
190.6640725774999
 20
159.8005676269
 30
0.0
 11
190.6640725774999
 21
177.1990966797
 31
0.0
  0
LINE
  5
27E
330
2
100
AcDbEntity
  8
0
 62
     3
100
AcDbLine
 10
184.5416241753
 20
161.4996003043
 30
0.0
 11
185.8144185174999
 21
162.7723946466
 31
0.0
  0
LINE
  5
27F
330
2
100
AcDbEntity
  8
0
 62
     3
100
AcDbLine
 10
167.2637429876999
 20
176.9004669188999
 30
0.0
 11
167.2637429876999
 21
160.0999755859
 31
0.0
  0
LINE
  5
280
330
2
100
AcDbEntity
  8
0
 62
     3
100
AcDbLine
 10
166.9640756293
 20
159.7993469238
 30
0.0
 11
166.9640756293
 21
177.1993865965999
 31
0.0
  0
LINE
  5
281
330
2
100
AcDbEntity
  8
0
  6
CENTER
 62
     3
100
AcDbLine
 10
178.8140817328
 20
157.0001678466
 30
0.0
 11
178.8140817328
 21
180.0001525879
 31
0.0
  0
ARC
  5
282
330
2
100
AcDbEntity
  8
0
 62
     3
100
AcDbCircle
 10
147.3108316106998
 20
167.8635864257
 30
0.0
 40
9.506862640399999
100
AcDbArc
 50
321.88009611
 51
38.11990388999996
  0
ARC
  5
283
330
2
100
AcDbEntity
  8
0
 62
     3
100
AcDbCircle
 10
178.8140969916
 20
168.5
 30
0.0
 40
7.7999992371
100
AcDbArc
 50
141.6259941762
 51
308.3739705349
  0
LINE
  5
284
330
2
100
AcDbEntity
  8
0
  6
CENTER
 62
     3
100
AcDbLine
 10
171.7429981285999
 20
175.571053062
 30
0.0
 11
185.8851335103
 21
161.4289176803
 31
0.0
  0
LINE
  5
285
330
2
100
AcDbEntity
  8
0
 62
     3
100
AcDbLine
 10
184.5416349648999
 20
161.4996110939
 30
0.0
 11
171.8137131213
 21
174.2275329374
 31
0.0
  0
LINE
  5
286
330
2
100
AcDbEntity
  8
0
 62
     3
100
AcDbLine
 10
190.0637765569999
 20
159.8002166747999
 30
0.0
 11
167.5648294133999
 21
159.8002166747999
 31
0.0
  0
LINE
  5
287
330
2
100
AcDbEntity
  8
0
 62
     3
100
AcDbLine
 10
190.3640237493999
 20
159.5001678465999
 30
0.0
 11
167.2647500676999
 21
159.5001678465999
 31
0.0
  0
LINE
  5
288
330
2
100
AcDbEntity
  8
0
 62
     3
100
AcDbLine
 10
167.5643563668999
 20
159.7997276721999
 30
0.0
 11
167.2644805215998
 21
159.4998747782
 31
0.0
  0
LINE
  5
289
330
2
100
AcDbEntity
  8
0
 62
     3
100
AcDbLine
 10
167.2644171593999
 20
160.0996898375
 30
0.0
 11
166.9645413141996
 21
159.7998369434999
 31
0.0
  0
LINE
  5
28A
330
2
100
AcDbEntity
  8
0
 62
     3
100
AcDbLine
 10
167.5644595197
 20
159.7995654913999
 30
0.0
 11
167.264508985
 21
160.0995163547
 31
0.0
  0
LINE
  5
28B
330
2
100
AcDbEntity
  8
0
 62
     3
100
AcDbLine
 10
167.2644534992999
 20
159.4994956973
 30
0.0
 11
166.9645032426999
 21
159.7994468135
 31
0.0
  0
LINE
  5
28C
330
2
100
AcDbEntity
  8
0
 62
     3
100
AcDbLine
 10
190.3645910300999
 20
160.0995777588999
 30
0.0
 11
190.6648935898998
 21
159.7996337801999
 31
0.0
  0
LINE
  5
28D
330
2
100
AcDbEntity
  8
0
 62
     3
100
AcDbLine
 10
190.3650221916999
 20
159.4998483131
 30
0.0
 11
190.6650589165999
 21
159.7998855943999
 31
0.0
  0
LINE
  5
28E
330
2
100
AcDbEntity
  8
0
 62
     3
100
AcDbLine
 10
190.3646084907999
 20
159.4995647724998
 30
0.0
 11
190.0644761649999
 21
159.799506453
 31
0.0
  0
LINE
  5
28F
330
2
100
AcDbEntity
  8
0
 62
     3
100
AcDbLine
 10
190.0646298623998
 20
159.7996693091
 30
0.0
 11
190.3644942319998
 21
160.0995337038999
 31
0.0
  0
ARC
  5
290
330
2
100
AcDbEntity
  8
0
 62
     3
100
AcDbCircle
 10
178.8140969916
 20
168.5
 30
0.0
 40
7.7999992371
100
AcDbArc
 50
321.6256408275998
 51
128.3743343561
  0
LINE
  5
291
330
2
100
AcDbEntity
  8
0
 62
     3
100
AcDbLine
 10
185.8144293070999
 20
162.7724054362
 30
0.0
 11
173.0865074635999
 21
175.5003272796998
 31
0.0
  0
LINE
  5
292
330
2
100
AcDbEntity
  8
0
  6
CENTER
 62
     3
100
AcDbLine
 10
164.4640756293
 20
168.5
 30
0.0
 11
193.1640725774999
 21
168.5
 31
0.0
  0
LINE
  5
293
330
2
100
AcDbEntity
  8
0
 62
     3
100
AcDbLine
 10
190.0653939886
 20
177.2001037597
 30
0.0
 11
167.5650277776998
 21
177.2001037597
 31
0.0
  0
LINE
  5
294
330
2
100
AcDbEntity
  8
0
 62
     3
100
AcDbLine
 10
190.3655038518999
 20
177.5001525879
 30
0.0
 11
167.2633004828
 21
177.5001525879
 31
0.0
  0
LINE
  5
295
330
2
100
AcDbEntity
  8
0
 62
     3
100
AcDbLine
 10
156.8176828069999
 20
207.8636322021
 30
0.0
 11
156.8176828069999
 21
209.1364135741998
 31
0.0
  0
LINE
  5
296
330
2
100
AcDbEntity
  8
0
 62
     3
100
AcDbLine
 10
149.3176522893999
 20
205.6008911131999
 30
0.0
 11
149.3176522893999
 21
212.6719360350999
 31
0.0
  0
ARC
  5
297
330
2
100
AcDbEntity
  8
0
 62
     3
100
AcDbCircle
 10
146.8875222844999
 20
209.1364135741998
 30
0.0
 40
8.9301567078
100
AcDbArc
 50
323.8352958166
 51
36.16470418339995
  0
ARC
  5
298
330
2
100
AcDbEntity
  8
0
 62
     3
100
AcDbCircle
 10
147.3108316106998
 20
209.1364135741998
 30
0.0
 40
9.506862640399999
100
AcDbArc
 50
321.88009611
 51
38.11990388999996
  0
LINE
  5
299
330
2
100
AcDbEntity
  8
0
 62
     3
100
AcDbLine
 10
146.3176522893999
 20
212.6719360350999
 30
0.0
 11
146.3176522893999
 21
205.6008911131999
 31
0.0
  0
LINE
  5
29A
330
2
100
AcDbEntity
  8
0
 62
     3
100
AcDbLine
 10
153.1623447277999
 20
164.2149865549
 30
0.0
 11
153.4884581711999
 21
164.2985684358
 31
0.0
  0
LINE
  5
29B
330
2
100
AcDbEntity
  8
0
 62
     3
100
AcDbLine
 10
153.3656943435999
 20
164.9618290797999
 30
0.0
 11
152.9297779473999
 21
165.0321827964
 31
0.0
  0
LINE
  5
29C
330
2
100
AcDbEntity
  8
0
 62
     3
100
AcDbLine
 10
152.9297779473999
 20
162.9167918129
 30
0.0
 11
153.3656943435999
 21
162.9871455294999
 31
0.0
  0
LINE
  5
29D
330
2
100
AcDbEntity
  8
0
 62
     3
100
AcDbLine
 10
148.3343301458999
 20
163.9978942871
 30
0.0
 11
149.7009988469999
 21
163.9978942871
 31
0.0
  0
LINE
  5
29E
330
2
100
AcDbEntity
  8
0
 62
     3
100
AcDbLine
 10
148.1343331975999
 20
166.2606964111
 30
0.0
 11
149.7009988469999
 21
166.2606964111
 31
0.0
  0
LINE
  5
29F
330
2
100
AcDbEntity
  8
0
 62
     3
100
AcDbLine
 10
146.5676828069999
 20
165.9778289794999
 30
0.0
 11
149.7009988469999
 21
165.9778289794999
 31
0.0
  0
LINE
  5
2A0
330
2
100
AcDbEntity
  8
0
 62
     3
100
AcDbLine
 10
146.5676828069999
 20
168.2405395506999
 30
0.0
 11
149.7009988469999
 21
168.2405395506999
 31
0.0
  0
LINE
  5
2A1
330
2
100
AcDbEntity
  8
0
 62
     3
100
AcDbLine
 10
146.4176736516999
 20
168.5234069824
 30
0.0
 11
152.1176553411999
 21
168.5234069824
 31
0.0
  0
LINE
  5
2A2
330
2
100
AcDbEntity
  8
0
 62
     3
100
AcDbLine
 10
146.5676828069999
 20
170.5033264159999
 30
0.0
 11
149.7009988469999
 21
170.5033264159999
 31
0.0
  0
LINE
  5
2A3
330
2
100
AcDbEntity
  8
0
 62
     3
100
AcDbLine
 10
146.4176736516999
 20
170.7861022948999
 30
0.0
 11
150.0010018987999
 21
170.7861022948999
 31
0.0
  0
LINE
  5
2A4
330
2
100
AcDbEntity
  8
0
 62
     3
100
AcDbLine
 10
146.4176736516999
 20
171.7289428711
 30
0.0
 11
150.0010018987999
 21
171.7289428711
 31
0.0
  0
ARC
  5
2A5
330
2
100
AcDbEntity
  8
0
 62
     3
100
AcDbCircle
 10
146.5676828069999
 20
167.940536499
 30
0.0
 40
0.3000000119
100
AcDbArc
 50
89.99998201389999
 51
179.9999640277999
  0
LINE
  5
2A6
330
2
100
AcDbEntity
  8
0
 62
     3
100
AcDbLine
 10
146.5676828069999
 20
163.9978942871
 30
0.0
 11
147.9343515082
 21
163.9978942871
 31
0.0
  0
LINE
  5
2A7
330
2
100
AcDbEntity
  8
0
 62
     3
100
AcDbLine
 10
147.075785224
 20
165.1293334961
 30
0.0
 11
149.1929116888
 21
165.1293334961
 31
0.0
  0
LINE
  5
2A8
330
2
100
AcDbEntity
  8
0
 62
     3
100
AcDbLine
 10
147.075785224
 20
164.8464813232
 30
0.0
 11
147.9343515082
 21
164.8464813232
 31
0.0
  0
LINE
  5
2A9
330
2
100
AcDbEntity
  8
0
 62
     3
100
AcDbLine
 10
146.5676828069999
 20
166.2606964111
 30
0.0
 11
147.7343393010999
 21
166.2606964111
 31
0.0
  0
LINE
  5
2AA
330
2
100
AcDbEntity
  8
0
 62
     3
100
AcDbLine
 10
147.075785224
 20
167.1091918945
 30
0.0
 11
147.7343393010999
 21
167.1091918945
 31
0.0
  0
LINE
  5
2AB
330
2
100
AcDbEntity
  8
0
 62
     3
100
AcDbLine
 10
147.075785224
 20
167.3920440672999
 30
0.0
 11
148.1343331975999
 21
167.3920440672999
 31
0.0
  0
ARC
  5
2AC
330
2
100
AcDbEntity
  8
0
 62
     3
100
AcDbCircle
 10
146.5676828069999
 20
166.5606994628999
 30
0.0
 40
0.3000000119
100
AcDbArc
 50
179.9999640277999
 51
270.0000006831999
  0
ARC
  5
2AD
330
2
100
AcDbEntity
  8
0
 62
     3
100
AcDbCircle
 10
147.075785224
 20
164.987915039
 30
0.0
 40
0.1414299607
100
AcDbArc
 50
89.99998201389999
 51
270.0000006831999
  0
ARC
  5
2AE
330
2
100
AcDbEntity
  8
0
 62
     3
100
AcDbCircle
 10
146.5676828069999
 20
164.2978973387999
 30
0.0
 40
0.3000000119
100
AcDbArc
 50
179.9999640277999
 51
270.0000006831999
  0
ARC
  5
2AF
330
2
100
AcDbEntity
  8
0
 62
     3
100
AcDbCircle
 10
146.5676828069999
 20
165.6778259277
 30
0.0
 40
0.3000000119
100
AcDbArc
 50
89.99998201389999
 51
179.9999640277999
  0
ARC
  5
2B0
330
2
100
AcDbEntity
  8
0
 62
     3
100
AcDbCircle
 10
147.075785224
 20
167.2506103514999
 30
0.0
 40
0.1414299607
100
AcDbArc
 50
89.99998201389999
 51
270.0000006831999
  0
LINE
  5
2B1
330
2
100
AcDbEntity
  8
0
 62
     3
100
AcDbLine
 10
146.2676797551999
 20
165.6778259277
 30
0.0
 11
146.2676797551999
 21
164.2978973387999
 31
0.0
  0
LINE
  5
2B2
330
2
100
AcDbEntity
  8
0
 62
     3
100
AcDbLine
 10
146.2676797551999
 20
167.940536499
 30
0.0
 11
146.2676797551999
 21
166.5606994628999
 31
0.0
  0
LINE
  5
2B3
330
2
100
AcDbEntity
  8
0
 62
     3
100
AcDbLine
 10
148.3343301458999
 20
164.8464813232
 30
0.0
 11
149.1929116888
 21
164.8464813232
 31
0.0
  0
LINE
  5
2B4
330
2
100
AcDbEntity
  8
0
 62
     3
100
AcDbLine
 10
148.3343301458999
 20
164.8464813232
 30
0.0
 11
148.3343301458999
 21
163.9978942871
 31
0.0
  0
LINE
  5
2B5
330
2
100
AcDbEntity
  8
0
 62
     3
100
AcDbLine
 10
147.9343515082
 20
164.8464813232
 30
0.0
 11
147.9343515082
 21
163.9978942871
 31
0.0
  0
LINE
  5
2B6
330
2
100
AcDbEntity
  8
0
 62
     3
100
AcDbLine
 10
148.5343423528999
 20
167.1091918945
 30
0.0
 11
149.1929116888
 21
167.1091918945
 31
0.0
  0
LINE
  5
2B7
330
2
100
AcDbEntity
  8
0
 62
     3
100
AcDbLine
 10
148.5343423528999
 20
167.3920440672999
 30
0.0
 11
149.1929116888
 21
167.3920440672999
 31
0.0
  0
LINE
  5
2B8
330
2
100
AcDbEntity
  8
0
 62
     3
100
AcDbLine
 10
148.5343423528999
 20
167.3920440672999
 30
0.0
 11
148.5343423528999
 21
167.1091918945
 31
0.0
  0
LINE
  5
2B9
330
2
100
AcDbEntity
  8
0
 62
     3
100
AcDbLine
 10
148.1343331975999
 20
167.3920440672999
 30
0.0
 11
148.1343331975999
 21
166.2606964111
 31
0.0
  0
LINE
  5
2BA
330
2
100
AcDbEntity
  8
0
 62
     3
100
AcDbLine
 10
147.7343393010999
 20
167.1091918945
 30
0.0
 11
147.7343393010999
 21
166.2606964111
 31
0.0
  0
ARC
  5
2BB
330
2
100
AcDbEntity
  8
0
 62
     3
100
AcDbCircle
 10
149.1929116888
 20
164.987915039
 30
0.0
 40
0.1414299607
100
AcDbArc
 50
270.0000179861
 51
89.99998201389994
  0
ARC
  5
2BC
330
2
100
AcDbEntity
  8
0
 62
     3
100
AcDbCircle
 10
149.1929116888
 20
167.2506103514999
 30
0.0
 40
0.1414299607
100
AcDbArc
 50
270.0000179861
 51
89.99998201389994
  0
LINE
  5
2BD
330
2
100
AcDbEntity
  8
0
 62
     3
100
AcDbLine
 10
147.075785224
 20
169.371887207
 30
0.0
 11
149.1929116888
 21
169.371887207
 31
0.0
  0
LINE
  5
2BE
330
2
100
AcDbEntity
  8
0
 62
     3
100
AcDbLine
 10
147.075785224
 20
169.6547546386
 30
0.0
 11
149.1929116888
 21
169.6547546386
 31
0.0
  0
ARC
  5
2BF
330
2
100
AcDbEntity
  8
0
 62
     3
100
AcDbCircle
 10
146.4176736516999
 20
168.6734008788999
 30
0.0
 40
0.1499999762
100
AcDbArc
 50
179.9999640277999
 51
270.0000006831999
  0
ARC
  5
2C0
330
2
100
AcDbEntity
  8
0
 62
     3
100
AcDbCircle
 10
146.4176736516999
 20
170.9361114502
 30
0.0
 40
0.1499999762
100
AcDbArc
 50
179.9999640277999
 51
270.0000006831999
  0
ARC
  5
2C1
330
2
100
AcDbEntity
  8
0
 62
     3
100
AcDbCircle
 10
146.4176736516999
 20
171.5789489746
 30
0.0
 40
0.1499999762
100
AcDbArc
 50
89.99998201389999
 51
179.9999640277999
  0
ARC
  5
2C2
330
2
100
AcDbEntity
  8
0
 62
     3
100
AcDbCircle
 10
146.5676828069999
 20
170.2033386229999
 30
0.0
 40
0.3000000119
100
AcDbArc
 50
89.99998201389999
 51
179.9999640277999
  0
ARC
  5
2C3
330
2
100
AcDbEntity
  8
0
 62
     3
100
AcDbCircle
 10
147.075785224
 20
169.5133209228
 30
0.0
 40
0.1414299607
100
AcDbArc
 50
89.99998201389999
 51
270.0000006831999
  0
LINE
  5
2C4
330
2
100
AcDbEntity
  8
0
 62
     3
100
AcDbLine
 10
146.2676797551999
 20
170.2033386229999
 30
0.0
 11
146.2676797551999
 21
168.6734008788999
 31
0.0
  0
LINE
  5
2C5
330
2
100
AcDbEntity
  8
0
 62
     3
100
AcDbLine
 10
146.2676797551999
 20
171.5789489746
 30
0.0
 11
146.2676797551999
 21
170.9361114502
 31
0.0
  0
ARC
  5
2C6
330
2
100
AcDbEntity
  8
0
 62
     3
100
AcDbCircle
 10
149.1929116888
 20
169.5133209228
 30
0.0
 40
0.1414299607
100
AcDbArc
 50
270.0000179861
 51
89.99998201389994
  0
ARC
  5
2C7
330
2
100
AcDbEntity
  8
0
 62
     3
100
AcDbCircle
 10
149.7009988469999
 20
167.940536499
 30
0.0
 40
0.3000000119
100
AcDbArc
 50
0.0
 51
89.99998201389999
  0
LINE
  5
2C8
330
2
100
AcDbEntity
  8
0
 62
     3
100
AcDbLine
 10
151.4662295051
 20
164.4346910022999
 30
0.0
 11
151.3344365676998
 21
164.1325706707999
 31
0.0
  0
LINE
  5
2C9
330
2
100
AcDbEntity
  8
0
 62
     3
100
AcDbLine
 10
151.3344365676998
 20
163.8164039385
 30
0.0
 11
151.4662295051
 21
163.514283607
 31
0.0
  0
LINE
  5
2CA
330
2
100
AcDbEntity
  8
0
 62
     3
100
AcDbLine
 10
151.3344365676998
 20
164.1325706707999
 30
0.0
 11
151.3344365676998
 21
163.8164039385
 31
0.0
  0
ARC
  5
2CB
330
2
100
AcDbEntity
  8
0
 62
     3
100
AcDbCircle
 10
149.7009988469999
 20
166.5606994628999
 30
0.0
 40
0.3000000119
100
AcDbArc
 50
270.0000179861
 51
0.0
  0
ARC
  5
2CC
330
2
100
AcDbEntity
  8
0
 62
     3
100
AcDbCircle
 10
149.7009988469999
 20
165.6778259277
 30
0.0
 40
0.3000000119
100
AcDbArc
 50
0.0
 51
89.99998201389999
  0
ARC
  5
2CD
330
2
100
AcDbEntity
  8
0
 62
     3
100
AcDbCircle
 10
149.7009988469999
 20
164.2978973387999
 30
0.0
 40
0.3000000119
100
AcDbArc
 50
270.0000179861
 51
0.0
  0
LINE
  5
2CE
330
2
100
AcDbEntity
  8
0
 62
     3
100
AcDbLine
 10
150.0010018987999
 20
165.6778259277
 30
0.0
 11
150.0010018987999
 21
164.2978973387999
 31
0.0
  0
LINE
  5
2CF
330
2
100
AcDbEntity
  8
0
 62
     3
100
AcDbLine
 10
150.0010018987999
 20
167.940536499
 30
0.0
 11
150.0010018987999
 21
166.5606994628999
 31
0.0
  0
LINE
  5
2D0
330
2
100
AcDbEntity
  8
0
 62
     3
100
AcDbLine
 10
151.6179542565
 20
164.6106160422
 30
0.0
 11
151.8568446295999
 21
164.4327771606999
 31
0.0
  0
LINE
  5
2D1
330
2
100
AcDbEntity
  8
0
 62
     3
100
AcDbLine
 10
151.8568446295999
 20
164.4327771606999
 30
0.0
 11
152.1471171306999
 21
164.2984943205
 31
0.0
  0
LINE
  5
2D2
330
2
100
AcDbEntity
  8
0
 62
     3
100
AcDbLine
 10
152.1471171306999
 20
164.2984943205
 30
0.0
 11
152.4732490431999
 21
164.2149484792
 31
0.0
  0
LINE
  5
2D3
330
2
100
AcDbEntity
  8
0
 62
     3
100
AcDbLine
 10
152.4732490431999
 20
164.2149484792
 30
0.0
 11
152.8178000195
 21
164.1866073639999
 31
0.0
  0
LINE
  5
2D4
330
2
100
AcDbEntity
  8
0
 62
     3
100
AcDbLine
 10
152.9297779473999
 20
165.0321827964
 30
0.0
 11
152.4839014060999
 21
165.0085556268999
 31
0.0
  0
LINE
  5
2D5
330
2
100
AcDbEntity
  8
0
 62
     3
100
AcDbLine
 10
152.4839014060999
 20
165.0085556268999
 30
0.0
 11
152.0676828069999
 21
164.8930469489999
 31
0.0
  0
LINE
  5
2D6
330
2
100
AcDbEntity
  8
0
 62
     3
100
AcDbLine
 10
152.0676828069999
 20
164.8930469489999
 30
0.0
 11
151.7181049992998
 21
164.6959202157
 31
0.0
  0
LINE
  5
2D7
330
2
100
AcDbEntity
  8
0
 62
     3
100
AcDbLine
 10
151.7181049992998
 20
164.6959202157
 30
0.0
 11
151.4662295051
 21
164.4346910022999
 31
0.0
  0
LINE
  5
2D8
330
2
100
AcDbEntity
  8
0
 62
     3
100
AcDbLine
 10
151.4662295051
 20
163.514283607
 30
0.0
 11
151.7181049992998
 21
163.2530543936
 31
0.0
  0
LINE
  5
2D9
330
2
100
AcDbEntity
  8
0
 62
     3
100
AcDbLine
 10
151.7181049992998
 20
163.2530543936
 30
0.0
 11
152.0676828069999
 21
163.0559276602999
 31
0.0
  0
LINE
  5
2DA
330
2
100
AcDbEntity
  8
0
 62
     3
100
AcDbLine
 10
152.0676828069999
 20
163.0559276602999
 30
0.0
 11
152.4839014060999
 21
162.9404189823999
 31
0.0
  0
LINE
  5
2DB
330
2
100
AcDbEntity
  8
0
 62
     3
100
AcDbLine
 10
152.4839014060999
 20
162.9404189823999
 30
0.0
 11
152.9297779473999
 21
162.9167918129
 31
0.0
  0
LINE
  5
2DC
330
2
100
AcDbEntity
  8
0
 62
     3
100
AcDbLine
 10
152.8178000195
 20
164.1866073639999
 30
0.0
 11
153.1623447277999
 21
164.2149865549
 31
0.0
  0
LINE
  5
2DD
330
2
100
AcDbEntity
  8
0
 62
     3
100
AcDbLine
 10
150.0010018987999
 20
169.371887207
 30
0.0
 11
152.1176553411999
 21
169.371887207
 31
0.0
  0
LINE
  5
2DE
330
2
100
AcDbEntity
  8
0
 62
     3
100
AcDbLine
 10
150.9010110540999
 20
170.7861022948999
 30
0.0
 11
152.1176553411999
 21
170.7861022948999
 31
0.0
  0
LINE
  5
2DF
330
2
100
AcDbEntity
  8
0
 62
     3
100
AcDbLine
 10
150.9010110540999
 20
171.7289428711
 30
0.0
 11
152.1176553411999
 21
171.7289428711
 31
0.0
  0
ARC
  5
2E0
330
2
100
AcDbEntity
  8
0
 62
     3
100
AcDbCircle
 10
149.7009988469999
 20
170.2033386229999
 30
0.0
 40
0.3000000119
100
AcDbArc
 50
0.0
 51
89.99998201389999
  0
LINE
  5
2E1
330
2
100
AcDbEntity
  8
0
 62
     3
100
AcDbLine
 10
150.0010018987999
 20
170.2033386229999
 30
0.0
 11
150.0010018987999
 21
169.371887207
 31
0.0
  0
LINE
  5
2E2
330
2
100
AcDbEntity
  8
0
 62
     3
100
AcDbLine
 10
150.9010110540999
 20
171.7289428711
 30
0.0
 11
150.9010110540999
 21
170.7861022948999
 31
0.0
  0
LINE
  5
2E3
330
2
100
AcDbEntity
  8
0
 62
     3
100
AcDbLine
 10
150.0010018987999
 20
171.7289428711
 30
0.0
 11
150.0010018987999
 21
170.7861022948999
 31
0.0
  0
ARC
  5
2E4
330
2
100
AcDbEntity
  8
0
 62
     3
100
AcDbCircle
 10
152.1176553411999
 20
168.6734008788999
 30
0.0
 40
0.1499999762
100
AcDbArc
 50
270.0000179861
 51
0.0
  0
ARC
  5
2E5
330
2
100
AcDbEntity
  8
0
 62
     3
100
AcDbCircle
 10
152.1176553411999
 20
169.2218933104999
 30
0.0
 40
0.1499999762
100
AcDbArc
 50
0.0
 51
89.99998201389999
  0
ARC
  5
2E6
330
2
100
AcDbEntity
  8
0
 62
     3
100
AcDbCircle
 10
152.1176553411999
 20
170.9361114502
 30
0.0
 40
0.1499999762
100
AcDbArc
 50
270.0000179861
 51
0.0
  0
LINE
  5
2E7
330
2
100
AcDbEntity
  8
0
 62
     3
100
AcDbLine
 10
152.2676644965
 20
169.2218933104999
 30
0.0
 11
152.2676644965
 21
168.6734008788999
 31
0.0
  0
LINE
  5
2E8
330
2
100
AcDbEntity
  8
0
 62
     3
100
AcDbLine
 10
152.2676644965
 20
171.5789489746
 30
0.0
 11
152.2676644965
 21
170.9361114502
 31
0.0
  0
ARC
  5
2E9
330
2
100
AcDbEntity
  8
0
 62
     3
100
AcDbCircle
 10
152.1176553411999
 20
171.5789489746
 30
0.0
 40
0.1499999762
100
AcDbArc
 50
0.0
 51
89.99998201389999
  0
ARC
  5
2EA
330
2
100
AcDbEntity
  8
0
 62
     3
100
AcDbCircle
 10
147.3108316106998
 20
169.1363677978
 30
0.0
 40
9.506862640399999
100
AcDbArc
 50
0.0
 51
38.11990389
  0
LINE
  5
2EB
330
2
100
AcDbEntity
  8
0
 62
     3
100
AcDbLine
 10
156.8176828069999
 20
169.1363677978
 30
0.0
 11
156.8176828069999
 21
167.8635864257
 31
0.0
  0
ARC
  5
2EC
330
2
100
AcDbEntity
  8
0
 62
     3
100
AcDbCircle
 10
146.8875222844999
 20
167.8635864257
 30
0.0
 40
8.9301567078
100
AcDbArc
 50
323.8352958166
 51
36.16470418339995
  0
LINE
  5
2ED
330
2
100
AcDbEntity
  8
0
 62
     3
100
AcDbLine
 10
153.4884581711999
 20
164.2985684358
 30
0.0
 11
153.7787009897996
 21
164.4328833521
 31
0.0
  0
LINE
  5
2EE
330
2
100
AcDbEntity
  8
0
 62
     3
100
AcDbLine
 10
153.7787009897996
 20
164.4328833521
 30
0.0
 11
154.0175520544998
 21
164.610748631
 31
0.0
  0
LINE
  5
2EF
330
2
100
AcDbEntity
  8
0
 62
     3
100
AcDbLine
 10
154.3176828069999
 20
163.9744873047
 30
0.0
 11
154.2510420156999
 21
164.2871227157999
 31
0.0
  0
LINE
  5
2F0
330
2
100
AcDbEntity
  8
0
 62
     3
100
AcDbLine
 10
154.2510420156999
 20
164.2871227157999
 30
0.0
 11
154.0570409684999
 21
164.5719790987
 31
0.0
  0
LINE
  5
2F1
330
2
100
AcDbEntity
  8
0
 62
     3
100
AcDbLine
 10
154.0570409684999
 20
164.5719790987
 30
0.0
 11
153.7529175098
 21
164.8037457137
 31
0.0
  0
LINE
  5
2F2
330
2
100
AcDbEntity
  8
0
 62
     3
100
AcDbLine
 10
153.7529175098
 20
164.8037457137
 30
0.0
 11
153.3656943435999
 21
164.9618290797999
 31
0.0
  0
LINE
  5
2F3
330
2
100
AcDbEntity
  8
0
 62
     3
100
AcDbLine
 10
153.3656943435999
 20
162.9871455294999
 30
0.0
 11
153.7529175098
 21
163.1452288955999
 31
0.0
  0
LINE
  5
2F4
330
2
100
AcDbEntity
  8
0
 62
     3
100
AcDbLine
 10
153.7529175098
 20
163.1452288955999
 30
0.0
 11
154.0570409684999
 21
163.3769955105999
 31
0.0
  0
LINE
  5
2F5
330
2
100
AcDbEntity
  8
0
 62
     3
100
AcDbLine
 10
154.0570409684999
 20
163.3769955105999
 30
0.0
 11
154.2510420156999
 21
163.6618518935
 31
0.0
  0
LINE
  5
2F6
330
2
100
AcDbEntity
  8
0
 62
     3
100
AcDbLine
 10
154.2510420156999
 20
163.6618518935
 30
0.0
 11
154.3176828069999
 21
163.9744873047
 31
0.0
  0
LINE
  5
2F7
330
2
100
AcDbEntity
  8
0
 62
     3
100
AcDbLine
 10
154.7900643987999
 20
175.0050354004
 30
0.0
 11
154.7900643987999
 21
173.7322540283
 31
0.0
  0
LINE
  5
2F8
330
2
100
AcDbEntity
  8
0
 62
     3
100
AcDbLine
 10
146.3176522893999
 20
205.6008911131999
 30
0.0
 11
149.3176522893999
 21
205.6008911131999
 31
0.0
  0
ARC
  5
2F9
330
2
100
AcDbEntity
  8
0
 62
     3
100
AcDbCircle
 10
147.3108316106998
 20
207.8636322021
 30
0.0
 40
9.506862640399999
100
AcDbArc
 50
321.88009611
 51
0.0
  0
LINE
  5
2FA
330
2
100
AcDbEntity
  8
0
 62
     3
100
AcDbLine
 10
154.7900643987999
 20
201.9949493408
 30
0.0
 11
154.7900643987999
 21
203.2677459716
 31
0.0
  0
LINE
  5
2FB
330
2
100
AcDbEntity
  8
0
 62
     3
100
AcDbLine
 10
167.2640998319999
 20
176.8991120109
 30
0.0
 11
166.9640414027999
 21
177.1993002213999
 31
0.0
  0
LINE
  5
2FC
330
2
100
AcDbEntity
  8
0
 62
     3
100
AcDbLine
 10
167.5642017070999
 20
177.199084142
 30
0.0
 11
167.2641432778999
 21
177.4992723524999
 31
0.0
  0
LINE
  5
2FD
330
2
100
AcDbEntity
  8
0
 62
     3
100
AcDbLine
 10
167.2644082471999
 20
176.8994660253
 30
0.0
 11
167.5642729707
 21
177.1993300411
 31
0.0
  0
LINE
  5
2FE
330
2
100
AcDbEntity
  8
0
 62
     3
100
AcDbLine
 10
166.9644032753999
 20
177.1997130412
 30
0.0
 11
167.2642675944999
 21
177.4995774613999
 31
0.0
  0
LINE
  5
2FF
330
2
100
AcDbEntity
  8
0
 62
     3
100
AcDbLine
 10
171.8137023316999
 20
174.2275221477999
 30
0.0
 11
173.086496674
 21
175.5003164900999
 31
0.0
  0
LINE
  5
300
330
2
100
AcDbEntity
  8
0
 62
     3
100
AcDbLine
 10
153.3656943435999
 20
214.0128392116999
 30
0.0
 11
152.9297779473999
 21
214.0831929281997
 31
0.0
  0
LINE
  5
301
330
2
100
AcDbEntity
  8
0
 62
     3
100
AcDbLine
 10
153.4884581711999
 20
212.7014163054
 30
0.0
 11
153.1623447277999
 21
212.7849981863
 31
0.0
  0
LINE
  5
302
330
2
100
AcDbEntity
  8
0
 62
     3
100
AcDbLine
 10
152.9297779473999
 20
211.9678019446999
 30
0.0
 11
153.3656943435999
 21
212.0381556613
 31
0.0
  0
LINE
  5
303
330
2
100
AcDbEntity
  8
0
 62
     3
100
AcDbLine
 10
146.3176522893999
 20
212.6719360350999
 30
0.0
 11
149.3176522893999
 21
212.6719360350999
 31
0.0
  0
LINE
  5
304
330
2
100
AcDbEntity
  8
0
 62
     3
100
AcDbLine
 10
152.4839014060999
 20
214.0595657586999
 30
0.0
 11
152.0676828069999
 21
213.9440570808999
 31
0.0
  0
LINE
  5
305
330
2
100
AcDbEntity
  8
0
 62
     3
100
AcDbLine
 10
151.4662295051
 20
213.4857011342
 30
0.0
 11
151.3344365676998
 21
213.1835808026998
 31
0.0
  0
LINE
  5
306
330
2
100
AcDbEntity
  8
0
 62
     3
100
AcDbLine
 10
151.3344365676998
 20
212.8674140703
 30
0.0
 11
151.4662295051
 21
212.5652937388
 31
0.0
  0
LINE
  5
307
330
2
100
AcDbEntity
  8
0
 62
     3
100
AcDbLine
 10
151.3344365676998
 20
213.1835808026998
 30
0.0
 11
151.3344365676998
 21
212.8674140703
 31
0.0
  0
LINE
  5
308
330
2
100
AcDbEntity
  8
0
 62
     3
100
AcDbLine
 10
152.0676828069999
 20
213.9440570808999
 30
0.0
 11
151.7181049992998
 21
213.7469303475999
 31
0.0
  0
LINE
  5
309
330
2
100
AcDbEntity
  8
0
 62
     3
100
AcDbLine
 10
151.4662295051
 20
212.5652937388
 30
0.0
 11
151.7181049992998
 21
212.3040645254
 31
0.0
  0
LINE
  5
30A
330
2
100
AcDbEntity
  8
0
 62
     3
100
AcDbLine
 10
151.7181049992998
 20
212.3040645254
 30
0.0
 11
152.0676828069999
 21
212.1069377920999
 31
0.0
  0
LINE
  5
30B
330
2
100
AcDbEntity
  8
0
 62
     3
100
AcDbLine
 10
152.0676828069999
 20
212.1069377920999
 30
0.0
 11
152.4839014060999
 21
211.9914291141999
 31
0.0
  0
LINE
  5
30C
330
2
100
AcDbEntity
  8
0
 62
     3
100
AcDbLine
 10
152.4839014060999
 20
211.9914291141999
 30
0.0
 11
152.9297779473999
 21
211.9678019446999
 31
0.0
  0
LINE
  5
30D
330
2
100
AcDbEntity
  8
0
 62
     3
100
AcDbLine
 10
152.8178000195
 20
212.8133773770999
 30
0.0
 11
152.4732490431999
 21
212.785036262
 31
0.0
  0
LINE
  5
30E
330
2
100
AcDbEntity
  8
0
 62
     3
100
AcDbLine
 10
152.4732490431999
 20
212.785036262
 30
0.0
 11
152.1471171306999
 21
212.7014904206
 31
0.0
  0
LINE
  5
30F
330
2
100
AcDbEntity
  8
0
 62
     3
100
AcDbLine
 10
152.1471171306999
 20
212.7014904206
 30
0.0
 11
151.8568446295999
 21
212.5672075804
 31
0.0
  0
LINE
  5
310
330
2
100
AcDbEntity
  8
0
 62
     3
100
AcDbLine
 10
151.8568446295999
 20
212.5672075804
 30
0.0
 11
151.6179542565
 21
212.3893686988999
 31
0.0
  0
LINE
  5
311
330
2
100
AcDbEntity
  8
0
 62
     3
100
AcDbLine
 10
153.1623447277999
 20
212.7849981863
 30
0.0
 11
152.8178000195
 21
212.8133773770999
 31
0.0
  0
LINE
  5
312
330
2
100
AcDbEntity
  8
0
 62
     3
100
AcDbLine
 10
151.7181049992998
 20
213.7469303475999
 30
0.0
 11
151.4662295051
 21
213.4857011342
 31
0.0
  0
LINE
  5
313
330
2
100
AcDbEntity
  8
0
 62
     3
100
AcDbLine
 10
152.9297779473999
 20
214.0831929281997
 30
0.0
 11
152.4839014060999
 21
214.0595657586999
 31
0.0
  0
LINE
  5
314
330
2
100
AcDbEntity
  8
0
 62
     3
100
AcDbLine
 10
153.7529175098
 20
213.8547558454999
 30
0.0
 11
153.3656943435999
 21
214.0128392116999
 31
0.0
  0
LINE
  5
315
330
2
100
AcDbEntity
  8
0
 62
     3
100
AcDbLine
 10
154.3176828069999
 20
213.0254974364999
 30
0.0
 11
154.2510420156999
 21
213.3381328476999
 31
0.0
  0
LINE
  5
316
330
2
100
AcDbEntity
  8
0
 62
     3
100
AcDbLine
 10
154.2510420156999
 20
213.3381328476999
 30
0.0
 11
154.0570409684999
 21
213.6229892305999
 31
0.0
  0
LINE
  5
317
330
2
100
AcDbEntity
  8
0
 62
     3
100
AcDbLine
 10
153.3656943435999
 20
212.0381556613
 30
0.0
 11
153.7529175098
 21
212.1962390275
 31
0.0
  0
LINE
  5
318
330
2
100
AcDbEntity
  8
0
 62
     3
100
AcDbLine
 10
153.7529175098
 20
212.1962390275
 30
0.0
 11
154.0570409684999
 21
212.4280056423998
 31
0.0
  0
LINE
  5
319
330
2
100
AcDbEntity
  8
0
 62
     3
100
AcDbLine
 10
154.0570409684999
 20
212.4280056423998
 30
0.0
 11
154.2510420156999
 21
212.7128620252999
 31
0.0
  0
LINE
  5
31A
330
2
100
AcDbEntity
  8
0
 62
     3
100
AcDbLine
 10
154.2510420156999
 20
212.7128620252999
 30
0.0
 11
154.3176828069999
 21
213.0254974364999
 31
0.0
  0
LINE
  5
31B
330
2
100
AcDbEntity
  8
0
 62
     3
100
AcDbLine
 10
154.0175520544998
 20
212.3892361100998
 30
0.0
 11
153.7787009897996
 21
212.5671013889999
 31
0.0
  0
LINE
  5
31C
330
2
100
AcDbEntity
  8
0
 62
     3
100
AcDbLine
 10
153.7787009897996
 20
212.5671013889999
 30
0.0
 11
153.4884581711999
 21
212.7014163054
 31
0.0
  0
LINE
  5
31D
330
2
100
AcDbEntity
  8
0
 62
     3
100
AcDbLine
 10
154.0570409684999
 20
213.6229892305999
 30
0.0
 11
153.7529175098
 21
213.8547558454999
 31
0.0
  0
LINE
  5
31E
330
2
100
AcDbEntity
  8
0
 62
     3
100
AcDbLine
 10
190.6645471812
 20
177.1995177313
 30
0.0
 11
190.3647514376998
 21
176.8995847354999
 31
0.0
  0
LINE
  5
31F
330
2
100
AcDbEntity
  8
0
 62
     3
100
AcDbLine
 10
190.6647617263999
 20
177.199669872
 30
0.0
 11
190.3648112423
 21
177.4996207606
 31
0.0
  0
LINE
  5
320
330
2
100
AcDbEntity
  8
0
 62
     3
100
AcDbLine
 10
190.3646230322999
 20
177.4992589306
 30
0.0
 11
190.0647242863999
 21
177.1994289372999
 31
0.0
  0
LINE
  5
321
330
2
100
AcDbEntity
  8
0
 62
     3
100
AcDbLine
 10
190.3648429192998
 20
176.8997663941999
 30
0.0
 11
190.0648057138999
 21
177.1998031949999
 31
0.0
  0
LINE
  5
338
330
2
100
AcDbEntity
  8
0
100
AcDbLine
 10
210.0
 20
297.0
 30
0.0
 11
0.0
 21
297.0
 31
0.0
  0
TEXT
  5
362
330
2
100
AcDbEntity
  8
0
 62
     7
100
AcDbText
 10
108.0
 20
115.0000029552499
 30
0.0
 40
2.999994089499998
  1
AS6H-2#KT1P*
 11
108.0
 21
116.5
 31
0.0
100
AcDbText
 73
     2
  0
TEXT
  5
364
330
2
100
AcDbEntity
  8
0
 62
     7
100
AcDbText
 10
108.0
 20
100.00000295525
 30
0.0
 40
2.999994089499998
  1
AS6H-2#KT2*
 11
108.0
 21
101.5
 31
0.0
100
AcDbText
 73
     2
  0
TEXT
  5
366
330
2
100
AcDbEntity
  8
0
 62
     7
100
AcDbText
 10
108.0
 20
105.00000295525
 30
0.0
 40
2.999994089499998
  1
AS6H-2#KT2P*
 11
108.0
 21
106.4999999999999
 31
0.0
100
AcDbText
 73
     2
  0
TEXT
  5
368
330
2
100
AcDbEntity
  8
0
 62
     7
100
AcDbText
 10
108.0
 20
110.0000029552498
 30
0.0
 40
2.999994089499998
  1
AS6H-2#KT1*
 11
108.0
 21
111.4999999999999
 31
0.0
100
AcDbText
 73
     2
  0
TEXT
  5
36C
330
2
100
AcDbEntity
  8
0
 62
     7
100
AcDbText
 10
146.0
 20
100.00000295525
 30
0.0
 40
2.999994089499998
  1
AS6H-3#KT2*
 11
146.0
 21
101.5
 31
0.0
100
AcDbText
 73
     2
  0
TEXT
  5
36E
330
2
100
AcDbEntity
  8
0
 62
     7
100
AcDbText
 10
146.0
 20
105.00000295525
 30
0.0
 40
2.999994089499998
  1
AS6H-3#KT2P*
 11
146.0
 21
106.4999999999999
 31
0.0
100
AcDbText
 73
     2
  0
ENDSEC
  0
SECTION
  2
OBJECTS
  0
DICTIONARY
  5
7
330
0
100
AcDbDictionary
281
     1
  3
ACAD_GROUP
350
1F
  3
ACAD_LAYOUT
350
B
  3
ACAD_MLINESTYLE
350
20
  3
ACAD_PLOTSETTINGS
350
21
  3
ACAD_PLOTSTYLENAME
350
6
  3
AcDbVariableDictionary
350
372
  3
ASE_INDEX_DICTIONARY
350
37B
  0
DICTIONARY
  5
1F
102
{ACAD_REACTORS
330
7
102
}
330
7
100
AcDbDictionary
281
     1
  0
DICTIONARY
  5
B
102
{ACAD_REACTORS
330
7
102
}
330
7
100
AcDbDictionary
281
     1
  3
Model
350
A
  3
ﾚｲｱｳﾄ1
350
F
  0
DICTIONARY
  5
20
102
{ACAD_REACTORS
330
7
102
}
330
7
100
AcDbDictionary
281
     1
  3
Standard
350
22
  0
DICTIONARY
  5
21
102
{ACAD_REACTORS
330
7
102
}
330
7
100
AcDbDictionary
281
     1
  0
ACDBDICTIONARYWDFLT
  5
6
102
{ACAD_REACTORS
330
7
102
}
330
7
100
AcDbDictionary
281
     1
  3
Normal
350
5
100
AcDbDictionaryWithDefault
340
5
  0
DICTIONARY
  5
372
102
{ACAD_REACTORS
330
7
102
}
330
7
100
AcDbDictionary
281
     1
  3
DIMASSOC
350
373
  0
DICTIONARY
  5
37B
102
{ACAD_REACTORS
330
7
102
}
330
7
100
AcDbDictionary
281
     1
  3
ASEBlockHierarchyIndexRecord
350
37D
1001
DCO15
1040
1518870295.765
  0
LAYOUT
  5
A
102
{ACAD_REACTORS
330
B
102
}
330
B
100
AcDbPlotSettings
  1

  2
C:\Program Files\AutoCAD 2000i\plotters\DWF Classic.pc3
  4

  6

 40
0.0
 41
0.0
 42
0.0
 43
0.0
 44
0.0
 45
0.0
 46
0.0
 47
0.0
 48
0.0
 49
0.0
140
0.0
141
0.0
142
1.0
143
1.0
 70
  1712
 72
     0
 73
     0
 74
     0
  7

 75
     0
147
1.0
148
0.0
149
0.0
100
AcDbLayout
  1
Model
 70
     1
 71
     0
 10
0.0
 20
0.0
 11
12.0
 21
9.0
 12
0.0
 22
0.0
 32
0.0
 14
0.0
 24
0.0
 34
0.0
 15
0.0
 25
0.0
 35
0.0
146
0.0
 13
0.0
 23
0.0
 33
0.0
 16
1.0
 26
0.0
 36
0.0
 17
0.0
 27
1.0
 37
0.0
 76
     0
330
2
  0
LAYOUT
  5
F
102
{ACAD_REACTORS
330
B
102
}
330
B
100
AcDbPlotSettings
  1

  2
C:\Program Files\AutoCAD 2000i\plotters\DWF Classic.pc3
  4

  6

 40
0.0
 41
0.0
 42
0.0
 43
0.0
 44
0.0
 45
0.0
 46
0.0
 47
0.0
 48
0.0
 49
0.0
140
0.0
141
0.0
142
1.0
143
1.0
 70
   688
 72
     0
 73
     0
 74
     5
  7

 75
    16
147
1.0
148
0.0
149
0.0
100
AcDbLayout
  1
ﾚｲｱｳﾄ1
 70
     1
 71
     1
 10
0.0
 20
0.0
 11
12.0
 21
9.0
 12
0.0
 22
0.0
 32
0.0
 14
1.000000000000000E+20
 24
1.000000000000000E+20
 34
1.000000000000000E+20
 15
-1.000000000000000E+20
 25
-1.000000000000000E+20
 35
-1.000000000000000E+20
146
0.0
 13
0.0
 23
0.0
 33
0.0
 16
1.0
 26
0.0
 36
0.0
 17
0.0
 27
1.0
 37
0.0
 76
     0
330
C
  0
MLINESTYLE
  5
22
102
{ACAD_REACTORS
330
20
102
}
330
20
100
AcDbMlineStyle
  2
STANDARD
 70
     0
  3

 62
   256
 51
90.0
 52
90.0
 71
     2
 49
0.5
 62
   256
  6
BYLAYER
 49
-0.5
 62
   256
  6
BYLAYER
  0
ACDBPLACEHOLDER
  5
5
102
{ACAD_REACTORS
330
6
102
}
330
6
  0
DICTIONARYVAR
  5
373
102
{ACAD_REACTORS
330
372
102
}
330
372
100
DictionaryVariables
280
     0
  1
1
  0
XRECORD
  5
37D
102
{ACAD_REACTORS
330
37B
102
}
330
37B
100
AcDbXrecord
280
     1
  0
ENDSEC
  0
EOF
