  0
SECTION
  2
HEADER
  9
$ACADVER
  1
AC1004
  9
$ANGBASE
 50
0.0000000000
  9
$ANGDIR
 70
     0
  9
$ATTDIA
 70
     0
  9
$ATTMODE
 70
     1
  9
$ATTREQ
 70
     1
  9
$AUNITS
 70
     0
  9
$AUPREC
 70
     0
  9
$AXISMODE
 70
     0
  9
$AXISUNIT
 10
0.0000000000
 20
0.0000000000
  9
$BLIPMODE
 70
     1
  9
$CECOLOR
 62
   256
  9
$CELTYPE
  6
BYLAYER
  9
$CHAMFERA
 40
0.0000000000
  9
$CHAMFERB
 40
0.0000000000
  9
$CLAYER
  8
0
  9
$COORDS
 70
     0
  9
$DIMALT
 70
     0
  9
$DIMALTD
 70
     2
  9
$DIMALTF
 40
25.4000000000
  9
$DIMAPOST
  1

  9
$DIMASO
 70
     1
  9
$DIMASZ
 40
1.9727878447
  9
$DIMBLK
  1

  9
$DIMBLK1
  1

  9
$DIMBLK2
  1

  9
$DIMCEN
 40
9.0000000000E-02
  9
$DIMDLE
 40
0.0000000000
  9
$DIMDLI
 40
0.3800000000
  9
$DIMEXE
 40
3.8099999428
  9
$DIMEXO
 40
2.5399999619
  9
$DIMLFAC
 40
1.0000000000
  9
$DIMLIM
 70
     0
  9
$DIMPOST
  1

  9
$DIMRND
 40
0.0000000000
  9
$DIMSCALE
 40
1.0000000000
  9
$DIMSE1
 70
     0
  9
$DIMSE2
 70
     0
  9
$DIMSHO
 70
     0
  9
$DIMTAD
 70
     0
  9
$DIMTIH
 70
     0
  9
$DIMTM
 40
0.0000000000
  9
$DIMTOH
 70
     1
  9
$DIMTOL
 70
     0
  9
$DIMTP
 40
0.0000000000
  9
$DIMTSZ
 40
0.0000000000
  9
$DIMTXT
 40
2.9999940395
  9
$DIMZIN
 70
     0
  9
$DRAGMODE
 70
     1
  9
$ELEVATION
 40
0.0000000000
  9
$EXTMAX
 10
423.1750000000
 20
300.1750000000
 30
0.0000000000
  9
$EXTMIN
 10
-3.1750000000
 20
-3.1750000000
 30
0.0000000000
  9
$FASTZOOM
 70
     1
  9
$FILLETRAD
 40
6.2500000000E-02
  9
$FILLMODE
 70
     1
  9
$GRIDMODE
 70
     0
  9
$GRIDUNIT
 10
0.0000000000
 20
0.0000000000
  9
$INSBASE
 10
0.0000000000
 20
0.0000000000
 30
0.0000000000
  9
$LIMCHECK
 70
     0
  9
$LIMMAX
 10
423.1750000000
 20
300.1750000000
  9
$LIMMIN
 10
-3.1750000000
 20
-3.1750000000
  9
$LTSCALE
 40
1.0000000000
  9
$LUNITS
 70
     2
  9
$LUPREC
 70
     3
  9
$MEASUREMENT
 70
     0
  9
$MENU
  1
ACAD
  9
$MIRRTEXT
 70
     0
  9
$ORTHOMODE
 70
     0
  9
$OSMODE
 70
     0
  9
$PDMODE
 70
     0
  9
$PDSIZE
 40
0.0000000000
  9
$PLINEWID
 40
0.0000000000
  9
$PROXYGRAPHICS
 70
     0
  9
$QTEXTMODE
 70
     0
  9
$REGENMODE
 70
     1
  9
$SKETCHINC
 40
0.1000000000
  9
$SKPOLY
 70
     0
  9
$SNAPANG
 50
0.0000000000
  9
$SNAPBASE
 10
0.0000000000
 20
0.0000000000
  9
$SNAPISOPAIR
 70
     0
  9
$SNAPMODE
 70
     0
  9
$SNAPSTYLE
 70
     0
  9
$SNAPUNIT
 10
1.0000000000
 20
1.0000000000
  9
$SPLFRAME
 70
     0
  9
$SPLINESEGS
 70
     8
  9
$TDCREATE
 40
2453411.4274074121
  9
$TDINDWG
 40
0.0000000000
  9
$TDUPDATE
 40
2453411.4274074121
  9
$TDUSRTIMER
 40
0.0000000000
  9
$TEXTSIZE
 40
2.9999940395
  9
$TEXTSTYLE
  7
STANDARD
  9
$THICKNESS
 40
0.0000000000
  9
$TRACEWID
 40
5.0000000000E-02
  9
$USERI1
 70
     0
  9
$USERI2
 70
     0
  9
$USERI3
 70
     0
  9
$USERI4
 70
     0
  9
$USERI5
 70
     0
  9
$USERR1
 40
0.0000000000
  9
$USERR2
 40
0.0000000000
  9
$USERR3
 40
0.0000000000
  9
$USERR4
 40
0.0000000000
  9
$USERR5
 40
0.0000000000
  9
$USRTIMER
 70
     1
  9
$VIEWCTR
 10
210.0000000000
 20
148.5000000000
  9
$VIEWDIR
 10
0.0000000000
 20
0.0000000000
 30
1.0000000000
  9
$VIEWSIZE
 40
303.3500000000
  0
ENDSEC
  0
SECTION
  2
TABLES
  0
TABLE
  2
LTYPE
 70
     3
  0
LTYPE
  2
SOLID
  3
Solid
 70
    64
 72
    65
 73
     0
 40
0.0000000000
  0
LTYPE
  2
CENTER
  3
Center
 70
    64
 72
    65
 73
     4
 40
9.1000067592
 49
6.5000119209
 49
-0.7999984026
 49
0.9999980330
 49
-0.7999984026
  0
LTYPE
  2
PHANTOM
  3
Phantom
 70
    64
 72
    65
 73
     6
 40
9.4999814630
 49
4.7999906540
 49
-0.8999982476
 49
0.9999980330
 49
-0.8999982476
 49
0.9999980330
 49
-0.8999982476
  0
ENDTAB
  0
TABLE
  2
LAYER
 70
     4
  0
LAYER
  2
Layer0$C$L0
 70
     0
  6
SOLID
 62
   192
  0
LAYER
  2
Layer1$C$L1
 70
     0
  6
SOLID
 62
     3
  0
LAYER
  2
Layer6$C$L6
 70
     0
  6
SOLID
 62
    31
  0
LAYER
  2
Layer8$C$L8
 70
     0
  6
SOLID
 62
     7
  0
ENDTAB
  0
TABLE
  2
STYLE
 70
     1
  0
STYLE
  2
STANDARD
  3
txt
  4

 40
0.0000000000
 41
1.0000000000
 42
2.9999940395
 50
0.0000000000
 70
     0
 71
     0
  0
ENDTAB
  0
ENDSEC
  0
SECTION
  2
BLOCKS
  0
ENDSEC
  0
SECTION
  2
ENTITIES
  0
POLYLINE
  8
Layer1$C$L1
 62
     3
 66
     1
  0
VERTEX
  8
Layer1$C$L1
 62
     3
 10
193.2301148512
 20
134.0510322459
  0
VERTEX
  8
Layer1$C$L1
 62
     3
 10
193.3070195058
 20
134.0791377536
  0
VERTEX
  8
Layer1$C$L1
 62
     3
 10
193.3784108441
 20
134.1196420652
  0
VERTEX
  8
Layer1$C$L1
 62
     3
 10
193.4423830785
 20
134.1714639207
  0
VERTEX
  8
Layer1$C$L1
 62
     3
 10
193.4972284742
 20
134.2332199387
  0
VERTEX
  8
Layer1$C$L1
 62
     3
 10
193.5414829366
 20
134.3032615461
  0
VERTEX
  8
Layer1$C$L1
 62
     3
 10
193.5739650957
 20
134.3797189866
  0
VERTEX
  8
Layer1$C$L1
 62
     3
 10
193.5938078421
 20
134.4605512333
  0
VERTEX
  8
Layer1$C$L1
 62
     3
 10
193.6004814750
 20
134.5436004744
  0
SEQEND
  8
Layer1$C$L1
 62
     3
  0
LINE
  8
Layer1$C$L1
 62
     3
 10
193.6004814750
 20
137.9587463484
 11
196.6004929191
 21
137.9587463484
  0
LINE
  8
Layer1$C$L1
 62
     3
 10
193.6004814750
 20
135.3067497359
 11
196.6004929191
 21
135.3067497359
  0
LINE
  8
Layer1$C$L1
 62
     3
 10
193.6004814750
 20
138.6240823624
 11
193.6004814750
 21
134.5436004744
  0
TEXT
  8
Layer0$C$L0
 62
     5
 10
355.0000000000
 20
10.0000000000
 40
5.0000000000
  1
俵俙係-俙侽俁係俇俁俠
 41
0.5404139036
 72
     5
 11
409.0413903638
 21
10.0000000000
  0
TEXT
  8
Layer8$C$L8
 62
     3
 10
227.3505005485
 20
154.6123386354
 40
5.0000000000
  1
侽
 41
0.8666657221
 50
90.0000000000
 72
     5
 11
227.3505005485
 21
158.9456672458
  0
LINE
  8
Layer1$C$L1
 62
     3
 10
219.6005043632
 20
181.6240632889
 11
229.6005043632
 21
181.6240632889
  0
LINE
  8
Layer1$C$L1
  6
CENTER
 62
     3
 10
335.2147278434
 20
156.6240823624
 11
392.4646744376
 21
156.6240823624
  0
CIRCLE
  8
Layer1$C$L1
 62
     3
 10
363.8397202140
 20
156.6240823624
 40
25.0000000000
  0
LINE
  8
Layer1$C$L1
  6
CENTER
 62
     3
 10
363.8397202140
 20
185.2490556595
 11
363.8397202140
 21
127.9990709183
  0
LINE
  8
Layer1$C$L1
  6
PHANTOM
 62
     3
 10
173.6005005485
 20
159.6240938065
 11
167.6004776603
 21
159.6240938065
  0
LINE
  8
Layer1$C$L1
  6
PHANTOM
 62
     3
 10
167.6004776603
 20
153.6240899918
 11
173.6005005485
 21
153.6240899918
  0
LINE
  8
Layer1$C$L1
  6
PHANTOM
 62
     3
 10
167.6004776603
 20
159.6240938065
 11
167.6004776603
 21
153.6240899918
  0
LINE
  8
Layer1$C$L1
 62
     3
 10
235.6005081779
 20
142.4240815995
 11
237.6004967338
 21
142.4240815995
  0
LINE
  8
Layer1$C$L1
 62
     3
 10
235.6005081779
 20
170.8240640519
 11
237.6004967338
 21
170.8240640519
  0
LINE
  8
Layer1$C$L1
 62
     3
 10
235.6005081779
 20
141.6240823624
 11
237.6004967338
 21
141.6240823624
  0
LINE
  8
Layer1$C$L1
 62
     3
 10
235.6005081779
 20
171.6240632889
 11
237.6004967338
 21
171.6240632889
  0
LINE
  8
Layer1$C$L1
 62
     3
 10
229.6005043632
 20
176.1240709183
 11
235.6005081779
 21
176.1240709183
  0
LINE
  8
Layer1$C$L1
 62
     3
 10
229.6005043632
 20
137.1240747330
 11
235.6005081779
 21
137.1240747330
  0
LINE
  8
Layer1$C$L1
 62
     3
 10
235.6005081779
 20
137.1240747330
 11
235.6005081779
 21
176.1240709183
  0
LINE
  8
Layer1$C$L1
 62
     3
 10
234.1004929191
 20
137.1240747330
 11
234.1004929191
 21
176.1240709183
  0
LINE
  8
Layer1$C$L1
 62
     3
 10
232.6004967338
 20
137.1240747330
 11
232.6004967338
 21
176.1240709183
  0
LINE
  8
Layer1$C$L1
 62
     3
 10
229.6005043632
 20
181.6240632889
 11
229.6005043632
 21
131.6240632889
  0
LINE
  8
Layer1$C$L1
 62
     3
 10
229.6005043632
 20
131.6240632889
 11
219.6005043632
 21
131.6240632889
  0
LINE
  8
Layer1$C$L1
 62
     3
 10
219.6005043632
 20
181.6240632889
 11
219.6005043632
 21
131.6240632889
  0
LINE
  8
Layer1$C$L1
  6
CENTER
 62
     3
 10
166.2343582755
 20
156.6240823624
 11
323.6004843360
 21
156.6240823624
  0
CIRCLE
  8
Layer1$C$L1
 62
     3
 10
363.8397202140
 20
156.6240823624
 40
16.9999980927
  0
ARC
  8
Layer1$C$L1
 62
     3
 10
246.4782127982
 20
174.1240938065
 40
2.9999995232
 50
13.7415619685
 51
89.9999820139
  0
ARC
  8
Layer1$C$L1
 62
     3
 10
265.9004578239
 20
147.0044267533
 40
2.9999995232
 50
179.9999640278
 51
225.9629843870
  0
CIRCLE
  8
Layer1$C$L1
 62
     3
 10
363.8397202140
 20
156.6240823624
 40
10.9999990463
  0
ARC
  8
Layer1$C$L1
 62
     3
 10
257.3004898673
 20
146.6241014359
 40
0.5999907851
 50
0.0000000000
 51
180.0000186693
  0
ARC
  8
Layer1$C$L1
 62
     3
 10
260.1004776603
 20
144.8240983841
 40
2.2000002861
 50
180.0000906137
 51
360.0000000000
  0
CIRCLE
  8
Layer1$C$L1
 62
     3
 10
363.8397202140
 20
156.6240823624
 40
20.4999923706
  0
ARC
  8
Layer1$C$L1
 62
     3
 10
262.9004654533
 20
148.3241021988
 40
0.5999907851
 50
89.9999820139
 51
180.0000186693
  0
LINE
  8
Layer1$C$L1
 62
     3
 10
237.6004967338
 20
177.1240861771
 11
246.4782127982
 21
177.1240861771
  0
ARC
  8
Layer1$C$L1
 62
     3
 10
254.5005020744
 20
171.4240968583
 40
2.2000002861
 50
0.0000000000
 51
179.9999640278
  0
LINE
  8
Layer1$C$L1
 62
     3
 10
257.9004845268
 20
168.4240854142
 11
257.9004845268
 21
166.6240823624
  0
LINE
  8
Layer1$C$L1
 62
     3
 10
284.1174683219
 20
162.1241319535
 11
277.4004730827
 21
162.1241319535
  0
ARC
  8
Layer1$C$L1
 62
     3
 10
257.3004898673
 20
166.6240823624
 40
0.5999907851
 50
179.9999640278
 51
359.9999826972
  0
ARC
  8
Layer1$C$L1
 62
     3
 10
251.7004761344
 20
168.4241044877
 40
0.6000059843
 50
193.7416116011
 51
360.0000000000
  0
ARC
  8
Layer1$C$L1
 62
     3
 10
254.5005020744
 20
141.8240869401
 40
2.2000002861
 50
180.0000906137
 51
360.0000000000
  0
ARC
  8
Layer1$C$L1
 62
     3
 10
287.6174721366
 20
146.1240899918
 40
1.4999997616
 50
200.7647399547
 51
360.0000000000
  0
ARC
  8
Layer1$C$L1
 62
     3
 10
287.6174721366
 20
167.1240938065
 40
1.4999997616
 50
0.0000000000
 51
159.2352600453
  0
ARC
  8
Layer1$C$L1
 62
     3
 10
260.1004776603
 20
168.4240854142
 40
2.2000002861
 50
0.0000000000
 51
179.9999640278
  0
ARC
  8
Layer1$C$L1
 62
     3
 10
262.9004654533
 20
164.9240815995
 40
0.5999907851
 50
179.9999640278
 51
269.9999460417
  0
ARC
  8
Layer1$C$L1
 62
     3
 10
265.9004578239
 20
166.2437570450
 40
2.9999995232
 50
134.0369983102
 51
180.0000186693
  0
ARC
  8
Layer1$C$L1
 62
     3
 10
269.4004616386
 20
150.6240976212
 40
8.0350780487
 50
225.9630016898
 51
352.8749891296
  0
ARC
  8
Layer1$C$L1
 62
     3
 10
269.4004616386
 20
162.6240861771
 40
8.0350780487
 50
7.1250142855
 51
134.0369983102
  0
CIRCLE
  8
Layer1$C$L1
 62
     3
 10
363.8397202140
 20
156.6240823624
 40
13.9999985695
  0
LINE
  8
Layer1$C$L1
  6
PHANTOM
 62
     3
 10
237.6004849731
 20
156.6240572664
 11
284.0932407257
 21
129.7814567828
  0
LINE
  8
Layer1$C$L1
  6
PHANTOM
 62
     3
 10
237.6004996137
 20
156.6240781562
 11
285.7191839191
 21
184.4054087677
  0
LINE
  8
Layer1$C$L1
 62
     3
 10
284.1174683219
 20
151.1240518448
 11
277.4004730827
 21
151.1240518448
  0
LINE
  8
Layer1$C$L1
 62
     3
 10
277.4004730827
 20
163.6240899918
 11
277.4004730827
 21
149.6240938065
  0
LINE
  8
Layer1$C$L1
 62
     3
 10
262.9004654533
 20
166.2437570450
 11
262.9004654533
 21
147.0044267533
  0
LINE
  8
Layer1$C$L1
 62
     3
 10
289.1174683219
 20
159.6240938065
 11
299.0174851066
 21
159.6240938065
  0
LINE
  8
Layer1$C$L1
 62
     3
 10
289.1174683219
 20
153.6240899918
 11
299.0174851066
 21
153.6240899918
  0
LINE
  8
Layer1$C$L1
 62
     3
 10
286.2148854734
 20
167.6558773327
 11
284.1174451955
 21
162.1240622391
  0
LINE
  8
Layer1$C$L1
 62
     3
 10
286.2149005298
 20
145.5923001004
 11
284.1174670140
 21
151.1240973595
  0
LINE
  8
Layer1$C$L1
 62
     3
 10
284.1174683219
 20
151.1240899918
 11
284.1174683219
 21
162.1240938065
  0
LINE
  8
Layer1$C$L1
 62
     3
 10
289.1174683219
 20
146.1240899918
 11
289.1174683219
 21
167.1240938065
  0
LINE
  8
Layer1$C$L1
 62
     3
 10
237.6004967338
 20
136.1240785477
 11
237.6004967338
 21
177.1240861771
  0
LINE
  8
Layer1$C$L1
 62
     3
 10
299.0174851066
 20
153.6240899918
 11
299.0174851066
 21
159.6240938065
  0
LINE
  8
Layer1$C$L1
 62
     3
 10
247.6004967338
 20
138.3325708268
 11
247.6004967338
 21
174.8557985184
  0
LINE
  8
Layer1$C$L1
 62
     3
 10
260.1004776603
 20
170.6240976212
 11
260.1004776603
 21
142.6240861771
  0
LINE
  8
Layer1$C$L1
 62
     3
 10
257.3004898673
 20
147.2240960953
 11
257.3004898673
 21
166.0240877030
  0
LINE
  8
Layer1$C$L1
 62
     3
 10
254.5005020744
 20
173.6240899918
 11
254.5005020744
 21
139.6240938065
  0
LINE
  8
Layer1$C$L1
 62
     3
 10
251.7004761344
 20
145.4240930436
 11
251.7004761344
 21
167.8240907547
  0
ARC
  8
Layer1$C$L1
 62
     3
 10
251.7004761344
 20
144.8240793107
 40
0.6000059843
 50
0.0000000000
 51
166.2583883989
  0
ARC
  8
Layer1$C$L1
 62
     3
 10
309.6004852897
 20
156.6241014359
 40
10.9999990463
 50
195.8266224679
 51
524.1733775321
  0
LINE
  8
Layer1$C$L1
 62
     3
 10
262.3004707938
 20
148.3241021988
 11
262.3004707938
 21
144.8240983841
  0
LINE
  8
Layer1$C$L1
 62
     3
 10
256.7004952079
 20
146.6241014359
 11
256.7004952079
 21
141.8240869401
  0
LINE
  8
Layer1$C$L1
 62
     3
 10
252.3004898673
 20
144.8240793107
 11
252.3004898673
 21
141.8240869401
  0
LINE
  8
Layer1$C$L1
 62
     3
 10
257.9004845268
 20
146.6241014359
 11
257.9004845268
 21
144.8240983841
  0
LINE
  8
Layer1$C$L1
 62
     3
 10
262.3004707938
 20
168.4240854142
 11
262.3004707938
 21
164.9240815995
  0
LINE
  8
Layer1$C$L1
 62
     3
 10
256.7004952079
 20
171.4240968583
 11
256.7004952079
 21
166.6240823624
  0
LINE
  8
Layer1$C$L1
 62
     3
 10
252.3004898673
 20
171.4240968583
 11
252.3004898673
 21
168.4241044877
  0
LINE
  8
Layer1$C$L1
 62
     3
 10
249.3923435259
 20
174.8367222097
 11
251.1176442067
 21
168.2815768580
  0
LINE
  8
Layer1$C$L1
 62
     3
 10
249.3923435259
 20
138.4114425152
 11
251.1176442067
 21
144.9665878669
  0
LINE
  8
Layer1$C$L1
 62
     3
 10
237.6004967338
 20
136.1240785477
 11
246.4782127982
 21
136.1240785477
  0
ARC
  8
Layer1$C$L1
 62
     3
 10
246.4782127982
 20
139.1240709183
 40
2.9999995232
 50
270.0000179861
 51
346.2584380315
  0
LINE
  8
Layer1$C$L1
 62
     3
 10
350.5797180778
 20
131.6240823624
 11
350.5797180778
 21
135.4304063675
  0
LINE
  8
Layer1$C$L1
 62
     3
 10
377.0997032768
 20
131.6240823624
 11
377.0997032768
 21
135.4303872941
  0
LINE
  8
Layer1$C$L1
 62
     3
 10
349.2537293083
 20
131.6240823624
 11
349.2537293083
 21
136.3201845047
  0
LINE
  8
Layer1$C$L1
 62
     3
 10
378.4256920463
 20
131.6240823624
 11
378.4256920463
 21
136.3201654313
  0
LINE
  8
Layer1$C$L1
 62
     3
 10
349.2537293083
 20
131.6240823624
 11
378.4256920463
 21
131.6240823624
  0
LINE
  8
Layer1$C$L1
 62
     3
 10
349.2537293083
 20
181.6240823624
 11
378.4256920463
 21
181.6240823624
  0
LINE
  8
Layer1$C$L1
 62
     3
 10
388.8397202140
 20
143.3640611527
 11
385.0333962089
 21
143.3640611527
  0
LINE
  8
Layer1$C$L1
 62
     3
 10
388.8397202140
 20
169.8840654252
 11
385.0333962089
 21
169.8840654252
  0
LINE
  8
Layer1$C$L1
 62
     3
 10
388.8397202140
 20
171.2100541947
 11
384.1436371452
 21
171.2100541947
  0
LINE
  8
Layer1$C$L1
 62
     3
 10
388.8397202140
 20
142.0380723832
 11
384.1436180717
 21
142.0380723832
  0
LINE
  8
Layer1$C$L1
 62
     3
 10
388.8397202140
 20
171.2100541947
 11
388.8397202140
 21
142.0380723832
  0
LINE
  8
Layer1$C$L1
 62
     3
 10
338.8397202140
 20
171.2100541947
 11
338.8397202140
 21
142.0380723832
  0
LINE
  8
Layer1$C$L1
 62
     3
 10
338.8397202140
 20
142.0380723832
 11
343.5358223563
 21
142.0380723832
  0
LINE
  8
Layer1$C$L1
 62
     3
 10
378.4256920463
 20
181.6240823624
 11
378.4256920463
 21
176.9279992936
  0
LINE
  8
Layer1$C$L1
 62
     3
 10
349.2537293083
 20
181.6240823624
 11
349.2537293083
 21
176.9279802201
  0
LINE
  8
Layer1$C$L1
 62
     3
 10
338.8397202140
 20
171.2100541947
 11
343.5358032829
 21
171.2100541947
  0
LINE
  8
Layer1$C$L1
 62
     3
 10
338.8397202140
 20
169.8840654252
 11
342.6460442191
 21
169.8840654252
  0
LINE
  8
Layer1$C$L1
 62
     3
 10
338.8397202140
 20
143.3640611527
 11
342.6460442191
 21
143.3640611527
  0
LINE
  8
Layer1$C$L1
 62
     3
 10
377.0997032768
 20
181.6240823624
 11
377.0997032768
 21
177.8177774308
  0
LINE
  8
Layer1$C$L1
 62
     3
 10
350.5797180778
 20
181.6240823624
 11
350.5797180778
 21
177.8177583573
  0
LINE
  8
Layer1$C$L1
 62
     3
 10
173.6004814750
 20
138.6240823624
 11
196.6004929191
 21
138.6240823624
  0
LINE
  8
Layer1$C$L1
 62
     3
 10
186.6284332733
 20
132.2467728641
 11
193.2243908882
 21
134.0495019508
  0
LINE
  8
Layer1$C$L1
 62
     3
 10
173.6004814750
 20
131.6240899918
 11
196.6004929191
 21
131.6240899918
  0
LINE
  8
Layer1$C$L1
 62
     3
 10
196.6004929191
 20
174.6240823624
 11
219.6005043632
 21
174.6240823624
  0
POLYLINE
  8
Layer1$C$L1
 62
     3
 66
     1
  0
VERTEX
  8
Layer1$C$L1
 62
     3
 10
181.0610482238
 20
138.2402569118
  0
VERTEX
  8
Layer1$C$L1
 62
     3
 10
180.8138436173
 20
137.4929862260
  0
VERTEX
  8
Layer1$C$L1
 62
     3
 10
180.6764748992
 20
136.7168676505
  0
VERTEX
  8
Layer1$C$L1
 62
     3
 10
180.6518978596
 20
135.9286010839
  0
VERTEX
  8
Layer1$C$L1
 62
     3
 10
180.7406413275
 20
135.1451478153
  0
VERTEX
  8
Layer1$C$L1
 62
     3
 10
180.9407957920
 20
134.3833655654
  0
VERTEX
  8
Layer1$C$L1
 62
     3
 10
181.2480544896
 20
133.6596457549
  0
VERTEX
  8
Layer1$C$L1
 62
     3
 10
181.6558060734
 20
132.9895608078
  0
VERTEX
  8
Layer1$C$L1
 62
     3
 10
182.1552768710
 20
132.3875290757
  0
VERTEX
  8
Layer1$C$L1
 62
     3
 10
182.7357196697
 20
131.8665045958
  0
SEQEND
  8
Layer1$C$L1
 62
     3
  0
POLYLINE
  8
Layer1$C$L1
 62
     3
 66
     1
  0
VERTEX
  8
Layer1$C$L1
 62
     3
 10
181.3516691992
 20
138.5225955480
  0
VERTEX
  8
Layer1$C$L1
 62
     3
 10
181.3041569758
 20
138.5021237582
  0
VERTEX
  8
Layer1$C$L1
 62
     3
 10
181.2589651604
 20
138.4767682944
  0
VERTEX
  8
Layer1$C$L1
 62
     3
 10
181.2165746492
 20
138.4467989699
  0
VERTEX
  8
Layer1$C$L1
 62
     3
 10
181.1774365292
 20
138.4125346949
  0
VERTEX
  8
Layer1$C$L1
 62
     3
 10
181.1419672779
 20
138.3743400834
  0
VERTEX
  8
Layer1$C$L1
 62
     3
 10
181.1105443315
 20
138.3326215728
  0
VERTEX
  8
Layer1$C$L1
 62
     3
 10
181.0835020687
 20
138.2878230991
  0
VERTEX
  8
Layer1$C$L1
 62
     3
 10
181.0611282523
 20
138.2404213729
  0
SEQEND
  8
Layer1$C$L1
 62
     3
  0
POLYLINE
  8
Layer1$C$L1
 62
     3
 66
     1
  0
VERTEX
  8
Layer1$C$L1
 62
     3
 10
182.7366617203
 20
131.8657760513
  0
VERTEX
  8
Layer1$C$L1
 62
     3
 10
182.7791571273
 20
131.8363908318
  0
VERTEX
  8
Layer1$C$L1
 62
     3
 10
182.8243826760
 20
131.8116055207
  0
VERTEX
  8
Layer1$C$L1
 62
     3
 10
182.8718615344
 20
131.7916814402
  0
VERTEX
  8
Layer1$C$L1
 62
     3
 10
182.9210931125
 20
131.7768286583
  0
VERTEX
  8
Layer1$C$L1
 62
     3
 10
182.9715583411
 20
131.7672037741
  0
VERTEX
  8
Layer1$C$L1
 62
     3
 10
183.0227251438
 20
131.7629082670
  0
VERTEX
  8
Layer1$C$L1
 62
     3
 10
183.0740540473
 20
131.7639874261
  0
VERTEX
  8
Layer1$C$L1
 62
     3
 10
183.1250038692
 20
131.7704298736
  0
SEQEND
  8
Layer1$C$L1
 62
     3
  0
LINE
  8
Layer1$C$L1
 62
     3
 10
185.1435489350
 20
134.0926038563
 11
184.6606017771
 21
133.9606098757
  0
LINE
  8
Layer1$C$L1
 62
     3
 10
184.2376713911
 20
137.5409944090
 11
183.7547426318
 21
137.4090054570
  0
LINE
  8
Layer1$C$L1
 62
     3
 10
181.8786084545
 20
138.6240823624
 11
183.6540163177
 21
131.8656240751
  0
LINE
  8
Layer1$C$L1
 62
     3
 10
183.5014646151
 20
133.6438214049
 11
183.6539864636
 21
131.8656444828
  0
LINE
  8
Layer1$C$L1
 62
     3
 10
181.8952846580
 20
138.6240823624
 11
182.5956069448
 21
137.0922039877
  0
LINE
  8
Layer1$C$L1
 62
     3
 10
181.3512408124
 20
138.5224860123
 11
181.6249002945
 21
138.6240823624
  0
LINE
  8
Layer1$C$L1
 62
     3
 10
183.1249308706
 20
131.7704704454
 11
183.6540276429
 21
131.8656310159
  0
LINE
  8
Layer1$C$L1
 62
     3
 10
185.6741099319
 20
132.0729079725
 11
184.7253023287
 21
133.7143153821
  0
LINE
  8
Layer1$C$L1
 62
     3
 10
183.6900540999
 20
137.6552889535
 11
184.7253335624
 21
133.7143147122
  0
LINE
  8
Layer1$C$L1
 62
     3
 10
185.6741051972
 20
132.0728779478
 11
184.0320591021
 21
131.6240913741
  0
LINE
  8
Layer1$C$L1
 62
     3
 10
183.2080036825
 20
136.7315356693
 11
182.7250379468
 21
136.5995373168
  0
LINE
  8
Layer1$C$L1
 62
     3
 10
183.8550518858
 20
134.2684230564
 11
183.3720861501
 21
134.1364247039
  0
LINE
  8
Layer1$C$L1
 62
     3
 10
183.2080041833
 20
136.7315517183
 11
183.8550570280
 21
134.2684312878
  0
LINE
  8
Layer1$C$L1
 62
     3
 10
182.1931909462
 20
138.6240823624
 11
184.0320497072
 21
131.6241065032
  0
LINE
  8
Layer1$C$L1
 62
     3
 10
185.6284309841
 20
132.2467634442
 11
183.9531394221
 21
138.6240823624
  0
LINE
  8
Layer1$C$L1
 62
     3
 10
185.5736145622
 20
132.2467140303
 11
186.6282180080
 21
132.2467140303
  0
LINE
  8
Layer1$C$L1
 62
     3
 10
183.7063192857
 20
138.6240823624
 11
183.6960679367
 21
137.6322770752
  0
LINE
  8
Layer1$C$L1
 62
     3
 10
183.5784149919
 20
132.7466949568
 11
183.7371513169
 21
132.7466949568
  0
LINE
  8
Layer1$C$L1
 62
     3
 10
183.5784149919
 20
180.5014697680
 11
183.7371513169
 21
180.5014697680
  0
LINE
  8
Layer1$C$L1
 62
     3
 10
173.6004814750
 20
181.6240747330
 11
196.6004929191
 21
181.6240747330
  0
LINE
  8
Layer1$C$L1
 62
     3
 10
183.7063192857
 20
174.6240823624
 11
183.6960679367
 21
175.6158876497
  0
LINE
  8
Layer1$C$L1
 62
     3
 10
173.6004814750
 20
174.6240823624
 11
196.6004929191
 21
174.6240823624
  0
LINE
  8
Layer1$C$L1
 62
     3
 10
196.6004929191
 20
131.6240899918
 11
219.6005043632
 21
131.6240899918
  0
LINE
  8
Layer1$C$L1
 62
     3
 10
196.6004929191
 20
138.6240823624
 11
219.6005043632
 21
138.6240823624
  0
LINE
  8
Layer1$C$L1
 62
     3
 10
196.6004929191
 20
161.7240655777
 11
219.6005043632
 21
161.7240655777
  0
LINE
  8
Layer1$C$L1
 62
     3
 10
206.6005119926
 20
171.2100541947
 11
216.6005119926
 21
171.2100541947
  0
LINE
  8
Layer1$C$L1
 62
     3
 10
216.6005119926
 20
171.2100541947
 11
216.6005119926
 21
161.7240655777
  0
LINE
  8
Layer1$C$L1
 62
     3
 10
206.6005119926
 20
171.2100541947
 11
206.6005119926
 21
161.7240655777
  0
LINE
  8
Layer1$C$L1
 62
     3
 10
204.9005112296
 20
167.8440606949
 11
204.9005112296
 21
167.5890672562
  0
LINE
  8
Layer1$C$L1
 62
     3
 10
205.4410661039
 20
161.7240758409
 11
204.9005291073
 21
163.7640631524
  0
LINE
  8
Layer1$C$L1
 62
     3
 10
204.9004762783
 20
167.8440601610
 11
205.4410132749
 21
169.8840474724
  0
LINE
  8
Layer1$C$L1
 62
     3
 10
206.0589353447
 20
167.5247108701
 11
206.6004982600
 21
169.5685699999
  0
LINE
  8
Layer1$C$L1
 62
     3
 10
206.6005277664
 20
162.0395668654
 11
206.0589648511
 21
164.0834259951
  0
LINE
  8
Layer1$C$L1
 62
     3
 10
206.0589775687
 20
164.0834749100
 11
206.0589775687
 21
164.5291078446
  0
LINE
  8
Layer1$C$L1
 62
     3
 10
205.4005608207
 20
167.0791185257
 11
206.6005501396
 21
167.0791185257
  0
LINE
  8
Layer1$C$L1
 62
     3
 10
205.4005608207
 20
164.5291078446
 11
206.6005501396
 21
164.5291078446
  0
LINE
  8
Layer1$C$L1
 62
     3
 10
206.0589775687
 20
167.0791185257
 11
206.0589775687
 21
167.5247705338
  0
LINE
  8
Layer1$C$L1
 62
     3
 10
204.9005112296
 20
164.0190637467
 11
204.9005112296
 21
163.7640703080
  0
LINE
  8
Layer1$C$L1
 62
     3
 10
205.4005036002
 20
167.0790803788
 11
205.4005036002
 21
164.5290696976
  0
LINE
  8
Layer1$C$L1
 62
     3
 10
201.9004997855
 20
162.2340715287
 11
201.9004997855
 21
161.7240655777
  0
LINE
  8
Layer1$C$L1
 62
     3
 10
201.8427675786
 20
166.3140575253
 11
200.9468255848
 21
167.8969110714
  0
LINE
  8
Layer1$C$L1
 62
     3
 10
201.6695763008
 20
165.8040741899
 11
200.6799145597
 21
167.5525016631
  0
LINE
  8
Layer1$C$L1
 62
     3
 10
201.0305500380
 20
164.6750889296
 11
201.6695695620
 21
165.8040396056
  0
LINE
  8
Layer1$C$L1
 62
     3
 10
201.1802827622
 20
164.1236228347
 11
201.8427721537
 21
165.2940375378
  0
LINE
  8
Layer1$C$L1
 62
     3
 10
201.8427589563
 20
166.3140307070
 11
202.7170931460
 21
167.8587099184
  0
LINE
  8
Layer1$C$L1
 62
     3
 10
202.2469115138
 20
165.8040472445
 11
202.9418158413
 21
167.0317291553
  0
LINE
  8
Layer1$C$L1
 62
     3
 10
202.7831200444
 20
163.6327665897
 11
201.8427844861
 21
165.2940498907
  0
LINE
  8
Layer1$C$L1
 62
     3
 10
203.0078304082
 20
164.4597691389
 11
202.2469106189
 21
165.8040800376
  0
LINE
  8
Layer1$C$L1
 62
     3
 10
201.0305656954
 20
164.6751141571
 11
201.1803097165
 21
164.1236413372
  0
LINE
  8
Layer1$C$L1
 62
     3
 10
202.7171284742
 20
167.8587325024
 11
202.9418493464
 21
167.0317493807
  0
LINE
  8
Layer1$C$L1
 62
     3
 10
200.6798920280
 20
167.5524843094
 11
201.1417755729
 21
167.5524843094
  0
LINE
  8
Layer1$C$L1
 62
     3
 10
203.4408363944
 20
164.2047632096
 11
203.6710152274
 21
164.2047632096
  0
LINE
  8
Layer1$C$L1
 62
     3
 10
203.2161316520
 20
163.3777559159
 11
203.4462914115
 21
163.3777559159
  0
LINE
  8
Layer1$C$L1
 62
     3
 10
203.6710029073
 20
164.2047518777
 11
203.4462980325
 21
163.3777248946
  0
LINE
  8
Layer1$C$L1
 62
     3
 10
203.4463072796
 20
163.3777515232
 11
202.3616198217
 21
165.2940601693
  0
LINE
  8
Layer1$C$L1
 62
     3
 10
201.8427643424
 20
166.3140428421
 11
202.3616203910
 21
166.3140428421
  0
LINE
  8
Layer1$C$L1
 62
     3
 10
201.6695580131
 20
165.8040559647
 11
202.0729431754
 21
165.8040559647
  0
LINE
  8
Layer1$C$L1
 62
     3
 10
201.8427643424
 20
165.2940500138
 11
202.3616203910
 21
165.2940500138
  0
LINE
  8
Layer1$C$L1
 62
     3
 10
202.0729442089
 20
165.8040610628
 11
201.0832824678
 21
167.5524885360
  0
LINE
  8
Layer1$C$L1
 62
     3
 10
201.1613204769
 20
164.1934675701
 11
202.0729575923
 21
165.8040495618
  0
LINE
  8
Layer1$C$L1
 62
     3
 10
202.3616249840
 20
166.3140359313
 11
202.8853927074
 21
167.2393721740
  0
LINE
  8
Layer1$C$L1
 62
     3
 10
201.9004997855
 20
169.8840654252
 11
201.9004997855
 21
169.3740594742
  0
LINE
  8
Layer1$C$L1
 62
     3
 10
219.6005043632
 20
151.5240800736
 11
196.6004929191
 21
151.5240800736
  0
LINE
  8
Layer1$C$L1
 62
     3
 10
216.6005119926
 20
143.3640611527
 11
196.6004929191
 21
143.3640611527
  0
LINE
  8
Layer1$C$L1
 62
     3
 10
216.6005119926
 20
142.0380723832
 11
206.6005119926
 21
142.0380723832
  0
LINE
  8
Layer1$C$L1
 62
     3
 10
216.6005119926
 20
151.5240800736
 11
216.6005119926
 21
142.0380723832
  0
LINE
  8
Layer1$C$L1
 62
     3
 10
206.6005119926
 20
151.5240800736
 11
206.6005119926
 21
142.0380723832
  0
LINE
  8
Layer1$C$L1
 62
     3
 10
204.9005112296
 20
145.6590783951
 11
204.9005112296
 21
145.4040658829
  0
LINE
  8
Layer1$C$L1
 62
     3
 10
204.9004850080
 20
149.4840672956
 11
205.4410268900
 21
151.5240730443
  0
LINE
  8
Layer1$C$L1
 62
     3
 10
205.4410389370
 20
143.3640780902
 11
204.9004970550
 21
145.4040838389
  0
LINE
  8
Layer1$C$L1
 62
     3
 10
206.6005190367
 20
143.6795740000
 11
206.0589512360
 21
145.7234515670
  0
LINE
  8
Layer1$C$L1
 62
     3
 10
206.0589256371
 20
149.1647228901
 11
206.6004836671
 21
151.2085635826
  0
LINE
  8
Layer1$C$L1
 62
     3
 10
206.0589203483
 20
148.7189996598
 11
206.0589203483
 21
149.1646516678
  0
LINE
  8
Layer1$C$L1
 62
     3
 10
206.6004738456
 20
146.1690080521
 11
205.4004845268
 21
146.1690080521
  0
LINE
  8
Layer1$C$L1
 62
     3
 10
206.6004738456
 20
148.7189996598
 11
205.4004654533
 21
148.7189996598
  0
LINE
  8
Layer1$C$L1
 62
     3
 10
206.0589203483
 20
145.7233751175
 11
206.0589203483
 21
146.1690080521
  0
LINE
  8
Layer1$C$L1
 62
     3
 10
204.9005112296
 20
149.4840753434
 11
204.9005112296
 21
149.2290819047
  0
LINE
  8
Layer1$C$L1
 62
     3
 10
205.4005036002
 20
148.7190568802
 11
205.4005036002
 21
146.1690652726
  0
LINE
  8
Layer1$C$L1
 62
     3
 10
201.9004997855
 20
151.5240800736
 11
201.9004997855
 21
151.0140741227
  0
LINE
  8
Layer1$C$L1
 62
     3
 10
200.9468339953
 20
145.3512425244
 11
201.8427728213
 21
146.9340904740
  0
LINE
  8
Layer1$C$L1
 62
     3
 10
200.6799205364
 20
145.6956476331
 11
201.6695768458
 21
147.4440655100
  0
LINE
  8
Layer1$C$L1
 62
     3
 10
201.6695737147
 20
147.4440917949
 11
201.0305600629
 21
148.5730320966
  0
LINE
  8
Layer1$C$L1
 62
     3
 10
201.8427981903
 20
147.9540939213
 11
201.1803052755
 21
149.1245148489
  0
LINE
  8
Layer1$C$L1
 62
     3
 10
202.7171215314
 20
145.3894173909
 11
201.8427797080
 21
146.9341100890
  0
LINE
  8
Layer1$C$L1
 62
     3
 10
202.9418246918
 20
146.2163939458
 11
202.2469174283
 21
147.4440810437
  0
LINE
  8
Layer1$C$L1
 62
     3
 10
201.8427856183
 20
147.9540908467
 11
202.7831276360
 21
149.6153855594
  0
LINE
  8
Layer1$C$L1
 62
     3
 10
202.2469447920
 20
147.4440803524
 11
203.0078528370
 21
148.7883705024
  0
LINE
  8
Layer1$C$L1
 62
     3
 10
201.1802844940
 20
149.1244774379
 11
201.0305404729
 21
148.5730046180
  0
LINE
  8
Layer1$C$L1
 62
     3
 10
202.9418341768
 20
146.2163797687
 11
202.7171133045
 21
145.3893966469
  0
LINE
  8
Layer1$C$L1
 62
     3
 10
201.1417755729
 20
145.6956422684
 11
200.6798920280
 21
145.6956422684
  0
LINE
  8
Layer1$C$L1
 62
     3
 10
203.6710152274
 20
149.0433824418
 11
203.4408363944
 21
149.0433824418
  0
LINE
  8
Layer1$C$L1
 62
     3
 10
203.4462914115
 20
149.8703897355
 11
203.2161316520
 21
149.8703897355
  0
LINE
  8
Layer1$C$L1
 62
     3
 10
203.4463156536
 20
149.8704055921
 11
203.6710205284
 21
149.0433786090
  0
LINE
  8
Layer1$C$L1
 62
     3
 10
202.3616422505
 20
147.9540794721
 11
203.4463326445
 21
149.8703933053
  0
LINE
  8
Layer1$C$L1
 62
     3
 10
202.3616203910
 20
146.9340837357
 11
201.8427643424
 21
146.9340837357
  0
LINE
  8
Layer1$C$L1
 62
     3
 10
202.0729431754
 20
147.4440896866
 11
201.6695580131
 21
147.4440896866
  0
LINE
  8
Layer1$C$L1
 62
     3
 10
202.3616203910
 20
147.9540956376
 11
201.8427643424
 21
147.9540956376
  0
LINE
  8
Layer1$C$L1
 62
     3
 10
201.0832990244
 20
145.6956407311
 11
202.0729648761
 21
147.4440754663
  0
LINE
  8
Layer1$C$L1
 62
     3
 10
202.0729748207
 20
147.4440974587
 11
201.1613424030
 21
149.0546711509
  0
LINE
  8
Layer1$C$L1
 62
     3
 10
202.8854193313
 20
146.0087582476
 11
202.3616504334
 21
146.9340965652
  0
LINE
  8
Layer1$C$L1
 62
     3
 10
201.9004997855
 20
143.8740861771
 11
201.9004997855
 21
143.3640611527
  0
LINE
  8
Layer1$C$L1
 62
     3
 10
173.6004814750
 20
131.6240899918
 11
173.6004814750
 21
181.6240747330
  0
LINE
  8
Layer1$C$L1
 62
     3
 10
196.6004929191
 20
151.5240800736
 11
196.3358864433
 21
151.5240800736
  0
LINE
  8
Layer1$C$L1
  6
CENTER
 62
     3
 10
191.6340241081
 20
145.4040658829
 11
170.6004891044
 21
145.4040658829
  0
LINE
  8
Layer1$C$L1
 62
     3
 10
173.6004814750
 20
143.0580842850
 11
189.3004974967
 21
143.0580842850
  0
LINE
  8
Layer1$C$L1
 62
     3
 10
190.1004967338
 20
143.8740861771
 11
190.1004967338
 21
146.9340646622
  0
LINE
  8
Layer1$C$L1
 62
     3
 10
189.3004974967
 20
147.7500665543
 11
173.6004814750
 21
147.7500665543
  0
LINE
  8
Layer1$C$L1
 62
     3
 10
173.6004814750
 20
143.6700761673
 11
190.0750908500
 21
143.6700761673
  0
LINE
  8
Layer1$C$L1
 62
     3
 10
190.0750908500
 20
147.1380746720
 11
173.6004814750
 21
147.1380746720
  0
LINE
  8
Layer1$C$L1
 62
     3
 10
175.6004891044
 20
143.6700761673
 11
175.6004891044
 21
147.1380746720
  0
LINE
  8
Layer1$C$L1
 62
     3
 10
173.0005058891
 20
149.7390687821
 11
173.6004814750
 21
149.7390687821
  0
LINE
  8
Layer1$C$L1
 62
     3
 10
172.6005512565
 20
149.2290912522
 11
173.0005594402
 21
149.7390899246
  0
LINE
  8
Layer1$C$L1
 62
     3
 10
172.6004967338
 20
144.1290796158
 11
172.6004967338
 21
149.2290819047
  0
LINE
  8
Layer1$C$L1
 62
     3
 10
173.0005566897
 20
143.6190931157
 11
172.6005485447
 21
144.1290918266
  0
LINE
  8
Layer1$C$L1
 62
     3
 10
173.6004814750
 20
143.6190545914
 11
173.0005058891
 21
143.6190545914
  0
LINE
  8
Layer1$C$L1
 62
     3
 10
196.6004929191
 20
131.6240899918
 11
196.6004929191
 21
181.6240747330
  0
LINE
  8
Layer1$C$L1
 62
     3
 10
185.5736145622
 20
181.0014506945
 11
186.6282180080
 21
181.0014506945
  0
LINE
  8
Layer1$C$L1
 62
     3
 10
185.6284309841
 20
181.0014012806
 11
183.9531394221
 21
174.6240823624
  0
LINE
  8
Layer1$C$L1
 62
     3
 10
193.6004814750
 20
174.6240823624
 11
193.6004814750
 21
178.7045642504
  0
LINE
  8
Layer1$C$L1
 62
     3
 10
186.6284332733
 20
181.0013918608
 11
193.2299029196
 21
179.1971562908
  0
LINE
  8
Layer1$C$L1
 62
     3
 10
173.6004814750
 20
161.7240655777
 11
196.6004929191
 21
161.7240655777
  0
LINE
  8
Layer1$C$L1
  6
CENTER
 62
     3
 10
170.6004891044
 20
167.8440606949
 11
191.6340241081
 21
167.8440606949
  0
LINE
  8
Layer1$C$L1
 62
     3
 10
189.3004974967
 20
170.1900613663
 11
173.6004814750
 21
170.1900613663
  0
LINE
  8
Layer1$C$L1
 62
     3
 10
190.1004967338
 20
166.3140619156
 11
190.1004967338
 21
169.3740594742
  0
LINE
  8
Layer1$C$L1
 62
     3
 10
173.6004814750
 20
165.4980600235
 11
189.3004974967
 21
165.4980600235
  0
LINE
  8
Layer1$C$L1
 62
     3
 10
190.0750908500
 20
169.5780694840
 11
173.6004814750
 21
169.5780694840
  0
LINE
  8
Layer1$C$L1
 62
     3
 10
173.6004814750
 20
166.1100519059
 11
190.0750908500
 21
166.1100519059
  0
LINE
  8
Layer1$C$L1
 62
     3
 10
193.6004814750
 20
177.9414149889
 11
196.6004929191
 21
177.9414149889
  0
LINE
  8
Layer1$C$L1
 62
     3
 10
193.6004814750
 20
175.2894183764
 11
196.6004929191
 21
175.2894183764
  0
LINE
  8
Layer1$C$L1
 62
     3
 10
175.6004891044
 20
166.1100519059
 11
175.6004891044
 21
169.5780694840
  0
LINE
  8
Layer1$C$L1
 62
     3
 10
182.1931909462
 20
174.6240823624
 11
184.0320497072
 21
181.6240582216
  0
LINE
  8
Layer1$C$L1
 62
     3
 10
183.2080041833
 20
176.5166130065
 11
183.8550570280
 21
178.9797334371
  0
LINE
  8
Layer1$C$L1
 62
     3
 10
183.8550518858
 20
178.9797416684
 11
183.3720861501
 21
179.1117400210
  0
LINE
  8
Layer1$C$L1
 62
     3
 10
183.2080036825
 20
176.5166290555
 11
182.7250379468
 21
176.6486274081
  0
LINE
  8
Layer1$C$L1
 62
     3
 10
185.6741051972
 20
181.1752867770
 11
184.0320591021
 21
181.6240733508
  0
LINE
  8
Layer1$C$L1
 62
     3
 10
183.6900540999
 20
175.5928757713
 11
184.7253335624
 21
179.5338500126
  0
LINE
  8
Layer1$C$L1
 62
     3
 10
185.6741099319
 20
181.1752567523
 11
184.7253023287
 21
179.5338493427
  0
LINE
  8
Layer1$C$L1
 62
     3
 10
183.1249308706
 20
181.4776942795
 11
183.6540276429
 21
181.3825337089
  0
LINE
  8
Layer1$C$L1
 62
     3
 10
181.3512408124
 20
174.7256787125
 11
181.6249002945
 21
174.6240823624
  0
LINE
  8
Layer1$C$L1
 62
     3
 10
181.8952846580
 20
174.6240823624
 11
182.5956069448
 21
176.1559607371
  0
LINE
  8
Layer1$C$L1
 62
     3
 10
183.5014646151
 20
179.6043433199
 11
183.6539864636
 21
181.3825202420
  0
LINE
  8
Layer1$C$L1
 62
     3
 10
181.8786084545
 20
174.6240823624
 11
183.6540163177
 21
181.3825406497
  0
LINE
  8
Layer1$C$L1
 62
     3
 10
184.2376713911
 20
175.7071703159
 11
183.7547426318
 21
175.8391592679
  0
LINE
  8
Layer1$C$L1
 62
     3
 10
185.1435489350
 20
179.1555608686
 11
184.6606017771
 21
179.2875548491
  0
LINE
  8
Layer1$C$L1
 62
     3
 10
173.6004814750
 20
163.5090768692
 11
173.0005058891
 21
163.5090768692
  0
LINE
  8
Layer1$C$L1
 62
     3
 10
173.0005551359
 20
163.5090308527
 11
172.6005352197
 21
164.0190445716
  0
LINE
  8
Layer1$C$L1
 62
     3
 10
172.6004967338
 20
164.0190637467
 11
172.6004967338
 21
169.1190660355
  0
LINE
  8
Layer1$C$L1
 62
     3
 10
172.6005662460
 20
169.1190437960
 11
173.0005744297
 21
169.6290424683
  0
LINE
  8
Layer1$C$L1
 62
     3
 10
173.0005058891
 20
169.6290719864
 11
173.6004814750
 21
169.6290719864
  0
LINE
  8
Layer1$C$L1
 62
     3
 10
196.6004929191
 20
169.8840654252
 11
216.6005119926
 21
169.8840654252
  0
LINE
  8
Layer1$C$L1
 62
     3
 10
196.6004929191
 20
181.6240747330
 11
219.6005043632
 21
181.6240747330
  0
POLYLINE
  8
Layer1$C$L1
 62
     3
 66
     1
  0
VERTEX
  8
Layer1$C$L1
 62
     3
 10
183.1250038692
 20
181.4777348512
  0
VERTEX
  8
Layer1$C$L1
 62
     3
 10
183.0740540473
 20
181.4841772987
  0
VERTEX
  8
Layer1$C$L1
 62
     3
 10
183.0227251438
 20
181.4852564579
  0
VERTEX
  8
Layer1$C$L1
 62
     3
 10
182.9715583411
 20
181.4809609507
  0
VERTEX
  8
Layer1$C$L1
 62
     3
 10
182.9210931125
 20
181.4713360665
  0
VERTEX
  8
Layer1$C$L1
 62
     3
 10
182.8718615344
 20
181.4564832846
  0
VERTEX
  8
Layer1$C$L1
 62
     3
 10
182.8243826760
 20
181.4365592041
  0
VERTEX
  8
Layer1$C$L1
 62
     3
 10
182.7791571273
 20
181.4117738931
  0
VERTEX
  8
Layer1$C$L1
 62
     3
 10
182.7366617203
 20
181.3823886735
  0
SEQEND
  8
Layer1$C$L1
 62
     3
  0
POLYLINE
  8
Layer1$C$L1
 62
     3
 66
     1
  0
VERTEX
  8
Layer1$C$L1
 62
     3
 10
181.0611282523
 20
175.0077433519
  0
VERTEX
  8
Layer1$C$L1
 62
     3
 10
181.0835020687
 20
174.9603416258
  0
VERTEX
  8
Layer1$C$L1
 62
     3
 10
181.1105443315
 20
174.9155431520
  0
VERTEX
  8
Layer1$C$L1
 62
     3
 10
181.1419672779
 20
174.8738246414
  0
VERTEX
  8
Layer1$C$L1
 62
     3
 10
181.1774365292
 20
174.8356300299
  0
VERTEX
  8
Layer1$C$L1
 62
     3
 10
181.2165746492
 20
174.8013657550
  0
VERTEX
  8
Layer1$C$L1
 62
     3
 10
181.2589651604
 20
174.7713964305
  0
VERTEX
  8
Layer1$C$L1
 62
     3
 10
181.3041569758
 20
174.7460409667
  0
VERTEX
  8
Layer1$C$L1
 62
     3
 10
181.3516691992
 20
174.7255691768
  0
SEQEND
  8
Layer1$C$L1
 62
     3
  0
POLYLINE
  8
Layer1$C$L1
 62
     3
 66
     1
  0
VERTEX
  8
Layer1$C$L1
 62
     3
 10
182.7357196697
 20
181.3816601291
  0
VERTEX
  8
Layer1$C$L1
 62
     3
 10
182.1552768710
 20
180.8606356491
  0
VERTEX
  8
Layer1$C$L1
 62
     3
 10
181.6558060734
 20
180.2586039170
  0
VERTEX
  8
Layer1$C$L1
 62
     3
 10
181.2480544896
 20
179.5885189699
  0
VERTEX
  8
Layer1$C$L1
 62
     3
 10
180.9407957920
 20
178.8647991595
  0
VERTEX
  8
Layer1$C$L1
 62
     3
 10
180.7406413275
 20
178.1030169095
  0
VERTEX
  8
Layer1$C$L1
 62
     3
 10
180.6518978596
 20
177.3195636409
  0
VERTEX
  8
Layer1$C$L1
 62
     3
 10
180.6764748992
 20
176.5312970743
  0
VERTEX
  8
Layer1$C$L1
 62
     3
 10
180.8138436173
 20
175.7551784988
  0
VERTEX
  8
Layer1$C$L1
 62
     3
 10
181.0610482238
 20
175.0079078130
  0
SEQEND
  8
Layer1$C$L1
 62
     3
  0
POLYLINE
  8
Layer1$C$L1
 62
     3
 66
     1
  0
VERTEX
  8
Layer1$C$L1
 62
     3
 10
189.3004977479
 20
165.4980600235
  0
VERTEX
  8
Layer1$C$L1
 62
     3
 10
189.4565698210
 20
165.5137393148
  0
VERTEX
  8
Layer1$C$L1
 62
     3
 10
189.6066441247
 20
165.5601745426
  0
VERTEX
  8
Layer1$C$L1
 62
     3
 10
189.7449533898
 20
165.6355812277
  0
VERTEX
  8
Layer1$C$L1
 62
     3
 10
189.8661824710
 20
165.7370615348
  0
VERTEX
  8
Layer1$C$L1
 62
     3
 10
189.9656726045
 20
165.8607156342
  0
VERTEX
  8
Layer1$C$L1
 62
     3
 10
190.0396004419
 20
166.0017915699
  0
VERTEX
  8
Layer1$C$L1
 62
     3
 10
190.0851249789
 20
166.1548678751
  0
VERTEX
  8
Layer1$C$L1
 62
     3
 10
190.1004967338
 20
166.3140619156
  0
SEQEND
  8
Layer1$C$L1
 62
     3
  0
POLYLINE
  8
Layer1$C$L1
 62
     3
 66
     1
  0
VERTEX
  8
Layer1$C$L1
 62
     3
 10
190.1004967338
 20
169.3740594742
  0
VERTEX
  8
Layer1$C$L1
 62
     3
 10
190.0851249789
 20
169.5332535147
  0
VERTEX
  8
Layer1$C$L1
 62
     3
 10
190.0396004419
 20
169.6863298199
  0
VERTEX
  8
Layer1$C$L1
 62
     3
 10
189.9656726045
 20
169.8274057557
  0
VERTEX
  8
Layer1$C$L1
 62
     3
 10
189.8661824710
 20
169.9510598550
  0
VERTEX
  8
Layer1$C$L1
 62
     3
 10
189.7449533898
 20
170.0525401621
  0
VERTEX
  8
Layer1$C$L1
 62
     3
 10
189.6066441247
 20
170.1279468473
  0
VERTEX
  8
Layer1$C$L1
 62
     3
 10
189.4565698210
 20
170.1743820750
  0
VERTEX
  8
Layer1$C$L1
 62
     3
 10
189.3004977479
 20
170.1900613663
  0
SEQEND
  8
Layer1$C$L1
 62
     3
  0
POLYLINE
  8
Layer1$C$L1
 62
     3
 66
     1
  0
VERTEX
  8
Layer1$C$L1
 62
     3
 10
193.6004814750
 20
178.7045642504
  0
VERTEX
  8
Layer1$C$L1
 62
     3
 10
193.5938078421
 20
178.7876134916
  0
VERTEX
  8
Layer1$C$L1
 62
     3
 10
193.5739650957
 20
178.8684457383
  0
VERTEX
  8
Layer1$C$L1
 62
     3
 10
193.5414829366
 20
178.9449031787
  0
VERTEX
  8
Layer1$C$L1
 62
     3
 10
193.4972284742
 20
179.0149447861
  0
VERTEX
  8
Layer1$C$L1
 62
     3
 10
193.4423830785
 20
179.0767008041
  0
VERTEX
  8
Layer1$C$L1
 62
     3
 10
193.3784108441
 20
179.1285226596
  0
VERTEX
  8
Layer1$C$L1
 62
     3
 10
193.3070195058
 20
179.1690269712
  0
VERTEX
  8
Layer1$C$L1
 62
     3
 10
193.2301148512
 20
179.1971324789
  0
SEQEND
  8
Layer1$C$L1
 62
     3
  0
POLYLINE
  8
Layer1$C$L1
 62
     3
 66
     1
  0
VERTEX
  8
Layer1$C$L1
 62
     3
 10
190.1004967338
 20
146.9340646622
  0
VERTEX
  8
Layer1$C$L1
 62
     3
 10
190.0851249789
 20
147.0932587027
  0
VERTEX
  8
Layer1$C$L1
 62
     3
 10
190.0396004419
 20
147.2463350079
  0
VERTEX
  8
Layer1$C$L1
 62
     3
 10
189.9656726045
 20
147.3874109437
  0
VERTEX
  8
Layer1$C$L1
 62
     3
 10
189.8661824710
 20
147.5110650430
  0
VERTEX
  8
Layer1$C$L1
 62
     3
 10
189.7449533898
 20
147.6125453501
  0
VERTEX
  8
Layer1$C$L1
 62
     3
 10
189.6066441247
 20
147.6879520353
  0
VERTEX
  8
Layer1$C$L1
 62
     3
 10
189.4565698210
 20
147.7343872630
  0
VERTEX
  8
Layer1$C$L1
 62
     3
 10
189.3004977479
 20
147.7500665543
  0
SEQEND
  8
Layer1$C$L1
 62
     3
  0
POLYLINE
  8
Layer1$C$L1
 62
     3
 66
     1
  0
VERTEX
  8
Layer1$C$L1
 62
     3
 10
189.3004977479
 20
143.0580938218
  0
VERTEX
  8
Layer1$C$L1
 62
     3
 10
189.4565698210
 20
143.0737729298
  0
VERTEX
  8
Layer1$C$L1
 62
     3
 10
189.6066441247
 20
143.1202076148
  0
VERTEX
  8
Layer1$C$L1
 62
     3
 10
189.7449533898
 20
143.1956134187
  0
VERTEX
  8
Layer1$C$L1
 62
     3
 10
189.8661824710
 20
143.2970925398
  0
VERTEX
  8
Layer1$C$L1
 62
     3
 10
189.9656726045
 20
143.4207451940
  0
VERTEX
  8
Layer1$C$L1
 62
     3
 10
190.0396004419
 20
143.5618194809
  0
VERTEX
  8
Layer1$C$L1
 62
     3
 10
190.0851249789
 20
143.7148939971
  0
VERTEX
  8
Layer1$C$L1
 62
     3
 10
190.1004967338
 20
143.8740861771
  0
SEQEND
  8
Layer1$C$L1
 62
     3
  0
POLYLINE
  8
Layer1$C$L1
 62
     3
 66
     1
  0
VERTEX
  8
Layer1$C$L1
 62
     3
 10
203.5004164360
 20
162.2363408490
  0
VERTEX
  8
Layer1$C$L1
 62
     3
 10
203.6805576789
 20
162.2825999943
  0
VERTEX
  8
Layer1$C$L1
 62
     3
 10
203.8568514075
 20
162.3877544439
  0
VERTEX
  8
Layer1$C$L1
 62
     3
 10
204.0263491778
 20
162.5500455305
  0
VERTEX
  8
Layer1$C$L1
 62
     3
 10
204.1862162051
 20
162.7667589984
  0
VERTEX
  8
Layer1$C$L1
 62
     3
 10
204.3337787755
 20
163.0342703991
  0
VERTEX
  8
Layer1$C$L1
 62
     3
 10
204.4665689622
 20
163.3481057082
  0
VERTEX
  8
Layer1$C$L1
 62
     3
 10
204.5823659009
 20
163.7030161517
  0
VERTEX
  8
Layer1$C$L1
 62
     3
 10
204.6792329326
 20
164.0930659902
  0
VERTEX
  8
Layer1$C$L1
 62
     3
 10
204.7555499939
 20
164.5117317914
  0
VERTEX
  8
Layer1$C$L1
 62
     3
 10
204.8100407114
 20
164.9520115321
  0
VERTEX
  8
Layer1$C$L1
 62
     3
 10
204.8417937490
 20
165.4065417046
  0
VERTEX
  8
Layer1$C$L1
 62
     3
 10
204.8502780496
 20
165.8677204678
  0
VERTEX
  8
Layer1$C$L1
 62
     3
 10
204.8353517165
 20
166.3278347860
  0
VERTEX
  8
Layer1$C$L1
 62
     3
 10
204.7972643867
 20
166.7791894255
  0
VERTEX
  8
Layer1$C$L1
 62
     3
 10
204.7366530562
 20
167.2142356550
  0
VERTEX
  8
Layer1$C$L1
 62
     3
 10
204.6545314260
 20
167.6256974952
  0
VERTEX
  8
Layer1$C$L1
 62
     3
 10
204.5522729483
 20
168.0066934063
  0
VERTEX
  8
Layer1$C$L1
 62
     3
 10
204.4315878567
 20
168.3508513795
  0
VERTEX
  8
Layer1$C$L1
 62
     3
 10
204.2944945624
 20
168.6524155061
  0
VERTEX
  8
Layer1$C$L1
 62
     3
 10
204.1432858977
 20
168.9063422432
  0
VERTEX
  8
Layer1$C$L1
 62
     3
 10
203.9804907688
 20
169.1083847645
  0
VERTEX
  8
Layer1$C$L1
 62
     3
 10
203.8088318611
 20
169.2551639872
  0
VERTEX
  8
Layer1$C$L1
 62
     3
 10
203.6311801033
 20
169.3442250857
  0
VERTEX
  8
Layer1$C$L1
 62
     3
 10
203.4505066520
 20
169.3740785477
  0
SEQEND
  8
Layer1$C$L1
 62
     3
  0
POLYLINE
  8
Layer1$C$L1
 62
     3
 66
     1
  0
VERTEX
  8
Layer1$C$L1
 62
     3
 10
202.7797753492
 20
168.5821359926
  0
VERTEX
  8
Layer1$C$L1
 62
     3
 10
202.6411938803
 20
168.8335032097
  0
VERTEX
  8
Layer1$C$L1
 62
     3
 10
202.4916826093
 20
169.0401676943
  0
VERTEX
  8
Layer1$C$L1
 62
     3
 10
202.3334477490
 20
169.1990798718
  0
VERTEX
  8
Layer1$C$L1
 62
     3
 10
202.1688242384
 20
169.3078948084
  0
VERTEX
  8
Layer1$C$L1
 62
     3
 10
202.0002412888
 20
169.3650068134
  0
VERTEX
  8
Layer1$C$L1
 62
     3
 10
201.8301865374
 20
169.3695731326
  0
VERTEX
  8
Layer1$C$L1
 62
     3
 10
201.6611693396
 20
169.3215263847
  0
VERTEX
  8
Layer1$C$L1
 62
     3
 10
201.4956837407
 20
169.2215755554
  0
VERTEX
  8
Layer1$C$L1
 62
     3
 10
201.3361716728
 20
169.0711955353
  0
VERTEX
  8
Layer1$C$L1
 62
     3
 10
201.1849869220
 20
168.8726053562
  0
VERTEX
  8
Layer1$C$L1
 62
     3
 10
201.0443603947
 20
168.6287354470
  0
VERTEX
  8
Layer1$C$L1
 62
     3
 10
200.9163671989
 20
168.3431843916
  0
SEQEND
  8
Layer1$C$L1
 62
     3
  0
POLYLINE
  8
Layer1$C$L1
 62
     3
 66
     1
  0
VERTEX
  8
Layer1$C$L1
 62
     3
 10
200.6798878756
 20
167.5524426990
  0
VERTEX
  8
Layer1$C$L1
 62
     3
 10
200.6019310643
 20
167.1381543029
  0
VERTEX
  8
Layer1$C$L1
 62
     3
 10
200.5454884088
 20
166.7017634268
  0
VERTEX
  8
Layer1$C$L1
 62
     3
 10
200.5114950280
 20
166.2505000163
  0
VERTEX
  8
Layer1$C$L1
 62
     3
 10
200.5005141104
 20
165.7918404193
  0
VERTEX
  8
Layer1$C$L1
 62
     3
 10
200.5127275832
 20
165.3333835205
  0
VERTEX
  8
Layer1$C$L1
 62
     3
 10
200.5479330986
 20
164.8827248463
  0
VERTEX
  8
Layer1$C$L1
 62
     3
 10
200.6055473861
 20
164.4473307256
  0
VERTEX
  8
Layer1$C$L1
 62
     3
 10
200.6846159157
 20
164.0344145901
  0
VERTEX
  8
Layer1$C$L1
 62
     3
 10
200.7838287124
 20
163.6508174656
  0
VERTEX
  8
Layer1$C$L1
 62
     3
 10
200.9015420589
 20
163.3028946326
  0
VERTEX
  8
Layer1$C$L1
 62
     3
 10
201.0358057288
 20
162.9964103342
  0
VERTEX
  8
Layer1$C$L1
 62
     3
 10
201.1843952964
 20
162.7364422771
  0
VERTEX
  8
Layer1$C$L1
 62
     3
 10
201.3448489905
 20
162.5272975058
  0
VERTEX
  8
Layer1$C$L1
 62
     3
 10
201.5145084799
 20
162.3724410454
  0
VERTEX
  8
Layer1$C$L1
 62
     3
 10
201.6905629154
 20
162.2744384945
  0
VERTEX
  8
Layer1$C$L1
 62
     3
 10
201.8700954992
 20
162.2349135192
  0
VERTEX
  8
Layer1$C$L1
 62
     3
 10
202.0501318089
 20
162.2545209532
  0
VERTEX
  8
Layer1$C$L1
 62
     3
 10
202.2276890763
 20
162.3329359485
  0
VERTEX
  8
Layer1$C$L1
 62
     3
 10
202.3998256052
 20
162.4688593576
  0
VERTEX
  8
Layer1$C$L1
 62
     3
 10
202.5636895081
 20
162.6600392569
  0
VERTEX
  8
Layer1$C$L1
 62
     3
 10
202.7165659547
 20
162.9033082560
  0
SEQEND
  8
Layer1$C$L1
 62
     3
  0
POLYLINE
  8
Layer1$C$L1
 62
     3
 66
     1
  0
VERTEX
  8
Layer1$C$L1
 62
     3
 10
203.4505066520
 20
143.8740671036
  0
VERTEX
  8
Layer1$C$L1
 62
     3
 10
203.6311801033
 20
143.9039205657
  0
VERTEX
  8
Layer1$C$L1
 62
     3
 10
203.8088318611
 20
143.9929816642
  0
VERTEX
  8
Layer1$C$L1
 62
     3
 10
203.9804907688
 20
144.1397608869
  0
VERTEX
  8
Layer1$C$L1
 62
     3
 10
204.1432858977
 20
144.3418034081
  0
VERTEX
  8
Layer1$C$L1
 62
     3
 10
204.2944945624
 20
144.5957301452
  0
VERTEX
  8
Layer1$C$L1
 62
     3
 10
204.4315878567
 20
144.8972942718
  0
VERTEX
  8
Layer1$C$L1
 62
     3
 10
204.5522729483
 20
145.2414522450
  0
VERTEX
  8
Layer1$C$L1
 62
     3
 10
204.6545314260
 20
145.6224481561
  0
VERTEX
  8
Layer1$C$L1
 62
     3
 10
204.7366530562
 20
146.0339099963
  0
VERTEX
  8
Layer1$C$L1
 62
     3
 10
204.7972643867
 20
146.4689562259
  0
VERTEX
  8
Layer1$C$L1
 62
     3
 10
204.8353517165
 20
146.9203108654
  0
VERTEX
  8
Layer1$C$L1
 62
     3
 10
204.8502780496
 20
147.3804251835
  0
VERTEX
  8
Layer1$C$L1
 62
     3
 10
204.8417937490
 20
147.8416039468
  0
VERTEX
  8
Layer1$C$L1
 62
     3
 10
204.8100407114
 20
148.2961341192
  0
VERTEX
  8
Layer1$C$L1
 62
     3
 10
204.7555499939
 20
148.7364138600
  0
VERTEX
  8
Layer1$C$L1
 62
     3
 10
204.6792329326
 20
149.1550796612
  0
VERTEX
  8
Layer1$C$L1
 62
     3
 10
204.5823659009
 20
149.5451294997
  0
VERTEX
  8
Layer1$C$L1
 62
     3
 10
204.4665689622
 20
149.9000399432
  0
VERTEX
  8
Layer1$C$L1
 62
     3
 10
204.3337787755
 20
150.2138752522
  0
VERTEX
  8
Layer1$C$L1
 62
     3
 10
204.1862162051
 20
150.4813866529
  0
VERTEX
  8
Layer1$C$L1
 62
     3
 10
204.0263491778
 20
150.6981001209
  0
VERTEX
  8
Layer1$C$L1
 62
     3
 10
203.8568514075
 20
150.8603912074
  0
VERTEX
  8
Layer1$C$L1
 62
     3
 10
203.6805576789
 20
150.9655456570
  0
VERTEX
  8
Layer1$C$L1
 62
     3
 10
203.5004164360
 20
151.0118048024
  0
SEQEND
  8
Layer1$C$L1
 62
     3
  0
POLYLINE
  8
Layer1$C$L1
 62
     3
 66
     1
  0
VERTEX
  8
Layer1$C$L1
 62
     3
 10
200.9163671989
 20
144.9049612597
  0
VERTEX
  8
Layer1$C$L1
 62
     3
 10
201.0443603947
 20
144.6194102043
  0
VERTEX
  8
Layer1$C$L1
 62
     3
 10
201.1849869220
 20
144.3755402952
  0
VERTEX
  8
Layer1$C$L1
 62
     3
 10
201.3361716728
 20
144.1769501161
  0
VERTEX
  8
Layer1$C$L1
 62
     3
 10
201.4956837407
 20
144.0265700959
  0
VERTEX
  8
Layer1$C$L1
 62
     3
 10
201.6611693396
 20
143.9266192666
  0
VERTEX
  8
Layer1$C$L1
 62
     3
 10
201.8301865374
 20
143.8785725188
  0
VERTEX
  8
Layer1$C$L1
 62
     3
 10
202.0002412888
 20
143.8831388380
  0
VERTEX
  8
Layer1$C$L1
 62
     3
 10
202.1688242384
 20
143.9402508429
  0
VERTEX
  8
Layer1$C$L1
 62
     3
 10
202.3334477490
 20
144.0490657795
  0
VERTEX
  8
Layer1$C$L1
 62
     3
 10
202.4916826093
 20
144.2079779571
  0
VERTEX
  8
Layer1$C$L1
 62
     3
 10
202.6411938803
 20
144.4146424417
  0
VERTEX
  8
Layer1$C$L1
 62
     3
 10
202.7797753492
 20
144.6660096588
  0
SEQEND
  8
Layer1$C$L1
 62
     3
  0
POLYLINE
  8
Layer1$C$L1
 62
     3
 66
     1
  0
VERTEX
  8
Layer1$C$L1
 62
     3
 10
202.7165659547
 20
150.3448373953
  0
VERTEX
  8
Layer1$C$L1
 62
     3
 10
202.5636895081
 20
150.5881063944
  0
VERTEX
  8
Layer1$C$L1
 62
     3
 10
202.3998256052
 20
150.7792862938
  0
VERTEX
  8
Layer1$C$L1
 62
     3
 10
202.2276890763
 20
150.9152097028
  0
VERTEX
  8
Layer1$C$L1
 62
     3
 10
202.0501318089
 20
150.9936246981
  0
VERTEX
  8
Layer1$C$L1
 62
     3
 10
201.8700954992
 20
151.0132321321
  0
VERTEX
  8
Layer1$C$L1
 62
     3
 10
201.6905629154
 20
150.9737071568
  0
VERTEX
  8
Layer1$C$L1
 62
     3
 10
201.5145084799
 20
150.8757046059
  0
VERTEX
  8
Layer1$C$L1
 62
     3
 10
201.3448489905
 20
150.7208481455
  0
VERTEX
  8
Layer1$C$L1
 62
     3
 10
201.1843952964
 20
150.5117033742
  0
VERTEX
  8
Layer1$C$L1
 62
     3
 10
201.0358057288
 20
150.2517353172
  0
VERTEX
  8
Layer1$C$L1
 62
     3
 10
200.9015420589
 20
149.9452510188
  0
VERTEX
  8
Layer1$C$L1
 62
     3
 10
200.7838287124
 20
149.5973281857
  0
VERTEX
  8
Layer1$C$L1
 62
     3
 10
200.6846159157
 20
149.2137310612
  0
VERTEX
  8
Layer1$C$L1
 62
     3
 10
200.6055473861
 20
148.8008149257
  0
VERTEX
  8
Layer1$C$L1
 62
     3
 10
200.5479330986
 20
148.3654208050
  0
VERTEX
  8
Layer1$C$L1
 62
     3
 10
200.5127275832
 20
147.9147621309
  0
VERTEX
  8
Layer1$C$L1
 62
     3
 10
200.5005141104
 20
147.4563052320
  0
VERTEX
  8
Layer1$C$L1
 62
     3
 10
200.5114950280
 20
146.9976456350
  0
VERTEX
  8
Layer1$C$L1
 62
     3
 10
200.5454884088
 20
146.5463822246
  0
VERTEX
  8
Layer1$C$L1
 62
     3
 10
200.6019310643
 20
146.1099913485
  0
VERTEX
  8
Layer1$C$L1
 62
     3
 10
200.6798878756
 20
145.6957029524
  0
SEQEND
  8
Layer1$C$L1
 62
     3
  0
POLYLINE
  8
Layer1$C$L1
 62
     3
 66
     1
  0
VERTEX
  8
Layer1$C$L1
 62
     3
 10
200.9465940004
 20
145.3508130663
  0
VERTEX
  8
Layer1$C$L1
 62
     3
 10
200.9211545448
 20
145.2992221599
  0
VERTEX
  8
Layer1$C$L1
 62
     3
 10
200.9015960531
 20
145.2450284439
  0
VERTEX
  8
Layer1$C$L1
 62
     3
 10
200.8881692960
 20
145.1889267669
  0
VERTEX
  8
Layer1$C$L1
 62
     3
 10
200.8810464256
 20
145.1316364409
  0
VERTEX
  8
Layer1$C$L1
 62
     3
 10
200.8803187684
 20
145.0738920180
  0
VERTEX
  8
Layer1$C$L1
 62
     3
 10
200.8859956540
 20
145.0164338725
  0
VERTEX
  8
Layer1$C$L1
 62
     3
 10
200.8980042959
 20
144.9599987084
  0
VERTEX
  8
Layer1$C$L1
 62
     3
 10
200.9161907243
 20
144.9053101133
  0
SEQEND
  8
Layer1$C$L1
 62
     3
  0
POLYLINE
  8
Layer1$C$L1
 62
     3
 66
     1
  0
VERTEX
  8
Layer1$C$L1
 62
     3
 10
203.4408365514
 20
149.0433633683
  0
VERTEX
  8
Layer1$C$L1
 62
     3
 10
203.3755169649
 20
149.0389924945
  0
VERTEX
  8
Layer1$C$L1
 62
     3
 10
203.3113169902
 20
149.0259547507
  0
VERTEX
  8
Layer1$C$L1
 62
     3
 10
203.2493370511
 20
149.0044736110
  0
VERTEX
  8
Layer1$C$L1
 62
     3
 10
203.1906395186
 20
148.9749172744
  0
VERTEX
  8
Layer1$C$L1
 62
     3
 10
203.1362305015
 20
148.9377923530
  0
VERTEX
  8
Layer1$C$L1
 62
     3
 10
203.0870426011
 20
148.8937351890
  0
VERTEX
  8
Layer1$C$L1
 62
     3
 10
203.0439189256
 20
148.8435009470
  0
VERTEX
  8
Layer1$C$L1
 62
     3
 10
203.0075986391
 20
148.7879506701
  0
SEQEND
  8
Layer1$C$L1
 62
     3
  0
POLYLINE
  8
Layer1$C$L1
 62
     3
 66
     1
  0
VERTEX
  8
Layer1$C$L1
 62
     3
 10
203.2161318090
 20
149.8703992722
  0
VERTEX
  8
Layer1$C$L1
 62
     3
 10
203.1508122225
 20
149.8660284802
  0
VERTEX
  8
Layer1$C$L1
 62
     3
 10
203.0866122478
 20
149.8529909801
  0
VERTEX
  8
Layer1$C$L1
 62
     3
 10
203.0246323087
 20
149.8315102422
  0
VERTEX
  8
Layer1$C$L1
 62
     3
 10
202.9659347762
 20
149.8019544582
  0
VERTEX
  8
Layer1$C$L1
 62
     3
 10
202.9115257591
 20
149.7648302311
  0
VERTEX
  8
Layer1$C$L1
 62
     3
 10
202.8623378587
 20
149.7207738909
  0
VERTEX
  8
Layer1$C$L1
 62
     3
 10
202.8192141831
 20
149.6705405882
  0
VERTEX
  8
Layer1$C$L1
 62
     3
 10
202.7828938967
 20
149.6149913500
  0
SEQEND
  8
Layer1$C$L1
 62
     3
  0
POLYLINE
  8
Layer1$C$L1
 62
     3
 66
     1
  0
VERTEX
  8
Layer1$C$L1
 62
     3
 10
204.9005112296
 20
149.2290822248
  0
VERTEX
  8
Layer1$C$L1
 62
     3
 10
204.9101183931
 20
149.1295867951
  0
VERTEX
  8
Layer1$C$L1
 62
     3
 10
204.9385708075
 20
149.0339149113
  0
VERTEX
  8
Layer1$C$L1
 62
     3
 10
204.9847750614
 20
148.9457431945
  0
VERTEX
  8
Layer1$C$L1
 62
     3
 10
205.0469555490
 20
148.8684600384
  0
VERTEX
  8
Layer1$C$L1
 62
     3
 10
205.1227227061
 20
148.8050353950
  0
VERTEX
  8
Layer1$C$L1
 62
     3
 10
205.2091648400
 20
148.7579066406
  0
VERTEX
  8
Layer1$C$L1
 62
     3
 10
205.3029600239
 20
148.7288849090
  0
VERTEX
  8
Layer1$C$L1
 62
     3
 10
205.4005037572
 20
148.7190854905
  0
SEQEND
  8
Layer1$C$L1
 62
     3
  0
POLYLINE
  8
Layer1$C$L1
 62
     3
 66
     1
  0
VERTEX
  8
Layer1$C$L1
 62
     3
 10
205.4005037572
 20
146.1690748093
  0
VERTEX
  8
Layer1$C$L1
 62
     3
 10
205.3029601008
 20
146.1592754064
  0
VERTEX
  8
Layer1$C$L1
 62
     3
 10
205.2091649850
 20
146.1302537204
  0
VERTEX
  8
Layer1$C$L1
 62
     3
 10
205.1227229018
 20
146.0831250382
  0
VERTEX
  8
Layer1$C$L1
 62
     3
 10
205.0469557709
 20
146.0197004878
  0
VERTEX
  8
Layer1$C$L1
 62
     3
 10
204.9847752794
 20
145.9424174381
  0
VERTEX
  8
Layer1$C$L1
 62
     3
 10
204.9385709877
 20
145.8542458322
  0
VERTEX
  8
Layer1$C$L1
 62
     3
 10
204.9101185003
 20
145.7585740542
  0
VERTEX
  8
Layer1$C$L1
 62
     3
 10
204.9005112296
 20
145.6590787153
  0
SEQEND
  8
Layer1$C$L1
 62
     3
  0
POLYLINE
  8
Layer1$C$L1
 62
     3
 66
     1
  0
VERTEX
  8
Layer1$C$L1
 62
     3
 10
203.7279733208
 20
150.9434104758
  0
VERTEX
  8
Layer1$C$L1
 62
     3
 10
203.4620130124
 20
151.0215641753
  0
VERTEX
  8
Layer1$C$L1
 62
     3
 10
203.1904978761
 20
151.0763528238
  0
VERTEX
  8
Layer1$C$L1
 62
     3
 10
202.9153970730
 20
151.1073790670
  0
VERTEX
  8
Layer1$C$L1
 62
     3
 10
202.6387057694
 20
151.1144178873
  0
VERTEX
  8
Layer1$C$L1
 62
     3
 10
202.3624306666
 20
151.0974182358
  0
VERTEX
  8
Layer1$C$L1
 62
     3
 10
202.0885754472
 20
151.0565034023
  0
VERTEX
  8
Layer1$C$L1
 62
     3
 10
201.8191262440
 20
150.9919701213
  0
VERTEX
  8
Layer1$C$L1
 62
     3
 10
201.5560372349
 20
150.9042864198
  0
SEQEND
  8
Layer1$C$L1
 62
     3
  0
POLYLINE
  8
Layer1$C$L1
 62
     3
 66
     1
  0
VERTEX
  8
Layer1$C$L1
 62
     3
 10
201.9007306411
 20
143.8740080594
  0
VERTEX
  8
Layer1$C$L1
 62
     3
 10
202.1269493586
 20
143.8244331536
  0
VERTEX
  8
Layer1$C$L1
 62
     3
 10
202.3560527933
 20
143.7914009022
  0
VERTEX
  8
Layer1$C$L1
 62
     3
 10
202.5868797295
 20
143.7750787300
  0
VERTEX
  8
Layer1$C$L1
 62
     3
 10
202.8182602158
 20
143.7755493661
  0
VERTEX
  8
Layer1$C$L1
 62
     3
 10
203.0490214951
 20
143.7928104253
  0
VERTEX
  8
Layer1$C$L1
 62
     3
 10
203.2779939489
 20
143.8267744194
  0
VERTEX
  8
Layer1$C$L1
 62
     3
 10
203.5040170252
 20
143.8772692012
  0
VERTEX
  8
Layer1$C$L1
 62
     3
 10
203.7259451211
 20
143.9440388368
  0
SEQEND
  8
Layer1$C$L1
 62
     3
  0
POLYLINE
  8
Layer1$C$L1
 62
     3
 66
     1
  0
VERTEX
  8
Layer1$C$L1
 62
     3
 10
200.9163309696
 20
168.3431859571
  0
VERTEX
  8
Layer1$C$L1
 62
     3
 10
200.8980683017
 20
168.2883797263
  0
VERTEX
  8
Layer1$C$L1
 62
     3
 10
200.8860120199
 20
168.2318156089
  0
VERTEX
  8
Layer1$C$L1
 62
     3
 10
200.8803174411
 20
168.1742223002
  0
VERTEX
  8
Layer1$C$L1
 62
     3
 10
200.8810579264
 20
168.1163417541
  0
VERTEX
  8
Layer1$C$L1
 62
     3
 10
200.8882239365
 20
168.0589196251
  0
VERTEX
  8
Layer1$C$L1
 62
     3
 10
200.9017231541
 20
168.0026956618
  0
VERTEX
  8
Layer1$C$L1
 62
     3
 10
200.9213816738
 20
167.9483941774
  0
VERTEX
  8
Layer1$C$L1
 62
     3
 10
200.9469462418
 20
167.8967147186
  0
SEQEND
  8
Layer1$C$L1
 62
     3
  0
POLYLINE
  8
Layer1$C$L1
 62
     3
 66
     1
  0
VERTEX
  8
Layer1$C$L1
 62
     3
 10
203.0079508805
 20
164.4595580413
  0
VERTEX
  8
Layer1$C$L1
 62
     3
 10
203.0442942292
 20
164.4041323377
  0
VERTEX
  8
Layer1$C$L1
 62
     3
 10
203.0874162912
 20
164.3540168333
  0
VERTEX
  8
Layer1$C$L1
 62
     3
 10
203.1365799139
 20
164.3100682307
  0
VERTEX
  8
Layer1$C$L1
 62
     3
 10
203.1909446667
 20
164.2730378118
  0
VERTEX
  8
Layer1$C$L1
 62
     3
 10
203.2495812083
 20
164.2435585953
  0
VERTEX
  8
Layer1$C$L1
 62
     3
 10
203.3114871728
 20
164.2221345154
  0
VERTEX
  8
Layer1$C$L1
 62
     3
 10
203.3756043052
 20
164.2091318072
  0
VERTEX
  8
Layer1$C$L1
 62
     3
 10
203.4408365514
 20
164.2047727463
  0
SEQEND
  8
Layer1$C$L1
 62
     3
  0
POLYLINE
  8
Layer1$C$L1
 62
     3
 66
     1
  0
VERTEX
  8
Layer1$C$L1
 62
     3
 10
202.7832461380
 20
163.6325269018
  0
VERTEX
  8
Layer1$C$L1
 62
     3
 10
202.8195894868
 20
163.5771001617
  0
VERTEX
  8
Layer1$C$L1
 62
     3
 10
202.8627115488
 20
163.5269837202
  0
VERTEX
  8
Layer1$C$L1
 62
     3
 10
202.9118751714
 20
163.4830342958
  0
VERTEX
  8
Layer1$C$L1
 62
     3
 10
202.9662399243
 20
163.4460031844
  0
VERTEX
  8
Layer1$C$L1
 62
     3
 10
203.0248764659
 20
163.4165234167
  0
VERTEX
  8
Layer1$C$L1
 62
     3
 10
203.0867824304
 20
163.3950989361
  0
VERTEX
  8
Layer1$C$L1
 62
     3
 10
203.1508995628
 20
163.3820959848
  0
VERTEX
  8
Layer1$C$L1
 62
     3
 10
203.2161318090
 20
163.3777368424
  0
SEQEND
  8
Layer1$C$L1
 62
     3
  0
POLYLINE
  8
Layer1$C$L1
 62
     3
 66
     1
  0
VERTEX
  8
Layer1$C$L1
 62
     3
 10
205.4005037572
 20
164.5290696976
  0
VERTEX
  8
Layer1$C$L1
 62
     3
 10
205.3029601008
 20
164.5192701114
  0
VERTEX
  8
Layer1$C$L1
 62
     3
 10
205.2091649850
 20
164.4902478828
  0
VERTEX
  8
Layer1$C$L1
 62
     3
 10
205.1227229018
 20
164.4431183193
  0
VERTEX
  8
Layer1$C$L1
 62
     3
 10
205.0469557709
 20
164.3796925828
  0
VERTEX
  8
Layer1$C$L1
 62
     3
 10
204.9847752794
 20
164.3024080880
  0
VERTEX
  8
Layer1$C$L1
 62
     3
 10
204.9385709877
 20
164.2142348334
  0
VERTEX
  8
Layer1$C$L1
 62
     3
 10
204.9101185003
 20
164.1185612663
  0
VERTEX
  8
Layer1$C$L1
 62
     3
 10
204.9005112296
 20
164.0190640669
  0
SEQEND
  8
Layer1$C$L1
 62
     3
  0
POLYLINE
  8
Layer1$C$L1
 62
     3
 66
     1
  0
VERTEX
  8
Layer1$C$L1
 62
     3
 10
204.9005112296
 20
167.5890675764
  0
VERTEX
  8
Layer1$C$L1
 62
     3
 10
204.9101183931
 20
167.4895702862
  0
VERTEX
  8
Layer1$C$L1
 62
     3
 10
204.9385708075
 20
167.3938966133
  0
VERTEX
  8
Layer1$C$L1
 62
     3
 10
204.9847750614
 20
167.3057232477
  0
VERTEX
  8
Layer1$C$L1
 62
     3
 10
205.0469555490
 20
167.2284386465
  0
VERTEX
  8
Layer1$C$L1
 62
     3
 10
205.1227227061
 20
167.1650128170
  0
VERTEX
  8
Layer1$C$L1
 62
     3
 10
205.2091648400
 20
167.1178831814
  0
VERTEX
  8
Layer1$C$L1
 62
     3
 10
205.3029600239
 20
167.0888609071
  0
VERTEX
  8
Layer1$C$L1
 62
     3
 10
205.4005037572
 20
167.0790613053
  0
SEQEND
  8
Layer1$C$L1
 62
     3
  0
POLYLINE
  8
Layer1$C$L1
 62
     3
 66
     1
  0
VERTEX
  8
Layer1$C$L1
 62
     3
 10
201.5554567524
 20
162.3440709421
  0
VERTEX
  8
Layer1$C$L1
 62
     3
 10
201.8183469441
 20
162.2563884953
  0
VERTEX
  8
Layer1$C$L1
 62
     3
 10
202.0875942778
 20
162.1918231349
  0
VERTEX
  8
Layer1$C$L1
 62
     3
 10
202.3612487094
 20
162.1508424803
  0
VERTEX
  8
Layer1$C$L1
 62
     3
 10
202.6373282763
 20
162.1337433370
  0
VERTEX
  8
Layer1$C$L1
 62
     3
 10
202.9138334515
 20
162.1406495469
  0
VERTEX
  8
Layer1$C$L1
 62
     3
 10
203.1887616254
 20
162.1715110913
  0
VERTEX
  8
Layer1$C$L1
 62
     3
 10
203.4601216102
 20
162.2261044529
  0
VERTEX
  8
Layer1$C$L1
 62
     3
 10
203.7259480609
 20
162.3040342355
  0
SEQEND
  8
Layer1$C$L1
 62
     3
  0
POLYLINE
  8
Layer1$C$L1
 62
     3
 66
     1
  0
VERTEX
  8
Layer1$C$L1
 62
     3
 10
203.7279733208
 20
169.3034149008
  0
VERTEX
  8
Layer1$C$L1
 62
     3
 10
203.5058076894
 20
169.3704071372
  0
VERTEX
  8
Layer1$C$L1
 62
     3
 10
203.2795277212
 20
169.4210861370
  0
VERTEX
  8
Layer1$C$L1
 62
     3
 10
203.0502831941
 20
169.4551943891
  0
VERTEX
  8
Layer1$C$L1
 62
     3
 10
202.8192389496
 20
169.4725585820
  0
VERTEX
  8
Layer1$C$L1
 62
     3
 10
202.5875689739
 20
169.4730904845
  0
VERTEX
  8
Layer1$C$L1
 62
     3
 10
202.3564504326
 20
169.4567873940
  0
VERTEX
  8
Layer1$C$L1
 62
     3
 10
202.1270576897
 20
169.4237321499
  0
VERTEX
  8
Layer1$C$L1
 62
     3
 10
201.9005563395
 20
169.3740927131
  0
SEQEND
  8
Layer1$C$L1
 62
     3
  0
LINE
  8
Layer1$C$L1
 62
     3
 10
196.6004929191
 20
151.5240800736
 11
173.6004814750
 21
151.5240800736
  0
LINE
  8
Layer0$C$L0
 10
420.0000000000
 20
297.0000000000
 11
0.0000000000
 21
297.0000000000
  0
LINE
  8
Layer0$C$L0
 10
0.0000000000
 20
0.0000000000
 11
420.0000000000
 21
0.0000000000
  0
LINE
  8
Layer0$C$L0
 10
0.0000000000
 20
297.0000000000
 11
0.0000000000
 21
0.0000000000
  0
LINE
  8
Layer0$C$L0
 10
420.0000000000
 20
0.0000000000
 11
420.0000000000
 21
297.0000000000
  0
ENDSEC
  0
EOF
