  0
SECTION
  2
HEADER
  9
$ACADVER
  1
AC1004
  9
$ANGBASE
 50
0.0000000000
  9
$ANGDIR
 70
     0
  9
$ATTDIA
 70
     0
  9
$ATTMODE
 70
     1
  9
$ATTREQ
 70
     1
  9
$AUNITS
 70
     0
  9
$AUPREC
 70
     0
  9
$AXISMODE
 70
     0
  9
$AXISUNIT
 10
0.0000000000
 20
0.0000000000
  9
$BLIPMODE
 70
     1
  9
$CECOLOR
 62
   256
  9
$CELTYPE
  6
BYLAYER
  9
$CHAMFERA
 40
0.0000000000
  9
$CHAMFERB
 40
0.0000000000
  9
$CLAYER
  8
0
  9
$COORDS
 70
     0
  9
$DIMALT
 70
     0
  9
$DIMALTD
 70
     2
  9
$DIMALTF
 40
25.4000000000
  9
$DIMAPOST
  1

  9
$DIMASO
 70
     1
  9
$DIMASZ
 40
1.9727878447
  9
$DIMBLK
  1

  9
$DIMBLK1
  1

  9
$DIMBLK2
  1

  9
$DIMCEN
 40
9.0000000000E-02
  9
$DIMDLE
 40
0.0000000000
  9
$DIMDLI
 40
0.3800000000
  9
$DIMEXE
 40
3.8099999428
  9
$DIMEXO
 40
2.5399999619
  9
$DIMLFAC
 40
1.0000000000
  9
$DIMLIM
 70
     0
  9
$DIMPOST
  1

  9
$DIMRND
 40
0.0000000000
  9
$DIMSCALE
 40
1.0000000000
  9
$DIMSE1
 70
     0
  9
$DIMSE2
 70
     0
  9
$DIMSHO
 70
     0
  9
$DIMTAD
 70
     0
  9
$DIMTIH
 70
     0
  9
$DIMTM
 40
0.0000000000
  9
$DIMTOH
 70
     1
  9
$DIMTOL
 70
     0
  9
$DIMTP
 40
0.0000000000
  9
$DIMTSZ
 40
0.0000000000
  9
$DIMTXT
 40
2.9999940395
  9
$DIMZIN
 70
     0
  9
$DRAGMODE
 70
     1
  9
$ELEVATION
 40
0.0000000000
  9
$EXTMAX
 10
423.1750000000
 20
300.1750000000
 30
0.0000000000
  9
$EXTMIN
 10
-3.1750000000
 20
-3.1750000000
 30
0.0000000000
  9
$FASTZOOM
 70
     1
  9
$FILLETRAD
 40
6.2500000000E-02
  9
$FILLMODE
 70
     1
  9
$GRIDMODE
 70
     0
  9
$GRIDUNIT
 10
0.0000000000
 20
0.0000000000
  9
$INSBASE
 10
0.0000000000
 20
0.0000000000
 30
0.0000000000
  9
$LIMCHECK
 70
     0
  9
$LIMMAX
 10
423.1750000000
 20
300.1750000000
  9
$LIMMIN
 10
-3.1750000000
 20
-3.1750000000
  9
$LTSCALE
 40
1.0000000000
  9
$LUNITS
 70
     2
  9
$LUPREC
 70
     3
  9
$MEASUREMENT
 70
     0
  9
$MENU
  1
ACAD
  9
$MIRRTEXT
 70
     0
  9
$ORTHOMODE
 70
     0
  9
$OSMODE
 70
     0
  9
$PDMODE
 70
     0
  9
$PDSIZE
 40
0.0000000000
  9
$PLINEWID
 40
0.0000000000
  9
$PROXYGRAPHICS
 70
     0
  9
$QTEXTMODE
 70
     0
  9
$REGENMODE
 70
     1
  9
$SKETCHINC
 40
0.1000000000
  9
$SKPOLY
 70
     0
  9
$SNAPANG
 50
0.0000000000
  9
$SNAPBASE
 10
0.0000000000
 20
0.0000000000
  9
$SNAPISOPAIR
 70
     0
  9
$SNAPMODE
 70
     0
  9
$SNAPSTYLE
 70
     0
  9
$SNAPUNIT
 10
1.0000000000
 20
1.0000000000
  9
$SPLFRAME
 70
     0
  9
$SPLINESEGS
 70
     8
  9
$TDCREATE
 40
2453411.4272453755
  9
$TDINDWG
 40
0.0000000000
  9
$TDUPDATE
 40
2453411.4272453755
  9
$TDUSRTIMER
 40
0.0000000000
  9
$TEXTSIZE
 40
2.9999940395
  9
$TEXTSTYLE
  7
STANDARD
  9
$THICKNESS
 40
0.0000000000
  9
$TRACEWID
 40
5.0000000000E-02
  9
$USERI1
 70
     0
  9
$USERI2
 70
     0
  9
$USERI3
 70
     0
  9
$USERI4
 70
     0
  9
$USERI5
 70
     0
  9
$USERR1
 40
0.0000000000
  9
$USERR2
 40
0.0000000000
  9
$USERR3
 40
0.0000000000
  9
$USERR4
 40
0.0000000000
  9
$USERR5
 40
0.0000000000
  9
$USRTIMER
 70
     1
  9
$VIEWCTR
 10
210.0000000000
 20
148.5000000000
  9
$VIEWDIR
 10
0.0000000000
 20
0.0000000000
 30
1.0000000000
  9
$VIEWSIZE
 40
303.3500000000
  0
ENDSEC
  0
SECTION
  2
TABLES
  0
TABLE
  2
LTYPE
 70
     3
  0
LTYPE
  2
SOLID
  3
Solid
 70
    64
 72
    65
 73
     0
 40
0.0000000000
  0
LTYPE
  2
CENTER
  3
Center
 70
    64
 72
    65
 73
     4
 40
9.1000067592
 49
6.5000119209
 49
-0.7999984026
 49
0.9999980330
 49
-0.7999984026
  0
LTYPE
  2
PHANTOM
  3
Phantom
 70
    64
 72
    65
 73
     6
 40
9.4999814630
 49
4.7999906540
 49
-0.8999982476
 49
0.9999980330
 49
-0.8999982476
 49
0.9999980330
 49
-0.8999982476
  0
ENDTAB
  0
TABLE
  2
LAYER
 70
     4
  0
LAYER
  2
Layer0$C$L0
 70
     0
  6
SOLID
 62
   192
  0
LAYER
  2
Layer1$C$L1
 70
     0
  6
SOLID
 62
     3
  0
LAYER
  2
Layer6$C$L6
 70
     0
  6
SOLID
 62
    31
  0
LAYER
  2
Layer8$C$L8
 70
     0
  6
SOLID
 62
     7
  0
ENDTAB
  0
TABLE
  2
STYLE
 70
     1
  0
STYLE
  2
STANDARD
  3
txt
  4

 40
0.0000000000
 41
1.0000000000
 42
2.9999940395
 50
0.0000000000
 70
     0
 71
     0
  0
ENDTAB
  0
ENDSEC
  0
SECTION
  2
BLOCKS
  0
ENDSEC
  0
SECTION
  2
ENTITIES
  0
LINE
  8
Layer1$C$L1
 62
     3
 10
197.4226972705
 20
138.6240823624
 11
197.4226972705
 21
134.5436004744
  0
LINE
  8
Layer1$C$L1
 62
     3
 10
197.4226972705
 20
135.3067497359
 11
200.4227087146
 21
135.3067497359
  0
LINE
  8
Layer1$C$L1
 62
     3
 10
197.4226972705
 20
137.9587463484
 11
200.4227087146
 21
137.9587463484
  0
POLYLINE
  8
Layer1$C$L1
 62
     3
 66
     1
  0
VERTEX
  8
Layer1$C$L1
 62
     3
 10
197.0523306467
 20
134.0510322459
  0
VERTEX
  8
Layer1$C$L1
 62
     3
 10
197.1292353014
 20
134.0791377536
  0
VERTEX
  8
Layer1$C$L1
 62
     3
 10
197.2006266396
 20
134.1196420652
  0
VERTEX
  8
Layer1$C$L1
 62
     3
 10
197.2645988740
 20
134.1714639207
  0
VERTEX
  8
Layer1$C$L1
 62
     3
 10
197.3194442697
 20
134.2332199387
  0
VERTEX
  8
Layer1$C$L1
 62
     3
 10
197.3636987321
 20
134.3032615461
  0
VERTEX
  8
Layer1$C$L1
 62
     3
 10
197.3961808912
 20
134.3797189866
  0
VERTEX
  8
Layer1$C$L1
 62
     3
 10
197.4160236376
 20
134.4605512333
  0
VERTEX
  8
Layer1$C$L1
 62
     3
 10
197.4226972705
 20
134.5436004744
  0
SEQEND
  8
Layer1$C$L1
 62
     3
  0
TEXT
  8
Layer0$C$L0
 62
     5
 10
355.0000000000
 20
10.0000000000
 40
5.0000000000
  1
俵俙係-俙侽俁係俇侾俠
 41
0.5404139036
 72
     5
 11
409.0413903638
 21
10.0000000000
  0
LINE
  8
Layer1$C$L1
 62
     3
 10
241.4227125293
 20
177.1240861771
 11
250.4227277881
 21
177.1240861771
  0
ARC
  8
Layer1$C$L1
 62
     3
 10
250.4227277881
 20
139.1240899918
 40
2.9999995232
 50
270.0000179861
 51
346.2584380315
  0
LINE
  8
Layer1$C$L1
 62
     3
 10
200.4227087146
 20
151.5240800736
 11
177.4226972705
 21
151.5240800736
  0
POLYLINE
  8
Layer1$C$L1
 62
     3
 66
     1
  0
VERTEX
  8
Layer1$C$L1
 62
     3
 10
207.5501891163
 20
169.3034149008
  0
VERTEX
  8
Layer1$C$L1
 62
     3
 10
207.3280234849
 20
169.3704071372
  0
VERTEX
  8
Layer1$C$L1
 62
     3
 10
207.1017435167
 20
169.4210861370
  0
VERTEX
  8
Layer1$C$L1
 62
     3
 10
206.8724989897
 20
169.4551943891
  0
VERTEX
  8
Layer1$C$L1
 62
     3
 10
206.6414547451
 20
169.4725585820
  0
VERTEX
  8
Layer1$C$L1
 62
     3
 10
206.4097847694
 20
169.4730904845
  0
VERTEX
  8
Layer1$C$L1
 62
     3
 10
206.1786662282
 20
169.4567873940
  0
VERTEX
  8
Layer1$C$L1
 62
     3
 10
205.9492734852
 20
169.4237321499
  0
VERTEX
  8
Layer1$C$L1
 62
     3
 10
205.7227721350
 20
169.3740927131
  0
SEQEND
  8
Layer1$C$L1
 62
     3
  0
POLYLINE
  8
Layer1$C$L1
 62
     3
 66
     1
  0
VERTEX
  8
Layer1$C$L1
 62
     3
 10
205.3776725480
 20
162.3440709421
  0
VERTEX
  8
Layer1$C$L1
 62
     3
 10
205.6405627396
 20
162.2563884953
  0
VERTEX
  8
Layer1$C$L1
 62
     3
 10
205.9098100733
 20
162.1918231349
  0
VERTEX
  8
Layer1$C$L1
 62
     3
 10
206.1834645050
 20
162.1508424803
  0
VERTEX
  8
Layer1$C$L1
 62
     3
 10
206.4595440718
 20
162.1337433370
  0
VERTEX
  8
Layer1$C$L1
 62
     3
 10
206.7360492470
 20
162.1406495469
  0
VERTEX
  8
Layer1$C$L1
 62
     3
 10
207.0109774210
 20
162.1715110913
  0
VERTEX
  8
Layer1$C$L1
 62
     3
 10
207.2823374058
 20
162.2261044529
  0
VERTEX
  8
Layer1$C$L1
 62
     3
 10
207.5481638564
 20
162.3040342355
  0
SEQEND
  8
Layer1$C$L1
 62
     3
  0
POLYLINE
  8
Layer1$C$L1
 62
     3
 66
     1
  0
VERTEX
  8
Layer1$C$L1
 62
     3
 10
208.7227270252
 20
167.5890675764
  0
VERTEX
  8
Layer1$C$L1
 62
     3
 10
208.7323341886
 20
167.4895702862
  0
VERTEX
  8
Layer1$C$L1
 62
     3
 10
208.7607866031
 20
167.3938966133
  0
VERTEX
  8
Layer1$C$L1
 62
     3
 10
208.8069908569
 20
167.3057232477
  0
VERTEX
  8
Layer1$C$L1
 62
     3
 10
208.8691713445
 20
167.2284386465
  0
VERTEX
  8
Layer1$C$L1
 62
     3
 10
208.9449385016
 20
167.1650128170
  0
VERTEX
  8
Layer1$C$L1
 62
     3
 10
209.0313806355
 20
167.1178831814
  0
VERTEX
  8
Layer1$C$L1
 62
     3
 10
209.1251758194
 20
167.0888609071
  0
VERTEX
  8
Layer1$C$L1
 62
     3
 10
209.2227195527
 20
167.0790613053
  0
SEQEND
  8
Layer1$C$L1
 62
     3
  0
POLYLINE
  8
Layer1$C$L1
 62
     3
 66
     1
  0
VERTEX
  8
Layer1$C$L1
 62
     3
 10
209.2227195527
 20
164.5290696976
  0
VERTEX
  8
Layer1$C$L1
 62
     3
 10
209.1251758964
 20
164.5192701114
  0
VERTEX
  8
Layer1$C$L1
 62
     3
 10
209.0313807805
 20
164.4902478828
  0
VERTEX
  8
Layer1$C$L1
 62
     3
 10
208.9449386974
 20
164.4431183193
  0
VERTEX
  8
Layer1$C$L1
 62
     3
 10
208.8691715664
 20
164.3796925828
  0
VERTEX
  8
Layer1$C$L1
 62
     3
 10
208.8069910749
 20
164.3024080880
  0
VERTEX
  8
Layer1$C$L1
 62
     3
 10
208.7607867833
 20
164.2142348334
  0
VERTEX
  8
Layer1$C$L1
 62
     3
 10
208.7323342958
 20
164.1185612663
  0
VERTEX
  8
Layer1$C$L1
 62
     3
 10
208.7227270252
 20
164.0190640669
  0
SEQEND
  8
Layer1$C$L1
 62
     3
  0
POLYLINE
  8
Layer1$C$L1
 62
     3
 66
     1
  0
VERTEX
  8
Layer1$C$L1
 62
     3
 10
206.6054619335
 20
163.6325269018
  0
VERTEX
  8
Layer1$C$L1
 62
     3
 10
206.6418052823
 20
163.5771001617
  0
VERTEX
  8
Layer1$C$L1
 62
     3
 10
206.6849273443
 20
163.5269837202
  0
VERTEX
  8
Layer1$C$L1
 62
     3
 10
206.7340909670
 20
163.4830342958
  0
VERTEX
  8
Layer1$C$L1
 62
     3
 10
206.7884557198
 20
163.4460031844
  0
VERTEX
  8
Layer1$C$L1
 62
     3
 10
206.8470922614
 20
163.4165234167
  0
VERTEX
  8
Layer1$C$L1
 62
     3
 10
206.9089982259
 20
163.3950989361
  0
VERTEX
  8
Layer1$C$L1
 62
     3
 10
206.9731153583
 20
163.3820959848
  0
VERTEX
  8
Layer1$C$L1
 62
     3
 10
207.0383476045
 20
163.3777368424
  0
SEQEND
  8
Layer1$C$L1
 62
     3
  0
POLYLINE
  8
Layer1$C$L1
 62
     3
 66
     1
  0
VERTEX
  8
Layer1$C$L1
 62
     3
 10
206.8301666760
 20
164.4595580413
  0
VERTEX
  8
Layer1$C$L1
 62
     3
 10
206.8665100247
 20
164.4041323377
  0
VERTEX
  8
Layer1$C$L1
 62
     3
 10
206.9096320868
 20
164.3540168333
  0
VERTEX
  8
Layer1$C$L1
 62
     3
 10
206.9587957094
 20
164.3100682307
  0
VERTEX
  8
Layer1$C$L1
 62
     3
 10
207.0131604622
 20
164.2730378118
  0
VERTEX
  8
Layer1$C$L1
 62
     3
 10
207.0717970038
 20
164.2435585953
  0
VERTEX
  8
Layer1$C$L1
 62
     3
 10
207.1337029684
 20
164.2221345154
  0
VERTEX
  8
Layer1$C$L1
 62
     3
 10
207.1978201008
 20
164.2091318072
  0
VERTEX
  8
Layer1$C$L1
 62
     3
 10
207.2630523469
 20
164.2047727463
  0
SEQEND
  8
Layer1$C$L1
 62
     3
  0
POLYLINE
  8
Layer1$C$L1
 62
     3
 66
     1
  0
VERTEX
  8
Layer1$C$L1
 62
     3
 10
204.7385467651
 20
168.3431859571
  0
VERTEX
  8
Layer1$C$L1
 62
     3
 10
204.7202840972
 20
168.2883797263
  0
VERTEX
  8
Layer1$C$L1
 62
     3
 10
204.7082278154
 20
168.2318156089
  0
VERTEX
  8
Layer1$C$L1
 62
     3
 10
204.7025332366
 20
168.1742223002
  0
VERTEX
  8
Layer1$C$L1
 62
     3
 10
204.7032737220
 20
168.1163417541
  0
VERTEX
  8
Layer1$C$L1
 62
     3
 10
204.7104397320
 20
168.0589196251
  0
VERTEX
  8
Layer1$C$L1
 62
     3
 10
204.7239389497
 20
168.0026956618
  0
VERTEX
  8
Layer1$C$L1
 62
     3
 10
204.7435974693
 20
167.9483941774
  0
VERTEX
  8
Layer1$C$L1
 62
     3
 10
204.7691620373
 20
167.8967147186
  0
SEQEND
  8
Layer1$C$L1
 62
     3
  0
POLYLINE
  8
Layer1$C$L1
 62
     3
 66
     1
  0
VERTEX
  8
Layer1$C$L1
 62
     3
 10
205.7229464366
 20
143.8740080594
  0
VERTEX
  8
Layer1$C$L1
 62
     3
 10
205.9491651541
 20
143.8244331536
  0
VERTEX
  8
Layer1$C$L1
 62
     3
 10
206.1782685888
 20
143.7914009022
  0
VERTEX
  8
Layer1$C$L1
 62
     3
 10
206.4090955250
 20
143.7750787300
  0
VERTEX
  8
Layer1$C$L1
 62
     3
 10
206.6404760113
 20
143.7755493661
  0
VERTEX
  8
Layer1$C$L1
 62
     3
 10
206.8712372907
 20
143.7928104253
  0
VERTEX
  8
Layer1$C$L1
 62
     3
 10
207.1002097444
 20
143.8267744194
  0
VERTEX
  8
Layer1$C$L1
 62
     3
 10
207.3262328207
 20
143.8772692012
  0
VERTEX
  8
Layer1$C$L1
 62
     3
 10
207.5481609166
 20
143.9440388368
  0
SEQEND
  8
Layer1$C$L1
 62
     3
  0
POLYLINE
  8
Layer1$C$L1
 62
     3
 66
     1
  0
VERTEX
  8
Layer1$C$L1
 62
     3
 10
207.5501891163
 20
150.9434104758
  0
VERTEX
  8
Layer1$C$L1
 62
     3
 10
207.2842288079
 20
151.0215641753
  0
VERTEX
  8
Layer1$C$L1
 62
     3
 10
207.0127136716
 20
151.0763528238
  0
VERTEX
  8
Layer1$C$L1
 62
     3
 10
206.7376128685
 20
151.1073790670
  0
VERTEX
  8
Layer1$C$L1
 62
     3
 10
206.4609215649
 20
151.1144178873
  0
VERTEX
  8
Layer1$C$L1
 62
     3
 10
206.1846464621
 20
151.0974182358
  0
VERTEX
  8
Layer1$C$L1
 62
     3
 10
205.9107912427
 20
151.0565034023
  0
VERTEX
  8
Layer1$C$L1
 62
     3
 10
205.6413420395
 20
150.9919701213
  0
VERTEX
  8
Layer1$C$L1
 62
     3
 10
205.3782530305
 20
150.9042864198
  0
SEQEND
  8
Layer1$C$L1
 62
     3
  0
POLYLINE
  8
Layer1$C$L1
 62
     3
 66
     1
  0
VERTEX
  8
Layer1$C$L1
 62
     3
 10
209.2227195527
 20
146.1690748093
  0
VERTEX
  8
Layer1$C$L1
 62
     3
 10
209.1251758964
 20
146.1592754064
  0
VERTEX
  8
Layer1$C$L1
 62
     3
 10
209.0313807805
 20
146.1302537204
  0
VERTEX
  8
Layer1$C$L1
 62
     3
 10
208.9449386974
 20
146.0831250382
  0
VERTEX
  8
Layer1$C$L1
 62
     3
 10
208.8691715664
 20
146.0197004878
  0
VERTEX
  8
Layer1$C$L1
 62
     3
 10
208.8069910749
 20
145.9424174381
  0
VERTEX
  8
Layer1$C$L1
 62
     3
 10
208.7607867833
 20
145.8542458322
  0
VERTEX
  8
Layer1$C$L1
 62
     3
 10
208.7323342958
 20
145.7585740542
  0
VERTEX
  8
Layer1$C$L1
 62
     3
 10
208.7227270252
 20
145.6590787153
  0
SEQEND
  8
Layer1$C$L1
 62
     3
  0
POLYLINE
  8
Layer1$C$L1
 62
     3
 66
     1
  0
VERTEX
  8
Layer1$C$L1
 62
     3
 10
208.7227270252
 20
149.2290822248
  0
VERTEX
  8
Layer1$C$L1
 62
     3
 10
208.7323341886
 20
149.1295867951
  0
VERTEX
  8
Layer1$C$L1
 62
     3
 10
208.7607866031
 20
149.0339149113
  0
VERTEX
  8
Layer1$C$L1
 62
     3
 10
208.8069908569
 20
148.9457431945
  0
VERTEX
  8
Layer1$C$L1
 62
     3
 10
208.8691713445
 20
148.8684600384
  0
VERTEX
  8
Layer1$C$L1
 62
     3
 10
208.9449385016
 20
148.8050353950
  0
VERTEX
  8
Layer1$C$L1
 62
     3
 10
209.0313806355
 20
148.7579066406
  0
VERTEX
  8
Layer1$C$L1
 62
     3
 10
209.1251758194
 20
148.7288849090
  0
VERTEX
  8
Layer1$C$L1
 62
     3
 10
209.2227195527
 20
148.7190854905
  0
SEQEND
  8
Layer1$C$L1
 62
     3
  0
POLYLINE
  8
Layer1$C$L1
 62
     3
 66
     1
  0
VERTEX
  8
Layer1$C$L1
 62
     3
 10
207.0383476045
 20
149.8703992722
  0
VERTEX
  8
Layer1$C$L1
 62
     3
 10
206.9730280180
 20
149.8660284802
  0
VERTEX
  8
Layer1$C$L1
 62
     3
 10
206.9088280433
 20
149.8529909801
  0
VERTEX
  8
Layer1$C$L1
 62
     3
 10
206.8468481042
 20
149.8315102422
  0
VERTEX
  8
Layer1$C$L1
 62
     3
 10
206.7881505717
 20
149.8019544582
  0
VERTEX
  8
Layer1$C$L1
 62
     3
 10
206.7337415546
 20
149.7648302311
  0
VERTEX
  8
Layer1$C$L1
 62
     3
 10
206.6845536542
 20
149.7207738909
  0
VERTEX
  8
Layer1$C$L1
 62
     3
 10
206.6414299787
 20
149.6705405882
  0
VERTEX
  8
Layer1$C$L1
 62
     3
 10
206.6051096922
 20
149.6149913500
  0
SEQEND
  8
Layer1$C$L1
 62
     3
  0
POLYLINE
  8
Layer1$C$L1
 62
     3
 66
     1
  0
VERTEX
  8
Layer1$C$L1
 62
     3
 10
207.2630523469
 20
149.0433633683
  0
VERTEX
  8
Layer1$C$L1
 62
     3
 10
207.1977327604
 20
149.0389924945
  0
VERTEX
  8
Layer1$C$L1
 62
     3
 10
207.1335327857
 20
149.0259547507
  0
VERTEX
  8
Layer1$C$L1
 62
     3
 10
207.0715528466
 20
149.0044736110
  0
VERTEX
  8
Layer1$C$L1
 62
     3
 10
207.0128553141
 20
148.9749172744
  0
VERTEX
  8
Layer1$C$L1
 62
     3
 10
206.9584462971
 20
148.9377923530
  0
VERTEX
  8
Layer1$C$L1
 62
     3
 10
206.9092583966
 20
148.8937351890
  0
VERTEX
  8
Layer1$C$L1
 62
     3
 10
206.8661347211
 20
148.8435009470
  0
VERTEX
  8
Layer1$C$L1
 62
     3
 10
206.8298144346
 20
148.7879506701
  0
SEQEND
  8
Layer1$C$L1
 62
     3
  0
POLYLINE
  8
Layer1$C$L1
 62
     3
 66
     1
  0
VERTEX
  8
Layer1$C$L1
 62
     3
 10
204.7688097959
 20
145.3508130663
  0
VERTEX
  8
Layer1$C$L1
 62
     3
 10
204.7433703403
 20
145.2992221599
  0
VERTEX
  8
Layer1$C$L1
 62
     3
 10
204.7238118487
 20
145.2450284439
  0
VERTEX
  8
Layer1$C$L1
 62
     3
 10
204.7103850915
 20
145.1889267669
  0
VERTEX
  8
Layer1$C$L1
 62
     3
 10
204.7032622211
 20
145.1316364409
  0
VERTEX
  8
Layer1$C$L1
 62
     3
 10
204.7025345639
 20
145.0738920180
  0
VERTEX
  8
Layer1$C$L1
 62
     3
 10
204.7082114495
 20
145.0164338725
  0
VERTEX
  8
Layer1$C$L1
 62
     3
 10
204.7202200914
 20
144.9599987084
  0
VERTEX
  8
Layer1$C$L1
 62
     3
 10
204.7384065198
 20
144.9053101133
  0
SEQEND
  8
Layer1$C$L1
 62
     3
  0
CIRCLE
  8
Layer1$C$L1
 62
     3
 10
363.8397202140
 20
156.6240823624
 40
17.0000004768
  0
CIRCLE
  8
Layer1$C$L1
 62
     3
 10
363.8397202140
 20
156.6240823624
 40
13.9999997616
  0
CIRCLE
  8
Layer1$C$L1
 62
     3
 10
363.8397202140
 20
156.6240823624
 40
11.0000002384
  0
TEXT
  8
Layer8$C$L8
 62
     3
 10
231.1727163440
 20
154.6123386354
 40
5.0000000000
  1
侽
 41
0.8666657221
 50
90.0000000000
 72
     5
 11
231.1727163440
 21
158.9456672458
  0
POLYLINE
  8
Layer1$C$L1
 62
     3
 66
     1
  0
VERTEX
  8
Layer1$C$L1
 62
     3
 10
206.5387817502
 20
150.3448373953
  0
VERTEX
  8
Layer1$C$L1
 62
     3
 10
206.3859053036
 20
150.5881063944
  0
VERTEX
  8
Layer1$C$L1
 62
     3
 10
206.2220414007
 20
150.7792862938
  0
VERTEX
  8
Layer1$C$L1
 62
     3
 10
206.0499048718
 20
150.9152097028
  0
VERTEX
  8
Layer1$C$L1
 62
     3
 10
205.8723476044
 20
150.9936246981
  0
VERTEX
  8
Layer1$C$L1
 62
     3
 10
205.6923112948
 20
151.0132321321
  0
VERTEX
  8
Layer1$C$L1
 62
     3
 10
205.5127787109
 20
150.9737071568
  0
VERTEX
  8
Layer1$C$L1
 62
     3
 10
205.3367242754
 20
150.8757046059
  0
VERTEX
  8
Layer1$C$L1
 62
     3
 10
205.1670647860
 20
150.7208481455
  0
VERTEX
  8
Layer1$C$L1
 62
     3
 10
205.0066110919
 20
150.5117033742
  0
VERTEX
  8
Layer1$C$L1
 62
     3
 10
204.8580215243
 20
150.2517353172
  0
VERTEX
  8
Layer1$C$L1
 62
     3
 10
204.7237578544
 20
149.9452510188
  0
VERTEX
  8
Layer1$C$L1
 62
     3
 10
204.6060445079
 20
149.5973281857
  0
VERTEX
  8
Layer1$C$L1
 62
     3
 10
204.5068317113
 20
149.2137310612
  0
VERTEX
  8
Layer1$C$L1
 62
     3
 10
204.4277631817
 20
148.8008149257
  0
VERTEX
  8
Layer1$C$L1
 62
     3
 10
204.3701488941
 20
148.3654208050
  0
VERTEX
  8
Layer1$C$L1
 62
     3
 10
204.3349433787
 20
147.9147621309
  0
VERTEX
  8
Layer1$C$L1
 62
     3
 10
204.3227299059
 20
147.4563052320
  0
VERTEX
  8
Layer1$C$L1
 62
     3
 10
204.3337108236
 20
146.9976456350
  0
VERTEX
  8
Layer1$C$L1
 62
     3
 10
204.3677042043
 20
146.5463822246
  0
VERTEX
  8
Layer1$C$L1
 62
     3
 10
204.4241468598
 20
146.1099913485
  0
VERTEX
  8
Layer1$C$L1
 62
     3
 10
204.5021036711
 20
145.6957029524
  0
SEQEND
  8
Layer1$C$L1
 62
     3
  0
POLYLINE
  8
Layer1$C$L1
 62
     3
 66
     1
  0
VERTEX
  8
Layer1$C$L1
 62
     3
 10
204.7385829945
 20
144.9049612597
  0
VERTEX
  8
Layer1$C$L1
 62
     3
 10
204.8665761902
 20
144.6194102043
  0
VERTEX
  8
Layer1$C$L1
 62
     3
 10
205.0072027175
 20
144.3755402952
  0
VERTEX
  8
Layer1$C$L1
 62
     3
 10
205.1583874683
 20
144.1769501161
  0
VERTEX
  8
Layer1$C$L1
 62
     3
 10
205.3178995362
 20
144.0265700959
  0
VERTEX
  8
Layer1$C$L1
 62
     3
 10
205.4833851351
 20
143.9266192666
  0
VERTEX
  8
Layer1$C$L1
 62
     3
 10
205.6524023329
 20
143.8785725188
  0
VERTEX
  8
Layer1$C$L1
 62
     3
 10
205.8224570843
 20
143.8831388380
  0
VERTEX
  8
Layer1$C$L1
 62
     3
 10
205.9910400339
 20
143.9402508429
  0
VERTEX
  8
Layer1$C$L1
 62
     3
 10
206.1556635445
 20
144.0490657795
  0
VERTEX
  8
Layer1$C$L1
 62
     3
 10
206.3138984049
 20
144.2079779571
  0
VERTEX
  8
Layer1$C$L1
 62
     3
 10
206.4634096758
 20
144.4146424417
  0
VERTEX
  8
Layer1$C$L1
 62
     3
 10
206.6019911447
 20
144.6660096588
  0
SEQEND
  8
Layer1$C$L1
 62
     3
  0
POLYLINE
  8
Layer1$C$L1
 62
     3
 66
     1
  0
VERTEX
  8
Layer1$C$L1
 62
     3
 10
207.2727224475
 20
143.8740671036
  0
VERTEX
  8
Layer1$C$L1
 62
     3
 10
207.4533958988
 20
143.9039205657
  0
VERTEX
  8
Layer1$C$L1
 62
     3
 10
207.6310476566
 20
143.9929816642
  0
VERTEX
  8
Layer1$C$L1
 62
     3
 10
207.8027065643
 20
144.1397608869
  0
VERTEX
  8
Layer1$C$L1
 62
     3
 10
207.9655016932
 20
144.3418034081
  0
VERTEX
  8
Layer1$C$L1
 62
     3
 10
208.1167103580
 20
144.5957301452
  0
VERTEX
  8
Layer1$C$L1
 62
     3
 10
208.2538036522
 20
144.8972942718
  0
VERTEX
  8
Layer1$C$L1
 62
     3
 10
208.3744887438
 20
145.2414522450
  0
VERTEX
  8
Layer1$C$L1
 62
     3
 10
208.4767472215
 20
145.6224481561
  0
VERTEX
  8
Layer1$C$L1
 62
     3
 10
208.5588688518
 20
146.0339099963
  0
VERTEX
  8
Layer1$C$L1
 62
     3
 10
208.6194801823
 20
146.4689562259
  0
VERTEX
  8
Layer1$C$L1
 62
     3
 10
208.6575675120
 20
146.9203108654
  0
VERTEX
  8
Layer1$C$L1
 62
     3
 10
208.6724938451
 20
147.3804251835
  0
VERTEX
  8
Layer1$C$L1
 62
     3
 10
208.6640095445
 20
147.8416039468
  0
VERTEX
  8
Layer1$C$L1
 62
     3
 10
208.6322565069
 20
148.2961341192
  0
VERTEX
  8
Layer1$C$L1
 62
     3
 10
208.5777657894
 20
148.7364138600
  0
VERTEX
  8
Layer1$C$L1
 62
     3
 10
208.5014487281
 20
149.1550796612
  0
VERTEX
  8
Layer1$C$L1
 62
     3
 10
208.4045816964
 20
149.5451294997
  0
VERTEX
  8
Layer1$C$L1
 62
     3
 10
208.2887847578
 20
149.9000399432
  0
VERTEX
  8
Layer1$C$L1
 62
     3
 10
208.1559945710
 20
150.2138752522
  0
VERTEX
  8
Layer1$C$L1
 62
     3
 10
208.0084320006
 20
150.4813866529
  0
VERTEX
  8
Layer1$C$L1
 62
     3
 10
207.8485649733
 20
150.6981001209
  0
VERTEX
  8
Layer1$C$L1
 62
     3
 10
207.6790672031
 20
150.8603912074
  0
VERTEX
  8
Layer1$C$L1
 62
     3
 10
207.5027734744
 20
150.9655456570
  0
VERTEX
  8
Layer1$C$L1
 62
     3
 10
207.3226322315
 20
151.0118048024
  0
SEQEND
  8
Layer1$C$L1
 62
     3
  0
POLYLINE
  8
Layer1$C$L1
 62
     3
 66
     1
  0
VERTEX
  8
Layer1$C$L1
 62
     3
 10
204.5021036711
 20
167.5524426990
  0
VERTEX
  8
Layer1$C$L1
 62
     3
 10
204.4241468598
 20
167.1381543029
  0
VERTEX
  8
Layer1$C$L1
 62
     3
 10
204.3677042043
 20
166.7017634268
  0
VERTEX
  8
Layer1$C$L1
 62
     3
 10
204.3337108236
 20
166.2505000163
  0
VERTEX
  8
Layer1$C$L1
 62
     3
 10
204.3227299059
 20
165.7918404193
  0
VERTEX
  8
Layer1$C$L1
 62
     3
 10
204.3349433787
 20
165.3333835205
  0
VERTEX
  8
Layer1$C$L1
 62
     3
 10
204.3701488941
 20
164.8827248463
  0
VERTEX
  8
Layer1$C$L1
 62
     3
 10
204.4277631817
 20
164.4473307256
  0
VERTEX
  8
Layer1$C$L1
 62
     3
 10
204.5068317113
 20
164.0344145901
  0
VERTEX
  8
Layer1$C$L1
 62
     3
 10
204.6060445079
 20
163.6508174656
  0
VERTEX
  8
Layer1$C$L1
 62
     3
 10
204.7237578544
 20
163.3028946326
  0
VERTEX
  8
Layer1$C$L1
 62
     3
 10
204.8580215243
 20
162.9964103342
  0
VERTEX
  8
Layer1$C$L1
 62
     3
 10
205.0066110919
 20
162.7364422771
  0
VERTEX
  8
Layer1$C$L1
 62
     3
 10
205.1670647860
 20
162.5272975058
  0
VERTEX
  8
Layer1$C$L1
 62
     3
 10
205.3367242754
 20
162.3724410454
  0
VERTEX
  8
Layer1$C$L1
 62
     3
 10
205.5127787109
 20
162.2744384945
  0
VERTEX
  8
Layer1$C$L1
 62
     3
 10
205.6923112948
 20
162.2349135192
  0
VERTEX
  8
Layer1$C$L1
 62
     3
 10
205.8723476044
 20
162.2545209532
  0
VERTEX
  8
Layer1$C$L1
 62
     3
 10
206.0499048718
 20
162.3329359485
  0
VERTEX
  8
Layer1$C$L1
 62
     3
 10
206.2220414007
 20
162.4688593576
  0
VERTEX
  8
Layer1$C$L1
 62
     3
 10
206.3859053036
 20
162.6600392569
  0
VERTEX
  8
Layer1$C$L1
 62
     3
 10
206.5387817502
 20
162.9033082560
  0
SEQEND
  8
Layer1$C$L1
 62
     3
  0
POLYLINE
  8
Layer1$C$L1
 62
     3
 66
     1
  0
VERTEX
  8
Layer1$C$L1
 62
     3
 10
206.6019911447
 20
168.5821359926
  0
VERTEX
  8
Layer1$C$L1
 62
     3
 10
206.4634096758
 20
168.8335032097
  0
VERTEX
  8
Layer1$C$L1
 62
     3
 10
206.3138984049
 20
169.0401676943
  0
VERTEX
  8
Layer1$C$L1
 62
     3
 10
206.1556635445
 20
169.1990798718
  0
VERTEX
  8
Layer1$C$L1
 62
     3
 10
205.9910400339
 20
169.3078948084
  0
VERTEX
  8
Layer1$C$L1
 62
     3
 10
205.8224570843
 20
169.3650068134
  0
VERTEX
  8
Layer1$C$L1
 62
     3
 10
205.6524023329
 20
169.3695731326
  0
VERTEX
  8
Layer1$C$L1
 62
     3
 10
205.4833851351
 20
169.3215263847
  0
VERTEX
  8
Layer1$C$L1
 62
     3
 10
205.3178995362
 20
169.2215755554
  0
VERTEX
  8
Layer1$C$L1
 62
     3
 10
205.1583874683
 20
169.0711955353
  0
VERTEX
  8
Layer1$C$L1
 62
     3
 10
205.0072027175
 20
168.8726053562
  0
VERTEX
  8
Layer1$C$L1
 62
     3
 10
204.8665761902
 20
168.6287354470
  0
VERTEX
  8
Layer1$C$L1
 62
     3
 10
204.7385829945
 20
168.3431843916
  0
SEQEND
  8
Layer1$C$L1
 62
     3
  0
POLYLINE
  8
Layer1$C$L1
 62
     3
 66
     1
  0
VERTEX
  8
Layer1$C$L1
 62
     3
 10
207.3226322315
 20
162.2363408490
  0
VERTEX
  8
Layer1$C$L1
 62
     3
 10
207.5027734744
 20
162.2825999943
  0
VERTEX
  8
Layer1$C$L1
 62
     3
 10
207.6790672031
 20
162.3877544439
  0
VERTEX
  8
Layer1$C$L1
 62
     3
 10
207.8485649733
 20
162.5500455305
  0
VERTEX
  8
Layer1$C$L1
 62
     3
 10
208.0084320006
 20
162.7667589984
  0
VERTEX
  8
Layer1$C$L1
 62
     3
 10
208.1559945710
 20
163.0342703991
  0
VERTEX
  8
Layer1$C$L1
 62
     3
 10
208.2887847578
 20
163.3481057082
  0
VERTEX
  8
Layer1$C$L1
 62
     3
 10
208.4045816964
 20
163.7030161517
  0
VERTEX
  8
Layer1$C$L1
 62
     3
 10
208.5014487281
 20
164.0930659902
  0
VERTEX
  8
Layer1$C$L1
 62
     3
 10
208.5777657894
 20
164.5117317914
  0
VERTEX
  8
Layer1$C$L1
 62
     3
 10
208.6322565069
 20
164.9520115321
  0
VERTEX
  8
Layer1$C$L1
 62
     3
 10
208.6640095445
 20
165.4065417046
  0
VERTEX
  8
Layer1$C$L1
 62
     3
 10
208.6724938451
 20
165.8677204678
  0
VERTEX
  8
Layer1$C$L1
 62
     3
 10
208.6575675120
 20
166.3278347860
  0
VERTEX
  8
Layer1$C$L1
 62
     3
 10
208.6194801823
 20
166.7791894255
  0
VERTEX
  8
Layer1$C$L1
 62
     3
 10
208.5588688518
 20
167.2142356550
  0
VERTEX
  8
Layer1$C$L1
 62
     3
 10
208.4767472215
 20
167.6256974952
  0
VERTEX
  8
Layer1$C$L1
 62
     3
 10
208.3744887438
 20
168.0066934063
  0
VERTEX
  8
Layer1$C$L1
 62
     3
 10
208.2538036522
 20
168.3508513795
  0
VERTEX
  8
Layer1$C$L1
 62
     3
 10
208.1167103580
 20
168.6524155061
  0
VERTEX
  8
Layer1$C$L1
 62
     3
 10
207.9655016932
 20
168.9063422432
  0
VERTEX
  8
Layer1$C$L1
 62
     3
 10
207.8027065643
 20
169.1083847645
  0
VERTEX
  8
Layer1$C$L1
 62
     3
 10
207.6310476566
 20
169.2551639872
  0
VERTEX
  8
Layer1$C$L1
 62
     3
 10
207.4533958988
 20
169.3442250857
  0
VERTEX
  8
Layer1$C$L1
 62
     3
 10
207.2727224475
 20
169.3740785477
  0
SEQEND
  8
Layer1$C$L1
 62
     3
  0
ARC
  8
Layer1$C$L1
 62
     3
 10
313.4227201587
 20
156.6240823624
 40
11.0000014305
 50
195.8267317509
 51
524.1733775321
  0
ARC
  8
Layer1$C$L1
 62
     3
 10
255.5226919299
 20
144.8240602372
 40
0.6000060588
 50
0.0000000000
 51
166.2583883989
  0
ARC
  8
Layer1$C$L1
 62
     3
 10
261.1227056629
 20
146.6240823624
 40
0.5999908596
 50
0.0000000000
 51
180.0000186693
  0
ARC
  8
Layer1$C$L1
 62
     3
 10
266.7226812488
 20
148.3240831254
 40
0.5999908596
 50
0.0000000000
 51
180.0000186693
  0
ARC
  8
Layer1$C$L1
 62
     3
 10
272.5226614124
 20
150.8240831254
 40
0.7999999821
 50
90.0006923536
 51
180.0000733108
  0
ARC
  8
Layer1$C$L1
 62
     3
 10
263.9226934558
 20
144.8240793107
 40
2.2000002861
 50
180.0000906137
 51
360.0000000000
  0
ARC
  8
Layer1$C$L1
 62
     3
 10
258.3227178699
 20
141.8240678666
 40
2.2000002861
 50
180.0000906137
 51
360.0000000000
  0
ARC
  8
Layer1$C$L1
 62
     3
 10
269.5226881152
 20
147.8240716813
 40
2.2000002861
 50
180.0000906137
 51
360.0000000000
  0
ARC
  8
Layer1$C$L1
 62
     3
 10
250.4227277881
 20
174.1240556595
 40
2.9999995232
 50
13.7415619685
 51
89.9999820139
  0
ARC
  8
Layer1$C$L1
 62
     3
 10
255.5226919299
 20
168.4240854142
 40
0.6000060588
 50
193.7416116011
 51
360.0000000000
  0
ARC
  8
Layer1$C$L1
 62
     3
 10
261.1227056629
 20
166.6240632889
 40
0.5999908596
 50
179.9999640278
 51
359.9999826972
  0
ARC
  8
Layer1$C$L1
 62
     3
 10
266.7226812488
 20
164.9240625260
 40
0.5999908596
 50
179.9999640278
 51
359.9999826972
  0
ARC
  8
Layer1$C$L1
 62
     3
 10
272.5226614124
 20
162.4240625260
 40
0.7999999821
 50
179.9999093863
 51
269.9992903436
  0
ARC
  8
Layer1$C$L1
 62
     3
 10
263.9226934558
 20
168.4240663407
 40
2.2000002861
 50
0.0000000000
 51
179.9999640278
  0
ARC
  8
Layer1$C$L1
 62
     3
 10
258.3227178699
 20
171.4240777848
 40
2.2000002861
 50
0.0000000000
 51
179.9999640278
  0
ARC
  8
Layer1$C$L1
 62
     3
 10
269.5226881152
 20
165.4240739701
 40
2.2000002861
 50
0.0000000000
 51
179.9999640278
  0
POLYLINE
  8
Layer1$C$L1
 62
     3
 66
     1
  0
VERTEX
  8
Layer1$C$L1
 62
     3
 10
193.1227135434
 20
143.0580938218
  0
VERTEX
  8
Layer1$C$L1
 62
     3
 10
193.2787856165
 20
143.0737729298
  0
VERTEX
  8
Layer1$C$L1
 62
     3
 10
193.4288599202
 20
143.1202076148
  0
VERTEX
  8
Layer1$C$L1
 62
     3
 10
193.5671691853
 20
143.1956134187
  0
VERTEX
  8
Layer1$C$L1
 62
     3
 10
193.6883982665
 20
143.2970925398
  0
VERTEX
  8
Layer1$C$L1
 62
     3
 10
193.7878884000
 20
143.4207451940
  0
VERTEX
  8
Layer1$C$L1
 62
     3
 10
193.8618162374
 20
143.5618194809
  0
VERTEX
  8
Layer1$C$L1
 62
     3
 10
193.9073407744
 20
143.7148939971
  0
VERTEX
  8
Layer1$C$L1
 62
     3
 10
193.9227125293
 20
143.8740861771
  0
SEQEND
  8
Layer1$C$L1
 62
     3
  0
POLYLINE
  8
Layer1$C$L1
 62
     3
 66
     1
  0
VERTEX
  8
Layer1$C$L1
 62
     3
 10
193.9227125293
 20
146.9340646622
  0
VERTEX
  8
Layer1$C$L1
 62
     3
 10
193.9073407744
 20
147.0932587027
  0
VERTEX
  8
Layer1$C$L1
 62
     3
 10
193.8618162374
 20
147.2463350079
  0
VERTEX
  8
Layer1$C$L1
 62
     3
 10
193.7878884000
 20
147.3874109437
  0
VERTEX
  8
Layer1$C$L1
 62
     3
 10
193.6883982665
 20
147.5110650430
  0
VERTEX
  8
Layer1$C$L1
 62
     3
 10
193.5671691853
 20
147.6125453501
  0
VERTEX
  8
Layer1$C$L1
 62
     3
 10
193.4288599202
 20
147.6879520353
  0
VERTEX
  8
Layer1$C$L1
 62
     3
 10
193.2787856165
 20
147.7343872630
  0
VERTEX
  8
Layer1$C$L1
 62
     3
 10
193.1227135434
 20
147.7500665543
  0
SEQEND
  8
Layer1$C$L1
 62
     3
  0
POLYLINE
  8
Layer1$C$L1
 62
     3
 66
     1
  0
VERTEX
  8
Layer1$C$L1
 62
     3
 10
197.4226972705
 20
178.7045642504
  0
VERTEX
  8
Layer1$C$L1
 62
     3
 10
197.4160236376
 20
178.7876134916
  0
VERTEX
  8
Layer1$C$L1
 62
     3
 10
197.3961808912
 20
178.8684457383
  0
VERTEX
  8
Layer1$C$L1
 62
     3
 10
197.3636987321
 20
178.9449031787
  0
VERTEX
  8
Layer1$C$L1
 62
     3
 10
197.3194442697
 20
179.0149447861
  0
VERTEX
  8
Layer1$C$L1
 62
     3
 10
197.2645988740
 20
179.0767008041
  0
VERTEX
  8
Layer1$C$L1
 62
     3
 10
197.2006266396
 20
179.1285226596
  0
VERTEX
  8
Layer1$C$L1
 62
     3
 10
197.1292353014
 20
179.1690269712
  0
VERTEX
  8
Layer1$C$L1
 62
     3
 10
197.0523306467
 20
179.1971324789
  0
SEQEND
  8
Layer1$C$L1
 62
     3
  0
POLYLINE
  8
Layer1$C$L1
 62
     3
 66
     1
  0
VERTEX
  8
Layer1$C$L1
 62
     3
 10
193.9227125293
 20
169.3740594742
  0
VERTEX
  8
Layer1$C$L1
 62
     3
 10
193.9073407744
 20
169.5332535147
  0
VERTEX
  8
Layer1$C$L1
 62
     3
 10
193.8618162374
 20
169.6863298199
  0
VERTEX
  8
Layer1$C$L1
 62
     3
 10
193.7878884000
 20
169.8274057557
  0
VERTEX
  8
Layer1$C$L1
 62
     3
 10
193.6883982665
 20
169.9510598550
  0
VERTEX
  8
Layer1$C$L1
 62
     3
 10
193.5671691853
 20
170.0525401621
  0
VERTEX
  8
Layer1$C$L1
 62
     3
 10
193.4288599202
 20
170.1279468473
  0
VERTEX
  8
Layer1$C$L1
 62
     3
 10
193.2787856165
 20
170.1743820750
  0
VERTEX
  8
Layer1$C$L1
 62
     3
 10
193.1227135434
 20
170.1900613663
  0
SEQEND
  8
Layer1$C$L1
 62
     3
  0
POLYLINE
  8
Layer1$C$L1
 62
     3
 66
     1
  0
VERTEX
  8
Layer1$C$L1
 62
     3
 10
193.1227135434
 20
165.4980600235
  0
VERTEX
  8
Layer1$C$L1
 62
     3
 10
193.2787856165
 20
165.5137393148
  0
VERTEX
  8
Layer1$C$L1
 62
     3
 10
193.4288599202
 20
165.5601745426
  0
VERTEX
  8
Layer1$C$L1
 62
     3
 10
193.5671691853
 20
165.6355812277
  0
VERTEX
  8
Layer1$C$L1
 62
     3
 10
193.6883982665
 20
165.7370615348
  0
VERTEX
  8
Layer1$C$L1
 62
     3
 10
193.7878884000
 20
165.8607156342
  0
VERTEX
  8
Layer1$C$L1
 62
     3
 10
193.8618162374
 20
166.0017915699
  0
VERTEX
  8
Layer1$C$L1
 62
     3
 10
193.9073407744
 20
166.1548678751
  0
VERTEX
  8
Layer1$C$L1
 62
     3
 10
193.9227125293
 20
166.3140619156
  0
SEQEND
  8
Layer1$C$L1
 62
     3
  0
POLYLINE
  8
Layer1$C$L1
 62
     3
 66
     1
  0
VERTEX
  8
Layer1$C$L1
 62
     3
 10
186.5579354652
 20
181.3816601291
  0
VERTEX
  8
Layer1$C$L1
 62
     3
 10
185.9774926666
 20
180.8606356491
  0
VERTEX
  8
Layer1$C$L1
 62
     3
 10
185.4780218689
 20
180.2586039170
  0
VERTEX
  8
Layer1$C$L1
 62
     3
 10
185.0702702851
 20
179.5885189699
  0
VERTEX
  8
Layer1$C$L1
 62
     3
 10
184.7630115875
 20
178.8647991595
  0
VERTEX
  8
Layer1$C$L1
 62
     3
 10
184.5628571230
 20
178.1030169095
  0
VERTEX
  8
Layer1$C$L1
 62
     3
 10
184.4741136551
 20
177.3195636409
  0
VERTEX
  8
Layer1$C$L1
 62
     3
 10
184.4986906947
 20
176.5312970743
  0
VERTEX
  8
Layer1$C$L1
 62
     3
 10
184.6360594128
 20
175.7551784988
  0
VERTEX
  8
Layer1$C$L1
 62
     3
 10
184.8832640193
 20
175.0079078130
  0
SEQEND
  8
Layer1$C$L1
 62
     3
  0
POLYLINE
  8
Layer1$C$L1
 62
     3
 66
     1
  0
VERTEX
  8
Layer1$C$L1
 62
     3
 10
184.8833440478
 20
175.0077433519
  0
VERTEX
  8
Layer1$C$L1
 62
     3
 10
184.9057178642
 20
174.9603416258
  0
VERTEX
  8
Layer1$C$L1
 62
     3
 10
184.9327601270
 20
174.9155431520
  0
VERTEX
  8
Layer1$C$L1
 62
     3
 10
184.9641830734
 20
174.8738246414
  0
VERTEX
  8
Layer1$C$L1
 62
     3
 10
184.9996523247
 20
174.8356300299
  0
VERTEX
  8
Layer1$C$L1
 62
     3
 10
185.0387904447
 20
174.8013657550
  0
VERTEX
  8
Layer1$C$L1
 62
     3
 10
185.0811809559
 20
174.7713964305
  0
VERTEX
  8
Layer1$C$L1
 62
     3
 10
185.1263727714
 20
174.7460409667
  0
VERTEX
  8
Layer1$C$L1
 62
     3
 10
185.1738849947
 20
174.7255691768
  0
SEQEND
  8
Layer1$C$L1
 62
     3
  0
POLYLINE
  8
Layer1$C$L1
 62
     3
 66
     1
  0
VERTEX
  8
Layer1$C$L1
 62
     3
 10
186.9472196647
 20
181.4777348512
  0
VERTEX
  8
Layer1$C$L1
 62
     3
 10
186.8962698428
 20
181.4841772987
  0
VERTEX
  8
Layer1$C$L1
 62
     3
 10
186.8449409393
 20
181.4852564579
  0
VERTEX
  8
Layer1$C$L1
 62
     3
 10
186.7937741366
 20
181.4809609507
  0
VERTEX
  8
Layer1$C$L1
 62
     3
 10
186.7433089081
 20
181.4713360665
  0
VERTEX
  8
Layer1$C$L1
 62
     3
 10
186.6940773299
 20
181.4564832846
  0
VERTEX
  8
Layer1$C$L1
 62
     3
 10
186.6465984716
 20
181.4365592041
  0
VERTEX
  8
Layer1$C$L1
 62
     3
 10
186.6013729228
 20
181.4117738931
  0
VERTEX
  8
Layer1$C$L1
 62
     3
 10
186.5588775158
 20
181.3823886735
  0
SEQEND
  8
Layer1$C$L1
 62
     3
  0
LINE
  8
Layer1$C$L1
 62
     3
 10
223.4227201587
 20
181.6240632889
 11
233.4227201587
 21
181.6240632889
  0
LINE
  8
Layer1$C$L1
  6
CENTER
 62
     3
 10
336.4103144911
 20
156.6240823624
 11
392.4646744376
 21
156.6240823624
  0
CIRCLE
  8
Layer1$C$L1
 62
     3
 10
363.8397202140
 20
156.6240823624
 40
25.0000000000
  0
LINE
  8
Layer1$C$L1
 62
     3
 10
200.4227087146
 20
181.6240747330
 11
223.4227201587
 21
181.6240747330
  0
LINE
  8
Layer1$C$L1
  6
CENTER
 62
     3
 10
363.8397202140
 20
185.2490556595
 11
363.8397202140
 21
127.9990709183
  0
LINE
  8
Layer1$C$L1
 62
     3
 10
200.4227087146
 20
169.8840654252
 11
220.4227277881
 21
169.8840654252
  0
LINE
  8
Layer1$C$L1
  6
PHANTOM
 62
     3
 10
241.4227007686
 20
156.6240572664
 11
287.9154565212
 21
129.7814567828
  0
LINE
  8
Layer1$C$L1
  6
PHANTOM
 62
     3
 10
241.4227154092
 20
156.6240781562
 11
289.5413997146
 21
184.4054087677
  0
LINE
  8
Layer1$C$L1
  6
PHANTOM
 62
     3
 10
177.4227163440
 20
159.6240938065
 11
171.4226934558
 21
159.6240938065
  0
LINE
  8
Layer1$C$L1
  6
PHANTOM
 62
     3
 10
171.4226934558
 20
153.6240899918
 11
177.4227163440
 21
153.6240899918
  0
LINE
  8
Layer1$C$L1
  6
PHANTOM
 62
     3
 10
171.4226934558
 20
159.6240938065
 11
171.4226934558
 21
153.6240899918
  0
LINE
  8
Layer1$C$L1
 62
     3
 10
239.4227239734
 20
142.4240815995
 11
241.4227125293
 21
142.4240815995
  0
LINE
  8
Layer1$C$L1
 62
     3
 10
239.4227239734
 20
170.8240640519
 11
241.4227125293
 21
170.8240640519
  0
LINE
  8
Layer1$C$L1
 62
     3
 10
239.4227239734
 20
141.6240823624
 11
241.4227125293
 21
141.6240823624
  0
LINE
  8
Layer1$C$L1
 62
     3
 10
239.4227239734
 20
171.6240632889
 11
241.4227125293
 21
171.6240632889
  0
LINE
  8
Layer1$C$L1
 62
     3
 10
241.4227125293
 20
136.1240785477
 11
241.4227125293
 21
177.1240861771
  0
LINE
  8
Layer1$C$L1
 62
     3
 10
176.8227216846
 20
169.6290719864
 11
177.4226972705
 21
169.6290719864
  0
LINE
  8
Layer1$C$L1
 62
     3
 10
176.4227820415
 20
169.1190437960
 11
176.8227902252
 21
169.6290424683
  0
LINE
  8
Layer1$C$L1
 62
     3
 10
176.4227125293
 20
164.0190637467
 11
176.4227125293
 21
169.1190660355
  0
LINE
  8
Layer1$C$L1
 62
     3
 10
176.8227709314
 20
163.5090308527
 11
176.4227510152
 21
164.0190445716
  0
LINE
  8
Layer1$C$L1
 62
     3
 10
177.4226972705
 20
163.5090768692
 11
176.8227216846
 21
163.5090768692
  0
LINE
  8
Layer1$C$L1
 62
     3
 10
188.9657647305
 20
179.1555608686
 11
188.4828175726
 21
179.2875548491
  0
LINE
  8
Layer1$C$L1
 62
     3
 10
188.0598871866
 20
175.7071703159
 11
187.5769584274
 21
175.8391592679
  0
LINE
  8
Layer1$C$L1
 62
     3
 10
185.7008242500
 20
174.6240823624
 11
187.4762321132
 21
181.3825406497
  0
LINE
  8
Layer1$C$L1
 62
     3
 10
187.3236804106
 20
179.6043433199
 11
187.4762022591
 21
181.3825202420
  0
LINE
  8
Layer1$C$L1
 62
     3
 10
185.7175004536
 20
174.6240823624
 11
186.4178227403
 21
176.1559607371
  0
LINE
  8
Layer1$C$L1
 62
     3
 10
185.1734566079
 20
174.7256787125
 11
185.4471160901
 21
174.6240823624
  0
LINE
  8
Layer1$C$L1
 62
     3
 10
186.9471466661
 20
181.4776942795
 11
187.4762434384
 21
181.3825337089
  0
LINE
  8
Layer1$C$L1
 62
     3
 10
189.4963257274
 20
181.1752567523
 11
188.5475181242
 21
179.5338493427
  0
LINE
  8
Layer1$C$L1
 62
     3
 10
187.5122698954
 20
175.5928757713
 11
188.5475493579
 21
179.5338500126
  0
LINE
  8
Layer1$C$L1
 62
     3
 10
189.4963209927
 20
181.1752867770
 11
187.8542748976
 21
181.6240733508
  0
LINE
  8
Layer1$C$L1
 62
     3
 10
187.0302194780
 20
176.5166290555
 11
186.5472537423
 21
176.6486274081
  0
LINE
  8
Layer1$C$L1
 62
     3
 10
187.6772676813
 20
178.9797416684
 11
187.1943019456
 21
179.1117400210
  0
LINE
  8
Layer1$C$L1
 62
     3
 10
187.0302199788
 20
176.5166130065
 11
187.6772728235
 21
178.9797334371
  0
LINE
  8
Layer1$C$L1
 62
     3
 10
186.0154067417
 20
174.6240823624
 11
187.8542655027
 21
181.6240582216
  0
LINE
  8
Layer1$C$L1
 62
     3
 10
179.4227048999
 20
166.1100519059
 11
179.4227048999
 21
169.5780694840
  0
LINE
  8
Layer1$C$L1
 62
     3
 10
197.4226972705
 20
175.2894183764
 11
200.4227087146
 21
175.2894183764
  0
LINE
  8
Layer1$C$L1
 62
     3
 10
197.4226972705
 20
177.9414149889
 11
200.4227087146
 21
177.9414149889
  0
LINE
  8
Layer1$C$L1
 62
     3
 10
177.4226972705
 20
166.1100519059
 11
193.8973066455
 21
166.1100519059
  0
LINE
  8
Layer1$C$L1
 62
     3
 10
193.8973066455
 20
169.5780694840
 11
177.4226972705
 21
169.5780694840
  0
LINE
  8
Layer1$C$L1
 62
     3
 10
177.4226972705
 20
165.4980600235
 11
193.1227132922
 21
165.4980600235
  0
LINE
  8
Layer1$C$L1
 62
     3
 10
193.9227125293
 20
166.3140619156
 11
193.9227125293
 21
169.3740594742
  0
LINE
  8
Layer1$C$L1
 62
     3
 10
193.1227132922
 20
170.1900613663
 11
177.4226972705
 21
170.1900613663
  0
LINE
  8
Layer1$C$L1
  6
CENTER
 62
     3
 10
174.4227048999
 20
167.8440606949
 11
195.4562399036
 21
167.8440606949
  0
LINE
  8
Layer1$C$L1
 62
     3
 10
177.4226972705
 20
161.7240655777
 11
200.4227087146
 21
161.7240655777
  0
LINE
  8
Layer1$C$L1
 62
     3
 10
190.4506490688
 20
181.0013918608
 11
197.0521187151
 21
179.1971562908
  0
LINE
  8
Layer1$C$L1
 62
     3
 10
197.4226972705
 20
174.6240823624
 11
197.4226972705
 21
178.7045642504
  0
LINE
  8
Layer1$C$L1
 62
     3
 10
189.4506467796
 20
181.0014012806
 11
187.7753552176
 21
174.6240823624
  0
LINE
  8
Layer1$C$L1
 62
     3
 10
189.3958303577
 20
181.0014506945
 11
190.4504338036
 21
181.0014506945
  0
LINE
  8
Layer1$C$L1
 62
     3
 10
177.4226972705
 20
143.6190545914
 11
176.8227216846
 21
143.6190545914
  0
LINE
  8
Layer1$C$L1
 62
     3
 10
176.8227724853
 20
143.6190931157
 11
176.4227643402
 21
144.1290918266
  0
LINE
  8
Layer1$C$L1
 62
     3
 10
176.4227125293
 20
144.1290796158
 11
176.4227125293
 21
149.2290819047
  0
LINE
  8
Layer1$C$L1
 62
     3
 10
176.4227670520
 20
149.2290912522
 11
176.8227752357
 21
149.7390899246
  0
LINE
  8
Layer1$C$L1
 62
     3
 10
176.8227216846
 20
149.7390687821
 11
177.4226972705
 21
149.7390687821
  0
LINE
  8
Layer1$C$L1
 62
     3
 10
179.4227048999
 20
143.6700761673
 11
179.4227048999
 21
147.1380746720
  0
LINE
  8
Layer1$C$L1
 62
     3
 10
193.8973066455
 20
147.1380746720
 11
177.4226972705
 21
147.1380746720
  0
LINE
  8
Layer1$C$L1
 62
     3
 10
177.4226972705
 20
143.6700761673
 11
193.8973066455
 21
143.6700761673
  0
LINE
  8
Layer1$C$L1
 62
     3
 10
193.1227132922
 20
147.7500665543
 11
177.4226972705
 21
147.7500665543
  0
LINE
  8
Layer1$C$L1
 62
     3
 10
193.9227125293
 20
143.8740861771
 11
193.9227125293
 21
146.9340646622
  0
LINE
  8
Layer1$C$L1
 62
     3
 10
177.4226972705
 20
143.0580842850
 11
193.1227132922
 21
143.0580842850
  0
LINE
  8
Layer1$C$L1
  6
CENTER
 62
     3
 10
195.4562399036
 20
145.4040658829
 11
174.4227048999
 21
145.4040658829
  0
LINE
  8
Layer1$C$L1
 62
     3
 10
200.4227087146
 20
151.5240800736
 11
200.1581022388
 21
151.5240800736
  0
LINE
  8
Layer1$C$L1
 62
     3
 10
200.4227087146
 20
131.6240899918
 11
200.4227087146
 21
181.6240747330
  0
LINE
  8
Layer1$C$L1
 62
     3
 10
302.8397199756
 20
153.6240709183
 11
302.8397199756
 21
159.6240747330
  0
LINE
  8
Layer1$C$L1
 62
     3
 10
251.4227125293
 20
138.3325517533
 11
251.4227125293
 21
174.8557794449
  0
LINE
  8
Layer1$C$L1
 62
     3
 10
269.5226881152
 20
167.6240671036
 11
269.5226881152
 21
145.6240785477
  0
LINE
  8
Layer1$C$L1
 62
     3
 10
266.7226812488
 20
148.9240777848
 11
266.7226812488
 21
164.3240678666
  0
LINE
  8
Layer1$C$L1
 62
     3
 10
263.9226934558
 20
170.6240785477
 11
263.9226934558
 21
142.6240671036
  0
LINE
  8
Layer1$C$L1
 62
     3
 10
261.1227056629
 20
147.2240770218
 11
261.1227056629
 21
166.0240686295
  0
LINE
  8
Layer1$C$L1
 62
     3
 10
258.3227178699
 20
173.6240709183
 11
258.3227178699
 21
139.6240747330
  0
LINE
  8
Layer1$C$L1
 62
     3
 10
255.5226919299
 20
145.4240739701
 11
255.5226919299
 21
167.8240716813
  0
LINE
  8
Layer1$C$L1
 62
     3
 10
276.4227125293
 20
153.6240709183
 11
302.8397199756
 21
153.6240709183
  0
LINE
  8
Layer1$C$L1
 62
     3
 10
276.4227125293
 20
159.6240747330
 11
302.8397199756
 21
159.6240747330
  0
LINE
  8
Layer1$C$L1
 62
     3
 10
266.1226865894
 20
148.3240831254
 11
266.1226865894
 21
144.8240793107
  0
LINE
  8
Layer1$C$L1
 62
     3
 10
260.5227110034
 20
146.6240823624
 11
260.5227110034
 21
141.8240678666
  0
LINE
  8
Layer1$C$L1
 62
     3
 10
256.1227056629
 20
144.8240602372
 11
256.1227056629
 21
141.8240678666
  0
LINE
  8
Layer1$C$L1
 62
     3
 10
261.7227003223
 20
146.6240823624
 11
261.7227003223
 21
144.8240793107
  0
LINE
  8
Layer1$C$L1
 62
     3
 10
267.3226759082
 20
148.3240831254
 11
267.3226759082
 21
147.8240716813
  0
LINE
  8
Layer1$C$L1
 62
     3
 10
271.7226370588
 20
150.8240615727
 11
271.7226400704
 21
147.8240692021
  0
LINE
  8
Layer1$C$L1
 62
     3
 10
272.5226614124
 20
151.6240823624
 11
276.4227125293
 21
151.6240823624
  0
LINE
  8
Layer1$C$L1
 62
     3
 10
241.4227125293
 20
136.1240785477
 11
250.4227277881
 21
136.1240785477
  0
LINE
  8
Layer1$C$L1
 62
     3
 10
266.1226865894
 20
168.4240663407
 11
266.1226865894
 21
164.9240625260
  0
LINE
  8
Layer1$C$L1
 62
     3
 10
260.5227110034
 20
171.4240777848
 11
260.5227110034
 21
166.6240632889
  0
LINE
  8
Layer1$C$L1
 62
     3
 10
256.1227056629
 20
171.4240777848
 11
256.1227056629
 21
168.4240854142
  0
LINE
  8
Layer1$C$L1
 62
     3
 10
261.7227003223
 20
168.4240663407
 11
261.7227003223
 21
166.6240632889
  0
LINE
  8
Layer1$C$L1
 62
     3
 10
267.3226759082
 20
165.4240739701
 11
267.3226759082
 21
164.9240625260
  0
LINE
  8
Layer1$C$L1
 62
     3
 10
271.7226638011
 20
165.4240764495
 11
271.7226607895
 21
162.4240840789
  0
LINE
  8
Layer1$C$L1
 62
     3
 10
276.4227125293
 20
161.6240632889
 11
272.5226614124
 21
161.6240632889
  0
LINE
  8
Layer1$C$L1
 62
     3
 10
276.4227125293
 20
151.6240823624
 11
276.4227125293
 21
161.6240632889
  0
LINE
  8
Layer1$C$L1
 62
     3
 10
233.4227201587
 20
176.1240709183
 11
239.4227239734
 21
176.1240709183
  0
LINE
  8
Layer1$C$L1
 62
     3
 10
233.4227201587
 20
137.1240747330
 11
239.4227239734
 21
137.1240747330
  0
LINE
  8
Layer1$C$L1
 62
     3
 10
239.4227239734
 20
137.1240747330
 11
239.4227239734
 21
176.1240709183
  0
LINE
  8
Layer1$C$L1
 62
     3
 10
237.9227087146
 20
137.1240747330
 11
237.9227087146
 21
176.1240709183
  0
LINE
  8
Layer1$C$L1
 62
     3
 10
236.4227125293
 20
137.1240747330
 11
236.4227125293
 21
176.1240709183
  0
LINE
  8
Layer1$C$L1
 62
     3
 10
233.4227201587
 20
181.6240632889
 11
233.4227201587
 21
131.6240632889
  0
LINE
  8
Layer1$C$L1
 62
     3
 10
205.7227155811
 20
143.8740861771
 11
205.7227155811
 21
143.3640611527
  0
LINE
  8
Layer1$C$L1
 62
     3
 10
206.7076351268
 20
146.0087582476
 11
206.1838662290
 21
146.9340965652
  0
LINE
  8
Layer1$C$L1
 62
     3
 10
205.8951906162
 20
147.4440974587
 11
204.9835581985
 21
149.0546711509
  0
LINE
  8
Layer1$C$L1
 62
     3
 10
204.9055148199
 20
145.6956407311
 11
205.8951806716
 21
147.4440754663
  0
LINE
  8
Layer1$C$L1
 62
     3
 10
206.1838361865
 20
147.9540956376
 11
205.6649801379
 21
147.9540956376
  0
LINE
  8
Layer1$C$L1
 62
     3
 10
205.8951589710
 20
147.4440896866
 11
205.4917738086
 21
147.4440896866
  0
LINE
  8
Layer1$C$L1
 62
     3
 10
206.1838361865
 20
146.9340837357
 11
205.6649801379
 21
146.9340837357
  0
LINE
  8
Layer1$C$L1
 62
     3
 10
206.1838580460
 20
147.9540794721
 11
207.2685484400
 21
149.8703933053
  0
LINE
  8
Layer1$C$L1
 62
     3
 10
207.2685314492
 20
149.8704055921
 11
207.4932363239
 21
149.0433786090
  0
LINE
  8
Layer1$C$L1
 62
     3
 10
207.2685072070
 20
149.8703897355
 11
207.0383474475
 21
149.8703897355
  0
LINE
  8
Layer1$C$L1
 62
     3
 10
207.4932310230
 20
149.0433824418
 11
207.2630521899
 21
149.0433824418
  0
LINE
  8
Layer1$C$L1
 62
     3
 10
204.9639913684
 20
145.6956422684
 11
204.5021078235
 21
145.6956422684
  0
LINE
  8
Layer1$C$L1
 62
     3
 10
206.7640499723
 20
146.2163797687
 11
206.5393291000
 21
145.3893966469
  0
LINE
  8
Layer1$C$L1
 62
     3
 10
205.0025002895
 20
149.1244774379
 11
204.8527562685
 21
148.5730046180
  0
LINE
  8
Layer1$C$L1
 62
     3
 10
206.0691605875
 20
147.4440803524
 11
206.8300686325
 21
148.7883705024
  0
LINE
  8
Layer1$C$L1
 62
     3
 10
205.6650014138
 20
147.9540908467
 11
206.6053434315
 21
149.6153855594
  0
LINE
  8
Layer1$C$L1
 62
     3
 10
206.7640404873
 20
146.2163939458
 11
206.0691332238
 21
147.4440810437
  0
LINE
  8
Layer1$C$L1
 62
     3
 10
206.5393373270
 20
145.3894173909
 11
205.6649955035
 21
146.9341100890
  0
LINE
  8
Layer1$C$L1
 62
     3
 10
205.6650139858
 20
147.9540939213
 11
205.0025210710
 21
149.1245148489
  0
LINE
  8
Layer1$C$L1
 62
     3
 10
205.4917895103
 20
147.4440917949
 11
204.8527758584
 21
148.5730320966
  0
LINE
  8
Layer1$C$L1
 62
     3
 10
204.5021363319
 20
145.6956476331
 11
205.4917926413
 21
147.4440655100
  0
LINE
  8
Layer1$C$L1
 62
     3
 10
204.7690497908
 20
145.3512425244
 11
205.6649886168
 21
146.9340904740
  0
LINE
  8
Layer1$C$L1
 62
     3
 10
205.7227155811
 20
151.5240800736
 11
205.7227155811
 21
151.0140741227
  0
LINE
  8
Layer1$C$L1
 62
     3
 10
209.2227193958
 20
148.7190568802
 11
209.2227193958
 21
146.1690652726
  0
LINE
  8
Layer1$C$L1
 62
     3
 10
208.7227270252
 20
149.4840753434
 11
208.7227270252
 21
149.2290819047
  0
LINE
  8
Layer1$C$L1
 62
     3
 10
209.8811361438
 20
145.7233751175
 11
209.8811361438
 21
146.1690080521
  0
LINE
  8
Layer1$C$L1
 62
     3
 10
210.4226896411
 20
148.7189996598
 11
209.2226812488
 21
148.7189996598
  0
LINE
  8
Layer1$C$L1
 62
     3
 10
210.4226896411
 20
146.1690080521
 11
209.2227003223
 21
146.1690080521
  0
LINE
  8
Layer1$C$L1
 62
     3
 10
209.8811361438
 20
148.7189996598
 11
209.8811361438
 21
149.1646516678
  0
LINE
  8
Layer1$C$L1
 62
     3
 10
209.8811414327
 20
149.1647228901
 11
210.4226994626
 21
151.2085635826
  0
LINE
  8
Layer1$C$L1
 62
     3
 10
210.4227348322
 20
143.6795740000
 11
209.8811670316
 21
145.7234515670
  0
LINE
  8
Layer1$C$L1
 62
     3
 10
209.2632547325
 20
143.3640780902
 11
208.7227128505
 21
145.4040838389
  0
LINE
  8
Layer1$C$L1
 62
     3
 10
208.7227008035
 20
149.4840672956
 11
209.2632426855
 21
151.5240730443
  0
LINE
  8
Layer1$C$L1
 62
     3
 10
208.7227270252
 20
145.6590783951
 11
208.7227270252
 21
145.4040658829
  0
LINE
  8
Layer1$C$L1
 62
     3
 10
210.4227277881
 20
151.5240800736
 11
210.4227277881
 21
142.0380723832
  0
LINE
  8
Layer1$C$L1
 62
     3
 10
220.4227277881
 20
151.5240800736
 11
220.4227277881
 21
142.0380723832
  0
LINE
  8
Layer1$C$L1
 62
     3
 10
220.4227277881
 20
142.0380723832
 11
210.4227277881
 21
142.0380723832
  0
LINE
  8
Layer1$C$L1
 62
     3
 10
220.4227277881
 20
143.3640611527
 11
200.4227087146
 21
143.3640611527
  0
LINE
  8
Layer1$C$L1
 62
     3
 10
223.4227201587
 20
151.5240800736
 11
200.4227087146
 21
151.5240800736
  0
LINE
  8
Layer1$C$L1
 62
     3
 10
233.4227201587
 20
131.6240632889
 11
223.4227201587
 21
131.6240632889
  0
LINE
  8
Layer1$C$L1
 62
     3
 10
205.7227155811
 20
169.8840654252
 11
205.7227155811
 21
169.3740594742
  0
LINE
  8
Layer1$C$L1
 62
     3
 10
206.1838407796
 20
166.3140359313
 11
206.7076085029
 21
167.2393721740
  0
LINE
  8
Layer1$C$L1
 62
     3
 10
204.9835362724
 20
164.1934675701
 11
205.8951733878
 21
165.8040495618
  0
LINE
  8
Layer1$C$L1
 62
     3
 10
205.8951600045
 20
165.8040610628
 11
204.9054982633
 21
167.5524885360
  0
LINE
  8
Layer1$C$L1
 62
     3
 10
205.6649801379
 20
165.2940500138
 11
206.1838361865
 21
165.2940500138
  0
LINE
  8
Layer1$C$L1
 62
     3
 10
205.4917738086
 20
165.8040559647
 11
205.8951589710
 21
165.8040559647
  0
LINE
  8
Layer1$C$L1
 62
     3
 10
205.6649801379
 20
166.3140428421
 11
206.1838361865
 21
166.3140428421
  0
LINE
  8
Layer1$C$L1
 62
     3
 10
207.2685230751
 20
163.3777515232
 11
206.1838356172
 21
165.2940601693
  0
LINE
  8
Layer1$C$L1
 62
     3
 10
207.4932187028
 20
164.2047518777
 11
207.2685138280
 21
163.3777248946
  0
LINE
  8
Layer1$C$L1
 62
     3
 10
207.0383474475
 20
163.3777559159
 11
207.2685072070
 21
163.3777559159
  0
LINE
  8
Layer1$C$L1
 62
     3
 10
207.2630521899
 20
164.2047632096
 11
207.4932310230
 21
164.2047632096
  0
LINE
  8
Layer1$C$L1
 62
     3
 10
204.5021078235
 20
167.5524843094
 11
204.9639913684
 21
167.5524843094
  0
LINE
  8
Layer1$C$L1
 62
     3
 10
206.5393442697
 20
167.8587325024
 11
206.7640651419
 21
167.0317493807
  0
LINE
  8
Layer1$C$L1
 62
     3
 10
204.8527814909
 20
164.6751141571
 11
205.0025255120
 21
164.1236413372
  0
LINE
  8
Layer1$C$L1
 62
     3
 10
206.8300462037
 20
164.4597691389
 11
206.0691264144
 21
165.8040800376
  0
LINE
  8
Layer1$C$L1
 62
     3
 10
206.6053358399
 20
163.6327665897
 11
205.6650002816
 21
165.2940498907
  0
LINE
  8
Layer1$C$L1
 62
     3
 10
206.0691273094
 20
165.8040472445
 11
206.7640316368
 21
167.0317291553
  0
LINE
  8
Layer1$C$L1
 62
     3
 10
205.6649747518
 20
166.3140307070
 11
206.5393089415
 21
167.8587099184
  0
LINE
  8
Layer1$C$L1
 62
     3
 10
205.0024985577
 20
164.1236228347
 11
205.6649879492
 21
165.2940375378
  0
LINE
  8
Layer1$C$L1
 62
     3
 10
204.8527658335
 20
164.6750889296
 11
205.4917853575
 21
165.8040396056
  0
LINE
  8
Layer1$C$L1
 62
     3
 10
205.4917920963
 20
165.8040741899
 11
204.5021303552
 21
167.5525016631
  0
LINE
  8
Layer1$C$L1
 62
     3
 10
205.6649833741
 20
166.3140575253
 11
204.7690413803
 21
167.8969110714
  0
LINE
  8
Layer1$C$L1
 62
     3
 10
205.7227155811
 20
162.2340715287
 11
205.7227155811
 21
161.7240655777
  0
LINE
  8
Layer1$C$L1
 62
     3
 10
209.2227193958
 20
167.0790803788
 11
209.2227193958
 21
164.5290696976
  0
LINE
  8
Layer1$C$L1
 62
     3
 10
208.7227270252
 20
164.0190637467
 11
208.7227270252
 21
163.7640703080
  0
LINE
  8
Layer1$C$L1
 62
     3
 10
209.8811933643
 20
167.0791185257
 11
209.8811933643
 21
167.5247705338
  0
LINE
  8
Layer1$C$L1
 62
     3
 10
209.2227766162
 20
164.5291078446
 11
210.4227659351
 21
164.5291078446
  0
LINE
  8
Layer1$C$L1
 62
     3
 10
209.2227766162
 20
167.0791185257
 11
210.4227659351
 21
167.0791185257
  0
LINE
  8
Layer1$C$L1
 62
     3
 10
209.8811933643
 20
164.0834749100
 11
209.8811933643
 21
164.5291078446
  0
LINE
  8
Layer1$C$L1
 62
     3
 10
210.4227435619
 20
162.0395668654
 11
209.8811806466
 21
164.0834259951
  0
LINE
  8
Layer1$C$L1
 62
     3
 10
209.8811511402
 20
167.5247108701
 11
210.4227140555
 21
169.5685699999
  0
LINE
  8
Layer1$C$L1
 62
     3
 10
208.7226920738
 20
167.8440601610
 11
209.2632290705
 21
169.8840474724
  0
LINE
  8
Layer1$C$L1
 62
     3
 10
209.2632818994
 20
161.7240758409
 11
208.7227449028
 21
163.7640631524
  0
LINE
  8
Layer1$C$L1
 62
     3
 10
208.7227270252
 20
167.8440606949
 11
208.7227270252
 21
167.5890672562
  0
LINE
  8
Layer1$C$L1
 62
     3
 10
210.4227277881
 20
171.2100541947
 11
210.4227277881
 21
161.7240655777
  0
LINE
  8
Layer1$C$L1
 62
     3
 10
220.4227277881
 20
171.2100541947
 11
220.4227277881
 21
161.7240655777
  0
LINE
  8
Layer1$C$L1
 62
     3
 10
210.4227277881
 20
171.2100541947
 11
220.4227277881
 21
171.2100541947
  0
LINE
  8
Layer1$C$L1
 62
     3
 10
223.4227201587
 20
181.6240632889
 11
223.4227201587
 21
131.6240632889
  0
LINE
  8
Layer1$C$L1
  6
CENTER
 62
     3
 10
170.0565740711
 20
156.6240823624
 11
325.6711267779
 21
156.6240823624
  0
LINE
  8
Layer1$C$L1
 62
     3
 10
200.4227087146
 20
161.7240655777
 11
223.4227201587
 21
161.7240655777
  0
LINE
  8
Layer1$C$L1
 62
     3
 10
350.5797180778
 20
181.6240823624
 11
350.5797180778
 21
177.8177583573
  0
LINE
  8
Layer1$C$L1
 62
     3
 10
377.0997032768
 20
181.6240823624
 11
377.0997032768
 21
177.8177774308
  0
LINE
  8
Layer1$C$L1
 62
     3
 10
338.8397202140
 20
143.3640611527
 11
342.6460442191
 21
143.3640611527
  0
LINE
  8
Layer1$C$L1
 62
     3
 10
338.8397202140
 20
169.8840654252
 11
342.6460442191
 21
169.8840654252
  0
LINE
  8
Layer1$C$L1
 62
     3
 10
338.8397202140
 20
171.2100541947
 11
343.5358032829
 21
171.2100541947
  0
LINE
  8
Layer1$C$L1
 62
     3
 10
349.2537293083
 20
181.6240823624
 11
349.2537293083
 21
176.9279802201
  0
LINE
  8
Layer1$C$L1
 62
     3
 10
378.4256920463
 20
181.6240823624
 11
378.4256920463
 21
176.9279992936
  0
LINE
  8
Layer1$C$L1
 62
     3
 10
338.8397202140
 20
142.0380723832
 11
343.5358223563
 21
142.0380723832
  0
LINE
  8
Layer1$C$L1
 62
     3
 10
253.3368585158
 20
174.8366840627
 11
254.9398599298
 21
168.2815577668
  0
LINE
  8
Layer1$C$L1
 62
     3
 10
253.3368585158
 20
138.4114806621
 11
254.9398599298
 21
144.9666069580
  0
CIRCLE
  8
Layer1$C$L1
 62
     3
 10
363.8397202140
 20
156.6240823624
 40
20.5000000000
  0
LINE
  8
Layer1$C$L1
 62
     3
 10
200.4227087146
 20
138.6240823624
 11
223.4227201587
 21
138.6240823624
  0
LINE
  8
Layer1$C$L1
 62
     3
 10
200.4227087146
 20
131.6240899918
 11
223.4227201587
 21
131.6240899918
  0
LINE
  8
Layer1$C$L1
 62
     3
 10
177.4226972705
 20
174.6240823624
 11
200.4227087146
 21
174.6240823624
  0
LINE
  8
Layer1$C$L1
 62
     3
 10
187.5285350812
 20
174.6240823624
 11
187.5182837322
 21
175.6158876497
  0
LINE
  8
Layer1$C$L1
 62
     3
 10
177.4226972705
 20
181.6240747330
 11
200.4227087146
 21
181.6240747330
  0
LINE
  8
Layer1$C$L1
 62
     3
 10
187.4006307874
 20
180.5014697680
 11
187.5593671124
 21
180.5014697680
  0
LINE
  8
Layer1$C$L1
 62
     3
 10
187.4006307874
 20
132.7466949568
 11
187.5593671124
 21
132.7466949568
  0
LINE
  8
Layer1$C$L1
 62
     3
 10
187.5285350812
 20
138.6240823624
 11
187.5182837322
 21
137.6322770752
  0
LINE
  8
Layer1$C$L1
 62
     3
 10
177.4226972705
 20
181.6240747330
 11
177.4226972705
 21
131.6240899918
  0
LINE
  8
Layer1$C$L1
 62
     3
 10
189.3958303577
 20
132.2467140303
 11
190.4504338036
 21
132.2467140303
  0
LINE
  8
Layer1$C$L1
 62
     3
 10
189.4506467796
 20
132.2467634442
 11
187.7753552176
 21
138.6240823624
  0
LINE
  8
Layer1$C$L1
 62
     3
 10
186.0154067417
 20
138.6240823624
 11
187.8542655027
 21
131.6241065032
  0
LINE
  8
Layer1$C$L1
 62
     3
 10
187.0302199788
 20
136.7315517183
 11
187.6772728235
 21
134.2684312878
  0
LINE
  8
Layer1$C$L1
 62
     3
 10
187.6772676813
 20
134.2684230564
 11
187.1943019456
 21
134.1364247039
  0
LINE
  8
Layer1$C$L1
 62
     3
 10
187.0302194780
 20
136.7315356693
 11
186.5472537423
 21
136.5995373168
  0
LINE
  8
Layer1$C$L1
 62
     3
 10
189.4963209927
 20
132.0728779478
 11
187.8542748976
 21
131.6240913741
  0
LINE
  8
Layer1$C$L1
 62
     3
 10
187.5122698954
 20
137.6552889535
 11
188.5475493579
 21
133.7143147122
  0
LINE
  8
Layer1$C$L1
 62
     3
 10
189.4963257274
 20
132.0729079725
 11
188.5475181242
 21
133.7143153821
  0
LINE
  8
Layer1$C$L1
 62
     3
 10
186.9471466661
 20
131.7704704454
 11
187.4762434384
 21
131.8656310159
  0
LINE
  8
Layer1$C$L1
 62
     3
 10
185.1734566079
 20
138.5224860123
 11
185.4471160901
 21
138.6240823624
  0
LINE
  8
Layer1$C$L1
 62
     3
 10
185.7175004536
 20
138.6240823624
 11
186.4178227403
 21
137.0922039877
  0
LINE
  8
Layer1$C$L1
 62
     3
 10
187.3236804106
 20
133.6438214049
 11
187.4762022591
 21
131.8656444828
  0
LINE
  8
Layer1$C$L1
 62
     3
 10
185.7008242500
 20
138.6240823624
 11
187.4762321132
 21
131.8656240751
  0
LINE
  8
Layer1$C$L1
 62
     3
 10
188.0598871866
 20
137.5409944090
 11
187.5769584274
 21
137.4090054570
  0
LINE
  8
Layer1$C$L1
 62
     3
 10
188.9657647305
 20
134.0926038563
 11
188.4828175726
 21
133.9606098757
  0
POLYLINE
  8
Layer1$C$L1
 62
     3
 66
     1
  0
VERTEX
  8
Layer1$C$L1
 62
     3
 10
186.5588775158
 20
131.8657760513
  0
VERTEX
  8
Layer1$C$L1
 62
     3
 10
186.6013729228
 20
131.8363908318
  0
VERTEX
  8
Layer1$C$L1
 62
     3
 10
186.6465984716
 20
131.8116055207
  0
VERTEX
  8
Layer1$C$L1
 62
     3
 10
186.6940773299
 20
131.7916814402
  0
VERTEX
  8
Layer1$C$L1
 62
     3
 10
186.7433089081
 20
131.7768286583
  0
VERTEX
  8
Layer1$C$L1
 62
     3
 10
186.7937741366
 20
131.7672037741
  0
VERTEX
  8
Layer1$C$L1
 62
     3
 10
186.8449409393
 20
131.7629082670
  0
VERTEX
  8
Layer1$C$L1
 62
     3
 10
186.8962698428
 20
131.7639874261
  0
VERTEX
  8
Layer1$C$L1
 62
     3
 10
186.9472196647
 20
131.7704298736
  0
SEQEND
  8
Layer1$C$L1
 62
     3
  0
POLYLINE
  8
Layer1$C$L1
 62
     3
 66
     1
  0
VERTEX
  8
Layer1$C$L1
 62
     3
 10
185.1738849947
 20
138.5225955480
  0
VERTEX
  8
Layer1$C$L1
 62
     3
 10
185.1263727714
 20
138.5021237582
  0
VERTEX
  8
Layer1$C$L1
 62
     3
 10
185.0811809559
 20
138.4767682944
  0
VERTEX
  8
Layer1$C$L1
 62
     3
 10
185.0387904447
 20
138.4467989699
  0
VERTEX
  8
Layer1$C$L1
 62
     3
 10
184.9996523247
 20
138.4125346949
  0
VERTEX
  8
Layer1$C$L1
 62
     3
 10
184.9641830734
 20
138.3743400834
  0
VERTEX
  8
Layer1$C$L1
 62
     3
 10
184.9327601270
 20
138.3326215728
  0
VERTEX
  8
Layer1$C$L1
 62
     3
 10
184.9057178642
 20
138.2878230991
  0
VERTEX
  8
Layer1$C$L1
 62
     3
 10
184.8833440478
 20
138.2404213729
  0
SEQEND
  8
Layer1$C$L1
 62
     3
  0
POLYLINE
  8
Layer1$C$L1
 62
     3
 66
     1
  0
VERTEX
  8
Layer1$C$L1
 62
     3
 10
184.8832640193
 20
138.2402569118
  0
VERTEX
  8
Layer1$C$L1
 62
     3
 10
184.6360594128
 20
137.4929862260
  0
VERTEX
  8
Layer1$C$L1
 62
     3
 10
184.4986906947
 20
136.7168676505
  0
VERTEX
  8
Layer1$C$L1
 62
     3
 10
184.4741136551
 20
135.9286010839
  0
VERTEX
  8
Layer1$C$L1
 62
     3
 10
184.5628571230
 20
135.1451478153
  0
VERTEX
  8
Layer1$C$L1
 62
     3
 10
184.7630115875
 20
134.3833655654
  0
VERTEX
  8
Layer1$C$L1
 62
     3
 10
185.0702702851
 20
133.6596457549
  0
VERTEX
  8
Layer1$C$L1
 62
     3
 10
185.4780218689
 20
132.9895608078
  0
VERTEX
  8
Layer1$C$L1
 62
     3
 10
185.9774926666
 20
132.3875290757
  0
VERTEX
  8
Layer1$C$L1
 62
     3
 10
186.5579354652
 20
131.8665045958
  0
SEQEND
  8
Layer1$C$L1
 62
     3
  0
LINE
  8
Layer1$C$L1
 62
     3
 10
200.4227087146
 20
174.6240823624
 11
223.4227201587
 21
174.6240823624
  0
LINE
  8
Layer1$C$L1
 62
     3
 10
177.4226972705
 20
131.6240899918
 11
200.4227087146
 21
131.6240899918
  0
LINE
  8
Layer1$C$L1
 62
     3
 10
190.4506490688
 20
132.2467728641
 11
197.0466066837
 21
134.0495019508
  0
LINE
  8
Layer1$C$L1
 62
     3
 10
177.4226972705
 20
138.6240823624
 11
200.4227087146
 21
138.6240823624
  0
LINE
  8
Layer1$C$L1
 62
     3
 10
338.8397202140
 20
171.2100541947
 11
338.8397202140
 21
142.0380723832
  0
LINE
  8
Layer1$C$L1
 62
     3
 10
388.8397202140
 20
171.2100541947
 11
388.8397202140
 21
142.0380723832
  0
LINE
  8
Layer1$C$L1
 62
     3
 10
388.8397202140
 20
142.0380723832
 11
384.1436180717
 21
142.0380723832
  0
LINE
  8
Layer1$C$L1
 62
     3
 10
388.8397202140
 20
171.2100541947
 11
384.1436371452
 21
171.2100541947
  0
LINE
  8
Layer1$C$L1
 62
     3
 10
388.8397202140
 20
169.8840654252
 11
385.0333962089
 21
169.8840654252
  0
LINE
  8
Layer1$C$L1
 62
     3
 10
388.8397202140
 20
143.3640611527
 11
385.0333962089
 21
143.3640611527
  0
LINE
  8
Layer1$C$L1
 62
     3
 10
349.2537293083
 20
181.6240823624
 11
378.4256920463
 21
181.6240823624
  0
LINE
  8
Layer1$C$L1
 62
     3
 10
349.2537293083
 20
131.6240823624
 11
378.4256920463
 21
131.6240823624
  0
LINE
  8
Layer1$C$L1
 62
     3
 10
378.4256920463
 20
131.6240823624
 11
378.4256920463
 21
136.3201654313
  0
LINE
  8
Layer1$C$L1
 62
     3
 10
349.2537293083
 20
131.6240823624
 11
349.2537293083
 21
136.3201845047
  0
LINE
  8
Layer1$C$L1
 62
     3
 10
377.0997032768
 20
131.6240823624
 11
377.0997032768
 21
135.4303872941
  0
LINE
  8
Layer1$C$L1
 62
     3
 10
350.5797180778
 20
131.6240823624
 11
350.5797180778
 21
135.4304063675
  0
LINE
  8
Layer0$C$L0
 10
420.0000000000
 20
297.0000000000
 11
0.0000000000
 21
297.0000000000
  0
LINE
  8
Layer0$C$L0
 10
0.0000000000
 20
0.0000000000
 11
420.0000000000
 21
0.0000000000
  0
LINE
  8
Layer0$C$L0
 10
0.0000000000
 20
297.0000000000
 11
0.0000000000
 21
0.0000000000
  0
LINE
  8
Layer0$C$L0
 10
420.0000000000
 20
0.0000000000
 11
420.0000000000
 21
297.0000000000
  0
ENDSEC
  0
EOF
