  0
SECTION
  2
HEADER
  9
$ACADVER
  1
AC1015
  9
$ACADMAINTVER
 70
     6
  9
$DWGCODEPAGE
  3
ANSI_932
  9
$INSBASE
 10
0.0
 20
0.0
 30
0.0
  9
$EXTMIN
 10
-244.854283916531
 20
0.0
 30
0.0
  9
$EXTMAX
 10
-15.540170164119
 20
297.0
 30
0.0
  9
$LIMMIN
 10
-215.1752441406
 20
-3.175
  9
$LIMMAX
 10
3.175
 20
300.175
  9
$ORTHOMODE
 70
     0
  9
$REGENMODE
 70
     1
  9
$FILLMODE
 70
     1
  9
$QTEXTMODE
 70
     0
  9
$MIRRTEXT
 70
     0
  9
$LTSCALE
 40
1.0
  9
$ATTMODE
 70
     1
  9
$TEXTSIZE
 40
3.0
  9
$TRACEWID
 40
0.05
  9
$TEXTSTYLE
  7
IDEC_TEXT
  9
$CLAYER
  8
0
  9
$CELTYPE
  6
BYLAYER
  9
$CECOLOR
 62
   256
  9
$CELTSCALE
 40
1.0
  9
$DISPSILH
 70
     0
  9
$DIMSCALE
 40
1.0
  9
$DIMASZ
 40
2.0
  9
$DIMEXO
 40
0.625
  9
$DIMDLI
 40
5.0
  9
$DIMRND
 40
0.0
  9
$DIMDLE
 40
0.0
  9
$DIMEXE
 40
1.25
  9
$DIMTP
 40
0.0
  9
$DIMTM
 40
0.0
  9
$DIMTXT
 40
2.5
  9
$DIMCEN
 40
2.5
  9
$DIMTSZ
 40
0.0
  9
$DIMTOL
 70
     0
  9
$DIMLIM
 70
     0
  9
$DIMTIH
 70
     0
  9
$DIMTOH
 70
     0
  9
$DIMSE1
 70
     0
  9
$DIMSE2
 70
     0
  9
$DIMTAD
 70
     1
  9
$DIMZIN
 70
     0
  9
$DIMBLK
  1
OPEN30
  9
$DIMASO
 70
     1
  9
$DIMSHO
 70
     0
  9
$DIMPOST
  1

  9
$DIMAPOST
  1

  9
$DIMALT
 70
     0
  9
$DIMALTD
 70
     1
  9
$DIMALTF
 40
0.03937007874
  9
$DIMLFAC
 40
1.0
  9
$DIMTOFL
 70
     1
  9
$DIMTVP
 40
0.0
  9
$DIMTIX
 70
     0
  9
$DIMSOXD
 70
     0
  9
$DIMSAH
 70
     0
  9
$DIMBLK1
  1

  9
$DIMBLK2
  1

  9
$DIMSTYLE
  2
IDEC_DIM
  9
$DIMCLRD
 70
   256
  9
$DIMCLRE
 70
   256
  9
$DIMCLRT
 70
   256
  9
$DIMTFAC
 40
0.5
  9
$DIMGAP
 40
0.5
  9
$DIMJUST
 70
     0
  9
$DIMSD1
 70
     0
  9
$DIMSD2
 70
     0
  9
$DIMTOLJ
 70
     2
  9
$DIMTZIN
 70
     8
  9
$DIMALTZ
 70
     0
  9
$DIMALTTZ
 70
     0
  9
$DIMUPT
 70
     0
  9
$DIMDEC
 70
     1
  9
$DIMTDEC
 70
     1
  9
$DIMALTU
 70
     2
  9
$DIMALTTD
 70
     3
  9
$DIMTXSTY
  7
IDEC_TEXT
  9
$DIMAUNIT
 70
     1
  9
$DIMADEC
 70
     1
  9
$DIMALTRND
 40
0.0
  9
$DIMAZIN
 70
     2
  9
$DIMDSEP
 70
    46
  9
$DIMATFIT
 70
     3
  9
$DIMFRAC
 70
     0
  9
$DIMLDRBLK
  1
OPEN30
  9
$DIMLUNIT
 70
     2
  9
$DIMLWD
 70
    13
  9
$DIMLWE
 70
    13
  9
$DIMTMOVE
 70
     0
  9
$LUNITS
 70
     2
  9
$LUPREC
 70
     3
  9
$SKETCHINC
 40
0.1
  9
$FILLETRAD
 40
0.0625
  9
$AUNITS
 70
     0
  9
$AUPREC
 70
     0
  9
$MENU
  1
ACAD
  9
$ELEVATION
 40
0.0
  9
$PELEVATION
 40
0.0
  9
$THICKNESS
 40
0.0
  9
$LIMCHECK
 70
     0
  9
$CHAMFERA
 40
0.0
  9
$CHAMFERB
 40
0.0
  9
$CHAMFERC
 40
0.0
  9
$CHAMFERD
 40
0.0
  9
$SKPOLY
 70
     0
  9
$TDCREATE
 40
2455462.812789352
  9
$TDUCREATE
 40
2455462.437789352
  9
$TDUPDATE
 40
2457994.454056354
  9
$TDUUPDATE
 40
2457994.079056354
  9
$TDINDWG
 40
0.0524594329
  9
$TDUSRTIMER
 40
0.0524594329
  9
$USRTIMER
 70
     1
  9
$ANGBASE
 50
0.0
  9
$ANGDIR
 70
     0
  9
$PDMODE
 70
     0
  9
$PDSIZE
 40
0.0
  9
$PLINEWID
 40
0.0
  9
$SPLFRAME
 70
     0
  9
$SPLINETYPE
 70
     6
  9
$SPLINESEGS
 70
     8
  9
$HANDSEED
  5
D74
  9
$SURFTAB1
 70
     6
  9
$SURFTAB2
 70
     6
  9
$SURFTYPE
 70
     6
  9
$SURFU
 70
     6
  9
$SURFV
 70
     6
  9
$UCSBASE
  2

  9
$UCSNAME
  2

  9
$UCSORG
 10
0.0
 20
0.0
 30
0.0
  9
$UCSXDIR
 10
1.0
 20
0.0
 30
0.0
  9
$UCSYDIR
 10
0.0
 20
1.0
 30
0.0
  9
$UCSORTHOREF
  2

  9
$UCSORTHOVIEW
 70
     0
  9
$UCSORGTOP
 10
0.0
 20
0.0
 30
0.0
  9
$UCSORGBOTTOM
 10
0.0
 20
0.0
 30
0.0
  9
$UCSORGLEFT
 10
0.0
 20
0.0
 30
0.0
  9
$UCSORGRIGHT
 10
0.0
 20
0.0
 30
0.0
  9
$UCSORGFRONT
 10
0.0
 20
0.0
 30
0.0
  9
$UCSORGBACK
 10
0.0
 20
0.0
 30
0.0
  9
$PUCSBASE
  2

  9
$PUCSNAME
  2

  9
$PUCSORG
 10
0.0
 20
0.0
 30
0.0
  9
$PUCSXDIR
 10
1.0
 20
0.0
 30
0.0
  9
$PUCSYDIR
 10
0.0
 20
1.0
 30
0.0
  9
$PUCSORTHOREF
  2

  9
$PUCSORTHOVIEW
 70
     0
  9
$PUCSORGTOP
 10
0.0
 20
0.0
 30
0.0
  9
$PUCSORGBOTTOM
 10
0.0
 20
0.0
 30
0.0
  9
$PUCSORGLEFT
 10
0.0
 20
0.0
 30
0.0
  9
$PUCSORGRIGHT
 10
0.0
 20
0.0
 30
0.0
  9
$PUCSORGFRONT
 10
0.0
 20
0.0
 30
0.0
  9
$PUCSORGBACK
 10
0.0
 20
0.0
 30
0.0
  9
$USERI1
 70
     0
  9
$USERI2
 70
     0
  9
$USERI3
 70
     0
  9
$USERI4
 70
     0
  9
$USERI5
 70
     0
  9
$USERR1
 40
0.0
  9
$USERR2
 40
0.0
  9
$USERR3
 40
0.0
  9
$USERR4
 40
0.0
  9
$USERR5
 40
0.0
  9
$WORLDVIEW
 70
     1
  9
$SHADEDGE
 70
     3
  9
$SHADEDIF
 70
    70
  9
$TILEMODE
 70
     1
  9
$MAXACTVP
 70
    32
  9
$PINSBASE
 10
0.0
 20
0.0
 30
0.0
  9
$PLIMCHECK
 70
     0
  9
$PEXTMIN
 10
1.000000000000E+20
 20
1.000000000000E+20
 30
1.000000000000E+20
  9
$PEXTMAX
 10
-1.000000000000E+20
 20
-1.000000000000E+20
 30
-1.000000000000E+20
  9
$PLIMMIN
 10
-224.654947035763
 20
-12.65468796652
  9
$PLIMMAX
 10
192.451323491121
 20
309.654702895163
  9
$UNITMODE
 70
     0
  9
$VISRETAIN
 70
     0
  9
$PLINEGEN
 70
     0
  9
$PSLTSCALE
 70
     1
  9
$TREEDEPTH
 70
  3020
  9
$CMLSTYLE
  2
STANDARD
  9
$CMLJUST
 70
     0
  9
$CMLSCALE
 40
1.0
  9
$PROXYGRAPHICS
 70
     0
  9
$MEASUREMENT
 70
     1
  9
$CELWEIGHT
370
    -1
  9
$ENDCAPS
280
     0
  9
$JOINSTYLE
280
     0
  9
$LWDISPLAY
290
     0
  9
$INSUNITS
 70
     4
  9
$HYPERLINKBASE
  1

  9
$STYLESHEET
  1

  9
$XEDIT
290
     1
  9
$CEPSNTYPE
380
     0
  9
$PSTYLEMODE
290
     1
  9
$FINGERPRINTGUID
  2
{2095C68D-2CEF-4400-ADBB-8B9E52D030AF}
  9
$VERSIONGUID
  2
{C0D7B91F-6CEA-4B57-9999-BE15C5172C36}
  9
$EXTNAMES
290
     1
  9
$PSVPSCALE
 40
0.0
  9
$OLESTARTUP
290
     0
  0
ENDSEC
  0
SECTION
  2
CLASSES
  0
CLASS
  1
ACDBDICTIONARYWDFLT
  2
AcDbDictionaryWithDefault
  3
ObjectDBX Classes
 90
        0
280
     0
281
     0
  0
CLASS
  1
MATERIAL
  2
AcDbMaterial
  3
ObjectDBX Classes
 90
     1153
280
     0
281
     0
  0
CLASS
  1
VISUALSTYLE
  2
AcDbVisualStyle
  3
ObjectDBX Classes
 90
     4095
280
     0
281
     0
  0
CLASS
  1
TABLESTYLE
  2
AcDbTableStyle
  3
ObjectDBX Classes
 90
     4095
280
     0
281
     0
  0
CLASS
  1
DICTIONARYVAR
  2
AcDbDictionaryVar
  3
ObjectDBX Classes
 90
        0
280
     0
281
     0
  0
CLASS
  1
SCALE
  2
AcDbScale
  3
ObjectDBX Classes
 90
     1153
280
     0
281
     0
  0
CLASS
  1
MLEADERSTYLE
  2
AcDbMLeaderStyle
  3
ACDB_MLEADERSTYLE_CLASS
 90
     4095
280
     0
281
     0
  0
CLASS
  1
SUN
  2
AcDbSun
  3
SCENEOE
 90
     1153
280
     0
281
     0
  0
CLASS
  1
RASTERVARIABLES
  2
AcDbRasterVariables
  3
ISM
 90
        0
280
     0
281
     0
  0
CLASS
  1
SORTENTSTABLE
  2
AcDbSortentsTable
  3
ObjectDBX Classes
 90
        0
280
     0
281
     0
  0
CLASS
  1
PLOTSETTINGS
  2
AcDbPlotSettings
  3
ObjectDBX Classes
 90
        0
280
     0
281
     0
  0
CLASS
  1
DIMASSOC
  2
AcDbDimAssoc
  3
"AcDbDimAssoc|Product Desc:     AcDim ARX App For Dimension|Company:          Autodesk, Inc.|WEB Address:      www.autodesk.com"
 90
        0
280
     0
281
     0
  0
CLASS
  1
ACDBPLACEHOLDER
  2
AcDbPlaceHolder
  3
ObjectDBX Classes
 90
        0
280
     0
281
     0
  0
CLASS
  1
LAYOUT
  2
AcDbLayout
  3
ObjectDBX Classes
 90
        0
280
     0
281
     0
  0
ENDSEC
  0
SECTION
  2
TABLES
  0
TABLE
  2
VPORT
  5
4
102
{ACAD_XDICTIONARY
360
D34
102
}
330
0
100
AcDbSymbolTable
 70
     1
  0
VPORT
  5
3F1
330
4
100
AcDbSymbolTableRecord
100
AcDbViewportTableRecord
  2
*Active
 70
     0
 10
0.0
 20
0.0
 11
1.0
 21
1.0
 12
-130.197227040325
 22
148.5
 13
0.0
 23
0.0
 14
5.0
 24
5.0
 15
5.0
 25
5.0
 16
0.0
 26
0.0
 36
1.0
 17
0.0
 27
0.0
 37
0.0
 40
302.94
 41
1.722921914358
 42
50.0
 43
0.0
 44
0.0
 50
0.0
 51
0.0
 71
    16
 72
   100
 73
     1
 74
     3
 75
     0
 76
     0
 77
     0
 78
     0
281
     0
 65
     1
110
0.0
120
0.0
130
0.0
111
1.0
121
0.0
131
0.0
112
0.0
122
1.0
132
0.0
 79
     0
146
0.0
1001
ACAD_NAV_VCDISPLAY
1070
     0
  0
ENDTAB
  0
TABLE
  2
LTYPE
  5
5
330
0
100
AcDbSymbolTable
 70
     5
  0
LTYPE
  5
7
330
5
100
AcDbSymbolTableRecord
100
AcDbLinetypeTableRecord
  2
BYBLOCK
 70
     0
  3

 72
    65
 73
     0
 40
0.0
  0
LTYPE
  5
6
330
5
100
AcDbSymbolTableRecord
100
AcDbLinetypeTableRecord
  2
BYLAYER
 70
     0
  3

 72
    65
 73
     0
 40
0.0
  0
LTYPE
  5
2B
330
5
100
AcDbSymbolTableRecord
100
AcDbLinetypeTableRecord
  2
Continuous
 70
     0
  3
Solid line
 72
    65
 73
     0
 40
0.0
  0
LTYPE
  5
8
330
5
100
AcDbSymbolTableRecord
100
AcDbLinetypeTableRecord
  2
SOLID
 70
     0
  3
Solid
 72
    65
 73
     0
 40
0.0
  0
LTYPE
  5
429
330
5
100
AcDbSymbolTableRecord
100
AcDbLinetypeTableRecord
  2
CENTERX2
 70
     0
  3
________  __  ________  __  ________  __  ______
 72
    65
 73
     4
 40
4.0
 49
2.5
 74
     0
 49
-0.5
 74
     0
 49
0.5
 74
     0
 49
-0.5
 74
     0
  0
ENDTAB
  0
TABLE
  2
LAYER
  5
D
330
0
100
AcDbSymbolTable
 70
    16
  0
LAYER
  5
E
330
D
100
AcDbSymbolTableRecord
100
AcDbLayerTableRecord
  2
0
 70
     0
 62
     7
  6
Continuous
370
    -3
390
3D1
  0
LAYER
  5
14
330
D
100
AcDbSymbolTableRecord
100
AcDbLayerTableRecord
  2
VIEWPORTS
 70
     0
 62
     7
  6
SOLID
370
    -3
390
3D1
  0
LAYER
  5
426
330
D
100
AcDbSymbolTableRecord
100
AcDbLayerTableRecord
  2
Defpoints
 70
     0
 62
  -250
  6
Continuous
290
     0
370
    -3
390
3D1
  0
LAYER
  5
427
330
D
100
AcDbSymbolTableRecord
100
AcDbLayerTableRecord
  2
CENTER
 70
     0
 62
     7
  6
CENTERX2
370
    13
390
3D1
  0
LAYER
  5
42D
330
D
100
AcDbSymbolTableRecord
100
AcDbLayerTableRecord
  2
細線
 70
     0
 62
     7
  6
Continuous
370
    13
390
3D1
  0
LAYER
  5
42F
330
D
100
AcDbSymbolTableRecord
100
AcDbLayerTableRecord
  2
IDEC_DIM
 70
     0
 62
     2
  6
Continuous
370
    13
390
3D1
  0
LAYER
  5
432
330
D
100
AcDbSymbolTableRecord
100
AcDbLayerTableRecord
  2
CMNT
 70
     0
 62
     7
  6
Continuous
370
    13
390
3D1
  0
ENDTAB
  0
TABLE
  2
STYLE
  5
15
330
0
100
AcDbSymbolTable
 70
     2
  0
STYLE
  5
16
330
15
100
AcDbSymbolTableRecord
100
AcDbTextStyleTableRecord
  2
STANDARD
 70
     0
 40
0.0
 41
1.0
 50
0.0
 71
     0
 42
3.0
  3
simplex.shx
  4
extfont2.shx
  0
STYLE
  5
439
330
15
100
AcDbSymbolTableRecord
100
AcDbTextStyleTableRecord
  2
IDEC_TEXT
 70
     0
 40
0.0
 41
1.0
 50
0.0
 71
     0
 42
3.0
  3
simplex.shx
  4
extfont2.shx
  0
ENDTAB
  0
TABLE
  2
VIEW
  5
22
330
0
100
AcDbSymbolTable
 70
     0
  0
ENDTAB
  0
TABLE
  2
UCS
  5
23
330
0
100
AcDbSymbolTable
 70
     0
  0
ENDTAB
  0
TABLE
  2
APPID
  5
20
330
0
100
AcDbSymbolTable
 70
     7
  0
APPID
  5
21
330
20
100
AcDbSymbolTableRecord
100
AcDbRegAppTableRecord
  2
ACAD
 70
     0
  0
APPID
  5
423
330
20
100
AcDbSymbolTableRecord
100
AcDbRegAppTableRecord
  2
ACAD_NAV_VCDISPLAY
 70
     0
  0
APPID
  5
440
330
20
100
AcDbSymbolTableRecord
100
AcDbRegAppTableRecord
  2
BJM_BLN_TBL
 70
     0
  0
APPID
  5
441
330
20
100
AcDbSymbolTableRecord
100
AcDbRegAppTableRecord
  2
DENKISCL
 70
     0
  0
APPID
  5
442
330
20
100
AcDbSymbolTableRecord
100
AcDbRegAppTableRecord
  2
DENKISCLORG
 70
     0
  0
APPID
  5
4FC
330
20
100
AcDbSymbolTableRecord
100
AcDbRegAppTableRecord
  2
ACAD_DSTYLE_DIMTEXT_FILL
 70
     0
  0
APPID
  5
CDD
330
20
100
AcDbSymbolTableRecord
100
AcDbRegAppTableRecord
  2
ACAD_MLEADERVER
 70
     0
  0
ENDTAB
  0
TABLE
  2
DIMSTYLE
  5
17
330
0
100
AcDbSymbolTable
 70
     1
100
AcDbDimStyleTable
  0
DIMSTYLE
105
438
330
17
100
AcDbSymbolTableRecord
100
AcDbDimStyleTableRecord
  2
IDEC_DIM
 70
     0
 41
2.0
 42
0.625
 43
5.0
 44
1.25
 73
     0
 74
     0
 77
     1
 79
     2
140
2.5
141
2.5
143
0.03937007874
146
0.5
147
0.5
171
     1
172
     1
176
   256
177
   256
271
     1
178
   256
179
     1
271
     1
272
     1
274
     3
275
     1
283
     2
284
     8
340
439
341
43A
342
43A
371
    13
372
    13
  0
ENDTAB
  0
TABLE
  2
BLOCK_RECORD
  5
24
330
0
100
AcDbSymbolTable
 70
    18
  0
BLOCK_RECORD
  5
25
102
{ACAD_XDICTIONARY
360
8BE
102
}
330
24
100
AcDbSymbolTableRecord
100
AcDbBlockTableRecord
  2
*MODEL_SPACE
340
3ED
  0
BLOCK_RECORD
  5
26
330
24
100
AcDbSymbolTableRecord
100
AcDbBlockTableRecord
  2
*PAPER_SPACE
340
3EE
  0
BLOCK_RECORD
  5
43A
330
24
100
AcDbSymbolTableRecord
100
AcDbBlockTableRecord
  2
_OPEN30
340
0
102
{BLKREFS
331
74C
331
74D
331
770
331
771
331
77C
331
77D
331
788
331
789
331
7A2
331
7A3
331
7AE
331
7AF
331
80D
331
80E
331
837
331
838
331
84F
331
850
331
85B
331
85C
331
879
331
87A
331
C70
331
C71
331
C7F
331
C80
331
C8F
331
C90
102
}
  0
BLOCK_RECORD
  5
746
330
24
100
AcDbSymbolTableRecord
100
AcDbBlockTableRecord
  2
*D4
340
0
  0
BLOCK_RECORD
  5
76A
330
24
100
AcDbSymbolTableRecord
100
AcDbBlockTableRecord
  2
*D5
340
0
  0
BLOCK_RECORD
  5
776
330
24
100
AcDbSymbolTableRecord
100
AcDbBlockTableRecord
  2
*D6
340
0
  0
BLOCK_RECORD
  5
782
330
24
100
AcDbSymbolTableRecord
100
AcDbBlockTableRecord
  2
*D7
340
0
  0
BLOCK_RECORD
  5
79C
330
24
100
AcDbSymbolTableRecord
100
AcDbBlockTableRecord
  2
*D8
340
0
  0
BLOCK_RECORD
  5
7A8
330
24
100
AcDbSymbolTableRecord
100
AcDbBlockTableRecord
  2
*D9
340
0
  0
BLOCK_RECORD
  5
805
330
24
100
AcDbSymbolTableRecord
100
AcDbBlockTableRecord
  2
*D10
340
0
  0
BLOCK_RECORD
  5
831
330
24
100
AcDbSymbolTableRecord
100
AcDbBlockTableRecord
  2
*D11
340
0
  0
BLOCK_RECORD
  5
849
330
24
100
AcDbSymbolTableRecord
100
AcDbBlockTableRecord
  2
*D12
340
0
  0
BLOCK_RECORD
  5
855
330
24
100
AcDbSymbolTableRecord
100
AcDbBlockTableRecord
  2
*D13
340
0
  0
BLOCK_RECORD
  5
873
330
24
100
AcDbSymbolTableRecord
100
AcDbBlockTableRecord
  2
*D14
340
0
  0
BLOCK_RECORD
  5
C6A
330
24
100
AcDbSymbolTableRecord
100
AcDbBlockTableRecord
  2
*D15
340
0
  0
BLOCK_RECORD
  5
C79
330
24
100
AcDbSymbolTableRecord
100
AcDbBlockTableRecord
  2
*D16
340
0
  0
BLOCK_RECORD
  5
C89
330
24
100
AcDbSymbolTableRecord
100
AcDbBlockTableRecord
  2
*D17
340
0
  0
ENDTAB
  0
ENDSEC
  0
SECTION
  2
BLOCKS
  0
BLOCK
  5
A5
330
25
100
AcDbEntity
  8
0
100
AcDbBlockBegin
  2
*MODEL_SPACE
 70
     0
 10
0.0
 20
0.0
 30
0.0
  3
*MODEL_SPACE
  1

  0
ENDBLK
  5
4BE
330
25
100
AcDbEntity
  8
0
100
AcDbBlockEnd
  0
BLOCK
  5
A7
330
26
100
AcDbEntity
 67
     1
  8
0
100
AcDbBlockBegin
  2
*PAPER_SPACE
 70
     0
 10
0.0
 20
0.0
 30
0.0
  3
*PAPER_SPACE
  1

  0
ENDBLK
  5
A8
330
26
100
AcDbEntity
 67
     1
  8
0
100
AcDbBlockEnd
  0
BLOCK
  5
4B3
330
43A
100
AcDbEntity
  8
0
100
AcDbBlockBegin
  2
_OPEN30
 70
     0
 10
0.0
 20
0.0
 30
0.0
  3
_OPEN30
  1

  0
LINE
  5
43C
330
43A
100
AcDbEntity
  8
0
  6
ByBlock
 62
     0
370
    -2
100
AcDbLine
 10
-1.0
 20
0.267949
 30
0.0
 11
0.0
 21
0.0
 31
0.0
  0
LINE
  5
43D
330
43A
100
AcDbEntity
  8
0
  6
ByBlock
 62
     0
370
    -2
100
AcDbLine
 10
0.0
 20
0.0
 30
0.0
 11
-1.0
 21
-0.267949
 31
0.0
  0
LINE
  5
43E
330
43A
100
AcDbEntity
  8
0
  6
ByBlock
 62
     0
370
    -2
100
AcDbLine
 10
0.0
 20
0.0
 30
0.0
 11
-1.0
 21
0.0
 31
0.0
  0
ENDBLK
  5
4B4
330
43A
100
AcDbEntity
  8
0
100
AcDbBlockEnd
  0
BLOCK
  5
747
330
746
100
AcDbEntity
  8
0
100
AcDbBlockBegin
  2
*D4
 70
     1
 10
0.0
 20
0.0
 30
0.0
  3
*D4
  1

  0
LINE
  5
749
330
746
100
AcDbEntity
  8
IDEC_DIM
370
    13
100
AcDbLine
 10
-158.0
 20
115.6614449523
 30
0.0
 11
-158.0
 21
104.0364449523
 31
0.0
  0
LINE
  5
74A
330
746
100
AcDbEntity
  8
IDEC_DIM
370
    13
100
AcDbLine
 10
-217.5000610351
 20
116.161445266217
 30
0.0
 11
-217.5000610351
 21
104.0364449523
 31
0.0
  0
LINE
  5
74B
330
746
100
AcDbEntity
  8
IDEC_DIM
370
    13
100
AcDbLine
 10
-160.0
 20
105.2864449523
 30
0.0
 11
-215.5000610351
 21
105.2864449523
 31
0.0
  0
INSERT
  5
74C
330
746
100
AcDbEntity
  8
IDEC_DIM
370
    13
100
AcDbBlockReference
  2
_OPEN30
 10
-158.0
 20
105.2864449523
 30
0.0
 41
2.0
 42
2.0
 43
2.0
  0
INSERT
  5
74D
330
746
100
AcDbEntity
  8
IDEC_DIM
370
    13
100
AcDbBlockReference
  2
_OPEN30
 10
-217.5000610351
 20
105.2864449523
 30
0.0
 41
2.0
 42
2.0
 43
2.0
 50
180.0
  0
MTEXT
  5
74E
330
746
100
AcDbEntity
  8
IDEC_DIM
100
AcDbMText
 10
-187.75003051755
 20
107.0364449523
 30
0.0
 40
2.5
 41
0.0
 71
     5
 72
     1
  1
\A2;59.5
  7
IDEC_TEXT
 73
     1
 44
1.0
  0
POINT
  5
74F
330
746
100
AcDbEntity
  8
Defpoints
 62
     0
100
AcDbPoint
 10
-158.0
 20
116.2864449523
 30
0.0
  0
POINT
  5
750
330
746
100
AcDbEntity
  8
Defpoints
 62
     0
100
AcDbPoint
 10
-217.5000610351
 20
116.786445266217
 30
0.0
  0
POINT
  5
751
330
746
100
AcDbEntity
  8
Defpoints
 62
     0
100
AcDbPoint
 10
-217.5000610351
 20
105.2864449523
 30
0.0
  0
ENDBLK
  5
748
330
746
100
AcDbEntity
  8
0
100
AcDbBlockEnd
  0
BLOCK
  5
76B
330
76A
100
AcDbEntity
  8
0
100
AcDbBlockBegin
  2
*D5
 70
     1
 10
0.0
 20
0.0
 30
0.0
  3
*D5
  1

  0
LINE
  5
76D
330
76A
100
AcDbEntity
  8
IDEC_DIM
370
    13
100
AcDbLine
 10
-72.075012207
 20
42.5864480041
 30
0.0
 11
-55.950012207
 21
42.5864480041
 31
0.0
  0
LINE
  5
76E
330
76A
100
AcDbEntity
  8
IDEC_DIM
370
    13
100
AcDbLine
 10
-72.075012207
 20
79.5864327453
 30
0.0
 11
-55.950012207
 21
79.5864327453
 31
0.0
  0
LINE
  5
76F
330
76A
100
AcDbEntity
  8
IDEC_DIM
370
    13
100
AcDbLine
 10
-57.200012207
 20
44.5864480041
 30
0.0
 11
-57.200012207
 21
77.5864327453
 31
0.0
  0
INSERT
  5
770
330
76A
100
AcDbEntity
  8
IDEC_DIM
370
    13
100
AcDbBlockReference
  2
_OPEN30
 10
-57.200012207
 20
42.5864480041
 30
0.0
 41
2.0
 42
2.0
 43
2.0
 50
270.0
  0
INSERT
  5
771
330
76A
100
AcDbEntity
  8
IDEC_DIM
370
    13
100
AcDbBlockReference
  2
_OPEN30
 10
-57.200012207
 20
79.5864327453
 30
0.0
 41
2.0
 42
2.0
 43
2.0
 50
90.0
  0
MTEXT
  5
772
330
76A
100
AcDbEntity
  8
IDEC_DIM
100
AcDbMText
 10
-58.950012207
 20
63.729547881719
 30
0.0
 40
2.5
 41
0.0
 71
     5
 72
     1
  1
\A2;37
  7
IDEC_TEXT
 11
0.0
 21
1.0
 31
0.0
 73
     1
 44
1.0
  0
POINT
  5
773
330
76A
100
AcDbEntity
  8
Defpoints
 62
     0
100
AcDbPoint
 10
-72.700012207
 20
42.5864480041
 30
0.0
  0
POINT
  5
774
330
76A
100
AcDbEntity
  8
Defpoints
 62
     0
100
AcDbPoint
 10
-72.700012207
 20
79.5864327453
 30
0.0
  0
POINT
  5
775
330
76A
100
AcDbEntity
  8
Defpoints
 62
     0
100
AcDbPoint
 10
-57.200012207
 20
79.5864327453
 30
0.0
  0
ENDBLK
  5
76C
330
76A
100
AcDbEntity
  8
0
100
AcDbBlockEnd
  0
BLOCK
  5
777
330
776
100
AcDbEntity
  8
0
100
AcDbBlockBegin
  2
*D6
 70
     1
 10
0.0
 20
0.0
 30
0.0
  3
*D6
  1

  0
LINE
  5
779
330
776
100
AcDbEntity
  8
IDEC_DIM
370
    13
100
AcDbLine
 10
-145.0
 20
116.761435797
 30
0.0
 11
-145.0
 21
109.0364449523
 31
0.0
  0
LINE
  5
77A
330
776
100
AcDbEntity
  8
IDEC_DIM
370
    13
100
AcDbLine
 10
-158.0
 20
116.9614480041
 30
0.0
 11
-158.0
 21
109.0364449523
 31
0.0
  0
LINE
  5
77B
330
776
100
AcDbEntity
  8
IDEC_DIM
370
    13
100
AcDbLine
 10
-147.0
 20
110.2864449523
 30
0.0
 11
-156.0
 21
110.2864449523
 31
0.0
  0
INSERT
  5
77C
330
776
100
AcDbEntity
  8
IDEC_DIM
370
    13
100
AcDbBlockReference
  2
_OPEN30
 10
-145.0
 20
110.2864449523
 30
0.0
 41
2.0
 42
2.0
 43
2.0
  0
INSERT
  5
77D
330
776
100
AcDbEntity
  8
IDEC_DIM
370
    13
100
AcDbBlockReference
  2
_OPEN30
 10
-158.0
 20
110.2864449523
 30
0.0
 41
2.0
 42
2.0
 43
2.0
 50
180.0
  0
MTEXT
  5
77E
330
776
100
AcDbEntity
  8
IDEC_DIM
100
AcDbMText
 10
-151.49999999995
 20
112.0364449523
 30
0.0
 40
2.5
 41
0.0
 71
     5
 72
     1
  1
\A2;13
  7
IDEC_TEXT
 73
     1
 44
1.0
  0
POINT
  5
77F
330
776
100
AcDbEntity
  8
Defpoints
 62
     0
100
AcDbPoint
 10
-145.0
 20
117.386435797
 30
0.0
  0
POINT
  5
780
330
776
100
AcDbEntity
  8
Defpoints
 62
     0
100
AcDbPoint
 10
-158.0
 20
117.5864480041
 30
0.0
  0
POINT
  5
781
330
776
100
AcDbEntity
  8
Defpoints
 62
     0
100
AcDbPoint
 10
-158.0
 20
110.2864449523
 30
0.0
  0
ENDBLK
  5
778
330
776
100
AcDbEntity
  8
0
100
AcDbBlockEnd
  0
BLOCK
  5
783
330
782
100
AcDbEntity
  8
0
100
AcDbBlockBegin
  2
*D7
 70
     1
 10
0.0
 20
0.0
 30
0.0
  3
*D7
  1

  0
LINE
  5
785
330
782
100
AcDbEntity
  8
IDEC_DIM
370
    13
100
AcDbLine
 10
-140.8750152587
 20
119.2864449523
 30
0.0
 11
-133.5500030517
 21
119.2864449523
 31
0.0
  0
LINE
  5
786
330
782
100
AcDbEntity
  8
IDEC_DIM
370
    13
100
AcDbLine
 10
-140.8750152587
 20
142.886435797
 30
0.0
 11
-133.5500030517
 21
142.886435797
 31
0.0
  0
LINE
  5
787
330
782
100
AcDbEntity
  8
IDEC_DIM
370
    13
100
AcDbLine
 10
-134.8000030517
 20
121.2864449523
 30
0.0
 11
-134.8000030517
 21
140.886435797
 31
0.0
  0
INSERT
  5
788
330
782
100
AcDbEntity
  8
IDEC_DIM
370
    13
100
AcDbBlockReference
  2
_OPEN30
 10
-134.8000030517
 20
119.2864449523
 30
0.0
 41
2.0
 42
2.0
 43
2.0
 50
270.0
  0
INSERT
  5
789
330
782
100
AcDbEntity
  8
IDEC_DIM
370
    13
100
AcDbBlockReference
  2
_OPEN30
 10
-134.8000030517
 20
142.886435797
 30
0.0
 41
2.0
 42
2.0
 43
2.0
 50
90.0
  0
MTEXT
  5
78A
330
782
100
AcDbEntity
  8
IDEC_DIM
100
AcDbMText
 10
-136.5500030517
 20
131.0864480041
 30
0.0
 40
2.5
 41
0.0
 71
     5
 72
     1
  1
\A2;%%c23.6
  7
IDEC_TEXT
 11
0.0
 21
1.0
 31
0.0
 73
     1
 44
1.0
  0
POINT
  5
78B
330
782
100
AcDbEntity
  8
Defpoints
 62
     0
100
AcDbPoint
 10
-141.5000152587
 20
119.2864449523
 30
0.0
  0
POINT
  5
78C
330
782
100
AcDbEntity
  8
Defpoints
 62
     0
100
AcDbPoint
 10
-141.5000152587
 20
142.886435797
 30
0.0
  0
POINT
  5
78D
330
782
100
AcDbEntity
  8
Defpoints
 62
     0
100
AcDbPoint
 10
-134.8000030517
 20
142.886435797
 30
0.0
  0
ENDBLK
  5
784
330
782
100
AcDbEntity
  8
0
100
AcDbBlockEnd
  0
BLOCK
  5
79D
330
79C
100
AcDbEntity
  8
0
100
AcDbBlockBegin
  2
*D8
 70
     1
 10
0.0
 20
0.0
 30
0.0
  3
*D8
  1

  0
LINE
  5
79F
330
79C
100
AcDbEntity
  8
IDEC_DIM
370
    13
100
AcDbLine
 10
-151.8750152587
 20
116.5864480041
 30
0.0
 11
-128.5500030517
 21
116.5864480041
 31
0.0
  0
LINE
  5
7A0
330
79C
100
AcDbEntity
  8
IDEC_DIM
370
    13
100
AcDbLine
 10
-151.8750152587
 20
145.5864480041
 30
0.0
 11
-128.5500030517
 21
145.5864480041
 31
0.0
  0
LINE
  5
7A1
330
79C
100
AcDbEntity
  8
IDEC_DIM
370
    13
100
AcDbLine
 10
-129.8000030517
 20
118.5864480041
 30
0.0
 11
-129.8000030517
 21
143.5864480041
 31
0.0
  0
INSERT
  5
7A2
330
79C
100
AcDbEntity
  8
IDEC_DIM
370
    13
100
AcDbBlockReference
  2
_OPEN30
 10
-129.8000030517
 20
116.5864480041
 30
0.0
 41
2.0
 42
2.0
 43
2.0
 50
270.0
  0
INSERT
  5
7A3
330
79C
100
AcDbEntity
  8
IDEC_DIM
370
    13
100
AcDbBlockReference
  2
_OPEN30
 10
-129.8000030517
 20
145.5864480041
 30
0.0
 41
2.0
 42
2.0
 43
2.0
 50
90.0
  0
MTEXT
  5
7A4
330
79C
100
AcDbEntity
  8
IDEC_DIM
100
AcDbMText
 10
-131.5500030517
 20
131.0864480041
 30
0.0
 40
2.5
 41
0.0
 71
     5
 72
     1
  1
\A2;%%c29
  7
IDEC_TEXT
 11
0.0
 21
1.0
 31
0.0
 73
     1
 44
1.0
  0
POINT
  5
7A5
330
79C
100
AcDbEntity
  8
Defpoints
 62
     0
100
AcDbPoint
 10
-152.5000152587
 20
116.5864480041
 30
0.0
  0
POINT
  5
7A6
330
79C
100
AcDbEntity
  8
Defpoints
 62
     0
100
AcDbPoint
 10
-152.5000152587
 20
145.5864480041
 30
0.0
  0
POINT
  5
7A7
330
79C
100
AcDbEntity
  8
Defpoints
 62
     0
100
AcDbPoint
 10
-129.8000030517
 20
145.5864480041
 30
0.0
  0
ENDBLK
  5
79E
330
79C
100
AcDbEntity
  8
0
100
AcDbBlockEnd
  0
BLOCK
  5
7A9
330
7A8
100
AcDbEntity
  8
0
100
AcDbBlockBegin
  2
*D9
 70
     1
 10
0.0
 20
0.0
 30
0.0
  3
*D9
  1

  0
LINE
  5
7AB
330
7A8
100
AcDbEntity
  8
IDEC_DIM
370
    13
100
AcDbLine
 10
-158.0
 20
116.9614480041
 30
0.0
 11
-158.0
 21
104.0364449523
 31
0.0
  0
LINE
  5
7AC
330
7A8
100
AcDbEntity
  8
IDEC_DIM
370
    13
100
AcDbLine
 10
-140.8000030517
 20
119.3614419006
 30
0.0
 11
-140.8000030517
 21
104.0364449523
 31
0.0
  0
LINE
  5
7AD
330
7A8
100
AcDbEntity
  8
IDEC_DIM
370
    13
100
AcDbLine
 10
-156.0
 20
105.2864449523
 30
0.0
 11
-142.8000030517
 21
105.2864449523
 31
0.0
  0
INSERT
  5
7AE
330
7A8
100
AcDbEntity
  8
IDEC_DIM
370
    13
100
AcDbBlockReference
  2
_OPEN30
 10
-158.0
 20
105.2864449523
 30
0.0
 41
2.0
 42
2.0
 43
2.0
 50
180.0
  0
INSERT
  5
7AF
330
7A8
100
AcDbEntity
  8
IDEC_DIM
370
    13
100
AcDbBlockReference
  2
_OPEN30
 10
-140.8000030517
 20
105.2864449523
 30
0.0
 41
2.0
 42
2.0
 43
2.0
  0
MTEXT
  5
7B0
330
7A8
100
AcDbEntity
  8
IDEC_DIM
100
AcDbMText
 10
-149.40000152585
 20
107.0364449523
 30
0.0
 40
2.5
 41
0.0
 71
     5
 72
     1
  1
\A2;17.2
  7
IDEC_TEXT
 73
     1
 44
1.0
  0
POINT
  5
7B1
330
7A8
100
AcDbEntity
  8
Defpoints
 62
     0
100
AcDbPoint
 10
-158.0
 20
117.5864480041
 30
0.0
  0
POINT
  5
7B2
330
7A8
100
AcDbEntity
  8
Defpoints
 62
     0
100
AcDbPoint
 10
-140.8000030517
 20
119.9864419006
 30
0.0
  0
POINT
  5
7B3
330
7A8
100
AcDbEntity
  8
Defpoints
 62
     0
100
AcDbPoint
 10
-140.8000030517
 20
105.2864449523
 30
0.0
  0
ENDBLK
  5
7AA
330
7A8
100
AcDbEntity
  8
0
100
AcDbBlockEnd
  0
BLOCK
  5
806
330
805
100
AcDbEntity
  8
0
100
AcDbBlockBegin
  2
*D10
 70
     1
 10
0.0
 20
0.0
 30
0.0
  3
*D10
  1

  0
LINE
  5
808
330
805
100
AcDbEntity
  8
IDEC_DIM
370
    13
100
AcDbLine
 10
-160.5
 20
76.2114480041
 30
0.0
 11
-160.5
 21
83.8367806457
 31
0.0
  0
LINE
  5
809
330
805
100
AcDbEntity
  8
IDEC_DIM
370
    13
100
AcDbLine
 10
-158.0
 20
75.2114785217
 30
0.0
 11
-158.0
 21
83.8367806457
 31
0.0
  0
LINE
  5
80A
330
805
100
AcDbEntity
  8
IDEC_DIM
370
    13
100
AcDbLine
 10
-156.0
 20
82.5867806457
 30
0.0
 11
-150.096774193548
 21
82.5867806457
 31
0.0
  0
LINE
  5
80B
330
805
100
AcDbEntity
  8
IDEC_DIM
370
    13
100
AcDbLine
 10
-160.5
 20
82.5867806457
 30
0.0
 11
-158.0
 21
82.5867806457
 31
0.0
  0
LINE
  5
80C
330
805
100
AcDbEntity
  8
IDEC_DIM
370
    13
100
AcDbLine
 10
-162.5
 20
82.5867806457
 30
0.0
 11
-164.5
 21
82.5867806457
 31
0.0
  0
INSERT
  5
80D
330
805
100
AcDbEntity
  8
IDEC_DIM
370
    13
100
AcDbBlockReference
  2
_OPEN30
 10
-160.5
 20
82.5867806457
 30
0.0
 41
2.0
 42
2.0
 43
2.0
  0
INSERT
  5
80E
330
805
100
AcDbEntity
  8
IDEC_DIM
370
    13
100
AcDbBlockReference
  2
_OPEN30
 10
-158.0
 20
82.5867806457
 30
0.0
 41
2.0
 42
2.0
 43
2.0
 50
180.0
  0
MTEXT
  5
80F
330
805
100
AcDbEntity
  8
IDEC_DIM
100
AcDbMText
 10
-152.048387096774
 20
84.3367806457
 30
0.0
 40
2.5
 41
0.0
 71
     5
 72
     1
  1
\A2;　
  7
IDEC_TEXT
 73
     1
 44
1.0
  0
POINT
  5
810
330
805
100
AcDbEntity
  8
Defpoints
 62
     0
100
AcDbPoint
 10
-160.5
 20
75.5864480041
 30
0.0
  0
POINT
  5
811
330
805
100
AcDbEntity
  8
Defpoints
 62
     0
100
AcDbPoint
 10
-158.0
 20
74.5864785217
 30
0.0
  0
POINT
  5
812
330
805
100
AcDbEntity
  8
Defpoints
 62
     0
100
AcDbPoint
 10
-158.0
 20
82.5867806457
 30
0.0
  0
ENDBLK
  5
807
330
805
100
AcDbEntity
  8
0
100
AcDbBlockEnd
  0
BLOCK
  5
832
330
831
100
AcDbEntity
  8
0
100
AcDbBlockBegin
  2
*D11
 70
     1
 10
0.0
 20
0.0
 30
0.0
  3
*D11
  1

  0
LINE
  5
834
330
831
100
AcDbEntity
  8
IDEC_DIM
370
    13
100
AcDbLine
 10
-145.0
 20
46.761435797
 30
0.0
 11
-145.0
 21
36.0364449523
 31
0.0
  0
LINE
  5
835
330
831
100
AcDbEntity
  8
IDEC_DIM
370
    13
100
AcDbLine
 10
-158.0
 20
46.9614480041
 30
0.0
 11
-158.0
 21
36.0364449523
 31
0.0
  0
LINE
  5
836
330
831
100
AcDbEntity
  8
IDEC_DIM
370
    13
100
AcDbLine
 10
-147.0
 20
37.2864449523
 30
0.0
 11
-156.0
 21
37.2864449523
 31
0.0
  0
INSERT
  5
837
330
831
100
AcDbEntity
  8
IDEC_DIM
370
    13
100
AcDbBlockReference
  2
_OPEN30
 10
-145.0
 20
37.2864449523
 30
0.0
 41
2.0
 42
2.0
 43
2.0
  0
INSERT
  5
838
330
831
100
AcDbEntity
  8
IDEC_DIM
370
    13
100
AcDbBlockReference
  2
_OPEN30
 10
-158.0
 20
37.2864449523
 30
0.0
 41
2.0
 42
2.0
 43
2.0
 50
180.0
  0
MTEXT
  5
839
330
831
100
AcDbEntity
  8
IDEC_DIM
100
AcDbMText
 10
-151.49999999995
 20
39.0364449523
 30
0.0
 40
2.5
 41
0.0
 71
     5
 72
     1
  1
\A2;13
  7
IDEC_TEXT
 73
     1
 44
1.0
  0
POINT
  5
83A
330
831
100
AcDbEntity
  8
Defpoints
 62
     0
100
AcDbPoint
 10
-145.0
 20
47.386435797
 30
0.0
  0
POINT
  5
83B
330
831
100
AcDbEntity
  8
Defpoints
 62
     0
100
AcDbPoint
 10
-158.0
 20
47.5864480041
 30
0.0
  0
POINT
  5
83C
330
831
100
AcDbEntity
  8
Defpoints
 62
     0
100
AcDbPoint
 10
-158.0
 20
37.2864449523
 30
0.0
  0
ENDBLK
  5
833
330
831
100
AcDbEntity
  8
0
100
AcDbBlockEnd
  0
BLOCK
  5
84A
330
849
100
AcDbEntity
  8
0
100
AcDbBlockBegin
  2
*D12
 70
     1
 10
0.0
 20
0.0
 30
0.0
  3
*D12
  1

  0
LINE
  5
84C
330
849
100
AcDbEntity
  8
IDEC_DIM
370
    13
100
AcDbLine
 10
-151.8750152587
 20
46.5864480041
 30
0.0
 11
-133.5500030517
 21
46.5864480041
 31
0.0
  0
LINE
  5
84D
330
849
100
AcDbEntity
  8
IDEC_DIM
370
    13
100
AcDbLine
 10
-151.8750152587
 20
75.5864480041
 30
0.0
 11
-133.5500030517
 21
75.5864480041
 31
0.0
  0
LINE
  5
84E
330
849
100
AcDbEntity
  8
IDEC_DIM
370
    13
100
AcDbLine
 10
-134.8000030517
 20
48.5864480041
 30
0.0
 11
-134.8000030517
 21
73.5864480041
 31
0.0
  0
INSERT
  5
84F
330
849
100
AcDbEntity
  8
IDEC_DIM
370
    13
100
AcDbBlockReference
  2
_OPEN30
 10
-134.8000030517
 20
46.5864480041
 30
0.0
 41
2.0
 42
2.0
 43
2.0
 50
270.0
  0
INSERT
  5
850
330
849
100
AcDbEntity
  8
IDEC_DIM
370
    13
100
AcDbBlockReference
  2
_OPEN30
 10
-134.8000030517
 20
75.5864480041
 30
0.0
 41
2.0
 42
2.0
 43
2.0
 50
90.0
  0
MTEXT
  5
851
330
849
100
AcDbEntity
  8
IDEC_DIM
100
AcDbMText
 10
-136.5500030517
 20
61.0864480041
 30
0.0
 40
2.5
 41
0.0
 71
     5
 72
     1
  1
\A2;%%c29
  7
IDEC_TEXT
 11
0.0
 21
1.0
 31
0.0
 73
     1
 44
1.0
  0
POINT
  5
852
330
849
100
AcDbEntity
  8
Defpoints
 62
     0
100
AcDbPoint
 10
-152.5000152587
 20
46.5864480041
 30
0.0
  0
POINT
  5
853
330
849
100
AcDbEntity
  8
Defpoints
 62
     0
100
AcDbPoint
 10
-152.5000152587
 20
75.5864480041
 30
0.0
  0
POINT
  5
854
330
849
100
AcDbEntity
  8
Defpoints
 62
     0
100
AcDbPoint
 10
-134.8000030517
 20
75.5864480041
 30
0.0
  0
ENDBLK
  5
84B
330
849
100
AcDbEntity
  8
0
100
AcDbBlockEnd
  0
BLOCK
  5
856
330
855
100
AcDbEntity
  8
0
100
AcDbBlockBegin
  2
*D13
 70
     1
 10
0.0
 20
0.0
 30
0.0
  3
*D13
  1

  0
LINE
  5
858
330
855
100
AcDbEntity
  8
IDEC_DIM
370
    13
100
AcDbLine
 10
-158.0
 20
46.9614480041
 30
0.0
 11
-158.0
 21
31.0364449523
 31
0.0
  0
LINE
  5
859
330
855
100
AcDbEntity
  8
IDEC_DIM
370
    13
100
AcDbLine
 10
-140.8000030517
 20
49.3614419006
 30
0.0
 11
-140.8000030517
 21
31.0364449523
 31
0.0
  0
LINE
  5
85A
330
855
100
AcDbEntity
  8
IDEC_DIM
370
    13
100
AcDbLine
 10
-156.0
 20
32.2864449523
 30
0.0
 11
-142.8000030517
 21
32.2864449523
 31
0.0
  0
INSERT
  5
85B
330
855
100
AcDbEntity
  8
IDEC_DIM
370
    13
100
AcDbBlockReference
  2
_OPEN30
 10
-158.0
 20
32.2864449523
 30
0.0
 41
2.0
 42
2.0
 43
2.0
 50
180.0
  0
INSERT
  5
85C
330
855
100
AcDbEntity
  8
IDEC_DIM
370
    13
100
AcDbBlockReference
  2
_OPEN30
 10
-140.8000030517
 20
32.2864449523
 30
0.0
 41
2.0
 42
2.0
 43
2.0
  0
MTEXT
  5
85D
330
855
100
AcDbEntity
  8
IDEC_DIM
100
AcDbMText
 10
-149.40000152585
 20
34.0364449523
 30
0.0
 40
2.5
 41
0.0
 71
     5
 72
     1
  1
\A2;17.2
  7
IDEC_TEXT
 73
     1
 44
1.0
  0
POINT
  5
85E
330
855
100
AcDbEntity
  8
Defpoints
 62
     0
100
AcDbPoint
 10
-158.0
 20
47.5864480041
 30
0.0
  0
POINT
  5
85F
330
855
100
AcDbEntity
  8
Defpoints
 62
     0
100
AcDbPoint
 10
-140.8000030517
 20
49.9864419006
 30
0.0
  0
POINT
  5
860
330
855
100
AcDbEntity
  8
Defpoints
 62
     0
100
AcDbPoint
 10
-140.8000030517
 20
32.2864449523
 30
0.0
  0
ENDBLK
  5
857
330
855
100
AcDbEntity
  8
0
100
AcDbBlockEnd
  0
BLOCK
  5
874
330
873
100
AcDbEntity
  8
0
100
AcDbBlockBegin
  2
*D14
 70
     1
 10
0.0
 20
0.0
 30
0.0
  3
*D14
  1

  0
LINE
  5
876
330
873
100
AcDbEntity
  8
IDEC_DIM
370
    13
100
AcDbLine
 10
-158.0
 20
46.9614480041
 30
0.0
 11
-158.0
 21
31.0364449523
 31
0.0
  0
LINE
  5
877
330
873
100
AcDbEntity
  8
IDEC_DIM
370
    13
100
AcDbLine
 10
-217.4999999999
 20
45.0588295959
 30
0.0
 11
-217.4999999999
 21
31.0364449523
 31
0.0
  0
LINE
  5
878
330
873
100
AcDbEntity
  8
IDEC_DIM
370
    13
100
AcDbLine
 10
-160.0
 20
32.2864449523
 30
0.0
 11
-215.4999999999
 21
32.2864449523
 31
0.0
  0
INSERT
  5
879
330
873
100
AcDbEntity
  8
IDEC_DIM
370
    13
100
AcDbBlockReference
  2
_OPEN30
 10
-158.0
 20
32.2864449523
 30
0.0
 41
2.0
 42
2.0
 43
2.0
  0
INSERT
  5
87A
330
873
100
AcDbEntity
  8
IDEC_DIM
370
    13
100
AcDbBlockReference
  2
_OPEN30
 10
-217.4999999999
 20
32.2864449523
 30
0.0
 41
2.0
 42
2.0
 43
2.0
 50
180.0
  0
MTEXT
  5
87B
330
873
100
AcDbEntity
  8
IDEC_DIM
100
AcDbMText
 10
-187.74999999995
 20
34.0364449523
 30
0.0
 40
2.5
 41
0.0
 71
     5
 72
     1
  1
\A2;59.5
  7
IDEC_TEXT
 73
     1
 44
1.0
  0
POINT
  5
87C
330
873
100
AcDbEntity
  8
Defpoints
 62
     0
100
AcDbPoint
 10
-158.0
 20
47.5864480041
 30
0.0
  0
POINT
  5
87D
330
873
100
AcDbEntity
  8
Defpoints
 62
     0
100
AcDbPoint
 10
-217.4999999999
 20
45.6838295959
 30
0.0
  0
POINT
  5
87E
330
873
100
AcDbEntity
  8
Defpoints
 62
     0
100
AcDbPoint
 10
-217.4999999999
 20
32.2864449523
 30
0.0
  0
ENDBLK
  5
875
330
873
100
AcDbEntity
  8
0
100
AcDbBlockEnd
  0
BLOCK
  5
C6B
330
C6A
100
AcDbEntity
  8
0
100
AcDbBlockBegin
  2
*D15
 70
     1
 10
0.0
 20
0.0
 30
0.0
  3
*D15
  1

  0
LINE
  5
C6D
330
C6A
100
AcDbEntity
  8
IDEC_DIM
370
    13
100
AcDbLine
 10
-60.075012207
 20
61.0864480041
 30
0.0
 11
-50.950012207
 21
61.0864480041
 31
0.0
  0
LINE
  5
C6E
330
C6A
100
AcDbEntity
  8
IDEC_DIM
370
    13
100
AcDbLine
 10
-63.0749969482
 20
40.3864510559
 30
0.0
 11
-50.950012207
 21
40.3864510559
 31
0.0
  0
LINE
  5
C6F
330
C6A
100
AcDbEntity
  8
IDEC_DIM
370
    13
100
AcDbLine
 10
-52.200012207
 20
59.0864480041
 30
0.0
 11
-52.200012207
 21
42.3864510559
 31
0.0
  0
INSERT
  5
C70
330
C6A
100
AcDbEntity
  8
IDEC_DIM
370
    13
100
AcDbBlockReference
  2
_OPEN30
 10
-52.200012207
 20
61.0864480041
 30
0.0
 41
2.0
 42
2.0
 43
2.0
 50
90.0
  0
INSERT
  5
C71
330
C6A
100
AcDbEntity
  8
IDEC_DIM
370
    13
100
AcDbBlockReference
  2
_OPEN30
 10
-52.200012207
 20
40.3864510559
 30
0.0
 41
2.0
 42
2.0
 43
2.0
 50
270.0
  0
MTEXT
  5
C72
330
C6A
100
AcDbEntity
  8
IDEC_DIM
100
AcDbMText
 10
-53.950012207
 20
50.73644953
 30
0.0
 40
2.5
 41
0.0
 71
     5
 72
     1
  1
\A2;20.7
  7
IDEC_TEXT
 11
0.0
 21
1.0
 31
0.0
 73
     1
 44
1.0
  0
POINT
  5
C73
330
C6A
100
AcDbEntity
  8
Defpoints
 62
     0
100
AcDbPoint
 10
-60.700012207
 20
61.0864480041
 30
0.0
  0
POINT
  5
C74
330
C6A
100
AcDbEntity
  8
Defpoints
 62
     0
100
AcDbPoint
 10
-63.6999969482
 20
40.3864510559
 30
0.0
  0
POINT
  5
C75
330
C6A
100
AcDbEntity
  8
Defpoints
 62
     0
100
AcDbPoint
 10
-52.200012207
 20
40.3864510559
 30
0.0
  0
ENDBLK
  5
C6C
330
C6A
100
AcDbEntity
  8
0
100
AcDbBlockEnd
  0
BLOCK
  5
C7A
330
C79
100
AcDbEntity
  8
0
100
AcDbBlockBegin
  2
*D16
 70
     1
 10
0.0
 20
0.0
 30
0.0
  3
*D16
  1

  0
LINE
  5
C7C
330
C79
100
AcDbEntity
  8
IDEC_DIM
370
    13
100
AcDbLine
 10
-92.8000030518
 20
40.261451369817
 30
0.0
 11
-92.8000030518
 21
27.887383797703
 31
0.0
  0
LINE
  5
C7D
330
C79
100
AcDbEntity
  8
IDEC_DIM
370
    13
100
AcDbLine
 10
-63.1999969482
 20
40.2614510559
 30
0.0
 11
-63.1999969482
 21
27.887383797703
 31
0.0
  0
LINE
  5
C7E
330
C79
100
AcDbEntity
  8
IDEC_DIM
370
    13
100
AcDbLine
 10
-90.8000030518
 20
29.137383797703
 30
0.0
 11
-65.1999969482
 21
29.137383797703
 31
0.0
  0
INSERT
  5
C7F
330
C79
100
AcDbEntity
  8
IDEC_DIM
370
    13
100
AcDbBlockReference
  2
_OPEN30
 10
-92.8000030518
 20
29.137383797703
 30
0.0
 41
2.0
 42
2.0
 43
2.0
 50
180.0
  0
INSERT
  5
C80
330
C79
100
AcDbEntity
  8
IDEC_DIM
370
    13
100
AcDbBlockReference
  2
_OPEN30
 10
-63.1999969482
 20
29.137383797703
 30
0.0
 41
2.0
 42
2.0
 43
2.0
  0
MTEXT
  5
C81
330
C79
100
AcDbEntity
  8
IDEC_DIM
100
AcDbMText
 10
-78.0
 20
30.887383797703
 30
0.0
 40
2.5
 41
0.0
 71
     5
 72
     1
  1
\A2;29.6
  7
IDEC_TEXT
 73
     1
 44
1.0
  0
POINT
  5
C82
330
C79
100
AcDbEntity
  8
Defpoints
 62
     0
100
AcDbPoint
 10
-92.8000030518
 20
40.886451369817
 30
0.0
  0
POINT
  5
C83
330
C79
100
AcDbEntity
  8
Defpoints
 62
     0
100
AcDbPoint
 10
-63.1999969482
 20
40.8864510559
 30
0.0
  0
POINT
  5
C84
330
C79
100
AcDbEntity
  8
Defpoints
 62
     0
100
AcDbPoint
 10
-63.1999969482
 20
29.137383797703
 30
0.0
  0
ENDBLK
  5
C7B
330
C79
100
AcDbEntity
  8
0
100
AcDbBlockEnd
  0
BLOCK
  5
C8A
330
C89
100
AcDbEntity
  8
0
100
AcDbBlockBegin
  2
*D17
 70
     1
 10
0.0
 20
0.0
 30
0.0
  3
*D17
  1

  0
LINE
  5
C8C
330
C89
100
AcDbEntity
  8
IDEC_DIM
370
    13
100
AcDbLine
 10
-89.7999992371
 20
60.4614480041
 30
0.0
 11
-89.7999992371
 21
32.887383797703
 31
0.0
  0
LINE
  5
C8D
330
C89
100
AcDbEntity
  8
IDEC_DIM
370
    13
100
AcDbLine
 10
-66.2000007629
 20
60.4614480041
 30
0.0
 11
-66.2000007629
 21
32.887383797703
 31
0.0
  0
LINE
  5
C8E
330
C89
100
AcDbEntity
  8
IDEC_DIM
370
    13
100
AcDbLine
 10
-87.7999992371
 20
34.137383797703
 30
0.0
 11
-68.2000007629
 21
34.137383797703
 31
0.0
  0
INSERT
  5
C8F
330
C89
100
AcDbEntity
  8
IDEC_DIM
370
    13
100
AcDbBlockReference
  2
_OPEN30
 10
-89.7999992371
 20
34.137383797703
 30
0.0
 41
2.0
 42
2.0
 43
2.0
 50
180.0
  0
INSERT
  5
C90
330
C89
100
AcDbEntity
  8
IDEC_DIM
370
    13
100
AcDbBlockReference
  2
_OPEN30
 10
-66.2000007629
 20
34.137383797703
 30
0.0
 41
2.0
 42
2.0
 43
2.0
  0
MTEXT
  5
C91
330
C89
100
AcDbEntity
  8
IDEC_DIM
100
AcDbMText
 10
-78.0
 20
35.887383797703
 30
0.0
 40
2.5
 41
0.0
 71
     5
 72
     1
  1
\A2;φ23.6
  7
IDEC_TEXT
 73
     1
 44
1.0
  0
POINT
  5
C92
330
C89
100
AcDbEntity
  8
Defpoints
 62
     0
100
AcDbPoint
 10
-89.7999992371
 20
61.0864480041
 30
0.0
  0
POINT
  5
C93
330
C89
100
AcDbEntity
  8
Defpoints
 62
     0
100
AcDbPoint
 10
-66.2000007629
 20
61.0864480041
 30
0.0
  0
POINT
  5
C94
330
C89
100
AcDbEntity
  8
Defpoints
 62
     0
100
AcDbPoint
 10
-66.2000007629
 20
34.137383797703
 30
0.0
  0
ENDBLK
  5
C8B
330
C89
100
AcDbEntity
  8
0
100
AcDbBlockEnd
  0
ENDSEC
  0
SECTION
  2
ENTITIES
  0
LINE
  5
303
330
25
100
AcDbEntity
  8
CENTER
100
AcDbLine
 10
-78.0000152588
 20
38.9636605285
 30
0.0
 11
-78.0000152588
 21
82.7308877013
 31
0.0
  0
LINE
  5
311
330
25
100
AcDbEntity
  8
CENTER
100
AcDbLine
 10
-95.3000030518
 20
61.0864480041
 30
0.0
 11
-60.700012207
 21
61.0864480041
 31
0.0
  0
LINE
  5
8B9
330
25
100
AcDbEntity
  8
Defpoints
100
AcDbLine
 10
-158.0
 20
297.0
 30
0.0
 11
-158.0
 21
0.0
 31
0.0
  0
LINE
  5
8BA
330
25
100
AcDbEntity
  8
Defpoints
100
AcDbLine
 10
-78.0
 20
297.0
 30
0.0
 11
-78.0
 21
0.0
 31
0.0
  0
TEXT
  5
8BB
330
25
100
AcDbEntity
  8
CMNT
100
AcDbText
 10
-40.302074926024
 20
6.257533677352
 30
0.0
 40
2.5
  1
MA4-A04533
 72
     2
 11
-15.540170164119
 21
6.257533677352
 31
0.0
100
AcDbText
  0
TEXT
  5
8BC
330
25
100
AcDbEntity
  8
CMNT
100
AcDbText
 10
-34.222965863044
 20
11.257533677352
 30
0.0
 40
2.5
  1
APW116D※
 72
     2
 11
-15.540170164119
 21
11.257533677352
 31
0.0
100
AcDbText
  0
TEXT
  5
8BD
330
25
100
AcDbEntity
  8
CMNT
100
AcDbText
 10
-29.368895202521
 20
16.257533677352
 30
0.0
 40
2.5
  1
尺度　1/1
 72
     2
 11
-15.540170164119
 21
16.257533677352
 31
0.0
100
AcDbText
  0
LINE
  5
AAC
330
25
100
AcDbEntity
  8
CENTER
100
AcDbLine
 10
-220.4999999999
 20
61.0864480041
 30
0.0
 11
-138.359882503393
 21
61.0864480041
 31
0.0
  0
LINE
  5
AAD
330
25
100
AcDbEntity
  8
CENTER
100
AcDbLine
 10
-220.4999999999
 20
131.0864480041
 30
0.0
 11
-137.8000030517
 21
131.0864480041
 31
0.0
  0
LINE
  5
AAE
330
25
100
AcDbEntity
  8
0
 62
   132
100
AcDbLine
 10
-76.8500061035
 20
78.0475075744
 30
0.0
 11
-76.8500061035
 21
79.5864480041
 31
0.0
  0
ARC
  5
AAF
330
25
100
AcDbEntity
  8
0
 62
   132
100
AcDbCircle
 10
-92.3000030518
 20
40.8864510559
 30
0.0
 40
0.5
100
AcDbArc
 50
179.999964027801
 51
270.000000683204
  0
ARC
  5
AB0
330
25
100
AcDbEntity
  8
0
 62
   132
100
AcDbCircle
 10
-63.6999969482
 20
40.8864510559
 30
0.0
 40
0.5
100
AcDbArc
 50
270.000017986105
 51
0.0
  0
LINE
  5
AB1
330
25
100
AcDbEntity
  8
0
 62
   132
100
AcDbLine
 10
-80.1999969482
 20
42.5864480041
 30
0.0
 11
-80.1999969482
 21
40.7124856018
 31
0.0
  0
LINE
  5
AB2
330
25
100
AcDbEntity
  8
0
 62
   132
100
AcDbLine
 10
-75.8000030518
 20
42.5864480041
 30
0.0
 11
-75.8000030518
 21
40.7124856018
 31
0.0
  0
LINE
  5
AB3
330
25
100
AcDbEntity
  8
0
 62
   132
100
AcDbLine
 10
-80.1999969482
 20
41.9864419006
 30
0.0
 11
-75.8000030518
 21
41.9864419006
 31
0.0
  0
LINE
  5
AB4
330
25
100
AcDbEntity
  8
0
 62
   132
100
AcDbLine
 10
-64.6999969482
 20
42.1935952209
 30
0.0
 11
-72.9000091553
 21
42.1935952209
 31
0.0
  0
LINE
  5
AB5
330
25
100
AcDbEntity
  8
0
 62
   132
100
AcDbLine
 10
-64.6999969482
 20
42.7328713439
 30
0.0
 11
-72.700012207
 21
42.7328713439
 31
0.0
  0
ARC
  5
AB6
330
25
100
AcDbEntity
  8
0
 62
   132
100
AcDbCircle
 10
-91.8000030518
 20
78.5864480041
 30
0.0
 40
1.0
100
AcDbArc
 50
89.999982013901
 51
179.999964027799
  0
LINE
  5
AB7
330
25
100
AcDbEntity
  8
0
 62
   132
100
AcDbLine
 10
-63.6999969482
 20
40.3864510559
 30
0.0
 11
-92.3000030518
 21
40.3864510559
 31
0.0
  0
LINE
  5
AB8
330
25
100
AcDbEntity
  8
0
 62
   132
100
AcDbLine
 10
-64.6999969482
 20
41.4776070617
 30
0.0
 11
-72.9000091553
 21
41.4776070617
 31
0.0
  0
LINE
  5
AB9
330
25
100
AcDbEntity
  8
0
 62
   132
100
AcDbLine
 10
-75.8000030518
 20
40.7124856018
 30
0.0
 11
-80.1999969482
 21
40.7124856018
 31
0.0
  0
LINE
  5
ABA
330
25
100
AcDbEntity
  8
0
 62
   132
100
AcDbLine
 10
-73.8500061035
 20
44.0864480041
 30
0.0
 11
-76.8500061035
 21
44.0864480041
 31
0.0
  0
LINE
  5
ABB
330
25
100
AcDbEntity
  8
0
 62
   132
100
AcDbLine
 10
-82.1500091553
 20
44.0864480041
 30
0.0
 11
-79.1499938965
 21
44.0864480041
 31
0.0
  0
LINE
  5
ABC
330
25
100
AcDbEntity
  8
0
 62
   132
100
AcDbLine
 10
-91.3000030518
 20
41.4776070617
 30
0.0
 11
-83.1000061035
 21
41.4776070617
 31
0.0
  0
LINE
  5
ABD
330
25
100
AcDbEntity
  8
0
 62
   132
100
AcDbLine
 10
-83.1000061035
 20
42.5864480041
 30
0.0
 11
-83.1000061035
 21
40.8100350402
 31
0.0
  0
LINE
  5
ABE
330
25
100
AcDbEntity
  8
0
 62
   132
100
AcDbLine
 10
-64.6999969482
 20
40.8100350402
 30
0.0
 11
-72.9000091553
 21
40.8100350402
 31
0.0
  0
LINE
  5
ABF
330
25
100
AcDbEntity
  8
0
 62
   132
100
AcDbLine
 10
-64.6999969482
 20
43.0864480041
 30
0.0
 11
-64.6999969482
 21
40.3864510559
 31
0.0
  0
LINE
  5
AC0
330
25
100
AcDbEntity
  8
0
 62
   132
100
AcDbLine
 10
-63.1999969482
 20
78.5864480041
 30
0.0
 11
-63.1999969482
 21
78.0864327453
 31
0.0
  0
LINE
  5
AC1
330
25
100
AcDbEntity
  8
0
 62
   132
100
AcDbLine
 10
-82.1500091553
 20
77.5721200012
 30
0.0
 11
-82.1500091553
 21
79.5864480041
 31
0.0
  0
LINE
  5
AC2
330
25
100
AcDbEntity
  8
0
 62
   132
100
AcDbLine
 10
-64.1999969482
 20
79.5864480041
 30
0.0
 11
-91.8000030518
 21
79.5864480041
 31
0.0
  0
LINE
  5
AC3
330
25
100
AcDbEntity
  8
0
 62
   132
100
AcDbLine
 10
-82.1500091553
 20
78.0864480041
 30
0.0
 11
-79.1499938965
 21
78.0864480041
 31
0.0
  0
LINE
  5
AC4
330
25
100
AcDbEntity
  8
0
 62
   132
100
AcDbLine
 10
-91.3000030518
 20
42.1935952209
 30
0.0
 11
-83.1000061035
 21
42.1935952209
 31
0.0
  0
LINE
  5
AC5
330
25
100
AcDbEntity
  8
0
 62
   132
100
AcDbLine
 10
-91.3000030518
 20
42.7328713439
 30
0.0
 11
-83.3000030518
 21
42.7328713439
 31
0.0
  0
LINE
  5
AC6
330
25
100
AcDbEntity
  8
0
 62
   132
100
AcDbLine
 10
-73.8500061035
 20
78.0864480041
 30
0.0
 11
-76.8500061035
 21
78.0864480041
 31
0.0
  0
LINE
  5
AC7
330
25
100
AcDbEntity
  8
0
 62
   132
100
AcDbLine
 10
-73.8500061035
 20
77.5721200012
 30
0.0
 11
-73.8500061035
 21
79.5864480041
 31
0.0
  0
LINE
  5
AC8
330
25
100
AcDbEntity
  8
0
 62
   132
100
AcDbLine
 10
-63.1999969482
 20
44.0864480041
 30
0.0
 11
-63.1999969482
 21
40.8864510559
 31
0.0
  0
LINE
  5
AC9
330
25
100
AcDbEntity
  8
0
 62
   132
100
AcDbLine
 10
-91.3000030518
 20
43.0864480041
 30
0.0
 11
-91.3000030518
 21
40.3864510559
 31
0.0
  0
LINE
  5
ACA
330
25
100
AcDbEntity
  8
0
 62
   132
100
AcDbLine
 10
-79.1499938965
 20
78.0475075744
 30
0.0
 11
-79.1499938965
 21
79.5864480041
 31
0.0
  0
LINE
  5
ACB
330
25
100
AcDbEntity
  8
0
 62
   132
100
AcDbLine
 10
-92.8000030518
 20
78.5864480041
 30
0.0
 11
-92.8000030518
 21
78.0864480041
 31
0.0
  0
LINE
  5
ACC
330
25
100
AcDbEntity
  8
0
 62
   132
100
AcDbLine
 10
-92.8000030518
 20
44.0864632629
 30
0.0
 11
-92.8000030518
 21
40.8864510559
 31
0.0
  0
ARC
  5
ACD
330
25
100
AcDbEntity
  8
0
 62
   132
100
AcDbCircle
 10
-64.1999969482
 20
78.5864480041
 30
0.0
 40
1.0
100
AcDbArc
 50
0.0
 51
89.999982013898
  0
LINE
  5
ACE
330
25
100
AcDbEntity
  8
0
 62
   132
100
AcDbLine
 10
-73.8500061035
 20
44.6007607482
 30
0.0
 11
-73.8500061035
 21
42.5864480041
 31
0.0
  0
LINE
  5
ACF
330
25
100
AcDbEntity
  8
0
 62
   132
100
AcDbLine
 10
-72.9000091553
 20
42.5864480041
 30
0.0
 11
-72.9000091553
 21
40.8100350402
 31
0.0
  0
LINE
  5
AD0
330
25
100
AcDbEntity
  8
0
 62
   132
100
AcDbLine
 10
-91.3000030518
 20
40.8100350402
 30
0.0
 11
-83.1000061035
 21
40.8100350402
 31
0.0
  0
LINE
  5
AD1
330
25
100
AcDbEntity
  8
0
 62
   132
100
AcDbLine
 10
-76.8500061035
 20
44.1253884338
 30
0.0
 11
-76.8500061035
 21
42.5864480041
 31
0.0
  0
LINE
  5
AD2
330
25
100
AcDbEntity
  8
0
 62
   132
100
AcDbLine
 10
-73.8500061035
 20
42.5864480041
 30
0.0
 11
-82.1500091553
 21
42.5864480041
 31
0.0
  0
LINE
  5
AD3
330
25
100
AcDbEntity
  8
0
 62
   132
100
AcDbLine
 10
-82.1500091553
 20
44.6007607482
 30
0.0
 11
-82.1500091553
 21
42.5864480041
 31
0.0
  0
LINE
  5
AD4
330
25
100
AcDbEntity
  8
0
 62
   132
100
AcDbLine
 10
-79.1499938965
 20
44.1253884338
 30
0.0
 11
-79.1499938965
 21
42.5864480041
 31
0.0
  0
LINE
  5
AD5
330
25
100
AcDbEntity
  8
0
 62
   132
100
AcDbLine
 10
-175.0000610351
 20
135.2364571594
 30
0.0
 11
-186.5000610351
 21
135.2364571594
 31
0.0
  0
ARC
  5
AD6
330
25
100
AcDbEntity
  8
0
 62
   132
100
AcDbCircle
 10
-188.9000701904
 20
116.7864296936
 30
0.0
 40
0.5
100
AcDbArc
 50
270.000017986099
 51
0.0
  0
LINE
  5
AD7
330
25
100
AcDbEntity
  8
0
 62
   132
100
AcDbLine
 10
-186.5000610351
 20
136.4864266418
 30
0.0
 11
-186.5000610351
 21
135.2364571594
 31
0.0
  0
LINE
  5
AD8
330
25
100
AcDbEntity
  8
0
 62
   132
100
AcDbLine
 10
-211.0000610351
 20
145.8864663146
 30
0.0
 11
-211.0000610351
 21
116.2864296936
 31
0.0
  0
LINE
  5
AD9
330
25
100
AcDbEntity
  8
0
 62
   132
100
AcDbLine
 10
-175.0000610351
 20
132.2364419006
 30
0.0
 11
-186.5000610351
 21
132.2364419006
 31
0.0
  0
LINE
  5
ADA
330
25
100
AcDbEntity
  8
0
 62
   132
100
AcDbLine
 10
-175.0000610351
 20
135.2364571594
 30
0.0
 11
-175.0000610351
 21
132.2364419006
 31
0.0
  0
LINE
  5
ADB
330
25
100
AcDbEntity
  8
0
 62
   132
100
AcDbLine
 10
-186.5000610351
 20
136.1864693664
 30
0.0
 11
-195.7811584472
 21
136.1864693664
 31
0.0
  0
LINE
  5
ADC
330
25
100
AcDbEntity
  8
0
 62
   132
100
AcDbLine
 10
-187.0000610351
 20
145.8864510559
 30
0.0
 11
-216.3000640868
 21
145.8864510559
 31
0.0
  0
ARC
  5
ADD
330
25
100
AcDbEntity
  8
0
 62
   132
100
AcDbCircle
 10
-209.9244689941
 20
140.2864602111
 30
0.0
 40
8.0
100
AcDbArc
 50
165.683942169
 51
176.4166828647
  0
LINE
  5
ADE
330
25
100
AcDbEntity
  8
0
 62
   132
100
AcDbLine
 10
-217.9088287353
 20
121.3864510559
 30
0.0
 11
-217.5000610351
 21
121.3864510559
 31
0.0
  0
LINE
  5
ADF
330
25
100
AcDbEntity
  8
0
 62
   132
100
AcDbLine
 10
-175.0000610351
 20
126.9364541076
 30
0.0
 11
-186.5000610351
 21
126.9364541076
 31
0.0
  0
LINE
  5
AE0
330
25
100
AcDbEntity
  8
0
 62
   132
100
AcDbLine
 10
-175.0000610351
 20
126.9364541076
 30
0.0
 11
-175.0000610351
 21
129.9364541076
 31
0.0
  0
LINE
  5
AE1
330
25
100
AcDbEntity
  8
0
 62
   132
100
AcDbLine
 10
-186.5000610351
 20
125.9864419006
 30
0.0
 11
-195.7811584472
 21
125.9864419006
 31
0.0
  0
LINE
  5
AE2
330
25
100
AcDbEntity
  8
0
 62
   132
100
AcDbLine
 10
-187.0000610351
 20
116.2864296936
 30
0.0
 11
-216.8000640868
 21
116.2864296936
 31
0.0
  0
LINE
  5
AE3
330
25
100
AcDbEntity
  8
0
 62
   132
100
AcDbLine
 10
-217.9088287353
 20
139.7864602111
 30
0.0
 11
-217.5000610351
 21
139.7864602111
 31
0.0
  0
LINE
  5
AE4
330
25
100
AcDbEntity
  8
0
 62
   132
100
AcDbLine
 10
-216.8000640868
 20
116.2864296936
 30
0.0
 11
-216.8000640868
 21
117.7864449523
 31
0.0
  0
ARC
  5
AE5
330
25
100
AcDbEntity
  8
0
 62
   132
100
AcDbCircle
 10
-209.9244689941
 20
121.8864510559
 30
0.0
 40
8.0
100
AcDbArc
 50
183.5833171353
 51
194.316057831
  0
LINE
  5
AE6
330
25
100
AcDbEntity
  8
0
 62
   132
100
AcDbLine
 10
-212.0000610351
 20
117.7864296936
 30
0.0
 11
-216.8000640868
 21
117.7864296936
 31
0.0
  0
LINE
  5
AE7
330
25
100
AcDbEntity
  8
0
 62
   132
100
AcDbLine
 10
-175.0000610351
 20
129.9364541076
 30
0.0
 11
-186.5000610351
 21
129.9364541076
 31
0.0
  0
LINE
  5
AE8
330
25
100
AcDbEntity
  8
0
 62
   132
100
AcDbLine
 10
-186.5000610351
 20
126.9364541076
 30
0.0
 11
-186.5000610351
 21
125.6864541076
 31
0.0
  0
LINE
  5
AE9
330
25
100
AcDbEntity
  8
0
 62
   132
100
AcDbLine
 10
-186.5000610351
 20
132.2364419006
 30
0.0
 11
-186.5000610351
 21
129.9364541076
 31
0.0
  0
LINE
  5
AEA
330
25
100
AcDbEntity
  8
0
 62
   132
100
AcDbLine
 10
-188.4000701904
 20
116.7864296936
 30
0.0
 11
-188.4000701904
 21
125.9864419006
 31
0.0
  0
LINE
  5
AEB
330
25
100
AcDbEntity
  8
0
 62
   132
100
AcDbLine
 10
-195.7811584472
 20
116.2864296936
 30
0.0
 11
-195.7811584472
 21
125.9864419006
 31
0.0
  0
LINE
  5
AEC
330
25
100
AcDbEntity
  8
0
 62
   132
100
AcDbLine
 10
-195.7811584472
 20
145.8864510559
 30
0.0
 11
-195.7811584472
 21
136.1864693664
 31
0.0
  0
LINE
  5
AED
330
25
100
AcDbEntity
  8
0
 62
   132
100
AcDbLine
 10
-188.4000701904
 20
145.3864510559
 30
0.0
 11
-188.4000701904
 21
136.1864693664
 31
0.0
  0
LINE
  5
AEE
330
25
100
AcDbEntity
  8
0
 62
   132
100
AcDbLine
 10
-212.0000610351
 20
145.8864510559
 30
0.0
 11
-212.0000610351
 21
116.2864296936
 31
0.0
  0
LINE
  5
AEF
330
25
100
AcDbEntity
  8
0
 62
   132
100
AcDbLine
 10
-216.3000640868
 20
117.7864296936
 30
0.0
 11
-216.3000640868
 21
116.2864296936
 31
0.0
  0
LINE
  5
AF0
330
25
100
AcDbEntity
  8
0
 62
   132
100
AcDbLine
 10
-212.0000610351
 20
144.3864510559
 30
0.0
 11
-216.287612915
 21
144.3864510559
 31
0.0
  0
LINE
  5
AF1
330
25
100
AcDbEntity
  8
0
 62
   132
100
AcDbLine
 10
-216.3000640868
 20
144.3864510559
 30
0.0
 11
-216.3000640868
 21
145.8864510559
 31
0.0
  0
ARC
  5
AF3
330
25
100
AcDbEntity
  8
0
 62
   132
100
AcDbCircle
 10
-216.4164123534
 20
123.5431588195
 30
0.0
 40
1.2999992371
100
AcDbArc
 50
146.468707580803
 51
165.683942169001
  0
ARC
  5
AF4
330
25
100
AcDbEntity
  8
0
 62
   132
100
AcDbCircle
 10
-216.4163970947
 20
120.2297432922
 30
0.0
 40
1.2999992371
100
AcDbArc
 50
194.316057831001
 51
213.531019211701
  0
ARC
  5
AF5
330
25
100
AcDbEntity
  8
0
 62
   132
100
AcDbCircle
 10
-187.0000610351
 20
145.3864510559
 30
0.0
 40
0.5
100
AcDbArc
 50
0.0
 51
89.999982013901
  0
ARC
  5
AF6
330
25
100
AcDbEntity
  8
0
 62
   132
100
AcDbCircle
 10
-187.0000610351
 20
116.7864296936
 30
0.0
 40
0.5
100
AcDbArc
 50
270.000017986099
 51
0.0
  0
ARC
  5
AF7
330
25
100
AcDbEntity
  8
0
 62
   132
100
AcDbCircle
 10
-188.9000701904
 20
145.3864510559
 30
0.0
 40
0.5
100
AcDbArc
 50
0.0
 51
89.999982013901
  0
ARC
  5
AF8
330
25
100
AcDbEntity
  8
0
 62
   132
100
AcDbCircle
 10
-209.9244689941
 20
121.8864510559
 30
0.0
 40
8.0
100
AcDbArc
 50
165.683942169
 51
176.4166828647
  0
ARC
  5
AF9
330
25
100
AcDbEntity
  8
0
 62
   132
100
AcDbCircle
 10
-216.4163970947
 20
141.943152716
 30
0.0
 40
1.2999992371
100
AcDbArc
 50
146.468980788299
 51
165.683942168999
  0
ARC
  5
AFA
330
25
100
AcDbEntity
  8
0
 62
   132
100
AcDbCircle
 10
-216.4164123534
 20
138.6297524475
 30
0.0
 40
1.2999992371
100
AcDbArc
 50
194.316057830999
 51
213.531292419198
  0
LINE
  5
AFB
330
25
100
AcDbEntity
  8
0
 62
   132
100
AcDbLine
 10
-217.5000610351
 20
145.3864663146
 30
0.0
 11
-217.5000610351
 21
135.2864602111
 31
0.0
  0
LINE
  5
AFC
330
25
100
AcDbEntity
  8
0
 62
   132
100
AcDbLine
 10
-216.3000640868
 20
145.8864663146
 30
0.0
 11
-217.0000610351
 21
145.8864663146
 31
0.0
  0
LINE
  5
AFD
330
25
100
AcDbEntity
  8
0
 62
   132
100
AcDbLine
 10
-212.0000610351
 20
135.2864602111
 30
0.0
 11
-217.5000610351
 21
135.2864602111
 31
0.0
  0
LINE
  5
B00
330
25
100
AcDbEntity
  8
0
 62
   132
100
AcDbLine
 10
-211.0000610351
 20
145.8864663146
 30
0.0
 11
-211.5000610351
 21
145.8864663146
 31
0.0
  0
ARC
  5
B01
330
25
100
AcDbEntity
  8
0
 62
   132
100
AcDbCircle
 10
-209.9244689941
 20
140.2864602111
 30
0.0
 40
8.0
100
AcDbArc
 50
183.5833171353
 51
194.316057831
  0
LINE
  5
B02
330
25
100
AcDbEntity
  8
0
 62
   132
100
AcDbLine
 10
-215.9523620605
 20
135.2864602111
 30
0.0
 11
-215.9523620605
 21
126.8864510559
 31
0.0
  0
LINE
  5
B03
330
25
100
AcDbEntity
  8
0
 62
   132
100
AcDbLine
 10
-211.0000610351
 20
116.2864449523
 30
0.0
 11
-211.5000610351
 21
116.2864449523
 31
0.0
  0
LINE
  5
B04
330
25
100
AcDbEntity
  8
0
 62
   132
100
AcDbLine
 10
-212.0000610351
 20
126.8864510559
 30
0.0
 11
-217.5000610351
 21
126.8864510559
 31
0.0
  0
LINE
  5
B05
330
25
100
AcDbEntity
  8
0
 62
   132
100
AcDbLine
 10
-217.5000610351
 20
116.7864449523
 30
0.0
 11
-217.5000610351
 21
126.8864510559
 31
0.0
  0
LINE
  5
B06
330
25
100
AcDbEntity
  8
0
 62
   132
100
AcDbLine
 10
-216.3000640868
 20
116.2864449523
 30
0.0
 11
-217.0000610351
 21
116.2864449523
 31
0.0
  0
LINE
  5
B07
330
25
100
AcDbEntity
  8
0
 62
   132
100
AcDbLine
 10
-212.0000610351
 20
144.3864663146
 30
0.0
 11
-216.8000640868
 21
144.3864663146
 31
0.0
  0
LINE
  5
B08
330
25
100
AcDbEntity
  8
0
 62
   132
100
AcDbLine
 10
-212.0000610351
 20
117.7864449523
 30
0.0
 11
-216.8000640868
 21
117.7864449523
 31
0.0
  0
LINE
  5
B09
330
25
100
AcDbEntity
  8
0
 62
   132
100
AcDbLine
 10
-217.9088287353
 20
140.7864602111
 30
0.0
 11
-217.5000610351
 21
140.7864602111
 31
0.0
  0
LINE
  5
B0A
330
25
100
AcDbEntity
  8
0
 62
   132
100
AcDbLine
 10
-212.4404144286
 20
144.3864663146
 30
0.0
 11
-212.4404144286
 21
136.1864693664
 31
0.0
  0
LINE
  5
B0C
330
25
100
AcDbEntity
  8
0
 62
   132
100
AcDbLine
 10
-212.4404144286
 20
125.9864419006
 30
0.0
 11
-212.4404144286
 21
117.7864449523
 31
0.0
  0
LINE
  5
B0D
330
25
100
AcDbEntity
  8
0
 62
   132
100
AcDbLine
 10
-212.0000610351
 20
136.1864693664
 30
0.0
 11
-217.5000610351
 21
136.1864693664
 31
0.0
  0
LINE
  5
B0E
330
25
100
AcDbEntity
  8
0
 62
   132
100
AcDbLine
 10
-212.0000610351
 20
125.9864419006
 30
0.0
 11
-217.5000610351
 21
125.9864419006
 31
0.0
  0
LINE
  5
B0F
330
25
100
AcDbEntity
  8
0
 62
   132
100
AcDbLine
 10
-216.287612915
 20
144.3864663146
 30
0.0
 11
-216.287612915
 21
136.1864541076
 31
0.0
  0
LINE
  5
B10
330
25
100
AcDbEntity
  8
0
 62
   132
100
AcDbLine
 10
-216.287612915
 20
125.9864419006
 30
0.0
 11
-216.287612915
 21
117.7864449523
 31
0.0
  0
LINE
  5
B11
330
25
100
AcDbEntity
  8
0
 62
   132
100
AcDbLine
 10
-216.8000640868
 20
144.3864663146
 30
0.0
 11
-216.8000640868
 21
145.8864663146
 31
0.0
  0
LINE
  5
B12
330
25
100
AcDbEntity
  8
0
 62
   132
100
AcDbLine
 10
-215.9329071044
 20
135.2864602111
 30
0.0
 11
-215.9329071044
 21
134.3864663146
 31
0.0
  0
LINE
  5
B13
330
25
100
AcDbEntity
  8
0
 62
   132
100
AcDbLine
 10
-215.9329071044
 20
127.7864449523
 30
0.0
 11
-212.0000610351
 21
127.7864449523
 31
0.0
  0
LINE
  5
B14
330
25
100
AcDbEntity
  8
0
 62
   132
100
AcDbLine
 10
-215.9329071044
 20
134.3864663146
 30
0.0
 11
-212.0000610351
 21
134.3864663146
 31
0.0
  0
LINE
  5
B15
330
25
100
AcDbEntity
  8
0
 62
   132
100
AcDbLine
 10
-215.9329071044
 20
127.7864449523
 30
0.0
 11
-215.9329071044
 21
126.8864510559
 31
0.0
  0
ARC
  5
B16
330
25
100
AcDbEntity
  8
0
 62
   132
100
AcDbCircle
 10
-211.5000610351
 20
145.3864663146
 30
0.0
 40
0.5
100
AcDbArc
 50
89.999982013901
 51
179.999964027802
  0
ARC
  5
B17
330
25
100
AcDbEntity
  8
0
 62
   132
100
AcDbCircle
 10
-211.5000610351
 20
116.7864449523
 30
0.0
 40
0.5
100
AcDbArc
 50
179.999964027796
 51
270.000000683204
  0
ARC
  5
B18
330
25
100
AcDbEntity
  8
0
 62
   132
100
AcDbCircle
 10
-217.0000610351
 20
116.7864449523
 30
0.0
 40
0.5
100
AcDbArc
 50
179.999964027796
 51
270.000000683204
  0
ARC
  5
B19
330
25
100
AcDbEntity
  8
0
 62
   132
100
AcDbCircle
 10
-217.0000610351
 20
145.3864663146
 30
0.0
 40
0.5
100
AcDbArc
 50
89.999982013901
 51
179.999964027802
  0
LINE
  5
B1A
330
25
100
AcDbEntity
  8
0
 62
   132
100
AcDbLine
 10
-217.9088287353
 20
122.3864510559
 30
0.0
 11
-217.5000610351
 21
122.3864510559
 31
0.0
  0
LINE
  5
B1B
330
25
100
AcDbEntity
  8
0
 62
   132
100
AcDbLine
 10
-209.0690429317
 20
48.0159107006
 30
0.0
 11
-207.7208381347
 21
48.6734740724
 31
0.0
  0
LINE
  5
B1C
330
25
100
AcDbEntity
  8
0
 62
   132
100
AcDbLine
 10
-207.7208381347
 20
48.6734740724
 30
0.0
 11
-207.2824603238
 21
47.7746663029
 31
0.0
  0
LINE
  5
B1D
330
25
100
AcDbEntity
  8
0
 62
   132
100
AcDbLine
 10
-209.75026508
 20
48.9075253868
 30
0.0
 11
-207.5738959488
 21
49.9690114662
 31
0.0
  0
LINE
  5
B1E
330
25
100
AcDbEntity
  8
0
 62
   132
100
AcDbLine
 10
-208.3474721387
 20
46.0313734392
 30
0.0
 11
-206.1711030076
 21
47.0928595187
 31
0.0
  0
LINE
  5
B1F
330
25
100
AcDbEntity
  8
0
 62
   132
100
AcDbLine
 10
-208.6742273595
 20
51.7687978664
 30
0.0
 11
-210.3819442926
 21
50.9358887214
 31
0.0
  0
LINE
  5
B20
330
25
100
AcDbEntity
  8
0
 62
   132
100
AcDbLine
 10
-209.5085205283
 20
48.8029044155
 30
0.0
 11
-209.8610702475
 21
48.9554568453
 31
0.0
  0
LINE
  5
B21
330
25
100
AcDbEntity
  8
0
 62
   132
100
AcDbLine
 10
-205.4302770441
 20
45.1177136308
 30
0.0
 11
-207.1379939773
 21
44.2848044858
 31
0.0
  0
LINE
  5
B22
330
25
100
AcDbEntity
  8
0
 62
   132
100
AcDbLine
 10
-204.2990732324
 20
46.448256508
 30
0.0
 11
-205.3867023603
 21
45.9177843733
 31
0.0
  0
LINE
  5
B23
330
25
100
AcDbEntity
  8
0
 62
   132
100
AcDbLine
 10
-207.7952855561
 20
44.7430399345
 30
0.0
 11
-208.8829146841
 21
44.2125677998
 31
0.0
  0
LINE
  5
B24
330
25
100
AcDbEntity
  8
0
 62
   132
100
AcDbLine
 10
-216.7999920808
 20
47.442273989
 30
0.0
 11
-213.3586356292
 21
40.3864471669
 31
0.0
  0
LINE
  5
B26
330
25
100
AcDbEntity
  8
0
 62
   132
100
AcDbLine
 10
-208.8892731491
 20
48.1035902762
 30
0.0
 11
-208.4508953382
 21
47.2047825067
 31
0.0
  0
LINE
  5
B27
330
25
100
AcDbEntity
  8
0
 62
   132
100
AcDbLine
 10
-205.4055187732
 20
45.5231791175
 30
0.0
 11
-208.3394734942
 21
51.5386781529
 31
0.0
  0
LINE
  5
B28
330
25
100
AcDbEntity
  8
0
 62
   132
100
AcDbLine
 10
-208.3779120315
 20
45.9145318109
 30
0.0
 11
-208.2810698794
 21
46.2862801988
 31
0.0
  0
LINE
  5
B29
330
25
100
AcDbEntity
  8
0
 62
   132
100
AcDbLine
 10
-209.7551280936
 20
48.7382700391
 30
0.0
 11
-209.5689536353
 21
48.8290733835
 31
0.0
  0
LINE
  5
B2A
330
25
100
AcDbEntity
  8
0
 62
   132
100
AcDbLine
 10
-208.4838411377
 20
46.1317453364
 30
0.0
 11
-208.2976666795
 21
46.2225486808
 31
0.0
  0
LINE
  5
B2B
330
25
100
AcDbEntity
  8
0
 62
   132
100
AcDbLine
 10
-208.2810625179
 20
46.2862805625
 30
0.0
 11
-209.508509686
 21
48.8029203739
 31
0.0
  0
LINE
  5
B2C
330
25
100
AcDbEntity
  8
0
 62
   132
100
AcDbLine
 10
-217.4587017455
 20
43.9240009622
 30
0.0
 11
-216.7986635759
 21
44.2459230658
 31
0.0
  0
LINE
  5
B2D
330
25
100
AcDbEntity
  8
0
 62
   132
100
AcDbLine
 10
-217.0203239346
 20
43.0251931927
 30
0.0
 11
-216.360285765
 21
43.3471152963
 31
0.0
  0
LINE
  5
B2E
330
25
100
AcDbEntity
  8
0
 62
   132
100
AcDbLine
 10
-217.4999864674
 20
45.68384818
 30
0.0
 11
-215.0532326594
 21
40.6672591146
 31
0.0
  0
LINE
  5
B2F
330
25
100
AcDbEntity
  8
0
 62
   132
100
AcDbLine
 10
-208.7435302734
 20
40.3864510559
 30
0.0
 11
-214.6038513183
 21
40.3864510559
 31
0.0
  0
LINE
  5
B30
330
25
100
AcDbEntity
  8
0
 62
   132
100
AcDbLine
 10
-207.6177357366
 20
50.0588963575
 30
0.0
 11
-209.8647208741
 21
48.9629685528
 31
0.0
  0
LINE
  5
B31
330
25
100
AcDbEntity
  8
0
 62
   132
100
AcDbLine
 10
-206.1272632198
 20
47.0029746274
 30
0.0
 11
-208.3742483572
 21
45.9070468227
 31
0.0
  0
LINE
  5
B33
330
25
100
AcDbEntity
  8
0
 62
   132
100
AcDbLine
 10
-208.7435302734
 20
40.8864510559
 30
0.0
 11
-213.0462036132
 21
40.8864510559
 31
0.0
  0
LINE
  5
B34
330
25
100
AcDbEntity
  8
0
 62
   132
100
AcDbLine
 10
-216.2999877929
 20
53.3864510559
 30
0.0
 11
-216.9999999999
 21
53.3864510559
 31
0.0
  0
LINE
  5
B35
330
25
100
AcDbEntity
  8
0
 62
   132
100
AcDbLine
 10
-205.5617897185
 20
45.3873545902
 30
0.0
 11
-207.2695066517
 21
44.5544454452
 31
0.0
  0
LINE
  5
B36
330
25
100
AcDbEntity
  8
0
 62
   132
100
AcDbLine
 10
-206.9293066527
 20
51.8410345524
 30
0.0
 11
-208.0169357806
 21
51.3105624177
 31
0.0
  0
LINE
  5
B37
330
25
100
AcDbEntity
  8
0
 62
   132
100
AcDbLine
 10
-211.5131481044
 20
49.6053458442
 30
0.0
 11
-208.8829146841
 21
44.2125677998
 31
0.0
  0
LINE
  5
B38
330
25
100
AcDbEntity
  8
0
 62
   132
100
AcDbLine
 10
-206.9293066527
 20
51.8410345524
 30
0.0
 11
-204.2990732324
 21
46.448256508
 31
0.0
  0
LINE
  5
B39
330
25
100
AcDbEntity
  8
0
 62
   132
100
AcDbLine
 10
-188.3999921979
 20
75.9864287649
 30
0.0
 11
-195.7810860275
 21
79.5864285255
 31
0.0
  0
LINE
  5
B3A
330
25
100
AcDbEntity
  8
0
 62
   132
100
AcDbLine
 10
-208.2999877929
 20
69.0864480041
 30
0.0
 11
-206.2999877929
 21
69.0864480041
 31
0.0
  0
LINE
  5
B3B
330
25
100
AcDbEntity
  8
0
 62
   132
100
AcDbLine
 10
-208.2999877929
 20
64.0864480041
 30
0.0
 11
-206.2999877929
 21
64.0864480041
 31
0.0
  0
LINE
  5
B3C
330
25
100
AcDbEntity
  8
0
 62
   132
100
AcDbLine
 10
-217.4999999999
 20
54.0864480041
 30
0.0
 11
-217.4999999999
 21
45.6838295959
 31
0.0
  0
LINE
  5
B3E
330
25
100
AcDbEntity
  8
0
 62
   132
100
AcDbLine
 10
-207.2999877929
 20
69.0864480041
 30
0.0
 11
-207.2999877929
 21
64.0864480041
 31
0.0
  0
LINE
  5
B40
330
25
100
AcDbEntity
  8
0
 62
   132
100
AcDbLine
 10
-206.2999877929
 20
69.0864480041
 30
0.0
 11
-206.2999877929
 21
64.0864480041
 31
0.0
  0
LINE
  5
B41
330
25
100
AcDbEntity
  8
0
 62
   132
100
AcDbLine
 10
-217.4999869104
 20
54.0864696518
 30
0.0
 11
-211.9999810717
 21
59.5864754906
 31
0.0
  0
LINE
  5
B42
330
25
100
AcDbEntity
  8
0
 62
   132
100
AcDbLine
 10
-186.4999847411
 20
42.5864480041
 30
0.0
 11
-204.2328643798
 21
42.5864480041
 31
0.0
  0
LINE
  5
B45
330
25
100
AcDbEntity
  8
0
 62
   132
100
AcDbLine
 10
-210.9999847411
 20
59.5864480041
 30
0.0
 11
-211.9999847411
 21
59.5864480041
 31
0.0
  0
LINE
  5
B46
330
25
100
AcDbEntity
  8
0
 62
   132
100
AcDbLine
 10
-211.4999884011
 20
79.5864851175
 30
0.0
 11
-211.7191736822
 21
79.47958132
 31
0.0
  0
LINE
  5
B47
330
25
100
AcDbEntity
  8
0
 62
   132
100
AcDbLine
 10
-210.9999847411
 20
79.5864480041
 30
0.0
 11
-210.9999847411
 21
59.5864480041
 31
0.0
  0
LINE
  5
B48
330
25
100
AcDbEntity
  8
0
 62
   132
100
AcDbLine
 10
-187.4999847411
 20
53.2864449523
 30
0.0
 11
-195.5999908447
 21
53.2864449523
 31
0.0
  0
LINE
  5
B49
330
25
100
AcDbEntity
  8
0
 62
   132
100
AcDbLine
 10
-198.8999938964
 20
46.9676278137
 30
0.0
 11
-198.8999938964
 21
45.4999001525
 31
0.0
  0
LINE
  5
B4A
330
25
100
AcDbEntity
  8
0
 62
   132
100
AcDbLine
 10
-196.8807927529
 20
47.9524565459
 30
0.0
 11
-198.8999661831
 21
46.9676399275
 31
0.0
  0
LINE
  5
B4B
330
25
100
AcDbEntity
  8
0
 62
   132
100
AcDbLine
 10
-196.5999908447
 20
52.2864449523
 30
0.0
 11
-196.5999908447
 21
48.401847174
 31
0.0
  0
LINE
  5
B4C
330
25
100
AcDbEntity
  8
0
 62
   132
100
AcDbLine
 10
-186.4999847411
 20
79.5864480041
 30
0.0
 11
-210.9999847411
 21
79.5864480041
 31
0.0
  0
LINE
  5
B4D
330
25
100
AcDbEntity
  8
0
 62
   132
100
AcDbLine
 10
-216.7999877929
 20
53.3864510559
 30
0.0
 11
-216.7999877929
 21
47.4422524475
 31
0.0
  0
LINE
  5
B4E
330
25
100
AcDbEntity
  8
0
 62
   132
100
AcDbLine
 10
-206.0999908447
 20
63.8864510559
 30
0.0
 11
-208.2999877929
 21
63.8864510559
 31
0.0
  0
LINE
  5
B4F
330
25
100
AcDbEntity
  8
0
 62
   132
100
AcDbLine
 10
-206.0999908447
 20
69.2864449523
 30
0.0
 11
-208.2999877929
 21
69.2864449523
 31
0.0
  0
LINE
  5
B50
330
25
100
AcDbEntity
  8
0
 62
   132
100
AcDbLine
 10
-208.2999877929
 20
69.2864449523
 30
0.0
 11
-208.2999877929
 21
63.8864510559
 31
0.0
  0
LINE
  5
B51
330
25
100
AcDbEntity
  8
0
 62
   132
100
AcDbLine
 10
-206.0999908447
 20
69.2864449523
 30
0.0
 11
-206.0999908447
 21
63.8864510559
 31
0.0
  0
LINE
  5
B52
330
25
100
AcDbEntity
  8
0
 62
   132
100
AcDbLine
 10
-186.7808050964
 20
74.223392519
 30
0.0
 11
-188.3999948747
 21
75.0131240884
 31
0.0
  0
LINE
  5
B53
330
25
100
AcDbEntity
  8
0
 62
   132
100
AcDbLine
 10
-210.9999847411
 20
79.5864327453
 30
0.0
 11
-211.4999847411
 21
79.5864327453
 31
0.0
  0
LINE
  5
B55
330
25
100
AcDbEntity
  8
0
 62
   132
100
AcDbLine
 10
-208.6306651208
 20
47.1171029311
 30
0.0
 11
-208.5429922342
 21
46.937346863
 31
0.0
  0
LINE
  5
B56
330
25
100
AcDbEntity
  8
0
 62
   132
100
AcDbLine
 10
-209.2016512384
 20
48.1737672783
 30
0.0
 11
-209.1567225073
 21
48.1956804832
 31
0.0
  0
LINE
  5
B57
330
25
100
AcDbEntity
  8
0
 62
   132
100
AcDbLine
 10
-208.5879209654
 20
46.9154336581
 30
0.0
 11
-208.5429922342
 21
46.937346863
 31
0.0
  0
LINE
  5
B58
330
25
100
AcDbEntity
  8
0
 62
   132
100
AcDbLine
 10
-188.3999938964
 20
75.9864419006
 30
0.0
 11
-188.3999938964
 21
75.0131295227
 31
0.0
  0
LINE
  5
B59
330
25
100
AcDbEntity
  8
0
 62
   132
100
AcDbLine
 10
-208.6306651208
 20
47.1171029311
 30
0.0
 11
-207.2824603238
 21
47.7746663029
 31
0.0
  0
LINE
  5
B5A
330
25
100
AcDbEntity
  8
0
 62
   132
100
AcDbLine
 10
-199.1807891251
 20
45.0505035689
 30
0.0
 11
-208.7435184573
 21
40.386449148
 31
0.0
  0
LINE
  5
B5B
330
25
100
AcDbEntity
  8
0
 62
   132
100
AcDbLine
 10
-211.9999847411
 20
79.0301278137
 30
0.0
 11
-211.9999847411
 21
57.6864541076
 31
0.0
  0
LINE
  5
B5C
330
25
100
AcDbEntity
  8
0
 62
   132
100
AcDbLine
 10
-211.9999702821
 20
57.6864821052
 30
0.0
 11
-216.2999791627
 21
53.3864732246
 31
0.0
  0
LINE
  5
B5E
330
25
100
AcDbEntity
  8
0
 62
   132
100
AcDbLine
 10
-186.9999847411
 20
79.0864480041
 30
0.0
 11
-193.6153564452
 21
79.0864480041
 31
0.0
  0
LINE
  5
B5F
330
25
100
AcDbEntity
  8
0
 62
   132
100
AcDbLine
 10
-188.899996043
 20
75.673995957
 30
0.0
 11
-195.8965350432
 21
79.0864358077
 31
0.0
  0
LINE
  5
B60
330
25
100
AcDbEntity
  8
0
 62
   132
100
AcDbLine
 10
-188.8999938964
 20
75.6740029357
 30
0.0
 11
-188.8999938964
 21
74.7007058166
 31
0.0
  0
LINE
  5
B61
330
25
100
AcDbEntity
  8
0
 62
   132
100
AcDbLine
 10
-186.9999906574
 20
73.7739954915
 30
0.0
 11
-188.8999987198
 21
74.7006912805
 31
0.0
  0
LINE
  5
B62
330
25
100
AcDbEntity
  8
0
 62
   132
100
AcDbLine
 10
-187.4999847411
 20
53.7864449523
 30
0.0
 11
-195.5999908447
 21
53.7864449523
 31
0.0
  0
LINE
  5
B63
330
25
100
AcDbEntity
  8
0
 62
   132
100
AcDbLine
 10
-186.9999847411
 20
73.7740090393
 30
0.0
 11
-186.9999847411
 21
54.2864449523
 31
0.0
  0
LINE
  5
B64
330
25
100
AcDbEntity
  8
0
 62
   132
100
AcDbLine
 10
-197.0999783138
 20
48.4018535734
 30
0.0
 11
-199.3999837427
 21
47.2800660464
 31
0.0
  0
LINE
  5
B65
330
25
100
AcDbEntity
  8
0
 62
   132
100
AcDbLine
 10
-197.0999908447
 20
52.2864449523
 30
0.0
 11
-197.0999908447
 21
48.401847174
 31
0.0
  0
LINE
  5
B66
330
25
100
AcDbEntity
  8
0
 62
   132
100
AcDbLine
 10
-199.3999938964
 20
47.2800667785
 30
0.0
 11
-199.3999938964
 21
45.4999001525
 31
0.0
  0
LINE
  5
B67
330
25
100
AcDbEntity
  8
0
 62
   132
100
AcDbLine
 10
-199.399974686
 20
45.4999005964
 30
0.0
 11
-208.9627040182
 21
40.8358461755
 31
0.0
  0
LINE
  5
B68
330
25
100
AcDbEntity
  8
0
 62
   132
100
AcDbLine
 10
-195.8965301513
 20
79.0864480041
 30
0.0
 11
-210.4999847411
 21
79.0864480041
 31
0.0
  0
LINE
  5
B69
330
25
100
AcDbEntity
  8
0
 62
   132
100
AcDbLine
 10
-210.4255189764
 20
50.135817979
 30
0.0
 11
-211.5131481044
 21
49.6053458442
 31
0.0
  0
LINE
  5
B6A
330
25
100
AcDbEntity
  8
0
 62
   132
100
AcDbLine
 10
-208.0078567757
 20
51.314990544
 30
0.0
 11
-205.3776233554
 21
45.9222124996
 31
0.0
  0
LINE
  5
B6B
330
25
100
AcDbEntity
  8
0
 62
   132
100
AcDbLine
 10
-210.4345979813
 20
50.1313898527
 30
0.0
 11
-207.804364561
 21
44.7386118083
 31
0.0
  0
LINE
  5
B6C
330
25
100
AcDbEntity
  8
0
 62
   132
100
AcDbLine
 10
-208.6196459042
 20
48.2350962615
 30
0.0
 11
-208.1812680933
 21
47.336288492
 31
0.0
  0
LINE
  5
B6D
330
25
100
AcDbEntity
  8
0
 62
   132
100
AcDbLine
 10
-209.1567225073
 20
48.1956804832
 30
0.0
 11
-209.0690429317
 21
48.0159107006
 31
0.0
  0
LINE
  5
B6E
330
25
100
AcDbEntity
  8
0
 62
   132
100
AcDbLine
 10
-208.5427213741
 20
51.4991706215
 30
0.0
 11
-210.2504383073
 21
50.6662614765
 31
0.0
  0
LINE
  5
B6F
330
25
100
AcDbEntity
  8
0
 62
   132
100
AcDbLine
 10
-186.4999847411
 20
79.5864480041
 30
0.0
 11
-186.4999847411
 21
77.9763863586
 31
0.0
  0
LINE
  5
B70
330
25
100
AcDbEntity
  8
0
 62
   132
100
AcDbLine
 10
-186.4999847411
 20
45.2864449523
 30
0.0
 11
-198.8999938964
 21
45.2864449523
 31
0.0
  0
LINE
  5
B71
330
25
100
AcDbEntity
  8
0
 62
   132
100
AcDbLine
 10
-186.4999847411
 20
45.7864449523
 30
0.0
 11
-198.4083251952
 21
45.7864449523
 31
0.0
  0
ARC
  5
B72
330
25
100
AcDbEntity
  8
0
 62
   132
100
AcDbCircle
 10
-210.063217163
 20
46.9747078918
 30
0.0
 40
8.0
100
AcDbArc
 50
191.6839761325
 51
202.4167168282
  0
ARC
  5
B73
330
25
100
AcDbEntity
  8
0
 62
   132
100
AcDbCircle
 10
-215.1718902587
 20
42.6397927307
 30
0.0
 40
1.2999992371
100
AcDbArc
 50
220.316074491601
 51
260.329344385599
  0
ARC
  5
B74
330
25
100
AcDbEntity
  8
0
 62
   132
100
AcDbCircle
 10
-216.6243896484
 20
45.6178658508
 30
0.0
 40
1.2999992371
100
AcDbArc
 50
132.3407618109
 51
191.6839041881
  0
ARC
  5
B75
330
25
100
AcDbEntity
  8
0
 62
   132
100
AcDbCircle
 10
-210.063217163
 20
46.9747078918
 30
0.0
 40
8.0
100
AcDbArc
 50
209.5833337959
 51
220.3160744916
  0
ARC
  5
B76
330
25
100
AcDbEntity
  8
0
 62
   132
100
AcDbCircle
 10
-211.4999847411
 20
79.0301278137
 30
0.0
 40
0.5
100
AcDbArc
 50
115.999998674496
 51
179.999964027802
  0
ARC
  5
B77
330
25
100
AcDbEntity
  8
0
 62
   132
100
AcDbCircle
 10
-216.9999999999
 20
52.8864510559
 30
0.0
 40
0.5
100
AcDbArc
 50
89.999982013901
 51
179.999964027801
  0
ARC
  5
B78
330
25
100
AcDbEntity
  8
0
 62
   132
100
AcDbCircle
 10
-214.6038513183
 20
40.8864510559
 30
0.0
 40
0.5
100
AcDbArc
 50
205.999997991299
 51
270.000017986099
  0
ARC
  5
B79
330
25
100
AcDbEntity
  8
0
 62
   132
100
AcDbCircle
 10
-199.3999938964
 20
45.4999001525
 30
0.0
 40
0.5
100
AcDbArc
 50
296.000034646698
 51
0.0
  0
ARC
  5
B7A
330
25
100
AcDbEntity
  8
0
 62
   132
100
AcDbCircle
 10
-197.0999908447
 20
48.401847174
 30
0.0
 40
0.5
100
AcDbArc
 50
296.000034646705
 51
0.0
  0
ARC
  5
B7B
330
25
100
AcDbEntity
  8
0
 62
   132
100
AcDbCircle
 10
-195.5999908447
 20
52.2864449523
 30
0.0
 40
1.5
100
AcDbArc
 50
89.999982013899
 51
179.9999640278
  0
ARC
  5
B7C
330
25
100
AcDbEntity
  8
0
 62
   132
100
AcDbCircle
 10
-187.4999847411
 20
54.2864449523
 30
0.0
 40
0.5
100
AcDbArc
 50
270.000017986099
 51
0.0
  0
ARC
  5
B7D
330
25
100
AcDbEntity
  8
0
 62
   132
100
AcDbCircle
 10
-186.9999847411
 20
73.7740090393
 30
0.0
 40
0.5
100
AcDbArc
 50
0.0
 51
63.999965353295
  0
ARC
  5
B7E
330
25
100
AcDbEntity
  8
0
 62
   132
100
AcDbCircle
 10
-187.4999847411
 20
54.2864449523
 30
0.0
 40
1.0
100
AcDbArc
 50
270.000017986102
 51
0.0
  0
ARC
  5
B7F
330
25
100
AcDbEntity
  8
0
 62
   132
100
AcDbCircle
 10
-195.5999908447
 20
52.2864449523
 30
0.0
 40
1.0
100
AcDbArc
 50
89.999982013898
 51
179.999964027801
  0
ARC
  5
B80
330
25
100
AcDbEntity
  8
0
 62
   132
100
AcDbCircle
 10
-207.4448547363
 20
44.9139626525
 30
0.0
 40
0.6999999881
100
AcDbArc
 50
205.999997991301
 51
296.000034646701
  0
ARC
  5
B81
330
25
100
AcDbEntity
  8
0
 62
   132
100
AcDbCircle
 10
-205.7371368408
 20
45.7468636535
 30
0.0
 40
0.6999999881
100
AcDbArc
 50
296.000034646701
 51
25.9999995852
  0
ARC
  5
B82
330
25
100
AcDbEntity
  8
0
 62
   132
100
AcDbCircle
 10
-205.7371368408
 20
45.7468636535
 30
0.0
 40
0.3999999762
100
AcDbArc
 50
296.0000346467
 51
25.999999585202
  0
ARC
  5
B83
330
25
100
AcDbEntity
  8
0
 62
   132
100
AcDbCircle
 10
-210.0750885009
 20
50.306723883
 30
0.0
 40
0.3999999762
100
AcDbArc
 50
115.999998674502
 51
205.999980688395
  0
ARC
  5
B84
330
25
100
AcDbEntity
  8
0
 62
   132
100
AcDbCircle
 10
-208.3673706054
 20
51.1396401428
 30
0.0
 40
0.3999999762
100
AcDbArc
 50
25.999999585196
 51
115.999998674493
  0
ARC
  5
B85
330
25
100
AcDbEntity
  8
0
 62
   132
100
AcDbCircle
 10
-210.0750885009
 20
50.306723883
 30
0.0
 40
0.6999999881
100
AcDbArc
 50
115.999998674498
 51
205.999980688399
  0
ARC
  5
B86
330
25
100
AcDbEntity
  8
0
 62
   132
100
AcDbCircle
 10
-208.3673706054
 20
51.1396401428
 30
0.0
 40
0.6999999881
100
AcDbArc
 50
25.999999585199
 51
115.999998674498
  0
ARC
  5
B87
330
25
100
AcDbEntity
  8
0
 62
   132
100
AcDbCircle
 10
-207.4448547363
 20
44.9139626525
 30
0.0
 40
0.3999999762
100
AcDbArc
 50
205.999997991294
 51
296.0000346467
  0
LINE
  5
B8A
330
25
100
AcDbEntity
  8
0
100
AcDbLine
 10
-152.4999999999
 20
46.5864480041
 30
0.0
 11
-157.1999969482
 21
46.5864480041
 31
0.0
  0
LINE
  5
B8B
330
25
100
AcDbEntity
  8
0
100
AcDbLine
 10
-165.2999877929
 20
73.1864388488
 30
0.0
 11
-160.4999847411
 21
73.1864388488
 31
0.0
  0
LINE
  5
B8C
330
25
100
AcDbEntity
  8
0
100
AcDbLine
 10
-163.0066680908
 20
65.7864449523
 30
0.0
 11
-160.4999847411
 21
65.7864449523
 31
0.0
  0
LINE
  5
B8D
330
25
100
AcDbEntity
  8
0
100
AcDbLine
 10
-164.2333374023
 20
68.0864327453
 30
0.0
 11
-160.4999847411
 21
68.0864327453
 31
0.0
  0
LINE
  5
B8E
330
25
100
AcDbEntity
  8
0
100
AcDbLine
 10
-165.2999877929
 20
70.0864327453
 30
0.0
 11
-160.4999847411
 21
70.0864327453
 31
0.0
  0
LINE
  5
B8F
330
25
100
AcDbEntity
  8
0
100
AcDbLine
 10
-165.2999877929
 20
71.7864449523
 30
0.0
 11
-160.4999847411
 21
71.7864449523
 31
0.0
  0
LINE
  5
B90
330
25
100
AcDbEntity
  8
0
100
AcDbLine
 10
-165.2999877929
 20
74.2864449523
 30
0.0
 11
-160.4999847411
 21
74.2864449523
 31
0.0
  0
LINE
  5
B91
330
25
100
AcDbEntity
  8
0
100
AcDbLine
 10
-161.6199951171
 20
63.1864388488
 30
0.0
 11
-160.4999847411
 21
63.1864388488
 31
0.0
  0
LINE
  5
B92
330
25
100
AcDbEntity
  8
0
100
AcDbLine
 10
-186.4999847411
 20
79.5864480041
 30
0.0
 11
-186.4999847411
 21
42.5864480041
 31
0.0
  0
LINE
  5
B93
330
25
100
AcDbEntity
  8
0
100
AcDbLine
 10
-172.4999847411
 20
79.0864480041
 30
0.0
 11
-172.4999847411
 21
43.0864480041
 31
0.0
  0
LINE
  5
B94
330
25
100
AcDbEntity
  8
0
100
AcDbLine
 10
-172.9999847411
 20
42.5864480041
 30
0.0
 11
-186.4999847411
 21
42.5864480041
 31
0.0
  0
LINE
  5
B95
330
25
100
AcDbEntity
  8
0
100
AcDbLine
 10
-172.9999847411
 20
43.0864480041
 30
0.0
 11
-186.4999847411
 21
43.0864480041
 31
0.0
  0
LINE
  5
B96
330
25
100
AcDbEntity
  8
0
100
AcDbLine
 10
-170.9999999999
 20
73.0864480041
 30
0.0
 11
-170.9999999999
 21
49.0864480041
 31
0.0
  0
LINE
  5
B97
330
25
100
AcDbEntity
  8
0
100
AcDbLine
 10
-170.9999999999
 20
50.0864480041
 30
0.0
 11
-171.9999847411
 21
50.0864480041
 31
0.0
  0
LINE
  5
B98
330
25
100
AcDbEntity
  8
0
100
AcDbLine
 10
-160.4999847411
 20
75.5864480041
 30
0.0
 11
-160.4999847411
 21
46.5864480041
 31
0.0
  0
LINE
  5
B99
330
25
100
AcDbEntity
  8
0
100
AcDbLine
 10
-167.7999877929
 20
75.0864480041
 30
0.0
 11
-167.7999877929
 21
47.0864480041
 31
0.0
  0
LINE
  5
B9A
330
25
100
AcDbEntity
  8
0
100
AcDbLine
 10
-165.2999877929
 20
75.5864480041
 30
0.0
 11
-165.2999877929
 21
46.5864480041
 31
0.0
  0
LINE
  5
B9B
330
25
100
AcDbEntity
  8
0
100
AcDbLine
 10
-160.4999847411
 20
46.5864480041
 30
0.0
 11
-165.2999877929
 21
46.5864480041
 31
0.0
  0
LINE
  5
B9C
330
25
100
AcDbEntity
  8
0
100
AcDbLine
 10
-160.4999847411
 20
47.0864480041
 30
0.0
 11
-167.7999877929
 21
47.0864480041
 31
0.0
  0
LINE
  5
B9D
330
25
100
AcDbEntity
  8
0
100
AcDbLine
 10
-160.4999847411
 20
48.9864419006
 30
0.0
 11
-165.2999877929
 21
48.9864419006
 31
0.0
  0
LINE
  5
B9E
330
25
100
AcDbEntity
  8
0
100
AcDbLine
 10
-162.7933349609
 20
56.3864357971
 30
0.0
 11
-165.2999877929
 21
56.3864357971
 31
0.0
  0
LINE
  5
B9F
330
25
100
AcDbEntity
  8
0
100
AcDbLine
 10
-161.5666656493
 20
54.0864480041
 30
0.0
 11
-165.2999877929
 21
54.0864480041
 31
0.0
  0
LINE
  5
BA0
330
25
100
AcDbEntity
  8
0
100
AcDbLine
 10
-160.4999847411
 20
52.0864480041
 30
0.0
 11
-165.2999877929
 21
52.0864480041
 31
0.0
  0
LINE
  5
BA1
330
25
100
AcDbEntity
  8
0
100
AcDbLine
 10
-160.4999847411
 20
50.3864357971
 30
0.0
 11
-165.2999877929
 21
50.3864357971
 31
0.0
  0
LINE
  5
BA2
330
25
100
AcDbEntity
  8
0
100
AcDbLine
 10
-160.4999847411
 20
47.8864357971
 30
0.0
 11
-165.2999877929
 21
47.8864357971
 31
0.0
  0
LINE
  5
BA3
330
25
100
AcDbEntity
  8
0
100
AcDbLine
 10
-167.7999877929
 20
49.0864480041
 30
0.0
 11
-170.9999999999
 21
49.0864480041
 31
0.0
  0
LINE
  5
BA4
330
25
100
AcDbEntity
  8
0
100
AcDbLine
 10
-92.8000030518
 20
44.0864480041
 30
0.0
 11
-92.8000030518
 21
78.0864480041
 31
0.0
  0
LINE
  5
BA5
330
25
100
AcDbEntity
  8
0
100
AcDbLine
 10
-91.8000030518
 20
43.0864480041
 30
0.0
 11
-83.3000030518
 21
43.0864480041
 31
0.0
  0
LINE
  5
BA6
330
25
100
AcDbEntity
  8
0
100
AcDbLine
 10
-91.8000030518
 20
79.0864480041
 30
0.0
 11
-83.3000030518
 21
79.0864480041
 31
0.0
  0
LINE
  5
BA7
330
25
100
AcDbEntity
  8
0
100
AcDbLine
 10
-83.3000030518
 20
42.5864480041
 30
0.0
 11
-83.3000030518
 21
43.0864480041
 31
0.0
  0
LINE
  5
BA8
330
25
100
AcDbEntity
  8
0
100
AcDbLine
 10
-83.3000030518
 20
79.5864480041
 30
0.0
 11
-83.3000030518
 21
79.0864480041
 31
0.0
  0
LINE
  5
BA9
330
25
100
AcDbEntity
  8
0
100
AcDbLine
 10
-83.3000030518
 20
79.5864480041
 30
0.0
 11
-72.700012207
 21
79.5864480041
 31
0.0
  0
LINE
  5
BAA
330
25
100
AcDbEntity
  8
0
100
AcDbLine
 10
-79.1000061035
 20
42.5864480041
 30
0.0
 11
-79.1000061035
 21
44.5864480041
 31
0.0
  0
LINE
  5
BAB
330
25
100
AcDbEntity
  8
0
100
AcDbLine
 10
-79.1000061035
 20
77.5864480041
 30
0.0
 11
-79.1000061035
 21
79.5864480041
 31
0.0
  0
LINE
  5
BAC
330
25
100
AcDbEntity
  8
0
100
AcDbLine
 10
-82.200012207
 20
42.5864480041
 30
0.0
 11
-82.200012207
 21
44.5864480041
 31
0.0
  0
LINE
  5
BAD
330
25
100
AcDbEntity
  8
0
100
AcDbLine
 10
-82.200012207
 20
77.5864480041
 30
0.0
 11
-82.200012207
 21
79.5864480041
 31
0.0
  0
LINE
  5
BAE
330
25
100
AcDbEntity
  8
0
100
AcDbLine
 10
-72.700012207
 20
42.5864480041
 30
0.0
 11
-83.3000030518
 21
42.5864480041
 31
0.0
  0
LINE
  5
BAF
330
25
100
AcDbEntity
  8
0
100
AcDbLine
 10
-82.200012207
 20
44.5864480041
 30
0.0
 11
-73.8000030518
 21
44.5864480041
 31
0.0
  0
LINE
  5
BB0
330
25
100
AcDbEntity
  8
0
100
AcDbLine
 10
-82.200012207
 20
77.5864480041
 30
0.0
 11
-73.8000030518
 21
77.5864480041
 31
0.0
  0
LINE
  5
BB1
330
25
100
AcDbEntity
  8
0
100
AcDbLine
 10
-63.200012207
 20
78.0864480041
 30
0.0
 11
-63.200012207
 21
44.0864480041
 31
0.0
  0
LINE
  5
BB2
330
25
100
AcDbEntity
  8
0
100
AcDbLine
 10
-72.700012207
 20
43.0864480041
 30
0.0
 11
-64.200012207
 21
43.0864480041
 31
0.0
  0
LINE
  5
BB3
330
25
100
AcDbEntity
  8
0
100
AcDbLine
 10
-72.700012207
 20
79.0864480041
 30
0.0
 11
-64.200012207
 21
79.0864480041
 31
0.0
  0
LINE
  5
BB4
330
25
100
AcDbEntity
  8
0
100
AcDbLine
 10
-72.700012207
 20
43.0864480041
 30
0.0
 11
-72.700012207
 21
42.5864480041
 31
0.0
  0
LINE
  5
BB5
330
25
100
AcDbEntity
  8
0
100
AcDbLine
 10
-72.700012207
 20
79.0864480041
 30
0.0
 11
-72.700012207
 21
79.5864480041
 31
0.0
  0
LINE
  5
BB6
330
25
100
AcDbEntity
  8
0
100
AcDbLine
 10
-76.9000091553
 20
44.5864480041
 30
0.0
 11
-76.9000091553
 21
42.5864480041
 31
0.0
  0
LINE
  5
BB7
330
25
100
AcDbEntity
  8
0
100
AcDbLine
 10
-76.9000091553
 20
79.5864480041
 30
0.0
 11
-76.9000091553
 21
77.5864480041
 31
0.0
  0
LINE
  5
BB8
330
25
100
AcDbEntity
  8
0
100
AcDbLine
 10
-73.8000030518
 20
44.5864480041
 30
0.0
 11
-73.8000030518
 21
42.5864480041
 31
0.0
  0
LINE
  5
BB9
330
25
100
AcDbEntity
  8
0
100
AcDbLine
 10
-73.8000030518
 20
79.5864480041
 30
0.0
 11
-73.8000030518
 21
77.5864480041
 31
0.0
  0
LINE
  5
BBB
330
25
100
AcDbEntity
  8
0
100
AcDbLine
 10
-186.4999847411
 20
145.8864357971
 30
0.0
 11
-186.4999847411
 21
135.2864449523
 31
0.0
  0
LINE
  5
BBD
330
25
100
AcDbEntity
  8
0
100
AcDbLine
 10
-170.9999999999
 20
143.0864480041
 30
0.0
 11
-170.9999999999
 21
134.3364480041
 31
0.0
  0
LINE
  5
BBE
330
25
100
AcDbEntity
  8
0
100
AcDbLine
 10
-186.4999847411
 20
145.8864357971
 30
0.0
 11
-172.9999847411
 21
145.8864357971
 31
0.0
  0
LINE
  5
BBF
330
25
100
AcDbEntity
  8
0
100
AcDbLine
 10
-170.9999999999
 20
143.0864480041
 30
0.0
 11
-167.7999877929
 21
143.0864480041
 31
0.0
  0
LINE
  5
BC0
330
25
100
AcDbEntity
  8
0
100
AcDbLine
 10
-171.9999847411
 20
142.0864480041
 30
0.0
 11
-170.9999999999
 21
142.0864480041
 31
0.0
  0
LINE
  5
BC1
330
25
100
AcDbEntity
  8
0
100
AcDbLine
 10
-160.4999847411
 20
142.0864480041
 30
0.0
 11
-157.9999847411
 21
142.0864480041
 31
0.0
  0
LINE
  5
BC2
330
25
100
AcDbEntity
  8
0
100
AcDbLine
 10
-158.4999999999
 20
142.0864480041
 30
0.0
 11
-158.4999999999
 21
132.6864388488
 31
0.0
  0
LINE
  5
BC3
330
25
100
AcDbEntity
  8
0
100
AcDbLine
 10
-159.6999969482
 20
132.6864388488
 30
0.0
 11
-159.6999969482
 21
129.4864419006
 31
0.0
  0
LINE
  5
BC4
330
25
100
AcDbEntity
  8
0
100
AcDbLine
 10
-159.6999969482
 20
132.6864388488
 30
0.0
 11
-157.9999847411
 21
132.6864388488
 31
0.0
  0
LINE
  5
BC5
330
25
100
AcDbEntity
  8
0
100
AcDbLine
 10
-172.4999847411
 20
134.3364480041
 30
0.0
 11
-167.7999877929
 21
134.3364480041
 31
0.0
  0
LINE
  5
BC6
330
25
100
AcDbEntity
  8
0
100
AcDbLine
 10
-186.4999847411
 20
136.3864357971
 30
0.0
 11
-172.4999847411
 21
136.3864357971
 31
0.0
  0
LINE
  5
BC7
330
25
100
AcDbEntity
  8
0
100
AcDbLine
 10
-186.4999847411
 20
129.9864419006
 30
0.0
 11
-186.4999847411
 21
132.1864388488
 31
0.0
  0
LINE
  5
BC8
330
25
100
AcDbEntity
  8
0
100
AcDbLine
 10
-186.4999847411
 20
135.2864449523
 30
0.0
 11
-172.4999847411
 21
135.2864449523
 31
0.0
  0
LINE
  5
BC9
330
25
100
AcDbEntity
  8
0
100
AcDbLine
 10
-172.9999847411
 20
135.2864449523
 30
0.0
 11
-172.9999847411
 21
126.8864357971
 31
0.0
  0
LINE
  5
BCA
330
25
100
AcDbEntity
  8
0
100
AcDbLine
 10
-178.4999847411
 20
132.1864388488
 30
0.0
 11
-186.4999847411
 21
132.1864388488
 31
0.0
  0
LINE
  5
BCB
330
25
100
AcDbEntity
  8
0
100
AcDbLine
 10
-178.8999786376
 20
129.9864419006
 30
0.0
 11
-178.8999786376
 21
132.1864388488
 31
0.0
  0
LINE
  5
BCC
330
25
100
AcDbEntity
  8
0
100
AcDbLine
 10
-157.9999847411
 20
74.5864480041
 30
0.0
 11
-157.9999847411
 21
47.5864480041
 31
0.0
  0
LINE
  5
BCD
330
25
100
AcDbEntity
  8
0
100
AcDbLine
 10
-164.1799926757
 20
58.9864419006
 30
0.0
 11
-165.2999877929
 21
58.9864419006
 31
0.0
  0
LINE
  5
BCE
330
25
100
AcDbEntity
  8
0
100
AcDbLine
 10
-167.7999877929
 20
49.8864357971
 30
0.0
 11
-170.9999999999
 21
49.8864357971
 31
0.0
  0
LINE
  5
BCF
330
25
100
AcDbEntity
  8
0
100
AcDbLine
 10
-157.9999847411
 20
50.0864480041
 30
0.0
 11
-160.4999847411
 21
50.0864480041
 31
0.0
  0
LINE
  5
BD0
330
25
100
AcDbEntity
  8
0
100
AcDbLine
 10
-157.1999969482
 20
75.5864480041
 30
0.0
 11
-157.1999969482
 21
46.5864480041
 31
0.0
  0
LINE
  5
BD1
330
25
100
AcDbEntity
  8
0
100
AcDbLine
 10
-144.9999847411
 20
74.7864449523
 30
0.0
 11
-144.9999847411
 21
47.3864357971
 31
0.0
  0
LINE
  5
BD2
330
25
100
AcDbEntity
  8
0
100
AcDbLine
 10
-157.1999969482
 20
75.5864480041
 30
0.0
 11
-152.4999999999
 21
75.5864480041
 31
0.0
  0
LINE
  5
BD3
330
25
100
AcDbEntity
  8
0
100
AcDbLine
 10
-152.4999999999
 20
75.5864480041
 30
0.0
 11
-152.4999999999
 21
46.5864480041
 31
0.0
  0
LINE
  5
BD4
330
25
100
AcDbEntity
  8
0
100
AcDbLine
 10
-157.9999747284
 20
74.5864096694
 30
0.0
 11
-157.1999749951
 21
75.5864092597
 31
0.0
  0
LINE
  5
BD5
330
25
100
AcDbEntity
  8
0
100
AcDbLine
 10
-151.9999999999
 20
75.0864480041
 30
0.0
 11
-151.9999999999
 21
47.0864480041
 31
0.0
  0
LINE
  5
BD6
330
25
100
AcDbEntity
  8
0
100
AcDbLine
 10
-157.1999969482
 20
75.0864480041
 30
0.0
 11
-152.4999999999
 21
75.0864480041
 31
0.0
  0
LINE
  5
BD7
330
25
100
AcDbEntity
  8
0
100
AcDbLine
 10
-145.2999928665
 20
75.0864483056
 30
0.0
 11
-144.9999882322
 21
74.786443646
 31
0.0
  0
LINE
  5
BD8
330
25
100
AcDbEntity
  8
0
100
AcDbLine
 10
-152.4999856869
 20
75.5864275818
 30
0.0
 11
-151.9999851561
 21
75.0864270088
 31
0.0
  0
LINE
  5
BD9
330
25
100
AcDbEntity
  8
0
100
AcDbLine
 10
-151.9999999999
 20
75.0864480041
 30
0.0
 11
-145.2999877929
 21
75.0864480041
 31
0.0
  0
LINE
  5
BDA
330
25
100
AcDbEntity
  8
0
100
AcDbLine
 10
-145.2999877929
 20
75.0864480041
 30
0.0
 11
-145.2999877929
 21
47.0864480041
 31
0.0
  0
LINE
  5
BDB
330
25
100
AcDbEntity
  8
0
100
AcDbLine
 10
-160.4999847411
 20
145.5864480041
 30
0.0
 11
-160.4999847411
 21
116.5864480041
 31
0.0
  0
LINE
  5
BDC
330
25
100
AcDbEntity
  8
0
100
AcDbLine
 10
-166.7999877929
 20
132.0864480041
 30
0.0
 11
-165.2999877929
 21
132.0864480041
 31
0.0
  0
LINE
  5
BDD
330
25
100
AcDbEntity
  8
0
100
AcDbLine
 10
-165.2999877929
 20
145.5864480041
 30
0.0
 11
-160.4999847411
 21
145.5864480041
 31
0.0
  0
LINE
  5
BDE
330
25
100
AcDbEntity
  8
0
100
AcDbLine
 10
-167.7999877929
 20
145.0864480041
 30
0.0
 11
-167.7999877929
 21
117.0864480041
 31
0.0
  0
LINE
  5
BDF
330
25
100
AcDbEntity
  8
0
100
AcDbLine
 10
-165.2999877929
 20
145.5864480041
 30
0.0
 11
-165.2999877929
 21
116.5864480041
 31
0.0
  0
LINE
  5
BE0
330
25
100
AcDbEntity
  8
0
100
AcDbLine
 10
-167.7999877929
 20
145.0864480041
 30
0.0
 11
-160.4999847411
 21
145.0864480041
 31
0.0
  0
LINE
  5
BE1
330
25
100
AcDbEntity
  8
0
100
AcDbLine
 10
-186.4999847411
 20
126.8864357971
 30
0.0
 11
-186.4999847411
 21
116.2864449523
 31
0.0
  0
LINE
  5
BE2
330
25
100
AcDbEntity
  8
0
100
AcDbLine
 10
-167.7999877929
 20
119.0864480041
 30
0.0
 11
-170.9999999999
 21
119.0864480041
 31
0.0
  0
LINE
  5
BE3
330
25
100
AcDbEntity
  8
0
100
AcDbLine
 10
-172.9999847411
 20
116.2864449523
 30
0.0
 11
-186.4999847411
 21
116.2864449523
 31
0.0
  0
LINE
  5
BE4
330
25
100
AcDbEntity
  8
0
100
AcDbLine
 10
-170.9999999999
 20
127.8364480041
 30
0.0
 11
-170.9999999999
 21
119.0864480041
 31
0.0
  0
LINE
  5
BE5
330
25
100
AcDbEntity
  8
0
100
AcDbLine
 10
-172.4999847411
 20
145.3864357971
 30
0.0
 11
-172.4999847411
 21
116.7864449523
 31
0.0
  0
LINE
  5
BE6
330
25
100
AcDbEntity
  8
0
100
AcDbLine
 10
-170.9999999999
 20
142.2864449523
 30
0.0
 11
-167.7999877929
 21
142.2864449523
 31
0.0
  0
LINE
  5
BE7
330
25
100
AcDbEntity
  8
0
100
AcDbLine
 10
-157.9999847411
 20
120.0864480041
 30
0.0
 11
-160.4999847411
 21
120.0864480041
 31
0.0
  0
LINE
  5
BE8
330
25
100
AcDbEntity
  8
0
100
AcDbLine
 10
-167.7999877929
 20
127.8364480041
 30
0.0
 11
-172.4999847411
 21
127.8364480041
 31
0.0
  0
LINE
  5
BE9
330
25
100
AcDbEntity
  8
0
100
AcDbLine
 10
-157.9999847411
 20
129.4864419006
 30
0.0
 11
-159.6999969482
 21
129.4864419006
 31
0.0
  0
LINE
  5
BEA
330
25
100
AcDbEntity
  8
0
100
AcDbLine
 10
-158.4999999999
 20
129.4864419006
 30
0.0
 11
-158.4999999999
 21
120.0864480041
 31
0.0
  0
LINE
  5
BEB
330
25
100
AcDbEntity
  8
0
100
AcDbLine
 10
-170.9999999999
 20
120.0864480041
 30
0.0
 11
-171.9999847411
 21
120.0864480041
 31
0.0
  0
LINE
  5
BEC
330
25
100
AcDbEntity
  8
0
100
AcDbLine
 10
-157.1999969482
 20
73.1864388488
 30
0.0
 11
-152.4999999999
 21
73.1864388488
 31
0.0
  0
LINE
  5
BED
330
25
100
AcDbEntity
  8
0
100
AcDbLine
 10
-157.1999969482
 20
70.0864327453
 30
0.0
 11
-152.4999999999
 21
70.0864327453
 31
0.0
  0
LINE
  5
BEE
330
25
100
AcDbEntity
  8
0
100
AcDbLine
 10
-157.1999969482
 20
71.7864449523
 30
0.0
 11
-152.4999999999
 21
71.7864449523
 31
0.0
  0
LINE
  5
BEF
330
25
100
AcDbEntity
  8
0
100
AcDbLine
 10
-157.1999969482
 20
74.2864449523
 30
0.0
 11
-152.4999999999
 21
74.2864449523
 31
0.0
  0
LINE
  5
BF0
330
25
100
AcDbEntity
  8
0
100
AcDbLine
 10
-172.4999847411
 20
126.8864357971
 30
0.0
 11
-186.4999847411
 21
126.8864357971
 31
0.0
  0
LINE
  5
BF1
330
25
100
AcDbEntity
  8
0
100
AcDbLine
 10
-186.4999847411
 20
129.9864419006
 30
0.0
 11
-178.4999847411
 21
129.9864419006
 31
0.0
  0
LINE
  5
BF2
330
25
100
AcDbEntity
  8
0
100
AcDbLine
 10
-174.6999816894
 20
135.2864449523
 30
0.0
 11
-174.6999816894
 21
126.8864357971
 31
0.0
  0
LINE
  5
BF3
330
25
100
AcDbEntity
  8
0
100
AcDbLine
 10
-160.4999847411
 20
117.0864480041
 30
0.0
 11
-167.7999877929
 21
117.0864480041
 31
0.0
  0
LINE
  5
BF4
330
25
100
AcDbEntity
  8
0
100
AcDbLine
 10
-160.4999847411
 20
116.5864480041
 30
0.0
 11
-165.2999877929
 21
116.5864480041
 31
0.0
  0
LINE
  5
BF5
330
25
100
AcDbEntity
  8
0
100
AcDbLine
 10
-165.2999877929
 20
130.0864480041
 30
0.0
 11
-166.7999877929
 21
130.0864480041
 31
0.0
  0
LINE
  5
BF6
330
25
100
AcDbEntity
  8
0
100
AcDbLine
 10
-167.7999877929
 20
119.8864357971
 30
0.0
 11
-170.9999999999
 21
119.8864357971
 31
0.0
  0
LINE
  5
BF7
330
25
100
AcDbEntity
  8
0
100
AcDbLine
 10
-165.2999877929
 20
144.2864449523
 30
0.0
 11
-160.4999847411
 21
144.2864449523
 31
0.0
  0
LINE
  5
BF8
330
25
100
AcDbEntity
  8
0
100
AcDbLine
 10
-165.2999877929
 20
143.1864388488
 30
0.0
 11
-160.4999847411
 21
143.1864388488
 31
0.0
  0
LINE
  5
BF9
330
25
100
AcDbEntity
  8
0
100
AcDbLine
 10
-165.2999877929
 20
141.7864449523
 30
0.0
 11
-160.4999847411
 21
141.7864449523
 31
0.0
  0
LINE
  5
BFA
330
25
100
AcDbEntity
  8
0
100
AcDbLine
 10
-165.2999877929
 20
140.0864327453
 30
0.0
 11
-160.4999847411
 21
140.0864327453
 31
0.0
  0
LINE
  5
BFB
330
25
100
AcDbEntity
  8
0
100
AcDbLine
 10
-164.2333374023
 20
138.0864327453
 30
0.0
 11
-160.4999847411
 21
138.0864327453
 31
0.0
  0
LINE
  5
BFC
330
25
100
AcDbEntity
  8
0
100
AcDbLine
 10
-163.0066680908
 20
135.7864449523
 30
0.0
 11
-160.4999847411
 21
135.7864449523
 31
0.0
  0
LINE
  5
BFD
330
25
100
AcDbEntity
  8
0
100
AcDbLine
 10
-161.6199951171
 20
133.1864388488
 30
0.0
 11
-160.4999847411
 21
133.1864388488
 31
0.0
  0
LINE
  5
BFE
330
25
100
AcDbEntity
  8
0
100
AcDbLine
 10
-160.4999847411
 20
117.8864357971
 30
0.0
 11
-165.2999877929
 21
117.8864357971
 31
0.0
  0
LINE
  5
BFF
330
25
100
AcDbEntity
  8
0
100
AcDbLine
 10
-160.4999847411
 20
118.9864419006
 30
0.0
 11
-165.2999877929
 21
118.9864419006
 31
0.0
  0
LINE
  5
C00
330
25
100
AcDbEntity
  8
0
100
AcDbLine
 10
-160.4999847411
 20
120.3864357971
 30
0.0
 11
-165.2999877929
 21
120.3864357971
 31
0.0
  0
LINE
  5
C01
330
25
100
AcDbEntity
  8
0
100
AcDbLine
 10
-160.4999847411
 20
122.0864480041
 30
0.0
 11
-165.2999877929
 21
122.0864480041
 31
0.0
  0
LINE
  5
C02
330
25
100
AcDbEntity
  8
0
100
AcDbLine
 10
-161.5666656493
 20
124.0864480041
 30
0.0
 11
-165.2999877929
 21
124.0864480041
 31
0.0
  0
LINE
  5
C03
330
25
100
AcDbEntity
  8
0
100
AcDbLine
 10
-162.7933349609
 20
126.3864357971
 30
0.0
 11
-165.2999877929
 21
126.3864357971
 31
0.0
  0
LINE
  5
C04
330
25
100
AcDbEntity
  8
0
100
AcDbLine
 10
-164.1799926757
 20
128.9864419006
 30
0.0
 11
-165.2999877929
 21
128.9864419006
 31
0.0
  0
LINE
  5
C05
330
25
100
AcDbEntity
  8
0
100
AcDbLine
 10
-180.1999816894
 20
142.5864327453
 30
0.0
 11
-180.1999816894
 21
138.1864388488
 31
0.0
  0
LINE
  5
C06
330
25
100
AcDbEntity
  8
0
100
AcDbLine
 10
-176.9999847411
 20
142.5864327453
 30
0.0
 11
-176.9999847411
 21
138.1864388488
 31
0.0
  0
LINE
  5
C07
330
25
100
AcDbEntity
  8
0
100
AcDbLine
 10
-180.1999816894
 20
142.5864327453
 30
0.0
 11
-176.9999847411
 21
142.5864327453
 31
0.0
  0
LINE
  5
C08
330
25
100
AcDbEntity
  8
0
100
AcDbLine
 10
-180.1999816894
 20
138.1864388488
 30
0.0
 11
-176.9999847411
 21
138.1864388488
 31
0.0
  0
LINE
  5
C09
330
25
100
AcDbEntity
  8
0
100
AcDbLine
 10
-174.4999847411
 20
125.4864419006
 30
0.0
 11
-174.4999847411
 21
118.0864480041
 31
0.0
  0
LINE
  5
C0A
330
25
100
AcDbEntity
  8
0
100
AcDbLine
 10
-177.4999847411
 20
125.4864419006
 30
0.0
 11
-177.4999847411
 21
118.0864480041
 31
0.0
  0
LINE
  5
C0B
330
25
100
AcDbEntity
  8
0
100
AcDbLine
 10
-177.4999847411
 20
125.4864419006
 30
0.0
 11
-174.4999847411
 21
125.4864419006
 31
0.0
  0
LINE
  5
C0C
330
25
100
AcDbEntity
  8
0
100
AcDbLine
 10
-177.4999847411
 20
118.0864480041
 30
0.0
 11
-174.4999847411
 21
118.0864480041
 31
0.0
  0
LINE
  5
C0D
330
25
100
AcDbEntity
  8
0
100
AcDbLine
 10
-180.1999816894
 20
125.7864449523
 30
0.0
 11
-180.1999816894
 21
117.7864449523
 31
0.0
  0
LINE
  5
C0E
330
25
100
AcDbEntity
  8
0
100
AcDbLine
 10
-186.4999847411
 20
125.7864449523
 30
0.0
 11
-179.3999786376
 21
125.7864449523
 31
0.0
  0
LINE
  5
C0F
330
25
100
AcDbEntity
  8
0
100
AcDbLine
 10
-186.4999847411
 20
117.7864449523
 30
0.0
 11
-179.3999786376
 21
117.7864449523
 31
0.0
  0
LINE
  5
C10
330
25
100
AcDbEntity
  8
0
100
AcDbLine
 10
-179.3999786376
 20
125.7864449523
 30
0.0
 11
-179.3999786376
 21
117.7864449523
 31
0.0
  0
LINE
  5
C11
330
25
100
AcDbEntity
  8
0
100
AcDbLine
 10
-157.9999847411
 20
144.5864480041
 30
0.0
 11
-157.9999847411
 21
117.5864480041
 31
0.0
  0
LINE
  5
C12
330
25
100
AcDbEntity
  8
0
100
AcDbLine
 10
-157.1999969482
 20
145.5864480041
 30
0.0
 11
-157.1999969482
 21
116.5864480041
 31
0.0
  0
LINE
  5
C13
330
25
100
AcDbEntity
  8
0
100
AcDbLine
 10
-157.9999694038
 20
144.5864034071
 30
0.0
 11
-157.1999696705
 21
145.5864030737
 31
0.0
  0
LINE
  5
C14
330
25
100
AcDbEntity
  8
0
100
AcDbLine
 10
-152.4999999999
 20
145.5864480041
 30
0.0
 11
-152.4999999999
 21
116.5864480041
 31
0.0
  0
LINE
  5
C15
330
25
100
AcDbEntity
  8
0
100
AcDbLine
 10
-157.1999969482
 20
145.5864480041
 30
0.0
 11
-152.4999999999
 21
145.5864480041
 31
0.0
  0
LINE
  5
C16
330
25
100
AcDbEntity
  8
0
100
AcDbLine
 10
-144.9999847411
 20
144.7864449523
 30
0.0
 11
-144.9999847411
 21
117.3864357971
 31
0.0
  0
LINE
  5
C17
330
25
100
AcDbEntity
  8
0
100
AcDbLine
 10
-145.2999877929
 20
145.0864480041
 30
0.0
 11
-145.2999877929
 21
117.0864480041
 31
0.0
  0
LINE
  5
C18
330
25
100
AcDbEntity
  8
0
100
AcDbLine
 10
-151.9999999999
 20
145.0864480041
 30
0.0
 11
-151.9999999999
 21
117.0864480041
 31
0.0
  0
LINE
  5
C19
330
25
100
AcDbEntity
  8
0
100
AcDbLine
 10
-151.9999999999
 20
145.0864480041
 30
0.0
 11
-145.2999877929
 21
145.0864480041
 31
0.0
  0
LINE
  5
C1A
330
25
100
AcDbEntity
  8
0
100
AcDbLine
 10
-152.4999922112
 20
145.5864190423
 30
0.0
 11
-151.9999916804
 21
145.0864185115
 31
0.0
  0
LINE
  5
C1B
330
25
100
AcDbEntity
  8
0
100
AcDbLine
 10
-145.3000104628
 20
145.0864293011
 30
0.0
 11
-145.0000058285
 21
144.7864246668
 31
0.0
  0
LINE
  5
C1C
330
25
100
AcDbEntity
  8
0
100
AcDbLine
 10
-157.1999969482
 20
145.0864480041
 30
0.0
 11
-152.4999999999
 21
145.0864480041
 31
0.0
  0
LINE
  5
C1D
330
25
100
AcDbEntity
  8
0
100
AcDbLine
 10
-157.1999969482
 20
144.2864449523
 30
0.0
 11
-152.4999999999
 21
144.2864449523
 31
0.0
  0
LINE
  5
C1E
330
25
100
AcDbEntity
  8
0
100
AcDbLine
 10
-157.1999969482
 20
143.1864388488
 30
0.0
 11
-152.4999999999
 21
143.1864388488
 31
0.0
  0
LINE
  5
C1F
330
25
100
AcDbEntity
  8
0
100
AcDbLine
 10
-157.1999969482
 20
141.7864449523
 30
0.0
 11
-152.4999999999
 21
141.7864449523
 31
0.0
  0
LINE
  5
C20
330
25
100
AcDbEntity
  8
0
100
AcDbLine
 10
-157.1999969482
 20
140.0864327453
 30
0.0
 11
-152.4999999999
 21
140.0864327453
 31
0.0
  0
LINE
  5
C21
330
25
100
AcDbEntity
  8
0
100
AcDbLine
 10
-156.1555480956
 20
138.0864327453
 30
0.0
 11
-152.4999999999
 21
138.0864327453
 31
0.0
  0
LINE
  5
C22
330
25
100
AcDbEntity
  8
0
100
AcDbLine
 10
-154.9544372558
 20
135.7864449523
 30
0.0
 11
-152.4999999999
 21
135.7864449523
 31
0.0
  0
LINE
  5
C23
330
25
100
AcDbEntity
  8
0
100
AcDbLine
 10
-153.5966644286
 20
133.1864388488
 30
0.0
 11
-152.4999999999
 21
133.1864388488
 31
0.0
  0
LINE
  5
C24
330
25
100
AcDbEntity
  8
0
100
AcDbLine
 10
-145.2999877929
 20
117.0864480041
 30
0.0
 11
-151.9999999999
 21
117.0864480041
 31
0.0
  0
LINE
  5
C25
330
25
100
AcDbEntity
  8
0
100
AcDbLine
 10
-151.9999862856
 20
117.0864589193
 30
0.0
 11
-152.4999868164
 21
116.5864583886
 31
0.0
  0
LINE
  5
C26
330
25
100
AcDbEntity
  8
0
100
AcDbLine
 10
-145.0000058285
 20
117.3864473693
 30
0.0
 11
-145.3000104628
 21
117.086442735
 31
0.0
  0
LINE
  5
C27
330
25
100
AcDbEntity
  8
0
100
AcDbLine
 10
-152.4999999999
 20
117.0864480041
 30
0.0
 11
-157.1999969482
 21
117.0864480041
 31
0.0
  0
LINE
  5
C28
330
25
100
AcDbEntity
  8
0
100
AcDbLine
 10
-152.4999999999
 20
117.8864357971
 30
0.0
 11
-157.1999969482
 21
117.8864357971
 31
0.0
  0
LINE
  5
C29
330
25
100
AcDbEntity
  8
0
100
AcDbLine
 10
-152.4999999999
 20
118.9864419006
 30
0.0
 11
-157.1999969482
 21
118.9864419006
 31
0.0
  0
LINE
  5
C2A
330
25
100
AcDbEntity
  8
0
100
AcDbLine
 10
-152.4999999999
 20
120.3864357971
 30
0.0
 11
-157.1999969482
 21
120.3864357971
 31
0.0
  0
LINE
  5
C2B
330
25
100
AcDbEntity
  8
0
100
AcDbLine
 10
-152.4999999999
 20
122.0864480041
 30
0.0
 11
-157.1999969482
 21
122.0864480041
 31
0.0
  0
LINE
  5
C2C
330
25
100
AcDbEntity
  8
0
100
AcDbLine
 10
-153.5444335937
 20
124.0864480041
 30
0.0
 11
-157.1999969482
 21
124.0864480041
 31
0.0
  0
LINE
  5
C2D
330
25
100
AcDbEntity
  8
0
100
AcDbLine
 10
-154.7835693359
 20
126.3864357971
 30
0.0
 11
-157.1999969482
 21
126.3864357971
 31
0.0
  0
LINE
  5
C2E
330
25
100
AcDbEntity
  8
0
100
AcDbLine
 10
-156.1033325195
 20
128.9864419006
 30
0.0
 11
-157.1999969482
 21
128.9864419006
 31
0.0
  0
LINE
  5
C2F
330
25
100
AcDbEntity
  8
0
100
AcDbLine
 10
-186.4999847411
 20
79.5864480041
 30
0.0
 11
-172.9999847411
 21
79.5864480041
 31
0.0
  0
LINE
  5
C30
330
25
100
AcDbEntity
  8
0
100
AcDbLine
 10
-186.4999847411
 20
79.0864480041
 30
0.0
 11
-172.9999847411
 21
79.0864480041
 31
0.0
  0
LINE
  5
C31
330
25
100
AcDbEntity
  8
0
100
AcDbLine
 10
-170.9999999999
 20
73.0864480041
 30
0.0
 11
-167.7999877929
 21
73.0864480041
 31
0.0
  0
LINE
  5
C32
330
25
100
AcDbEntity
  8
0
100
AcDbLine
 10
-171.9999847411
 20
72.0864480041
 30
0.0
 11
-170.9999999999
 21
72.0864480041
 31
0.0
  0
LINE
  5
C33
330
25
100
AcDbEntity
  8
0
100
AcDbLine
 10
-170.9999999999
 20
72.2864449523
 30
0.0
 11
-167.7999877929
 21
72.2864449523
 31
0.0
  0
LINE
  5
C34
330
25
100
AcDbEntity
  8
0
100
AcDbLine
 10
-160.4999847411
 20
72.0864480041
 30
0.0
 11
-157.9999847411
 21
72.0864480041
 31
0.0
  0
LINE
  5
C35
330
25
100
AcDbEntity
  8
0
100
AcDbLine
 10
-167.7999877929
 20
75.0864480041
 30
0.0
 11
-160.4999847411
 21
75.0864480041
 31
0.0
  0
LINE
  5
C36
330
25
100
AcDbEntity
  8
0
100
AcDbLine
 10
-165.2999877929
 20
75.5864480041
 30
0.0
 11
-160.4999847411
 21
75.5864480041
 31
0.0
  0
LINE
  5
C37
330
25
100
AcDbEntity
  8
0
100
AcDbLine
 10
-157.1999870964
 20
116.586450274
 30
0.0
 11
-157.9999868297
 21
117.5864499406
 31
0.0
  0
LINE
  5
C38
330
25
100
AcDbEntity
  8
0
100
AcDbLine
 10
-152.4999999999
 20
116.5864480041
 30
0.0
 11
-157.1999969482
 21
116.5864480041
 31
0.0
  0
LINE
  5
C39
330
25
100
AcDbEntity
  8
0
100
AcDbLine
 10
-156.1555480956
 20
68.0864327453
 30
0.0
 11
-152.4999999999
 21
68.0864327453
 31
0.0
  0
LINE
  5
C3A
330
25
100
AcDbEntity
  8
0
100
AcDbLine
 10
-154.9544372558
 20
65.7864449523
 30
0.0
 11
-152.4999999999
 21
65.7864449523
 31
0.0
  0
LINE
  5
C3B
330
25
100
AcDbEntity
  8
0
100
AcDbLine
 10
-153.5966644286
 20
63.1864388488
 30
0.0
 11
-152.4999999999
 21
63.1864388488
 31
0.0
  0
LINE
  5
C3C
330
25
100
AcDbEntity
  8
0
100
AcDbLine
 10
-157.1999706284
 20
46.5864643062
 30
0.0
 11
-157.9999702854
 21
47.5864639729
 31
0.0
  0
LINE
  5
C3D
330
25
100
AcDbEntity
  8
0
100
AcDbLine
 10
-141.5000152587
 20
142.8864357971
 30
0.0
 11
-144.9999847411
 21
142.8864357971
 31
0.0
  0
LINE
  5
C3E
330
25
100
AcDbEntity
  8
0
100
AcDbLine
 10
-140.8000030517
 20
142.1864388488
 30
0.0
 11
-140.8000030517
 21
119.9864419006
 31
0.0
  0
LINE
  5
C3F
330
25
100
AcDbEntity
  8
0
100
AcDbLine
 10
-145.2999877929
 20
47.0864480041
 30
0.0
 11
-151.9999999999
 21
47.0864480041
 31
0.0
  0
LINE
  5
C40
330
25
100
AcDbEntity
  8
0
100
AcDbLine
 10
-151.9999829644
 20
47.0864642135
 30
0.0
 11
-152.4999835374
 21
46.5864636827
 31
0.0
  0
LINE
  5
C41
330
25
100
AcDbEntity
  8
0
100
AcDbLine
 10
-144.9999968048
 20
47.3864577759
 30
0.0
 11
-145.3000014644
 21
47.0864531415
 31
0.0
  0
LINE
  5
C42
330
25
100
AcDbEntity
  8
0
100
AcDbLine
 10
-152.4999999999
 20
47.0864480041
 30
0.0
 11
-157.1999969482
 21
47.0864480041
 31
0.0
  0
LINE
  5
C43
330
25
100
AcDbEntity
  8
0
100
AcDbLine
 10
-152.4999999999
 20
47.8864357971
 30
0.0
 11
-157.1999969482
 21
47.8864357971
 31
0.0
  0
LINE
  5
C44
330
25
100
AcDbEntity
  8
0
100
AcDbLine
 10
-152.4999999999
 20
48.9864419006
 30
0.0
 11
-157.1999969482
 21
48.9864419006
 31
0.0
  0
LINE
  5
C45
330
25
100
AcDbEntity
  8
0
100
AcDbLine
 10
-152.4999999999
 20
50.3864357971
 30
0.0
 11
-157.1999969482
 21
50.3864357971
 31
0.0
  0
LINE
  5
C46
330
25
100
AcDbEntity
  8
0
100
AcDbLine
 10
-152.4999999999
 20
52.0864480041
 30
0.0
 11
-157.1999969482
 21
52.0864480041
 31
0.0
  0
LINE
  5
C47
330
25
100
AcDbEntity
  8
0
100
AcDbLine
 10
-153.5444335937
 20
54.0864480041
 30
0.0
 11
-157.1999969482
 21
54.0864480041
 31
0.0
  0
LINE
  5
C48
330
25
100
AcDbEntity
  8
0
100
AcDbLine
 10
-154.7835693359
 20
56.3864357971
 30
0.0
 11
-157.1999969482
 21
56.3864357971
 31
0.0
  0
LINE
  5
C49
330
25
100
AcDbEntity
  8
0
100
AcDbLine
 10
-156.1033325195
 20
58.9864419006
 30
0.0
 11
-157.1999969482
 21
58.9864419006
 31
0.0
  0
ARC
  5
C4A
330
25
100
AcDbEntity
  8
0
100
AcDbCircle
 10
-91.8000030518
 20
44.0864632629
 30
0.0
 40
1.0
100
AcDbArc
 50
179.9999640278
 51
269.9999460417
  0
ARC
  5
C4B
330
25
100
AcDbEntity
  8
0
100
AcDbCircle
 10
-91.8000030518
 20
78.0864480041
 30
0.0
 40
1.0
100
AcDbArc
 50
89.999982013901
 51
179.999964027799
  0
ARC
  5
C4C
330
25
100
AcDbEntity
  8
0
100
AcDbCircle
 10
-64.200012207
 20
44.0864480041
 30
0.0
 40
1.0
100
AcDbArc
 50
270.000127269099
 51
0.000072627601
  0
ARC
  5
C4D
330
25
100
AcDbEntity
  8
0
100
AcDbCircle
 10
-64.200012207
 20
78.0864327453
 30
0.0
 40
1.0
100
AcDbArc
 50
0.00007262756
 51
89.999982013901
  0
CIRCLE
  5
C4E
330
25
100
AcDbEntity
  8
0
100
AcDbCircle
 10
-78.0
 20
61.0864480041
 30
0.0
 40
14.5
  0
CIRCLE
  5
C4F
330
25
100
AcDbEntity
  8
0
100
AcDbCircle
 10
-78.0
 20
61.0864480041
 30
0.0
 40
14.0
  0
ARC
  5
C50
330
25
100
AcDbEntity
  8
0
100
AcDbCircle
 10
-171.9999847411
 20
142.5864480041
 30
0.0
 40
0.5
100
AcDbArc
 50
179.999964027802
 51
270.000000683197
  0
ARC
  5
C51
330
25
100
AcDbEntity
  8
0
100
AcDbCircle
 10
-172.9999847411
 20
145.3864357971
 30
0.0
 40
0.5
100
AcDbArc
 50
0.0
 51
89.999982013901
  0
ARC
  5
C52
330
25
100
AcDbEntity
  8
0
100
AcDbCircle
 10
-166.7999877929
 20
131.0864480041
 30
0.0
 40
1.0
100
AcDbArc
 50
89.999982013898
 51
179.999964027802
  0
ARC
  5
C53
330
25
100
AcDbEntity
  8
0
100
AcDbCircle
 10
-171.9999847411
 20
119.5864480041
 30
0.0
 40
0.5
100
AcDbArc
 50
89.999982013901
 51
180.000018669303
  0
ARC
  5
C54
330
25
100
AcDbEntity
  8
0
100
AcDbCircle
 10
-172.9999847411
 20
116.7864449523
 30
0.0
 40
0.5
100
AcDbArc
 50
270.000072627599
 51
0.0
  0
ARC
  5
C55
330
25
100
AcDbEntity
  8
0
100
AcDbCircle
 10
-166.7999877929
 20
131.0864480041
 30
0.0
 40
1.0
100
AcDbArc
 50
180.000090613701
 51
270.000072627602
  0
ARC
  5
C56
330
25
100
AcDbEntity
  8
0
100
AcDbCircle
 10
-141.5000152587
 20
72.1864388488
 30
0.0
 40
0.6999999881
100
AcDbArc
 50
0.0
 51
89.999982013901
  0
ARC
  5
C57
330
25
100
AcDbEntity
  8
0
100
AcDbCircle
 10
-141.5000152587
 20
119.9864419006
 30
0.0
 40
0.6999999881
100
AcDbArc
 50
270.000017986099
 51
0.0
  0
LINE
  5
C58
330
25
100
AcDbEntity
  8
0
100
AcDbLine
 10
-141.5000152587
 20
119.2864449523
 30
0.0
 11
-144.9999847411
 21
119.2864449523
 31
0.0
  0
ARC
  5
C59
330
25
100
AcDbEntity
  8
0
100
AcDbCircle
 10
-172.9999694824
 20
78.5864480041
 30
0.0
 40
0.5
100
AcDbArc
 50
0.0
 51
89.999927372401
  0
ARC
  5
C5A
330
25
100
AcDbEntity
  8
0
100
AcDbCircle
 10
-172.9999694824
 20
79.0864480041
 30
0.0
 40
0.5
100
AcDbArc
 50
0.0
 51
89.999927372401
  0
ARC
  5
C5B
330
25
100
AcDbEntity
  8
0
100
AcDbCircle
 10
-171.9999694824
 20
72.5864480041
 30
0.0
 40
0.5
100
AcDbArc
 50
179.999909386299
 51
269.999946041697
  0
ARC
  5
C5C
330
25
100
AcDbEntity
  8
0
100
AcDbCircle
 10
-172.9999847411
 20
43.5864480041
 30
0.0
 40
0.5
100
AcDbArc
 50
270.000072627599
 51
0.0
  0
ARC
  5
C5D
330
25
100
AcDbEntity
  8
0
100
AcDbCircle
 10
-172.9999847411
 20
43.0864480041
 30
0.0
 40
0.5
100
AcDbArc
 50
270.000072627599
 51
0.0
  0
ARC
  5
C5E
330
25
100
AcDbEntity
  8
0
100
AcDbCircle
 10
-171.9999847411
 20
49.5864480041
 30
0.0
 40
0.5
100
AcDbArc
 50
89.999927372401
 51
179.999964027799
  0
CIRCLE
  5
C5F
330
25
100
AcDbEntity
  8
0
100
AcDbCircle
 10
-78.0
 20
61.0864480041
 30
0.0
 40
11.7999992371
  0
LINE
  5
C60
330
25
100
AcDbEntity
  8
0
100
AcDbLine
 10
-140.8000030517
 20
72.1864388488
 30
0.0
 11
-140.8000030517
 21
49.9864419006
 31
0.0
  0
ARC
  5
C61
330
25
100
AcDbEntity
  8
0
100
AcDbCircle
 10
-141.5000152587
 20
49.9864419006
 30
0.0
 40
0.6999999881
100
AcDbArc
 50
270.000017986099
 51
0.0
  0
LINE
  5
C62
330
25
100
AcDbEntity
  8
0
100
AcDbLine
 10
-141.5000152587
 20
72.8864357971
 30
0.0
 11
-144.9999847411
 21
72.8864357971
 31
0.0
  0
LINE
  5
C63
330
25
100
AcDbEntity
  8
0
100
AcDbLine
 10
-141.5000152587
 20
49.2864449523
 30
0.0
 11
-144.9999847411
 21
49.2864449523
 31
0.0
  0
ARC
  5
C64
330
25
100
AcDbEntity
  8
0
100
AcDbCircle
 10
-141.5000152587
 20
142.1864388488
 30
0.0
 40
0.6999999881
100
AcDbArc
 50
0.0
 51
89.999982013901
  0
VIEWPORT
  5
15C
102
{ACAD_XDICTIONARY
360
D30
102
}
330
26
100
AcDbEntity
 67
     1
  8
0
  6
SOLID
100
AcDbViewport
 10
-106.000122
 20
148.5
 30
0.0
 40
218.350244
 41
303.35
 68
     2
 69
     1
 12
-106.000122
 22
148.5
 13
0.0
 23
0.0
 14
1.0
 24
1.0
 15
0.0
 25
0.0
 16
0.0
 26
0.0
 36
1.0
 17
0.0
 27
0.0
 37
0.0
 42
0.0
 43
0.0
 44
0.0
 45
303.35
 50
0.0
 51
0.0
 72
   100
 90
      160
  1

281
     0
 71
     1
 74
     0
110
0.0
120
0.0
130
0.0
111
1.0
121
0.0
131
0.0
112
0.0
122
1.0
132
0.0
 79
     0
146
0.0
  0
VIEWPORT
  5
3CB
102
{ACAD_XDICTIONARY
360
D32
102
}
330
26
100
AcDbEntity
 67
     1
  8
VIEWPORTS
  6
SOLID
100
AcDbViewport
 10
-106.0001220703
 20
148.5
 30
0.0
 40
218.3502441406
 41
303.35
 68
     1
 69
     2
 12
-106.0001220703
 22
148.5
 13
0.0
 23
0.0
 14
5.0
 24
5.0
 15
5.0
 25
5.0
 16
0.0
 26
0.0
 36
1.0
 17
0.0
 27
0.0
 37
0.0
 42
0.0
 43
0.0
 44
0.0
 45
303.35
 50
0.0
 51
0.0
 72
   100
 90
      160
  1

281
     0
 71
     1
 74
     0
110
0.0
120
0.0
130
0.0
111
1.0
121
0.0
131
0.0
112
0.0
122
1.0
132
0.0
 79
     0
146
0.0
1001
ACAD_NAV_VCDISPLAY
1070
     0
  0
ENDSEC
  0
SECTION
  2
OBJECTS
  0
DICTIONARY
  5
3CC
330
0
100
AcDbDictionary
281
     1
  3
ACAD_COLOR
350
3E7
  3
ACAD_GROUP
350
3CD
  3
ACAD_IMAGE_VARS
350
422
  3
ACAD_LAYOUT
350
3EC
  3
ACAD_MATERIAL
350
3D2
  3
ACAD_MLEADERSTYLE
350
41E
  3
ACAD_MLINESTYLE
350
3CE
  3
ACAD_PLOTSETTINGS
350
3EB
  3
ACAD_PLOTSTYLENAME
350
3D0
  3
ACAD_SCALELIST
350
3F2
  3
ACAD_TABLESTYLE
350
3E8
  3
ACAD_VISUALSTYLE
350
3D6
  3
ACDBHEADERROUNDTRIPXREC
350
D2C
  3
AcDbVariableDictionary
350
3EF
  3
DWGPROPS
350
D2F
  0
DICTIONARY
  5
D34
330
4
100
AcDbDictionary
280
     1
281
     1
  3
ACAD_XREC_ROUNDTRIP
360
D35
  0
DICTIONARY
  5
8BE
330
25
100
AcDbDictionary
280
     1
281
     1
  3
ACAD_SORTENTS
360
8BF
  0
DICTIONARY
  5
D30
330
15C
100
AcDbDictionary
280
     1
281
     1
  3
ACAD_XREC_ROUNDTRIP
360
D31
  0
DICTIONARY
  5
D32
330
3CB
100
AcDbDictionary
280
     1
281
     1
  3
ACAD_XREC_ROUNDTRIP
360
D33
  0
DICTIONARY
  5
3E7
102
{ACAD_REACTORS
330
3CC
102
}
330
3CC
100
AcDbDictionary
281
     1
  0
DICTIONARY
  5
3CD
102
{ACAD_REACTORS
330
3CC
102
}
330
3CC
100
AcDbDictionary
281
     1
  0
RASTERVARIABLES
  5
422
102
{ACAD_REACTORS
330
3CC
102
}
330
3CC
100
AcDbRasterVariables
 90
        0
 70
     1
 71
     1
 72
     1
  0
DICTIONARY
  5
3EC
102
{ACAD_REACTORS
330
3CC
102
}
330
3CC
100
AcDbDictionary
281
     1
  3
Model
350
3ED
  3
レイアウト1
350
3EE
  0
DICTIONARY
  5
3D2
102
{ACAD_REACTORS
330
3CC
102
}
330
3CC
100
AcDbDictionary
281
     1
  3
ByBlock
350
3D4
  3
ByLayer
350
3D3
  3
Global
350
3D5
  0
DICTIONARY
  5
41E
102
{ACAD_REACTORS
330
3CC
102
}
330
3CC
100
AcDbDictionary
281
     1
  3
Standard
350
41F
  0
DICTIONARY
  5
3CE
102
{ACAD_REACTORS
330
3CC
102
}
330
3CC
100
AcDbDictionary
281
     1
  3
STANDARD
350
3CF
  0
DICTIONARY
  5
3EB
102
{ACAD_REACTORS
330
3CC
102
}
330
3CC
100
AcDbDictionary
281
     1
  3
6F
350
500
  3
7F
350
501
  3
A4_YOKO
350
C85
  0
ACDBDICTIONARYWDFLT
  5
3D0
102
{ACAD_REACTORS
330
3CC
102
}
330
3CC
100
AcDbDictionary
281
     1
  3
Normal
350
3D1
100
AcDbDictionaryWithDefault
340
3D1
  0
DICTIONARY
  5
3F2
102
{ACAD_REACTORS
330
3CC
102
}
330
3CC
100
AcDbDictionary
281
     1
  3
A0
350
3F3
  3
A1
350
3F4
  3
A2
350
3F5
  3
A3
350
3F6
  3
A4
350
3F7
  3
A5
350
3F8
  3
A6
350
3F9
  3
A7
350
3FA
  3
A8
350
3FB
  3
A9
350
3FC
  3
B0
350
3FD
  3
B1
350
3FE
  3
B2
350
3FF
  3
B3
350
400
  3
B4
350
401
  3
B5
350
402
  3
B6
350
403
  3
B7
350
404
  3
B8
350
405
  3
B9
350
406
  3
C0
350
407
  3
C1
350
408
  3
C2
350
409
  3
C3
350
40A
  3
C4
350
40B
  3
C5
350
40C
  3
C6
350
40D
  3
C7
350
40E
  3
C8
350
40F
  3
C9
350
410
  3
D0
350
411
  3
D1
350
412
  3
D2
350
413
  0
DICTIONARY
  5
3E8
102
{ACAD_REACTORS
330
3CC
102
}
330
3CC
100
AcDbDictionary
281
     1
  3
Standard
350
3E9
  0
DICTIONARY
  5
3D6
102
{ACAD_REACTORS
330
3CC
102
}
330
3CC
100
AcDbDictionary
281
     1
  3
2dWireframe
350
3DC
  3
3D Hidden
350
3DE
  3
3dWireframe
350
3DD
  3
Basic
350
3DB
  3
Brighten
350
3E2
  3
ColorChange
350
3E6
  3
Conceptual
350
3DF
  3
Dim
350
3E1
  3
EdgeColorOff
350
418
  3
Facepattern
350
3E5
  3
Flat
350
3D7
  3
FlatWithEdges
350
3D8
  3
Gouraud
350
3D9
  3
GouraudWithEdges
350
3DA
  3
Hidden
350
415
  3
JitterOff
350
416
  3
Linepattern
350
3E4
  3
Modeling
350
420
  3
OverhangOff
350
417
  3
Realistic
350
3E0
  3
Shaded
350
41D
  3
Shaded with edges
350
41C
  3
Shades of Gray
350
419
  3
Sketchy
350
41A
  3
Thicken
350
3E3
  3
Wireframe
350
414
  3
X-Ray
350
41B
  0
DICTIONARY
  5
D2C
102
{ACAD_REACTORS
330
3CC
102
}
330
3CC
100
AcDbDictionary
281
     1
  3
COLORDICT
350
D2D
  3
MATERIALDICT
350
D2E
  0
DICTIONARY
  5
3EF
102
{ACAD_REACTORS
330
3CC
102
}
330
3CC
100
AcDbDictionary
281
     1
  3
CANNOSCALE
350
CED
  3
CMLEADERSTYLE
350
7B5
  3
CTABLESTYLE
350
3F0
  3
DIMASSOC
350
C96
  3
HIDETEXT
350
C95
  3
MSLTSCALE
350
7B6
  3
XCLIPFRAME
350
7B7
  0
XRECORD
  5
D2F
102
{ACAD_REACTORS
330
3CC
102
}
330
3CC
100
AcDbXrecord
280
     1
  1
DWGPROPS COOKIE
  2

  3

  4

  6

  7

  8
1003660
  9

300
製品名=TWシリーズ パイロットライト
301
名称=
302
図番=MA4-A00009F
303
開発番号=
304
=
305
=
306
=
307
=
308
=
309
=
 40
0.0
 41
2455462.437789352
 42
2457994.079056354
  1

 90
        4
  0
XRECORD
  5
D35
102
{ACAD_REACTORS
330
D34
102
}
330
D34
100
AcDbXrecord
280
     1
102
VTR_0.000_0.000_1.000_1.000_VISUALSTYLE
340
3DC
102
VTR_0.000_0.000_1.000_1.000_GRIDDISPLAY
 70
     3
102
VTR_0.000_0.000_1.000_1.000_GRIDMAJOR
 70
     5
102
VTR_0.000_0.000_1.000_1.000_DEFAULTLIGHTING
280
     0
102
VTR_0.000_0.000_1.000_1.000_DEFAULTLIGHTINGTYPE
 70
     1
102
VTR_0.000_0.000_1.000_1.000_BRIGHTNESS
141
0.0
102
VTR_0.000_0.000_1.000_1.000_CONTRAST
142
0.0
  0
SORTENTSTABLE
  5
8BF
102
{ACAD_REACTORS
330
8BE
102
}
330
8BE
100
AcDbSortentsTable
330
25
331
0
  5
15F
331
0
  5
2DD
331
0
  5
2DE
331
0
  5
2E2
331
303
  5
305
331
311
  5
313
331
0
  5
37C
331
0
  5
37D
331
0
  5
37E
331
0
  5
380
331
0
  5
6AA
331
0
  5
803
331
0
  5
804
331
0
  5
813
331
0
  5
814
331
0
  5
817
331
0
  5
861
331
0
  5
870
331
0
  5
880
331
0
  5
881
331
0
  5
882
331
0
  5
8B9
331
0
  5
8BA
331
8B9
  5
15D
331
8BA
  5
15E
  0
XRECORD
  5
D31
102
{ACAD_REACTORS
330
D30
102
}
330
D30
100
AcDbXrecord
280
     1
102
VISUALSTYLE
340
3DC
102
GRIDDISPLAY
 70
     0
102
GRIDMAJOR
 70
     5
102
DEFAULTLIGHTING
280
     1
102
DEFAULTLIGHTINGTYPE
 70
     1
102
BRIGHTNESS
141
0.0
102
CONTRAST
142
0.0
  0
XRECORD
  5
D33
102
{ACAD_REACTORS
330
D32
102
}
330
D32
100
AcDbXrecord
280
     1
102
VISUALSTYLE
340
3DC
102
GRIDDISPLAY
 70
     0
102
GRIDMAJOR
 70
     5
102
DEFAULTLIGHTING
280
     1
102
DEFAULTLIGHTINGTYPE
 70
     1
102
BRIGHTNESS
141
0.0
102
CONTRAST
142
0.0
  0
LAYOUT
  5
3ED
102
{ACAD_REACTORS
330
3EC
102
}
330
3EC
100
AcDbPlotSettings
  1

  2
\\s-w08-prsv002\6F_SII LP1030
  4
A4
  6

 40
0.0
 41
0.0
 42
0.0
 43
0.0
 44
210.0
 45
297.0
 46
0.0
 47
0.0
 48
-297.0
 49
0.0
140
0.0
141
210.0
142
1.0
143
1.0
 70
  1696
 72
     1
 73
     1
 74
     4
  7
monochrome.ctb
 75
     0
147
0.02694098376
148
411.835580309044
149
-105.998673247138
100
AcDbLayout
  1
Model
 70
     1
 71
     0
 10
0.0
 20
0.0
 11
12.0
 21
9.0
 12
0.0
 22
0.0
 32
0.0
 14
-244.854283916531
 24
0.0
 34
0.0
 15
-15.540170164119
 25
297.0
 35
0.0
146
0.0
 13
0.0
 23
0.0
 33
0.0
 16
1.0
 26
0.0
 36
0.0
 17
0.0
 27
1.0
 37
0.0
 76
     0
330
25
331
3F1
  0
LAYOUT
  5
3EE
102
{ACAD_REACTORS
330
3EC
102
}
330
3EC
100
AcDbPlotSettings
  1

  2
none_device
  4
Letter_(8.50_x_11.00_Inches)
  6

 40
6.35
 41
6.35
 42
6.35001
 43
6.35001
 44
215.9
 45
279.4
 46
0.0
 47
0.0
 48
0.0
 49
0.0
140
0.0
141
0.0
142
1.0
143
37.91875186608
 70
   688
 72
     0
 73
     1
 74
     1
  7
monochrome.ctb
 75
     0
147
0.026372176055
148
5465.45120117124
149
80.645
100
AcDbLayout
  1
レイアウト1
 70
     1
 71
     1
 10
-224.654947035763
 20
-12.65468796652
 11
192.451323491121
 21
309.654702895163
 12
0.0
 22
0.0
 32
0.0
 14
1.000000000000E+20
 24
1.000000000000E+20
 34
1.000000000000E+20
 15
-1.000000000000E+20
 25
-1.000000000000E+20
 35
-1.000000000000E+20
146
0.0
 13
0.0
 23
0.0
 33
0.0
 16
1.0
 26
0.0
 36
0.0
 17
0.0
 27
1.0
 37
0.0
 76
     0
330
26
331
3CB
  0
MATERIAL
  5
3D4
102
{ACAD_REACTORS
330
3D2
102
}
102
{ACAD_XDICTIONARY
360
D36
102
}
330
3D2
100
AcDbMaterial
  1
ByBlock
  0
MATERIAL
  5
3D3
102
{ACAD_REACTORS
330
3D2
102
}
102
{ACAD_XDICTIONARY
360
D38
102
}
330
3D2
100
AcDbMaterial
  1
ByLayer
  0
MATERIAL
  5
3D5
102
{ACAD_REACTORS
330
3D2
102
}
102
{ACAD_XDICTIONARY
360
D3A
102
}
330
3D2
100
AcDbMaterial
  1
Global
  0
MLEADERSTYLE
  5
41F
102
{ACAD_REACTORS
330
41E
102
}
102
{ACAD_XDICTIONARY
360
D3C
102
}
330
41E
100
AcDbMLeaderStyle
170
     2
171
     1
172
     0
 90
        2
 40
0.0
 41
0.0
173
     1
 91
-1056964608
340
7
 92
       -2
290
     1
 42
0.09
291
     1
 43
0.36
  3
Standard
341
0
 44
0.18
300

342
16
174
     1
178
     6
175
     1
176
     0
 93
-1056964608
 45
0.18
292
     0
297
     0
 46
0.18
343
0
 94
-1056964608
 47
1.0
 49
1.0
140
1.0
293
     1
141
0.0
294
     1
177
     0
142
1.0
295
     0
296
     0
143
0.125
1001
ACAD_MLEADERVER
1070
     2
  0
MLINESTYLE
  5
3CF
102
{ACAD_REACTORS
330
3CE
102
}
330
3CE
100
AcDbMlineStyle
  2
STANDARD
 70
     0
  3

 62
   256
 51
90.0
 52
90.0
 71
     2
 49
1.5
 62
   256
  6
Continuous
 49
0.5
 62
   256
  6
Continuous
  0
PLOTSETTINGS
  5
500
102
{ACAD_REACTORS
330
3EB
102
}
330
3EB
100
AcDbPlotSettings
  1
6F
  2
\\S-w03-ad001\FX DocuWide 2055
  4
A4
  6

 40
0.0
 41
0.0
 42
0.0
 43
0.0
 44
210.0
 45
297.0
 46
0.0
 47
0.0
 48
-210.0
 49
0.0
140
0.0
141
297.0
142
1.0
143
1.0
 70
  1200
 72
     1
 73
     0
 74
     4
  7
monochrome.ctb
 75
    16
147
1.0
148
264.5
149
-148.5
  0
PLOTSETTINGS
  5
501
102
{ACAD_REACTORS
330
3EB
102
}
330
3EB
100
AcDbPlotSettings
  1
7F
  2
\\s-w03-ad002\SII LP1030 (本社7F)
  4
A4
  6

 40
0.0
 41
0.0
 42
0.0
 43
0.0
 44
210.0
 45
297.0
 46
0.0
 47
0.0
 48
-210.0
 49
0.0
140
0.0
141
297.0
142
1.0
143
1.0
 70
  1200
 72
     1
 73
     0
 74
     4
  7
monochrome.ctb
 75
    16
147
1.0
148
264.5
149
-148.5
  0
PLOTSETTINGS
  5
C85
102
{ACAD_REACTORS
330
3EB
102
}
330
3EB
100
AcDbPlotSettings
  1
A4_YOKO
  2
\\s-w08-prsv002\6F_SII LP1030
  4
A4
  6

 40
0.0
 41
0.0
 42
0.0
 43
0.0
 44
210.0
 45
297.0
 46
0.0
 47
0.0
 48
-297.0
 49
0.0
140
0.0
141
210.0
142
1.0
143
1.0
 70
  1696
 72
     1
 73
     1
 74
     5
  7
monochrome.ctb
 75
    16
147
1.0
148
71.336537292019
149
-95.477415352079
  0
ACDBPLACEHOLDER
  5
3D1
102
{ACAD_REACTORS
330
3D0
102
}
330
3D0
  0
SCALE
  5
3F3
102
{ACAD_REACTORS
330
3F2
102
}
330
3F2
100
AcDbScale
 70
     0
300
1:1
140
1.0
141
1.0
290
     1
  0
SCALE
  5
3F4
102
{ACAD_REACTORS
330
3F2
102
}
330
3F2
100
AcDbScale
 70
     0
300
1:2
140
1.0
141
2.0
290
     0
  0
SCALE
  5
3F5
102
{ACAD_REACTORS
330
3F2
102
}
330
3F2
100
AcDbScale
 70
     0
300
1:4
140
1.0
141
4.0
290
     0
  0
SCALE
  5
3F6
102
{ACAD_REACTORS
330
3F2
102
}
330
3F2
100
AcDbScale
 70
     0
300
1:5
140
1.0
141
5.0
290
     0
  0
SCALE
  5
3F7
102
{ACAD_REACTORS
330
3F2
102
}
330
3F2
100
AcDbScale
 70
     0
300
1:8
140
1.0
141
8.0
290
     0
  0
SCALE
  5
3F8
102
{ACAD_REACTORS
330
3F2
102
}
330
3F2
100
AcDbScale
 70
     0
300
1:10
140
1.0
141
10.0
290
     0
  0
SCALE
  5
3F9
102
{ACAD_REACTORS
330
3F2
102
}
330
3F2
100
AcDbScale
 70
     0
300
1:16
140
1.0
141
16.0
290
     0
  0
SCALE
  5
3FA
102
{ACAD_REACTORS
330
3F2
102
}
330
3F2
100
AcDbScale
 70
     0
300
1:20
140
1.0
141
20.0
290
     0
  0
SCALE
  5
3FB
102
{ACAD_REACTORS
330
3F2
102
}
330
3F2
100
AcDbScale
 70
     0
300
1:30
140
1.0
141
30.0
290
     0
  0
SCALE
  5
3FC
102
{ACAD_REACTORS
330
3F2
102
}
330
3F2
100
AcDbScale
 70
     0
300
1:40
140
1.0
141
40.0
290
     0
  0
SCALE
  5
3FD
102
{ACAD_REACTORS
330
3F2
102
}
330
3F2
100
AcDbScale
 70
     0
300
1:50
140
1.0
141
50.0
290
     0
  0
SCALE
  5
3FE
102
{ACAD_REACTORS
330
3F2
102
}
330
3F2
100
AcDbScale
 70
     0
300
1:100
140
1.0
141
100.0
290
     0
  0
SCALE
  5
3FF
102
{ACAD_REACTORS
330
3F2
102
}
330
3F2
100
AcDbScale
 70
     0
300
2:1
140
2.0
141
1.0
290
     0
  0
SCALE
  5
400
102
{ACAD_REACTORS
330
3F2
102
}
330
3F2
100
AcDbScale
 70
     0
300
4:1
140
4.0
141
1.0
290
     0
  0
SCALE
  5
401
102
{ACAD_REACTORS
330
3F2
102
}
330
3F2
100
AcDbScale
 70
     0
300
8:1
140
8.0
141
1.0
290
     0
  0
SCALE
  5
402
102
{ACAD_REACTORS
330
3F2
102
}
330
3F2
100
AcDbScale
 70
     0
300
10:1
140
10.0
141
1.0
290
     0
  0
SCALE
  5
403
102
{ACAD_REACTORS
330
3F2
102
}
330
3F2
100
AcDbScale
 70
     0
300
100:1
140
100.0
141
1.0
290
     0
  0
SCALE
  5
404
102
{ACAD_REACTORS
330
3F2
102
}
330
3F2
100
AcDbScale
 70
     0
300
1/128" = 1'-0"
140
0.0078125
141
12.0
290
     0
  0
SCALE
  5
405
102
{ACAD_REACTORS
330
3F2
102
}
330
3F2
100
AcDbScale
 70
     0
300
1/64" = 1'-0"
140
0.015625
141
12.0
290
     0
  0
SCALE
  5
406
102
{ACAD_REACTORS
330
3F2
102
}
330
3F2
100
AcDbScale
 70
     0
300
1/32" = 1'-0"
140
0.03125
141
12.0
290
     0
  0
SCALE
  5
407
102
{ACAD_REACTORS
330
3F2
102
}
330
3F2
100
AcDbScale
 70
     0
300
1/16" = 1'-0"
140
0.0625
141
12.0
290
     0
  0
SCALE
  5
408
102
{ACAD_REACTORS
330
3F2
102
}
330
3F2
100
AcDbScale
 70
     0
300
3/32" = 1'-0"
140
0.09375
141
12.0
290
     0
  0
SCALE
  5
409
102
{ACAD_REACTORS
330
3F2
102
}
330
3F2
100
AcDbScale
 70
     0
300
1/8" = 1'-0"
140
0.125
141
12.0
290
     0
  0
SCALE
  5
40A
102
{ACAD_REACTORS
330
3F2
102
}
330
3F2
100
AcDbScale
 70
     0
300
3/16" = 1'-0"
140
0.1875
141
12.0
290
     0
  0
SCALE
  5
40B
102
{ACAD_REACTORS
330
3F2
102
}
330
3F2
100
AcDbScale
 70
     0
300
1/4" = 1'-0"
140
0.25
141
12.0
290
     0
  0
SCALE
  5
40C
102
{ACAD_REACTORS
330
3F2
102
}
330
3F2
100
AcDbScale
 70
     0
300
3/8" = 1'-0"
140
0.375
141
12.0
290
     0
  0
SCALE
  5
40D
102
{ACAD_REACTORS
330
3F2
102
}
330
3F2
100
AcDbScale
 70
     0
300
1/2" = 1'-0"
140
0.5
141
12.0
290
     0
  0
SCALE
  5
40E
102
{ACAD_REACTORS
330
3F2
102
}
330
3F2
100
AcDbScale
 70
     0
300
3/4" = 1'-0"
140
0.75
141
12.0
290
     0
  0
SCALE
  5
40F
102
{ACAD_REACTORS
330
3F2
102
}
330
3F2
100
AcDbScale
 70
     0
300
1" = 1'-0"
140
1.0
141
12.0
290
     0
  0
SCALE
  5
410
102
{ACAD_REACTORS
330
3F2
102
}
330
3F2
100
AcDbScale
 70
     0
300
1-1/2" = 1'-0"
140
1.5
141
12.0
290
     0
  0
SCALE
  5
411
102
{ACAD_REACTORS
330
3F2
102
}
330
3F2
100
AcDbScale
 70
     0
300
3" = 1'-0"
140
3.0
141
12.0
290
     0
  0
SCALE
  5
412
102
{ACAD_REACTORS
330
3F2
102
}
330
3F2
100
AcDbScale
 70
     0
300
6" = 1'-0"
140
6.0
141
12.0
290
     0
  0
SCALE
  5
413
102
{ACAD_REACTORS
330
3F2
102
}
330
3F2
100
AcDbScale
 70
     0
300
1'-0" = 1'-0"
140
12.0
141
12.0
290
     0
  0
TABLESTYLE
  5
3E9
102
{ACAD_REACTORS
330
3E8
102
}
330
3E8
100
AcDbTableStyle
  3
Standard
 70
     0
 71
     0
 40
0.06
 41
0.06
280
     0
281
     0
  7
STANDARD
140
0.18
170
     2
 62
     0
 63
   257
283
     0
274
    -2
284
     1
 64
     0
275
    -2
285
     1
 65
     0
276
    -2
286
     1
 66
     0
277
    -2
287
     1
 67
     0
278
    -2
288
     1
 68
     0
279
    -2
289
     1
 69
     0
  7
STANDARD
140
0.25
170
     5
 62
     0
 63
   257
283
     0
274
    -2
284
     1
 64
     0
275
    -2
285
     1
 65
     0
276
    -2
286
     1
 66
     0
277
    -2
287
     1
 67
     0
278
    -2
288
     1
 68
     0
279
    -2
289
     1
 69
     0
  7
STANDARD
140
0.18
170
     5
 62
     0
 63
   257
283
     0
274
    -2
284
     1
 64
     0
275
    -2
285
     1
 65
     0
276
    -2
286
     1
 66
     0
277
    -2
287
     1
 67
     0
278
    -2
288
     1
 68
     0
279
    -2
289
     1
 69
     0
  0
VISUALSTYLE
  5
3DC
102
{ACAD_REACTORS
330
3D6
102
}
102
{ACAD_XDICTIONARY
360
D3E
102
}
330
3D6
100
AcDbVisualStyle
  2
2dWireframe
 70
     4
 71
     0
 72
     2
 73
     0
 90
        0
 40
-0.6
 41
-30.0
 62
     5
 63
     7
 74
     1
 91
        4
 64
     7
 65
   257
 75
     1
175
     1
 42
1.0
 92
        0
 66
   257
 43
1.0
 76
     1
 77
     6
 78
     2
 67
     7
 79
     5
170
     0
171
     0
290
     0
174
     0
 93
        1
 44
0.0
173
     0
291
     0
 45
0.0
1001
ACAD
1000
AcDbSavedByObjectVersion
1070
     0
  0
VISUALSTYLE
  5
3DE
102
{ACAD_REACTORS
330
3D6
102
}
102
{ACAD_XDICTIONARY
360
D40
102
}
330
3D6
100
AcDbVisualStyle
  2
3D Hidden
 70
     6
 71
     1
 72
     2
 73
     2
 90
        0
 40
-0.6
 41
-30.0
 62
     5
 63
     7
 74
     2
 91
        2
 64
     7
 65
   257
 75
     2
175
     1
 42
40.0
 92
        0
 66
   257
 43
1.0
 76
     1
 77
     6
 78
     2
 67
     7
 79
     3
170
     0
171
     0
290
     0
174
     0
 93
        1
 44
0.0
173
     0
291
     0
 45
0.0
1001
ACAD
1000
AcDbSavedByObjectVersion
1070
     0
  0
VISUALSTYLE
  5
3DD
102
{ACAD_REACTORS
330
3D6
102
}
102
{ACAD_XDICTIONARY
360
D42
102
}
330
3D6
100
AcDbVisualStyle
  2
3dWireframe
 70
     5
 71
     0
 72
     2
 73
     0
 90
        0
 40
-0.6
 41
-30.0
 62
     5
 63
     7
 74
     1
 91
        4
 64
     7
 65
   257
 75
     1
175
     1
 42
1.0
 92
        0
 66
   257
 43
1.0
 76
     1
 77
     6
 78
     2
 67
     7
 79
     5
170
     0
171
     0
290
     0
174
     0
 93
        1
 44
0.0
173
     0
291
     0
 45
0.0
1001
ACAD
1000
AcDbSavedByObjectVersion
1070
     0
  0
VISUALSTYLE
  5
3DB
102
{ACAD_REACTORS
330
3D6
102
}
102
{ACAD_XDICTIONARY
360
D44
102
}
330
3D6
100
AcDbVisualStyle
  2
Basic
 70
     7
 71
     1
 72
     0
 73
     1
 90
        0
 40
-0.6
 41
-30.0
 62
     5
 63
     7
 74
     0
 91
        4
 64
     7
 65
   257
 75
     1
175
     1
 42
1.0
 92
        8
 66
     7
 43
1.0
 76
     1
 77
     6
 78
     2
 67
     7
 79
     5
170
     0
171
     0
290
     0
174
     0
 93
        1
 44
0.0
173
     0
291
     1
 45
0.0
1001
ACAD
1000
AcDbSavedByObjectVersion
1070
     0
  0
VISUALSTYLE
  5
3E2
102
{ACAD_REACTORS
330
3D6
102
}
102
{ACAD_XDICTIONARY
360
D46
102
}
330
3D6
100
AcDbVisualStyle
  2
Brighten
 70
    12
 71
     2
 72
     2
 73
     0
 90
        0
 40
-0.6
 41
-30.0
 62
     5
 63
     7
 74
     1
 91
        4
 64
     7
 65
   257
 75
     1
175
     1
 42
1.0
 92
        8
 66
     7
 43
1.0
 76
     1
 77
     6
 78
     2
 67
     7
 79
     5
170
     0
171
     0
290
     0
174
     0
 93
        1
 44
50.0
173
     0
291
     1
 45
0.0
1001
ACAD
1000
AcDbSavedByObjectVersion
1070
     0
  0
VISUALSTYLE
  5
3E6
102
{ACAD_REACTORS
330
3D6
102
}
102
{ACAD_XDICTIONARY
360
D48
102
}
330
3D6
100
AcDbVisualStyle
  2
ColorChange
 70
    16
 71
     2
 72
     2
 73
     3
 90
        0
 40
-0.6
 41
-30.0
 62
     5
 63
     8
 74
     1
 91
        4
 64
     7
 65
   257
 75
     1
175
     1
 42
1.0
 92
        8
 66
     8
 43
1.0
 76
     1
 77
     6
 78
     2
 67
     7
 79
     5
170
     0
171
     0
290
     0
174
     0
 93
        1
 44
0.0
173
     0
291
     1
 45
0.0
1001
ACAD
1000
AcDbSavedByObjectVersion
1070
     0
  0
VISUALSTYLE
  5
3DF
102
{ACAD_REACTORS
330
3D6
102
}
102
{ACAD_XDICTIONARY
360
D4A
102
}
330
3D6
100
AcDbVisualStyle
  2
Conceptual
 70
     9
 71
     3
 72
     2
 73
     0
 90
        0
 40
-0.6
 41
-30.0
 62
     5
 63
     7
 74
     2
 91
        2
 64
     7
 65
   257
 75
     1
175
     1
 42
40.0
 92
        8
 66
     7
 43
1.0
 76
     1
 77
     6
 78
     2
 67
     7
 79
     3
170
     0
171
     0
290
     0
174
     0
 93
        1
 44
0.0
173
     0
291
     0
 45
0.0
1001
ACAD
1000
AcDbSavedByObjectVersion
1070
     0
  0
VISUALSTYLE
  5
3E1
102
{ACAD_REACTORS
330
3D6
102
}
102
{ACAD_XDICTIONARY
360
D4C
102
}
330
3D6
100
AcDbVisualStyle
  2
Dim
 70
    11
 71
     2
 72
     2
 73
     0
 90
        0
 40
-0.6
 41
-30.0
 62
     5
 63
     7
 74
     1
 91
        4
 64
     7
 65
   257
 75
     1
175
     1
 42
1.0
 92
        8
 66
     7
 43
1.0
 76
     1
 77
     6
 78
     2
 67
     7
 79
     5
170
     0
171
     0
290
     0
174
     0
 93
        1
 44
-50.0
173
     0
291
     1
 45
0.0
1001
ACAD
1000
AcDbSavedByObjectVersion
1070
     0
  0
VISUALSTYLE
  5
418
102
{ACAD_REACTORS
330
3D6
102
}
102
{ACAD_XDICTIONARY
360
D4E
102
}
330
3D6
100
AcDbVisualStyle
  2
EdgeColorOff
 70
    22
 71
     2
 72
     2
 73
     0
 90
        0
 40
0.6
 41
30.0
 62
     5
 63
     7
 74
     1
 91
        4
 64
     7
 65
   257
 75
     1
175
     1
 42
1.0
 92
        8
 66
     7
 43
1.0
 76
     1
 77
     6
 78
     2
 67
     7
 79
     5
170
     0
171
     0
290
     0
174
     0
 93
        1
 44
0.0
173
     0
291
     1
 45
0.0
1001
ACAD
1000
AcDbSavedByObjectVersion
1070
     0
  0
VISUALSTYLE
  5
3E5
102
{ACAD_REACTORS
330
3D6
102
}
102
{ACAD_XDICTIONARY
360
D50
102
}
330
3D6
100
AcDbVisualStyle
  2
Facepattern
 70
    15
 71
     2
 72
     2
 73
     0
 90
        0
 40
-0.6
 41
-30.0
 62
     5
 63
     7
 74
     1
 91
        4
 64
     7
 65
   257
 75
     1
175
     1
 42
1.0
 92
        8
 66
     7
 43
1.0
 76
     1
 77
     6
 78
     2
 67
     7
 79
     5
170
     0
171
     0
290
     0
174
     0
 93
        1
 44
0.0
173
     0
291
     1
 45
0.0
1001
ACAD
1000
AcDbSavedByObjectVersion
1070
     0
  0
VISUALSTYLE
  5
3D7
102
{ACAD_REACTORS
330
3D6
102
}
102
{ACAD_XDICTIONARY
360
D52
102
}
330
3D6
100
AcDbVisualStyle
  2
Flat
 70
     0
 71
     2
 72
     1
 73
     1
 90
        2
 40
-0.6
 41
30.0
 62
     5
 63
     7
 74
     0
 91
        4
 64
     7
 65
   257
 75
     1
175
     1
 42
1.0
 92
        8
 66
     7
 43
1.0
 76
     1
 77
     6
 78
     2
 67
     7
 79
     5
170
     0
171
     0
290
     0
174
     0
 93
       13
 44
0.0
173
     0
291
     1
 45
0.0
1001
ACAD
1000
AcDbSavedByObjectVersion
1070
     0
  0
VISUALSTYLE
  5
3D8
102
{ACAD_REACTORS
330
3D6
102
}
102
{ACAD_XDICTIONARY
360
D54
102
}
330
3D6
100
AcDbVisualStyle
  2
FlatWithEdges
 70
     1
 71
     2
 72
     1
 73
     1
 90
        2
 40
-0.6
 41
30.0
 62
     5
 63
     7
 74
     1
 91
        4
 64
     7
 65
   257
 75
     1
175
     1
 42
1.0
 92
        0
 66
   257
 43
1.0
 76
     1
 77
     6
 78
     2
 67
     7
 79
     5
170
     0
171
     0
290
     0
174
     0
 93
       13
 44
0.0
173
     0
291
     1
 45
0.0
1001
ACAD
1000
AcDbSavedByObjectVersion
1070
     0
  0
VISUALSTYLE
  5
3D9
102
{ACAD_REACTORS
330
3D6
102
}
102
{ACAD_XDICTIONARY
360
D56
102
}
330
3D6
100
AcDbVisualStyle
  2
Gouraud
 70
     2
 71
     2
 72
     2
 73
     1
 90
        2
 40
-0.6
 41
30.0
 62
     5
 63
     7
 74
     0
 91
        4
 64
     7
 65
   257
 75
     1
175
     1
 42
1.0
 92
        0
 66
     7
 43
1.0
 76
     1
 77
     6
 78
     2
 67
     7
 79
     5
170
     0
171
     0
290
     0
174
     0
 93
       13
 44
0.0
173
     0
291
     1
 45
0.0
1001
ACAD
1000
AcDbSavedByObjectVersion
1070
     0
  0
VISUALSTYLE
  5
3DA
102
{ACAD_REACTORS
330
3D6
102
}
102
{ACAD_XDICTIONARY
360
D58
102
}
330
3D6
100
AcDbVisualStyle
  2
GouraudWithEdges
 70
     3
 71
     2
 72
     2
 73
     1
 90
        2
 40
-0.6
 41
30.0
 62
     5
 63
     7
 74
     1
 91
        4
 64
     7
 65
   257
 75
     1
175
     1
 42
1.0
 92
        0
 66
   257
 43
1.0
 76
     1
 77
     6
 78
     2
 67
     7
 79
     5
170
     0
171
     0
290
     0
174
     0
 93
       13
 44
0.0
173
     0
291
     1
 45
0.0
1001
ACAD
1000
AcDbSavedByObjectVersion
1070
     0
  0
VISUALSTYLE
  5
415
102
{ACAD_REACTORS
330
3D6
102
}
102
{ACAD_XDICTIONARY
360
D5A
102
}
330
3D6
100
AcDbVisualStyle
  2
Hidden
 70
     6
 71
     1
 72
     2
 73
     2
 90
        0
 40
0.6
 41
30.0
 62
     5
 63
     7
 74
     2
 91
        2
 64
     7
 65
   257
 75
     2
175
     1
 42
40.0
 92
        0
 66
   257
 43
1.0
 76
     1
 77
     6
 78
     2
 67
     7
 79
     3
170
     0
171
     0
290
     0
174
     0
 93
        1
 44
0.0
173
     0
291
     0
 45
0.0
1001
ACAD
1000
AcDbSavedByObjectVersion
1070
     0
  0
VISUALSTYLE
  5
416
102
{ACAD_REACTORS
330
3D6
102
}
102
{ACAD_XDICTIONARY
360
D5C
102
}
330
3D6
100
AcDbVisualStyle
  2
JitterOff
 70
    20
 71
     2
 72
     2
 73
     0
 90
        0
 40
0.6
 41
30.0
 62
     5
 63
     7
 74
     1
 91
        4
 64
     7
 65
   257
 75
     1
175
     1
 42
1.0
 92
       10
 66
     7
 43
1.0
 76
     1
 77
     6
 78
     2
 67
     7
 79
     5
170
     0
171
     0
290
     0
174
     0
 93
        1
 44
0.0
173
     0
291
     1
 45
0.0
1001
ACAD
1000
AcDbSavedByObjectVersion
1070
     0
  0
VISUALSTYLE
  5
3E4
102
{ACAD_REACTORS
330
3D6
102
}
102
{ACAD_XDICTIONARY
360
D5E
102
}
330
3D6
100
AcDbVisualStyle
  2
Linepattern
 70
    14
 71
     2
 72
     2
 73
     0
 90
        0
 40
-0.6
 41
-30.0
 62
     5
 63
     7
 74
     1
 91
        4
 64
     7
 65
   257
 75
     7
175
     7
 42
1.0
 92
        8
 66
     7
 43
1.0
 76
     1
 77
     6
 78
     2
 67
     7
 79
     5
170
     0
171
     0
290
     0
174
     0
 93
        1
 44
0.0
173
     0
291
     1
 45
0.0
1001
ACAD
1000
AcDbSavedByObjectVersion
1070
     0
  0
VISUALSTYLE
  5
420
102
{ACAD_REACTORS
330
3D6
102
}
102
{ACAD_XDICTIONARY
360
D60
102
}
330
3D6
100
AcDbVisualStyle
  2
Modeling
 70
    10
 71
     2
 72
     3
 73
     0
 90
        2
 40
0.6
 41
30.0
 62
     5
 63
     7
 74
     2
 91
        0
 64
     7
 65
   257
 75
     1
175
     1
 42
180.0
 92
        8
 66
     8
 43
1.0
 76
     1
 77
     6
 78
     2
 67
     7
 79
     5
170
     0
171
     0
290
     0
174
     0
 93
       13
 44
0.0
173
     0
291
     0
 45
0.0
1001
ACAD
1000
AcDbSavedByObjectVersion
1070
     0
  0
VISUALSTYLE
  5
417
102
{ACAD_REACTORS
330
3D6
102
}
102
{ACAD_XDICTIONARY
360
D62
102
}
330
3D6
100
AcDbVisualStyle
  2
OverhangOff
 70
    21
 71
     2
 72
     2
 73
     0
 90
        0
 40
0.6
 41
30.0
 62
     5
 63
     7
 74
     1
 91
        4
 64
     7
 65
   257
 75
     1
175
     1
 42
1.0
 92
        9
 66
     7
 43
1.0
 76
     1
 77
     6
 78
     2
 67
     7
 79
     5
170
     0
171
     0
290
     0
174
     0
 93
        1
 44
0.0
173
     0
291
     1
 45
0.0
1001
ACAD
1000
AcDbSavedByObjectVersion
1070
     0
  0
VISUALSTYLE
  5
3E0
102
{ACAD_REACTORS
330
3D6
102
}
102
{ACAD_XDICTIONARY
360
D64
102
}
330
3D6
100
AcDbVisualStyle
  2
Realistic
 70
     8
 71
     2
 72
     2
 73
     0
 90
        0
 40
-0.6
 41
-30.0
 62
     5
 63
     7
 74
     1
 91
        0
 64
     7
 65
   257
 75
     1
175
     1
 42
1.0
 92
        8
 66
     8
 43
1.0
 76
     1
 77
     6
 78
     2
 67
     7
 79
     5
170
     0
171
     0
290
     0
174
     0
 93
       13
 44
0.0
173
     0
291
     0
 45
0.0
1001
ACAD
1000
AcDbSavedByObjectVersion
1070
     0
  0
VISUALSTYLE
  5
41D
102
{ACAD_REACTORS
330
3D6
102
}
102
{ACAD_XDICTIONARY
360
D66
102
}
330
3D6
100
AcDbVisualStyle
  2
Shaded
 70
    27
 71
     2
 72
     2
 73
     1
 90
        2
 40
0.6
 41
30.0
 62
     5
 63
     7
 74
     0
 91
        4
 64
     7
 65
   257
 75
     1
175
     1
 42
1.0
 92
        8
 66
   257
 43
1.0
 76
     1
 77
     6
 78
     2
 67
     8
 79
     3
170
     0
171
     0
290
     0
174
     0
 93
        5
 44
0.0
173
     0
291
     0
 45
0.0
1001
ACAD
1000
AcDbSavedByObjectVersion
1070
     0
  0
VISUALSTYLE
  5
41C
102
{ACAD_REACTORS
330
3D6
102
}
102
{ACAD_XDICTIONARY
360
D68
102
}
330
3D6
100
AcDbVisualStyle
  2
Shaded with edges
 70
    26
 71
     2
 72
     2
 73
     1
 90
        2
 40
0.6
 41
30.0
 62
     5
 63
     7
 74
     1
 91
       10
 64
     7
 65
   257
 75
     2
175
     1
 42
1.0
 92
        8
 66
   257
 43
1.0
 76
     1
 77
     6
 78
     2
 67
     7
 79
     3
170
     0
171
     0
290
     0
174
     0
 93
        5
 44
0.0
173
     0
291
     0
 45
0.0
1001
ACAD
1000
AcDbSavedByObjectVersion
1070
     0
  0
VISUALSTYLE
  5
419
102
{ACAD_REACTORS
330
3D6
102
}
102
{ACAD_XDICTIONARY
360
D6A
102
}
330
3D6
100
AcDbVisualStyle
  2
Shades of Gray
 70
    23
 71
     2
 72
     2
 73
     3
 90
        0
 40
0.6
 41
30.0
 62
     5
 63
     7
 74
     2
 91
        2
 64
     7
 65
     7
 75
     1
175
     1
 42
40.0
 92
        8
 66
     7
 43
1.0
 76
     1
 77
     6
 78
     2
 67
     7
 79
     3
170
     0
171
     0
290
     0
174
     0
 93
        1
 44
0.0
173
     0
291
     0
 45
0.0
1001
ACAD
1000
AcDbSavedByObjectVersion
1070
     0
  0
VISUALSTYLE
  5
41A
102
{ACAD_REACTORS
330
3D6
102
}
102
{ACAD_XDICTIONARY
360
D6C
102
}
330
3D6
100
AcDbVisualStyle
  2
Sketchy
 70
    24
 71
     1
 72
     2
 73
     2
 90
        0
 40
0.6
 41
30.0
 62
     5
 63
     7
 74
     2
 91
        2
 64
     7
 65
     7
 75
     1
175
     1
 42
40.0
 92
       11
 66
     7
 43
1.0
 76
     1
 77
     6
 78
     2
 67
     7
 79
     6
170
     0
171
     0
290
     0
174
     0
 93
        1
 44
0.0
173
     0
291
     0
 45
0.0
1001
ACAD
1000
AcDbSavedByObjectVersion
1070
     0
  0
VISUALSTYLE
  5
3E3
102
{ACAD_REACTORS
330
3D6
102
}
102
{ACAD_XDICTIONARY
360
D6E
102
}
330
3D6
100
AcDbVisualStyle
  2
Thicken
 70
    13
 71
     2
 72
     2
 73
     0
 90
        0
 40
-0.6
 41
-30.0
 62
     5
 63
     7
 74
     1
 91
        4
 64
     7
 65
   257
 75
     1
175
     1
 42
1.0
 92
       12
 66
     7
 43
1.0
 76
     1
 77
     6
 78
     2
 67
     7
 79
     5
170
     0
171
     0
290
     0
174
     0
 93
        1
 44
0.0
173
     0
291
     1
 45
0.0
1001
ACAD
1000
AcDbSavedByObjectVersion
1070
     0
  0
VISUALSTYLE
  5
414
102
{ACAD_REACTORS
330
3D6
102
}
102
{ACAD_XDICTIONARY
360
D70
102
}
330
3D6
100
AcDbVisualStyle
  2
Wireframe
 70
     5
 71
     0
 72
     2
 73
     0
 90
        0
 40
0.6
 41
30.0
 62
     5
 63
     7
 74
     1
 91
        4
 64
     7
 65
   257
 75
     1
175
     1
 42
1.0
 92
        0
 66
   257
 43
1.0
 76
     1
 77
     6
 78
     2
 67
     7
 79
     3
170
     0
171
     0
290
     0
174
     0
 93
        1
 44
0.0
173
     0
291
     0
 45
0.0
1001
ACAD
1000
AcDbSavedByObjectVersion
1070
     0
  0
VISUALSTYLE
  5
41B
102
{ACAD_REACTORS
330
3D6
102
}
102
{ACAD_XDICTIONARY
360
D72
102
}
330
3D6
100
AcDbVisualStyle
  2
X-Ray
 70
    25
 71
     2
 72
     2
 73
     1
 90
        1
 40
0.5
 41
30.0
 62
     5
 63
     7
 74
     1
 91
        0
 64
     7
 65
   257
 75
     1
175
     1
 42
1.0
 92
        8
 66
     7
 43
1.0
 76
     1
 77
     6
 78
     2
 67
     7
 79
     3
170
     0
171
     0
290
     0
174
     0
 93
       13
 44
0.0
173
     0
291
     0
 45
0.0
1001
ACAD
1000
AcDbSavedByObjectVersion
1070
     0
  0
XRECORD
  5
D2D
102
{ACAD_REACTORS
330
D2C
102
}
330
D2C
100
AcDbXrecord
280
     1
340
3E7
  0
XRECORD
  5
D2E
102
{ACAD_REACTORS
330
D2C
102
}
330
D2C
100
AcDbXrecord
280
     1
340
3D2
  0
DICTIONARYVAR
  5
CED
102
{ACAD_REACTORS
330
3EF
102
}
330
3EF
100
DictionaryVariables
280
     0
  1
1:1
  0
DICTIONARYVAR
  5
7B5
102
{ACAD_REACTORS
330
3EF
102
}
330
3EF
100
DictionaryVariables
280
     0
  1
Standard
  0
DICTIONARYVAR
  5
3F0
102
{ACAD_REACTORS
330
3EF
102
}
330
3EF
100
DictionaryVariables
280
     0
  1
Standard
  0
DICTIONARYVAR
  5
C96
102
{ACAD_REACTORS
330
3EF
102
}
330
3EF
100
DictionaryVariables
280
     0
  1
2
  0
DICTIONARYVAR
  5
C95
102
{ACAD_REACTORS
330
3EF
102
}
330
3EF
100
DictionaryVariables
280
     0
  1
0
  0
DICTIONARYVAR
  5
7B6
102
{ACAD_REACTORS
330
3EF
102
}
330
3EF
100
DictionaryVariables
280
     0
  1
0
  0
DICTIONARYVAR
  5
7B7
102
{ACAD_REACTORS
330
3EF
102
}
330
3EF
100
DictionaryVariables
280
     0
  1
0
  0
DICTIONARY
  5
D36
330
3D4
100
AcDbDictionary
280
     1
281
     1
  3
ACAD_XREC_ROUNDTRIP
360
D37
  0
DICTIONARY
  5
D38
330
3D3
100
AcDbDictionary
280
     1
281
     1
  3
ACAD_XREC_ROUNDTRIP
360
D39
  0
DICTIONARY
  5
D3A
330
3D5
100
AcDbDictionary
280
     1
281
     1
  3
ACAD_XREC_ROUNDTRIP
360
D3B
  0
DICTIONARY
  5
D3C
330
41F
100
AcDbDictionary
280
     1
281
     1
  3
ACAD_XREC_ROUNDTRIP
360
D3D
  0
DICTIONARY
  5
D3E
330
3DC
100
AcDbDictionary
280
     1
281
     1
  3
ACAD_XREC_ROUNDTRIP
360
D3F
  0
DICTIONARY
  5
D40
330
3DE
100
AcDbDictionary
280
     1
281
     1
  3
ACAD_XREC_ROUNDTRIP
360
D41
  0
DICTIONARY
  5
D42
330
3DD
100
AcDbDictionary
280
     1
281
     1
  3
ACAD_XREC_ROUNDTRIP
360
D43
  0
DICTIONARY
  5
D44
330
3DB
100
AcDbDictionary
280
     1
281
     1
  3
ACAD_XREC_ROUNDTRIP
360
D45
  0
DICTIONARY
  5
D46
330
3E2
100
AcDbDictionary
280
     1
281
     1
  3
ACAD_XREC_ROUNDTRIP
360
D47
  0
DICTIONARY
  5
D48
330
3E6
100
AcDbDictionary
280
     1
281
     1
  3
ACAD_XREC_ROUNDTRIP
360
D49
  0
DICTIONARY
  5
D4A
330
3DF
100
AcDbDictionary
280
     1
281
     1
  3
ACAD_XREC_ROUNDTRIP
360
D4B
  0
DICTIONARY
  5
D4C
330
3E1
100
AcDbDictionary
280
     1
281
     1
  3
ACAD_XREC_ROUNDTRIP
360
D4D
  0
DICTIONARY
  5
D4E
330
418
100
AcDbDictionary
280
     1
281
     1
  3
ACAD_XREC_ROUNDTRIP
360
D4F
  0
DICTIONARY
  5
D50
330
3E5
100
AcDbDictionary
280
     1
281
     1
  3
ACAD_XREC_ROUNDTRIP
360
D51
  0
DICTIONARY
  5
D52
330
3D7
100
AcDbDictionary
280
     1
281
     1
  3
ACAD_XREC_ROUNDTRIP
360
D53
  0
DICTIONARY
  5
D54
330
3D8
100
AcDbDictionary
280
     1
281
     1
  3
ACAD_XREC_ROUNDTRIP
360
D55
  0
DICTIONARY
  5
D56
330
3D9
100
AcDbDictionary
280
     1
281
     1
  3
ACAD_XREC_ROUNDTRIP
360
D57
  0
DICTIONARY
  5
D58
330
3DA
100
AcDbDictionary
280
     1
281
     1
  3
ACAD_XREC_ROUNDTRIP
360
D59
  0
DICTIONARY
  5
D5A
330
415
100
AcDbDictionary
280
     1
281
     1
  3
ACAD_XREC_ROUNDTRIP
360
D5B
  0
DICTIONARY
  5
D5C
330
416
100
AcDbDictionary
280
     1
281
     1
  3
ACAD_XREC_ROUNDTRIP
360
D5D
  0
DICTIONARY
  5
D5E
330
3E4
100
AcDbDictionary
280
     1
281
     1
  3
ACAD_XREC_ROUNDTRIP
360
D5F
  0
DICTIONARY
  5
D60
330
420
100
AcDbDictionary
280
     1
281
     1
  3
ACAD_XREC_ROUNDTRIP
360
D61
  0
DICTIONARY
  5
D62
330
417
100
AcDbDictionary
280
     1
281
     1
  3
ACAD_XREC_ROUNDTRIP
360
D63
  0
DICTIONARY
  5
D64
330
3E0
100
AcDbDictionary
280
     1
281
     1
  3
ACAD_XREC_ROUNDTRIP
360
D65
  0
DICTIONARY
  5
D66
330
41D
100
AcDbDictionary
280
     1
281
     1
  3
ACAD_XREC_ROUNDTRIP
360
D67
  0
DICTIONARY
  5
D68
330
41C
100
AcDbDictionary
280
     1
281
     1
  3
ACAD_XREC_ROUNDTRIP
360
D69
  0
DICTIONARY
  5
D6A
330
419
100
AcDbDictionary
280
     1
281
     1
  3
ACAD_XREC_ROUNDTRIP
360
D6B
  0
DICTIONARY
  5
D6C
330
41A
100
AcDbDictionary
280
     1
281
     1
  3
ACAD_XREC_ROUNDTRIP
360
D6D
  0
DICTIONARY
  5
D6E
330
3E3
100
AcDbDictionary
280
     1
281
     1
  3
ACAD_XREC_ROUNDTRIP
360
D6F
  0
DICTIONARY
  5
D70
330
414
100
AcDbDictionary
280
     1
281
     1
  3
ACAD_XREC_ROUNDTRIP
360
D71
  0
DICTIONARY
  5
D72
330
41B
100
AcDbDictionary
280
     1
281
     1
  3
ACAD_XREC_ROUNDTRIP
360
D73
  0
XRECORD
  5
D37
102
{ACAD_REACTORS
330
D36
102
}
330
D36
100
AcDbXrecord
280
     1
102
MATERIAL
148
0.0
149
0.0
149
0.0
 93
        0
 94
       63
282
     0
 72
     1
 77
     1
171
     1
175
     1
179
     1
273
     0
  0
XRECORD
  5
D39
102
{ACAD_REACTORS
330
D38
102
}
330
D38
100
AcDbXrecord
280
     1
102
MATERIAL
148
0.0
149
0.0
149
0.0
 93
        0
 94
       63
282
     0
 72
     1
 77
     1
171
     1
175
     1
179
     1
273
     0
  0
XRECORD
  5
D3B
102
{ACAD_REACTORS
330
D3A
102
}
330
D3A
100
AcDbXrecord
280
     1
102
MATERIAL
148
0.0
149
0.0
149
0.0
 93
        0
 94
       63
282
     0
 72
     1
 77
     1
171
     1
175
     1
179
     1
273
     0
  0
XRECORD
  5
D3D
102
{ACAD_REACTORS
330
D3C
102
}
330
D3C
100
AcDbXrecord
280
     1
102
ACAD_ROUNDTRIP_2010_MLEADER_STYLE
  0
XRECORD
  5
D3F
102
{ACAD_REACTORS
330
D3E
102
}
330
D3E
100
AcDbXrecord
280
     1
102
RTVSPropertyOp0
 70
     1
102
RTVSPropertyOp1
 70
     1
102
RTVSPropertyOp2
 70
     1
102
RTVSPropertyOp3
 70
     1
102
RTVSPropertyOp4
 70
     1
102
RTVSPropertyOp5
 70
     1
102
RTVSPropertyOp6
 70
     1
102
RTVSPropertyOp7
 70
     1
102
RTVSPropertyOp8
 70
     1
102
RTVSPropertyOp9
 70
     1
102
RTVSPropertyOp10
 70
     1
102
RTVSPropertyOp11
 70
     1
102
RTVSPropertyOp12
 70
     1
102
RTVSPropertyOp13
 70
     1
102
RTVSPropertyOp14
 70
     1
102
RTVSPropertyOp15
 70
     1
102
RTVSPropertyOp16
 70
     1
102
RTVSPropertyOp17
 70
     1
102
RTVSPropertyOp18
 70
     1
102
RTVSPropertyOp19
 70
     1
102
RTVSPropertyOp20
 70
     1
102
RTVSPropertyOp21
 70
     1
102
RTVSPropertyOp22
 70
     1
102
RTVSPropertyOp23
 70
     1
102
RTVSPropertyOp24
 70
     1
102
RTVSPropertyOp25
 70
     1
102
RTVSPropertyOp26
 70
     1
102
RTVSPropertyOp27
 70
     1
102
RTVSPropertyOp28
 70
     1
102
RTVSPropertyOp29
 70
     1
102
RTVSPropertyOp30
 70
     1
102
RTVSPropertyOp31
 70
     1
102
RTVSPropertyOp32
 70
     1
102
RTVSPropertyOp33
 70
     1
102
RTVSPropertyOp34
 70
     1
102
RTVSPropertyOp35
 70
     1
102
RTVSPropertyOp36
 70
     1
102
RTVSPropertyOp37
 70
     1
102
RTVSPropertyOp38
 70
     1
102
RTVSPropertyOp39
 70
     1
102
RTVSPropertyOp40
 70
     1
102
RTVSPropertyOp41
 70
     1
102
RTVSPropertyOp42
 70
     1
102
RTVSPropertyOp43
 70
     1
102
RTVSPropertyOp44
 70
     1
102
RTVSPropertyOp45
 70
     1
102
RTVSPropertyOp46
 70
     1
102
RTVSPropertyOp47
 70
     1
102
RTVSPropertyOp48
 70
     1
102
RTVSPropertyOp49
 70
     1
102
RTVSPropertyOp50
 70
     1
102
RTVSPropertyOp51
 70
     0
102
RTVSPropertyOp52
 70
     0
102
RTVSPropertyOp53
 70
     1
102
RTVSPropertyOp54
 70
     1
102
RTVSPropertyOp55
 70
     1
102
RTVSPropertyOp56
 70
     1
102
RTVSPropertyOp57
 70
     1
102
RTVSPost2010Prop28
280
     1
102
RTVSPost2010PropOp28
 70
     1
102
RTVSPost2010Prop29
280
     1
102
RTVSPost2010PropOp29
 70
     1
102
RTVSPost2010Prop30
280
     0
102
RTVSPost2010PropOp30
 70
     1
102
RTVSPost2010Prop31
280
     0
102
RTVSPost2010PropOp31
 70
     1
102
RTVSPost2010Prop32
280
     0
102
RTVSPost2010PropOp32
 70
     1
102
RTVSPost2010Prop33
280
     0
102
RTVSPost2010PropOp33
 70
     1
102
RTVSPost2010Prop34
280
     0
102
RTVSPost2010PropOp34
 70
     1
102
RTVSPost2010Prop35
280
     0
102
RTVSPost2010PropOp35
 70
     1
102
RTVSPost2010Prop36
280
     0
102
RTVSPost2010PropOp36
 70
     1
102
RTVSPost2010Prop37
 90
       50
102
RTVSPost2010PropOp37
 70
     1
102
RTVSPost2010Prop38
140
0.0
102
RTVSPost2010PropOp38
 70
     1
102
RTVSPost2010Prop39
140
1.0
102
RTVSPost2010PropOp39
 70
     1
102
RTVSPost2010Prop40
 90
        0
102
RTVSPost2010PropOp40
 70
     1
102
RTVSPost2010Prop41ColorIndex
 90
       18
102
RTVSPost2010Prop41ColorRGB
 90
        0
102
RTVSPost2010PropOp41
 70
     1
102
RTVSPost2010Prop42
 90
       50
102
RTVSPost2010PropOp42
 70
     1
102
RTVSPost2010Prop43
 90
        3
102
RTVSPost2010PropOp43
 70
     1
102
RTVSPost2010Prop44ColorIndex
 90
        5
102
RTVSPost2010Prop44ColorRGB
 90
      255
102
RTVSPost2010PropOp44
 70
     1
102
RTVSPost2010Prop45
280
     0
102
RTVSPost2010PropOp45
 70
     1
102
RTVSPost2010Prop46
 90
       50
102
RTVSPost2010PropOp46
 70
     1
102
RTVSPost2010Prop47
 90
       50
102
RTVSPost2010PropOp47
 70
     1
102
RTVSPost2010Prop48
 90
       50
102
RTVSPost2010PropOp48
 70
     1
102
RTVSPost2010Prop49
280
     0
102
RTVSPost2010PropOp49
 70
     1
102
RTVSPost2010Prop50
 90
       50
102
RTVSPost2010PropOp50
 70
     1
102
RTVSPost2010Prop51ColorIndex
 90
      256
102
RTVSPost2010Prop51ColorRGB
 90
-16777216
102
RTVSPost2010PropOp51
 70
     0
102
RTVSPost2010Prop52
140
1.0
102
RTVSPost2010PropOp52
 70
     0
102
RTVSPost2010Prop53
 90
        2
102
RTVSPost2010PropOp53
 70
     1
102
RTVSPost2010Prop54
  1
strokes_ogs.tif
102
RTVSPost2010PropOp54
 70
     1
102
RTVSPost2010Prop55
280
     0
102
RTVSPost2010PropOp55
 70
     1
102
RTVSPost2010Prop56
140
1.0
102
RTVSPost2010PropOp56
 70
     1
102
RTVSPost2010Prop57
140
1.0
102
RTVSPost2010PropOp57
 70
     1
  0
XRECORD
  5
D41
102
{ACAD_REACTORS
330
D40
102
}
330
D40
100
AcDbXrecord
280
     1
102
RTVSPropertyOp0
 70
     1
102
RTVSPropertyOp1
 70
     1
102
RTVSPropertyOp2
 70
     1
102
RTVSPropertyOp3
 70
     1
102
RTVSPropertyOp4
 70
     1
102
RTVSPropertyOp5
 70
     1
102
RTVSPropertyOp6
 70
     1
102
RTVSPropertyOp7
 70
     1
102
RTVSPropertyOp8
 70
     1
102
RTVSPropertyOp9
 70
     1
102
RTVSPropertyOp10
 70
     1
102
RTVSPropertyOp11
 70
     1
102
RTVSPropertyOp12
 70
     1
102
RTVSPropertyOp13
 70
     1
102
RTVSPropertyOp14
 70
     1
102
RTVSPropertyOp15
 70
     1
102
RTVSPropertyOp16
 70
     1
102
RTVSPropertyOp17
 70
     1
102
RTVSPropertyOp18
 70
     1
102
RTVSPropertyOp19
 70
     1
102
RTVSPropertyOp20
 70
     1
102
RTVSPropertyOp21
 70
     1
102
RTVSPropertyOp22
 70
     1
102
RTVSPropertyOp23
 70
     1
102
RTVSPropertyOp24
 70
     1
102
RTVSPropertyOp25
 70
     1
102
RTVSPropertyOp26
 70
     1
102
RTVSPropertyOp27
 70
     1
102
RTVSPropertyOp28
 70
     1
102
RTVSPropertyOp29
 70
     1
102
RTVSPropertyOp30
 70
     1
102
RTVSPropertyOp31
 70
     1
102
RTVSPropertyOp32
 70
     1
102
RTVSPropertyOp33
 70
     1
102
RTVSPropertyOp34
 70
     1
102
RTVSPropertyOp35
 70
     1
102
RTVSPropertyOp36
 70
     1
102
RTVSPropertyOp37
 70
     1
102
RTVSPropertyOp38
 70
     1
102
RTVSPropertyOp39
 70
     1
102
RTVSPropertyOp40
 70
     1
102
RTVSPropertyOp41
 70
     1
102
RTVSPropertyOp42
 70
     1
102
RTVSPropertyOp43
 70
     1
102
RTVSPropertyOp44
 70
     1
102
RTVSPropertyOp45
 70
     1
102
RTVSPropertyOp46
 70
     1
102
RTVSPropertyOp47
 70
     1
102
RTVSPropertyOp48
 70
     1
102
RTVSPropertyOp49
 70
     1
102
RTVSPropertyOp50
 70
     1
102
RTVSPropertyOp51
 70
     0
102
RTVSPropertyOp52
 70
     0
102
RTVSPropertyOp53
 70
     1
102
RTVSPropertyOp54
 70
     1
102
RTVSPropertyOp55
 70
     1
102
RTVSPropertyOp56
 70
     1
102
RTVSPropertyOp57
 70
     1
102
RTVSPost2010Prop28
280
     0
102
RTVSPost2010PropOp28
 70
     1
102
RTVSPost2010Prop29
280
     1
102
RTVSPost2010PropOp29
 70
     1
102
RTVSPost2010Prop30
280
     1
102
RTVSPost2010PropOp30
 70
     1
102
RTVSPost2010Prop31
280
     0
102
RTVSPost2010PropOp31
 70
     1
102
RTVSPost2010Prop32
280
     0
102
RTVSPost2010PropOp32
 70
     1
102
RTVSPost2010Prop33
280
     0
102
RTVSPost2010PropOp33
 70
     1
102
RTVSPost2010Prop34
280
     0
102
RTVSPost2010PropOp34
 70
     1
102
RTVSPost2010Prop35
280
     0
102
RTVSPost2010PropOp35
 70
     1
102
RTVSPost2010Prop36
280
     0
102
RTVSPost2010PropOp36
 70
     1
102
RTVSPost2010Prop37
 90
       50
102
RTVSPost2010PropOp37
 70
     1
102
RTVSPost2010Prop38
140
0.0
102
RTVSPost2010PropOp38
 70
     1
102
RTVSPost2010Prop39
140
1.0
102
RTVSPost2010PropOp39
 70
     1
102
RTVSPost2010Prop40
 90
        0
102
RTVSPost2010PropOp40
 70
     1
102
RTVSPost2010Prop41ColorIndex
 90
       18
102
RTVSPost2010Prop41ColorRGB
 90
        0
102
RTVSPost2010PropOp41
 70
     1
102
RTVSPost2010Prop42
 90
       50
102
RTVSPost2010PropOp42
 70
     1
102
RTVSPost2010Prop43
 90
        3
102
RTVSPost2010PropOp43
 70
     1
102
RTVSPost2010Prop44ColorIndex
 90
        5
102
RTVSPost2010Prop44ColorRGB
 90
      255
102
RTVSPost2010PropOp44
 70
     1
102
RTVSPost2010Prop45
280
     0
102
RTVSPost2010PropOp45
 70
     1
102
RTVSPost2010Prop46
 90
       50
102
RTVSPost2010PropOp46
 70
     1
102
RTVSPost2010Prop47
 90
       50
102
RTVSPost2010PropOp47
 70
     1
102
RTVSPost2010Prop48
 90
       50
102
RTVSPost2010PropOp48
 70
     1
102
RTVSPost2010Prop49
280
     0
102
RTVSPost2010PropOp49
 70
     1
102
RTVSPost2010Prop50
 90
       50
102
RTVSPost2010PropOp50
 70
     1
102
RTVSPost2010Prop51ColorIndex
 90
      256
102
RTVSPost2010Prop51ColorRGB
 90
-16777216
102
RTVSPost2010PropOp51
 70
     0
102
RTVSPost2010Prop52
140
1.0
102
RTVSPost2010PropOp52
 70
     0
102
RTVSPost2010Prop53
 90
        2
102
RTVSPost2010PropOp53
 70
     1
102
RTVSPost2010Prop54
  1
strokes_ogs.tif
102
RTVSPost2010PropOp54
 70
     1
102
RTVSPost2010Prop55
280
     0
102
RTVSPost2010PropOp55
 70
     1
102
RTVSPost2010Prop56
140
1.0
102
RTVSPost2010PropOp56
 70
     1
102
RTVSPost2010Prop57
140
1.0
102
RTVSPost2010PropOp57
 70
     1
  0
XRECORD
  5
D43
102
{ACAD_REACTORS
330
D42
102
}
330
D42
100
AcDbXrecord
280
     1
102
RTVSPropertyOp0
 70
     1
102
RTVSPropertyOp1
 70
     1
102
RTVSPropertyOp2
 70
     1
102
RTVSPropertyOp3
 70
     1
102
RTVSPropertyOp4
 70
     1
102
RTVSPropertyOp5
 70
     1
102
RTVSPropertyOp6
 70
     1
102
RTVSPropertyOp7
 70
     1
102
RTVSPropertyOp8
 70
     1
102
RTVSPropertyOp9
 70
     1
102
RTVSPropertyOp10
 70
     1
102
RTVSPropertyOp11
 70
     1
102
RTVSPropertyOp12
 70
     1
102
RTVSPropertyOp13
 70
     1
102
RTVSPropertyOp14
 70
     1
102
RTVSPropertyOp15
 70
     1
102
RTVSPropertyOp16
 70
     1
102
RTVSPropertyOp17
 70
     1
102
RTVSPropertyOp18
 70
     1
102
RTVSPropertyOp19
 70
     1
102
RTVSPropertyOp20
 70
     1
102
RTVSPropertyOp21
 70
     1
102
RTVSPropertyOp22
 70
     1
102
RTVSPropertyOp23
 70
     1
102
RTVSPropertyOp24
 70
     1
102
RTVSPropertyOp25
 70
     1
102
RTVSPropertyOp26
 70
     1
102
RTVSPropertyOp27
 70
     1
102
RTVSPropertyOp28
 70
     1
102
RTVSPropertyOp29
 70
     1
102
RTVSPropertyOp30
 70
     1
102
RTVSPropertyOp31
 70
     1
102
RTVSPropertyOp32
 70
     1
102
RTVSPropertyOp33
 70
     1
102
RTVSPropertyOp34
 70
     1
102
RTVSPropertyOp35
 70
     1
102
RTVSPropertyOp36
 70
     1
102
RTVSPropertyOp37
 70
     1
102
RTVSPropertyOp38
 70
     1
102
RTVSPropertyOp39
 70
     1
102
RTVSPropertyOp40
 70
     1
102
RTVSPropertyOp41
 70
     1
102
RTVSPropertyOp42
 70
     1
102
RTVSPropertyOp43
 70
     1
102
RTVSPropertyOp44
 70
     1
102
RTVSPropertyOp45
 70
     1
102
RTVSPropertyOp46
 70
     1
102
RTVSPropertyOp47
 70
     1
102
RTVSPropertyOp48
 70
     1
102
RTVSPropertyOp49
 70
     1
102
RTVSPropertyOp50
 70
     1
102
RTVSPropertyOp51
 70
     0
102
RTVSPropertyOp52
 70
     0
102
RTVSPropertyOp53
 70
     1
102
RTVSPropertyOp54
 70
     1
102
RTVSPropertyOp55
 70
     1
102
RTVSPropertyOp56
 70
     1
102
RTVSPropertyOp57
 70
     1
102
RTVSPost2010Prop28
280
     0
102
RTVSPost2010PropOp28
 70
     1
102
RTVSPost2010Prop29
280
     1
102
RTVSPost2010PropOp29
 70
     1
102
RTVSPost2010Prop30
280
     1
102
RTVSPost2010PropOp30
 70
     1
102
RTVSPost2010Prop31
280
     0
102
RTVSPost2010PropOp31
 70
     1
102
RTVSPost2010Prop32
280
     0
102
RTVSPost2010PropOp32
 70
     1
102
RTVSPost2010Prop33
280
     0
102
RTVSPost2010PropOp33
 70
     1
102
RTVSPost2010Prop34
280
     0
102
RTVSPost2010PropOp34
 70
     1
102
RTVSPost2010Prop35
280
     0
102
RTVSPost2010PropOp35
 70
     1
102
RTVSPost2010Prop36
280
     0
102
RTVSPost2010PropOp36
 70
     1
102
RTVSPost2010Prop37
 90
       50
102
RTVSPost2010PropOp37
 70
     1
102
RTVSPost2010Prop38
140
0.0
102
RTVSPost2010PropOp38
 70
     1
102
RTVSPost2010Prop39
140
1.0
102
RTVSPost2010PropOp39
 70
     1
102
RTVSPost2010Prop40
 90
        0
102
RTVSPost2010PropOp40
 70
     1
102
RTVSPost2010Prop41ColorIndex
 90
       18
102
RTVSPost2010Prop41ColorRGB
 90
        0
102
RTVSPost2010PropOp41
 70
     1
102
RTVSPost2010Prop42
 90
       50
102
RTVSPost2010PropOp42
 70
     1
102
RTVSPost2010Prop43
 90
        3
102
RTVSPost2010PropOp43
 70
     1
102
RTVSPost2010Prop44ColorIndex
 90
        5
102
RTVSPost2010Prop44ColorRGB
 90
      255
102
RTVSPost2010PropOp44
 70
     1
102
RTVSPost2010Prop45
280
     0
102
RTVSPost2010PropOp45
 70
     1
102
RTVSPost2010Prop46
 90
       50
102
RTVSPost2010PropOp46
 70
     1
102
RTVSPost2010Prop47
 90
       50
102
RTVSPost2010PropOp47
 70
     1
102
RTVSPost2010Prop48
 90
       50
102
RTVSPost2010PropOp48
 70
     1
102
RTVSPost2010Prop49
280
     0
102
RTVSPost2010PropOp49
 70
     1
102
RTVSPost2010Prop50
 90
       50
102
RTVSPost2010PropOp50
 70
     1
102
RTVSPost2010Prop51ColorIndex
 90
      256
102
RTVSPost2010Prop51ColorRGB
 90
-16777216
102
RTVSPost2010PropOp51
 70
     0
102
RTVSPost2010Prop52
140
1.0
102
RTVSPost2010PropOp52
 70
     0
102
RTVSPost2010Prop53
 90
        2
102
RTVSPost2010PropOp53
 70
     1
102
RTVSPost2010Prop54
  1
strokes_ogs.tif
102
RTVSPost2010PropOp54
 70
     1
102
RTVSPost2010Prop55
280
     0
102
RTVSPost2010PropOp55
 70
     1
102
RTVSPost2010Prop56
140
1.0
102
RTVSPost2010PropOp56
 70
     1
102
RTVSPost2010Prop57
140
1.0
102
RTVSPost2010PropOp57
 70
     1
  0
XRECORD
  5
D45
102
{ACAD_REACTORS
330
D44
102
}
330
D44
100
AcDbXrecord
280
     1
102
RTVSPropertyOp0
 70
     1
102
RTVSPropertyOp1
 70
     1
102
RTVSPropertyOp2
 70
     1
102
RTVSPropertyOp3
 70
     1
102
RTVSPropertyOp4
 70
     1
102
RTVSPropertyOp5
 70
     1
102
RTVSPropertyOp6
 70
     1
102
RTVSPropertyOp7
 70
     1
102
RTVSPropertyOp8
 70
     1
102
RTVSPropertyOp9
 70
     1
102
RTVSPropertyOp10
 70
     1
102
RTVSPropertyOp11
 70
     1
102
RTVSPropertyOp12
 70
     1
102
RTVSPropertyOp13
 70
     1
102
RTVSPropertyOp14
 70
     1
102
RTVSPropertyOp15
 70
     1
102
RTVSPropertyOp16
 70
     1
102
RTVSPropertyOp17
 70
     1
102
RTVSPropertyOp18
 70
     1
102
RTVSPropertyOp19
 70
     1
102
RTVSPropertyOp20
 70
     1
102
RTVSPropertyOp21
 70
     1
102
RTVSPropertyOp22
 70
     1
102
RTVSPropertyOp23
 70
     1
102
RTVSPropertyOp24
 70
     1
102
RTVSPropertyOp25
 70
     1
102
RTVSPropertyOp26
 70
     1
102
RTVSPropertyOp27
 70
     1
102
RTVSPropertyOp28
 70
     1
102
RTVSPropertyOp29
 70
     1
102
RTVSPropertyOp30
 70
     1
102
RTVSPropertyOp31
 70
     1
102
RTVSPropertyOp32
 70
     1
102
RTVSPropertyOp33
 70
     1
102
RTVSPropertyOp34
 70
     1
102
RTVSPropertyOp35
 70
     1
102
RTVSPropertyOp36
 70
     1
102
RTVSPropertyOp37
 70
     1
102
RTVSPropertyOp38
 70
     1
102
RTVSPropertyOp39
 70
     1
102
RTVSPropertyOp40
 70
     1
102
RTVSPropertyOp41
 70
     1
102
RTVSPropertyOp42
 70
     1
102
RTVSPropertyOp43
 70
     1
102
RTVSPropertyOp44
 70
     1
102
RTVSPropertyOp45
 70
     1
102
RTVSPropertyOp46
 70
     1
102
RTVSPropertyOp47
 70
     1
102
RTVSPropertyOp48
 70
     1
102
RTVSPropertyOp49
 70
     1
102
RTVSPropertyOp50
 70
     1
102
RTVSPropertyOp51
 70
     0
102
RTVSPropertyOp52
 70
     0
102
RTVSPropertyOp53
 70
     1
102
RTVSPropertyOp54
 70
     1
102
RTVSPropertyOp55
 70
     1
102
RTVSPropertyOp56
 70
     1
102
RTVSPropertyOp57
 70
     1
102
RTVSPost2010Prop28
280
     0
102
RTVSPost2010PropOp28
 70
     1
102
RTVSPost2010Prop29
280
     1
102
RTVSPost2010PropOp29
 70
     1
102
RTVSPost2010Prop30
280
     1
102
RTVSPost2010PropOp30
 70
     1
102
RTVSPost2010Prop31
280
     0
102
RTVSPost2010PropOp31
 70
     1
102
RTVSPost2010Prop32
280
     0
102
RTVSPost2010PropOp32
 70
     1
102
RTVSPost2010Prop33
280
     0
102
RTVSPost2010PropOp33
 70
     1
102
RTVSPost2010Prop34
280
     0
102
RTVSPost2010PropOp34
 70
     1
102
RTVSPost2010Prop35
280
     0
102
RTVSPost2010PropOp35
 70
     1
102
RTVSPost2010Prop36
280
     0
102
RTVSPost2010PropOp36
 70
     1
102
RTVSPost2010Prop37
 90
       50
102
RTVSPost2010PropOp37
 70
     1
102
RTVSPost2010Prop38
140
0.0
102
RTVSPost2010PropOp38
 70
     1
102
RTVSPost2010Prop39
140
1.0
102
RTVSPost2010PropOp39
 70
     1
102
RTVSPost2010Prop40
 90
        0
102
RTVSPost2010PropOp40
 70
     1
102
RTVSPost2010Prop41ColorIndex
 90
       18
102
RTVSPost2010Prop41ColorRGB
 90
        0
102
RTVSPost2010PropOp41
 70
     1
102
RTVSPost2010Prop42
 90
       50
102
RTVSPost2010PropOp42
 70
     1
102
RTVSPost2010Prop43
 90
        3
102
RTVSPost2010PropOp43
 70
     1
102
RTVSPost2010Prop44ColorIndex
 90
        5
102
RTVSPost2010Prop44ColorRGB
 90
      255
102
RTVSPost2010PropOp44
 70
     1
102
RTVSPost2010Prop45
280
     0
102
RTVSPost2010PropOp45
 70
     1
102
RTVSPost2010Prop46
 90
       50
102
RTVSPost2010PropOp46
 70
     1
102
RTVSPost2010Prop47
 90
       50
102
RTVSPost2010PropOp47
 70
     1
102
RTVSPost2010Prop48
 90
       50
102
RTVSPost2010PropOp48
 70
     1
102
RTVSPost2010Prop49
280
     0
102
RTVSPost2010PropOp49
 70
     1
102
RTVSPost2010Prop50
 90
       50
102
RTVSPost2010PropOp50
 70
     1
102
RTVSPost2010Prop51ColorIndex
 90
      256
102
RTVSPost2010Prop51ColorRGB
 90
-16777216
102
RTVSPost2010PropOp51
 70
     0
102
RTVSPost2010Prop52
140
1.0
102
RTVSPost2010PropOp52
 70
     0
102
RTVSPost2010Prop53
 90
        2
102
RTVSPost2010PropOp53
 70
     1
102
RTVSPost2010Prop54
  1
strokes_ogs.tif
102
RTVSPost2010PropOp54
 70
     1
102
RTVSPost2010Prop55
280
     0
102
RTVSPost2010PropOp55
 70
     1
102
RTVSPost2010Prop56
140
1.0
102
RTVSPost2010PropOp56
 70
     1
102
RTVSPost2010Prop57
140
1.0
102
RTVSPost2010PropOp57
 70
     1
  0
XRECORD
  5
D47
102
{ACAD_REACTORS
330
D46
102
}
330
D46
100
AcDbXrecord
280
     1
102
RTVSPropertyOp0
 70
     1
102
RTVSPropertyOp1
 70
     1
102
RTVSPropertyOp2
 70
     1
102
RTVSPropertyOp3
 70
     1
102
RTVSPropertyOp4
 70
     1
102
RTVSPropertyOp5
 70
     1
102
RTVSPropertyOp6
 70
     1
102
RTVSPropertyOp7
 70
     1
102
RTVSPropertyOp8
 70
     1
102
RTVSPropertyOp9
 70
     1
102
RTVSPropertyOp10
 70
     1
102
RTVSPropertyOp11
 70
     1
102
RTVSPropertyOp12
 70
     1
102
RTVSPropertyOp13
 70
     1
102
RTVSPropertyOp14
 70
     1
102
RTVSPropertyOp15
 70
     1
102
RTVSPropertyOp16
 70
     1
102
RTVSPropertyOp17
 70
     1
102
RTVSPropertyOp18
 70
     1
102
RTVSPropertyOp19
 70
     1
102
RTVSPropertyOp20
 70
     1
102
RTVSPropertyOp21
 70
     1
102
RTVSPropertyOp22
 70
     1
102
RTVSPropertyOp23
 70
     1
102
RTVSPropertyOp24
 70
     1
102
RTVSPropertyOp25
 70
     1
102
RTVSPropertyOp26
 70
     1
102
RTVSPropertyOp27
 70
     1
102
RTVSPropertyOp28
 70
     1
102
RTVSPropertyOp29
 70
     1
102
RTVSPropertyOp30
 70
     1
102
RTVSPropertyOp31
 70
     1
102
RTVSPropertyOp32
 70
     1
102
RTVSPropertyOp33
 70
     1
102
RTVSPropertyOp34
 70
     1
102
RTVSPropertyOp35
 70
     1
102
RTVSPropertyOp36
 70
     1
102
RTVSPropertyOp37
 70
     1
102
RTVSPropertyOp38
 70
     1
102
RTVSPropertyOp39
 70
     1
102
RTVSPropertyOp40
 70
     1
102
RTVSPropertyOp41
 70
     1
102
RTVSPropertyOp42
 70
     1
102
RTVSPropertyOp43
 70
     1
102
RTVSPropertyOp44
 70
     1
102
RTVSPropertyOp45
 70
     1
102
RTVSPropertyOp46
 70
     1
102
RTVSPropertyOp47
 70
     1
102
RTVSPropertyOp48
 70
     1
102
RTVSPropertyOp49
 70
     1
102
RTVSPropertyOp50
 70
     1
102
RTVSPropertyOp51
 70
     0
102
RTVSPropertyOp52
 70
     0
102
RTVSPropertyOp53
 70
     1
102
RTVSPropertyOp54
 70
     1
102
RTVSPropertyOp55
 70
     1
102
RTVSPropertyOp56
 70
     1
102
RTVSPropertyOp57
 70
     1
102
RTVSPost2010Prop28
280
     0
102
RTVSPost2010PropOp28
 70
     1
102
RTVSPost2010Prop29
280
     1
102
RTVSPost2010PropOp29
 70
     1
102
RTVSPost2010Prop30
280
     1
102
RTVSPost2010PropOp30
 70
     1
102
RTVSPost2010Prop31
280
     0
102
RTVSPost2010PropOp31
 70
     1
102
RTVSPost2010Prop32
280
     0
102
RTVSPost2010PropOp32
 70
     1
102
RTVSPost2010Prop33
280
     0
102
RTVSPost2010PropOp33
 70
     1
102
RTVSPost2010Prop34
280
     0
102
RTVSPost2010PropOp34
 70
     1
102
RTVSPost2010Prop35
280
     0
102
RTVSPost2010PropOp35
 70
     1
102
RTVSPost2010Prop36
280
     0
102
RTVSPost2010PropOp36
 70
     1
102
RTVSPost2010Prop37
 90
       50
102
RTVSPost2010PropOp37
 70
     1
102
RTVSPost2010Prop38
140
0.0
102
RTVSPost2010PropOp38
 70
     1
102
RTVSPost2010Prop39
140
1.0
102
RTVSPost2010PropOp39
 70
     1
102
RTVSPost2010Prop40
 90
        0
102
RTVSPost2010PropOp40
 70
     1
102
RTVSPost2010Prop41ColorIndex
 90
       18
102
RTVSPost2010Prop41ColorRGB
 90
        0
102
RTVSPost2010PropOp41
 70
     1
102
RTVSPost2010Prop42
 90
       50
102
RTVSPost2010PropOp42
 70
     1
102
RTVSPost2010Prop43
 90
        3
102
RTVSPost2010PropOp43
 70
     1
102
RTVSPost2010Prop44ColorIndex
 90
        5
102
RTVSPost2010Prop44ColorRGB
 90
      255
102
RTVSPost2010PropOp44
 70
     1
102
RTVSPost2010Prop45
280
     0
102
RTVSPost2010PropOp45
 70
     1
102
RTVSPost2010Prop46
 90
       50
102
RTVSPost2010PropOp46
 70
     1
102
RTVSPost2010Prop47
 90
       50
102
RTVSPost2010PropOp47
 70
     1
102
RTVSPost2010Prop48
 90
       50
102
RTVSPost2010PropOp48
 70
     1
102
RTVSPost2010Prop49
280
     0
102
RTVSPost2010PropOp49
 70
     1
102
RTVSPost2010Prop50
 90
       50
102
RTVSPost2010PropOp50
 70
     1
102
RTVSPost2010Prop51ColorIndex
 90
      256
102
RTVSPost2010Prop51ColorRGB
 90
-16777216
102
RTVSPost2010PropOp51
 70
     0
102
RTVSPost2010Prop52
140
1.0
102
RTVSPost2010PropOp52
 70
     0
102
RTVSPost2010Prop53
 90
        2
102
RTVSPost2010PropOp53
 70
     1
102
RTVSPost2010Prop54
  1
strokes_ogs.tif
102
RTVSPost2010PropOp54
 70
     1
102
RTVSPost2010Prop55
280
     0
102
RTVSPost2010PropOp55
 70
     1
102
RTVSPost2010Prop56
140
1.0
102
RTVSPost2010PropOp56
 70
     1
102
RTVSPost2010Prop57
140
1.0
102
RTVSPost2010PropOp57
 70
     1
  0
XRECORD
  5
D49
102
{ACAD_REACTORS
330
D48
102
}
330
D48
100
AcDbXrecord
280
     1
102
RTVSPropertyOp0
 70
     1
102
RTVSPropertyOp1
 70
     1
102
RTVSPropertyOp2
 70
     1
102
RTVSPropertyOp3
 70
     1
102
RTVSPropertyOp4
 70
     1
102
RTVSPropertyOp5
 70
     1
102
RTVSPropertyOp6
 70
     1
102
RTVSPropertyOp7
 70
     1
102
RTVSPropertyOp8
 70
     1
102
RTVSPropertyOp9
 70
     1
102
RTVSPropertyOp10
 70
     1
102
RTVSPropertyOp11
 70
     1
102
RTVSPropertyOp12
 70
     1
102
RTVSPropertyOp13
 70
     1
102
RTVSPropertyOp14
 70
     1
102
RTVSPropertyOp15
 70
     1
102
RTVSPropertyOp16
 70
     1
102
RTVSPropertyOp17
 70
     1
102
RTVSPropertyOp18
 70
     1
102
RTVSPropertyOp19
 70
     1
102
RTVSPropertyOp20
 70
     1
102
RTVSPropertyOp21
 70
     1
102
RTVSPropertyOp22
 70
     1
102
RTVSPropertyOp23
 70
     1
102
RTVSPropertyOp24
 70
     1
102
RTVSPropertyOp25
 70
     1
102
RTVSPropertyOp26
 70
     1
102
RTVSPropertyOp27
 70
     1
102
RTVSPropertyOp28
 70
     1
102
RTVSPropertyOp29
 70
     1
102
RTVSPropertyOp30
 70
     1
102
RTVSPropertyOp31
 70
     1
102
RTVSPropertyOp32
 70
     1
102
RTVSPropertyOp33
 70
     1
102
RTVSPropertyOp34
 70
     1
102
RTVSPropertyOp35
 70
     1
102
RTVSPropertyOp36
 70
     1
102
RTVSPropertyOp37
 70
     1
102
RTVSPropertyOp38
 70
     1
102
RTVSPropertyOp39
 70
     1
102
RTVSPropertyOp40
 70
     1
102
RTVSPropertyOp41
 70
     1
102
RTVSPropertyOp42
 70
     1
102
RTVSPropertyOp43
 70
     1
102
RTVSPropertyOp44
 70
     1
102
RTVSPropertyOp45
 70
     1
102
RTVSPropertyOp46
 70
     1
102
RTVSPropertyOp47
 70
     1
102
RTVSPropertyOp48
 70
     1
102
RTVSPropertyOp49
 70
     1
102
RTVSPropertyOp50
 70
     1
102
RTVSPropertyOp51
 70
     0
102
RTVSPropertyOp52
 70
     0
102
RTVSPropertyOp53
 70
     1
102
RTVSPropertyOp54
 70
     1
102
RTVSPropertyOp55
 70
     1
102
RTVSPropertyOp56
 70
     1
102
RTVSPropertyOp57
 70
     1
102
RTVSPost2010Prop28
280
     0
102
RTVSPost2010PropOp28
 70
     1
102
RTVSPost2010Prop29
280
     1
102
RTVSPost2010PropOp29
 70
     1
102
RTVSPost2010Prop30
280
     1
102
RTVSPost2010PropOp30
 70
     1
102
RTVSPost2010Prop31
280
     0
102
RTVSPost2010PropOp31
 70
     1
102
RTVSPost2010Prop32
280
     0
102
RTVSPost2010PropOp32
 70
     1
102
RTVSPost2010Prop33
280
     0
102
RTVSPost2010PropOp33
 70
     1
102
RTVSPost2010Prop34
280
     0
102
RTVSPost2010PropOp34
 70
     1
102
RTVSPost2010Prop35
280
     0
102
RTVSPost2010PropOp35
 70
     1
102
RTVSPost2010Prop36
280
     0
102
RTVSPost2010PropOp36
 70
     1
102
RTVSPost2010Prop37
 90
       50
102
RTVSPost2010PropOp37
 70
     1
102
RTVSPost2010Prop38
140
0.0
102
RTVSPost2010PropOp38
 70
     1
102
RTVSPost2010Prop39
140
1.0
102
RTVSPost2010PropOp39
 70
     1
102
RTVSPost2010Prop40
 90
        0
102
RTVSPost2010PropOp40
 70
     1
102
RTVSPost2010Prop41ColorIndex
 90
       18
102
RTVSPost2010Prop41ColorRGB
 90
        0
102
RTVSPost2010PropOp41
 70
     1
102
RTVSPost2010Prop42
 90
       50
102
RTVSPost2010PropOp42
 70
     1
102
RTVSPost2010Prop43
 90
        3
102
RTVSPost2010PropOp43
 70
     1
102
RTVSPost2010Prop44ColorIndex
 90
        5
102
RTVSPost2010Prop44ColorRGB
 90
      255
102
RTVSPost2010PropOp44
 70
     1
102
RTVSPost2010Prop45
280
     0
102
RTVSPost2010PropOp45
 70
     1
102
RTVSPost2010Prop46
 90
       50
102
RTVSPost2010PropOp46
 70
     1
102
RTVSPost2010Prop47
 90
       50
102
RTVSPost2010PropOp47
 70
     1
102
RTVSPost2010Prop48
 90
       50
102
RTVSPost2010PropOp48
 70
     1
102
RTVSPost2010Prop49
280
     0
102
RTVSPost2010PropOp49
 70
     1
102
RTVSPost2010Prop50
 90
       50
102
RTVSPost2010PropOp50
 70
     1
102
RTVSPost2010Prop51ColorIndex
 90
      256
102
RTVSPost2010Prop51ColorRGB
 90
-16777216
102
RTVSPost2010PropOp51
 70
     0
102
RTVSPost2010Prop52
140
1.0
102
RTVSPost2010PropOp52
 70
     0
102
RTVSPost2010Prop53
 90
        2
102
RTVSPost2010PropOp53
 70
     1
102
RTVSPost2010Prop54
  1
strokes_ogs.tif
102
RTVSPost2010PropOp54
 70
     1
102
RTVSPost2010Prop55
280
     0
102
RTVSPost2010PropOp55
 70
     1
102
RTVSPost2010Prop56
140
1.0
102
RTVSPost2010PropOp56
 70
     1
102
RTVSPost2010Prop57
140
1.0
102
RTVSPost2010PropOp57
 70
     1
  0
XRECORD
  5
D4B
102
{ACAD_REACTORS
330
D4A
102
}
330
D4A
100
AcDbXrecord
280
     1
102
RTVSPropertyOp0
 70
     1
102
RTVSPropertyOp1
 70
     1
102
RTVSPropertyOp2
 70
     1
102
RTVSPropertyOp3
 70
     1
102
RTVSPropertyOp4
 70
     1
102
RTVSPropertyOp5
 70
     1
102
RTVSPropertyOp6
 70
     1
102
RTVSPropertyOp7
 70
     1
102
RTVSPropertyOp8
 70
     1
102
RTVSPropertyOp9
 70
     1
102
RTVSPropertyOp10
 70
     1
102
RTVSPropertyOp11
 70
     1
102
RTVSPropertyOp12
 70
     1
102
RTVSPropertyOp13
 70
     1
102
RTVSPropertyOp14
 70
     1
102
RTVSPropertyOp15
 70
     1
102
RTVSPropertyOp16
 70
     1
102
RTVSPropertyOp17
 70
     1
102
RTVSPropertyOp18
 70
     1
102
RTVSPropertyOp19
 70
     1
102
RTVSPropertyOp20
 70
     1
102
RTVSPropertyOp21
 70
     1
102
RTVSPropertyOp22
 70
     1
102
RTVSPropertyOp23
 70
     1
102
RTVSPropertyOp24
 70
     1
102
RTVSPropertyOp25
 70
     1
102
RTVSPropertyOp26
 70
     1
102
RTVSPropertyOp27
 70
     1
102
RTVSPropertyOp28
 70
     1
102
RTVSPropertyOp29
 70
     1
102
RTVSPropertyOp30
 70
     1
102
RTVSPropertyOp31
 70
     1
102
RTVSPropertyOp32
 70
     1
102
RTVSPropertyOp33
 70
     1
102
RTVSPropertyOp34
 70
     1
102
RTVSPropertyOp35
 70
     1
102
RTVSPropertyOp36
 70
     1
102
RTVSPropertyOp37
 70
     1
102
RTVSPropertyOp38
 70
     1
102
RTVSPropertyOp39
 70
     1
102
RTVSPropertyOp40
 70
     1
102
RTVSPropertyOp41
 70
     1
102
RTVSPropertyOp42
 70
     1
102
RTVSPropertyOp43
 70
     1
102
RTVSPropertyOp44
 70
     1
102
RTVSPropertyOp45
 70
     1
102
RTVSPropertyOp46
 70
     1
102
RTVSPropertyOp47
 70
     1
102
RTVSPropertyOp48
 70
     1
102
RTVSPropertyOp49
 70
     1
102
RTVSPropertyOp50
 70
     1
102
RTVSPropertyOp51
 70
     0
102
RTVSPropertyOp52
 70
     0
102
RTVSPropertyOp53
 70
     1
102
RTVSPropertyOp54
 70
     1
102
RTVSPropertyOp55
 70
     1
102
RTVSPropertyOp56
 70
     1
102
RTVSPropertyOp57
 70
     1
102
RTVSPost2010Prop28
280
     0
102
RTVSPost2010PropOp28
 70
     1
102
RTVSPost2010Prop29
280
     1
102
RTVSPost2010PropOp29
 70
     1
102
RTVSPost2010Prop30
280
     1
102
RTVSPost2010PropOp30
 70
     1
102
RTVSPost2010Prop31
280
     0
102
RTVSPost2010PropOp31
 70
     1
102
RTVSPost2010Prop32
280
     0
102
RTVSPost2010PropOp32
 70
     1
102
RTVSPost2010Prop33
280
     0
102
RTVSPost2010PropOp33
 70
     1
102
RTVSPost2010Prop34
280
     0
102
RTVSPost2010PropOp34
 70
     1
102
RTVSPost2010Prop35
280
     0
102
RTVSPost2010PropOp35
 70
     1
102
RTVSPost2010Prop36
280
     0
102
RTVSPost2010PropOp36
 70
     1
102
RTVSPost2010Prop37
 90
       50
102
RTVSPost2010PropOp37
 70
     1
102
RTVSPost2010Prop38
140
0.0
102
RTVSPost2010PropOp38
 70
     1
102
RTVSPost2010Prop39
140
1.0
102
RTVSPost2010PropOp39
 70
     1
102
RTVSPost2010Prop40
 90
        0
102
RTVSPost2010PropOp40
 70
     1
102
RTVSPost2010Prop41ColorIndex
 90
       18
102
RTVSPost2010Prop41ColorRGB
 90
        0
102
RTVSPost2010PropOp41
 70
     1
102
RTVSPost2010Prop42
 90
       50
102
RTVSPost2010PropOp42
 70
     1
102
RTVSPost2010Prop43
 90
        3
102
RTVSPost2010PropOp43
 70
     1
102
RTVSPost2010Prop44ColorIndex
 90
        5
102
RTVSPost2010Prop44ColorRGB
 90
      255
102
RTVSPost2010PropOp44
 70
     1
102
RTVSPost2010Prop45
280
     0
102
RTVSPost2010PropOp45
 70
     1
102
RTVSPost2010Prop46
 90
       50
102
RTVSPost2010PropOp46
 70
     1
102
RTVSPost2010Prop47
 90
       50
102
RTVSPost2010PropOp47
 70
     1
102
RTVSPost2010Prop48
 90
       50
102
RTVSPost2010PropOp48
 70
     1
102
RTVSPost2010Prop49
280
     0
102
RTVSPost2010PropOp49
 70
     1
102
RTVSPost2010Prop50
 90
       50
102
RTVSPost2010PropOp50
 70
     1
102
RTVSPost2010Prop51ColorIndex
 90
      256
102
RTVSPost2010Prop51ColorRGB
 90
-16777216
102
RTVSPost2010PropOp51
 70
     0
102
RTVSPost2010Prop52
140
1.0
102
RTVSPost2010PropOp52
 70
     0
102
RTVSPost2010Prop53
 90
        2
102
RTVSPost2010PropOp53
 70
     1
102
RTVSPost2010Prop54
  1
strokes_ogs.tif
102
RTVSPost2010PropOp54
 70
     1
102
RTVSPost2010Prop55
280
     0
102
RTVSPost2010PropOp55
 70
     1
102
RTVSPost2010Prop56
140
1.0
102
RTVSPost2010PropOp56
 70
     1
102
RTVSPost2010Prop57
140
1.0
102
RTVSPost2010PropOp57
 70
     1
  0
XRECORD
  5
D4D
102
{ACAD_REACTORS
330
D4C
102
}
330
D4C
100
AcDbXrecord
280
     1
102
RTVSPropertyOp0
 70
     1
102
RTVSPropertyOp1
 70
     1
102
RTVSPropertyOp2
 70
     1
102
RTVSPropertyOp3
 70
     1
102
RTVSPropertyOp4
 70
     1
102
RTVSPropertyOp5
 70
     1
102
RTVSPropertyOp6
 70
     1
102
RTVSPropertyOp7
 70
     1
102
RTVSPropertyOp8
 70
     1
102
RTVSPropertyOp9
 70
     1
102
RTVSPropertyOp10
 70
     1
102
RTVSPropertyOp11
 70
     1
102
RTVSPropertyOp12
 70
     1
102
RTVSPropertyOp13
 70
     1
102
RTVSPropertyOp14
 70
     1
102
RTVSPropertyOp15
 70
     1
102
RTVSPropertyOp16
 70
     1
102
RTVSPropertyOp17
 70
     1
102
RTVSPropertyOp18
 70
     1
102
RTVSPropertyOp19
 70
     1
102
RTVSPropertyOp20
 70
     1
102
RTVSPropertyOp21
 70
     1
102
RTVSPropertyOp22
 70
     1
102
RTVSPropertyOp23
 70
     1
102
RTVSPropertyOp24
 70
     1
102
RTVSPropertyOp25
 70
     1
102
RTVSPropertyOp26
 70
     1
102
RTVSPropertyOp27
 70
     1
102
RTVSPropertyOp28
 70
     1
102
RTVSPropertyOp29
 70
     1
102
RTVSPropertyOp30
 70
     1
102
RTVSPropertyOp31
 70
     1
102
RTVSPropertyOp32
 70
     1
102
RTVSPropertyOp33
 70
     1
102
RTVSPropertyOp34
 70
     1
102
RTVSPropertyOp35
 70
     1
102
RTVSPropertyOp36
 70
     1
102
RTVSPropertyOp37
 70
     1
102
RTVSPropertyOp38
 70
     1
102
RTVSPropertyOp39
 70
     1
102
RTVSPropertyOp40
 70
     1
102
RTVSPropertyOp41
 70
     1
102
RTVSPropertyOp42
 70
     1
102
RTVSPropertyOp43
 70
     1
102
RTVSPropertyOp44
 70
     1
102
RTVSPropertyOp45
 70
     1
102
RTVSPropertyOp46
 70
     1
102
RTVSPropertyOp47
 70
     1
102
RTVSPropertyOp48
 70
     1
102
RTVSPropertyOp49
 70
     1
102
RTVSPropertyOp50
 70
     1
102
RTVSPropertyOp51
 70
     0
102
RTVSPropertyOp52
 70
     0
102
RTVSPropertyOp53
 70
     1
102
RTVSPropertyOp54
 70
     1
102
RTVSPropertyOp55
 70
     1
102
RTVSPropertyOp56
 70
     1
102
RTVSPropertyOp57
 70
     1
102
RTVSPost2010Prop28
280
     0
102
RTVSPost2010PropOp28
 70
     1
102
RTVSPost2010Prop29
280
     1
102
RTVSPost2010PropOp29
 70
     1
102
RTVSPost2010Prop30
280
     1
102
RTVSPost2010PropOp30
 70
     1
102
RTVSPost2010Prop31
280
     0
102
RTVSPost2010PropOp31
 70
     1
102
RTVSPost2010Prop32
280
     0
102
RTVSPost2010PropOp32
 70
     1
102
RTVSPost2010Prop33
280
     0
102
RTVSPost2010PropOp33
 70
     1
102
RTVSPost2010Prop34
280
     0
102
RTVSPost2010PropOp34
 70
     1
102
RTVSPost2010Prop35
280
     0
102
RTVSPost2010PropOp35
 70
     1
102
RTVSPost2010Prop36
280
     0
102
RTVSPost2010PropOp36
 70
     1
102
RTVSPost2010Prop37
 90
       50
102
RTVSPost2010PropOp37
 70
     1
102
RTVSPost2010Prop38
140
0.0
102
RTVSPost2010PropOp38
 70
     1
102
RTVSPost2010Prop39
140
1.0
102
RTVSPost2010PropOp39
 70
     1
102
RTVSPost2010Prop40
 90
        0
102
RTVSPost2010PropOp40
 70
     1
102
RTVSPost2010Prop41ColorIndex
 90
       18
102
RTVSPost2010Prop41ColorRGB
 90
        0
102
RTVSPost2010PropOp41
 70
     1
102
RTVSPost2010Prop42
 90
       50
102
RTVSPost2010PropOp42
 70
     1
102
RTVSPost2010Prop43
 90
        3
102
RTVSPost2010PropOp43
 70
     1
102
RTVSPost2010Prop44ColorIndex
 90
        5
102
RTVSPost2010Prop44ColorRGB
 90
      255
102
RTVSPost2010PropOp44
 70
     1
102
RTVSPost2010Prop45
280
     0
102
RTVSPost2010PropOp45
 70
     1
102
RTVSPost2010Prop46
 90
       50
102
RTVSPost2010PropOp46
 70
     1
102
RTVSPost2010Prop47
 90
       50
102
RTVSPost2010PropOp47
 70
     1
102
RTVSPost2010Prop48
 90
       50
102
RTVSPost2010PropOp48
 70
     1
102
RTVSPost2010Prop49
280
     0
102
RTVSPost2010PropOp49
 70
     1
102
RTVSPost2010Prop50
 90
       50
102
RTVSPost2010PropOp50
 70
     1
102
RTVSPost2010Prop51ColorIndex
 90
      256
102
RTVSPost2010Prop51ColorRGB
 90
-16777216
102
RTVSPost2010PropOp51
 70
     0
102
RTVSPost2010Prop52
140
1.0
102
RTVSPost2010PropOp52
 70
     0
102
RTVSPost2010Prop53
 90
        2
102
RTVSPost2010PropOp53
 70
     1
102
RTVSPost2010Prop54
  1
strokes_ogs.tif
102
RTVSPost2010PropOp54
 70
     1
102
RTVSPost2010Prop55
280
     0
102
RTVSPost2010PropOp55
 70
     1
102
RTVSPost2010Prop56
140
1.0
102
RTVSPost2010PropOp56
 70
     1
102
RTVSPost2010Prop57
140
1.0
102
RTVSPost2010PropOp57
 70
     1
  0
XRECORD
  5
D4F
102
{ACAD_REACTORS
330
D4E
102
}
330
D4E
100
AcDbXrecord
280
     1
102
RTVSPropertyOp0
 70
     0
102
RTVSPropertyOp1
 70
     0
102
RTVSPropertyOp2
 70
     0
102
RTVSPropertyOp3
 70
     0
102
RTVSPropertyOp4
 70
     0
102
RTVSPropertyOp5
 70
     0
102
RTVSPropertyOp6
 70
     0
102
RTVSPropertyOp7
 70
     0
102
RTVSPropertyOp8
 70
     0
102
RTVSPropertyOp9
 70
     0
102
RTVSPropertyOp10
 70
     0
102
RTVSPropertyOp11
 70
     0
102
RTVSPropertyOp12
 70
     0
102
RTVSPropertyOp13
 70
     0
102
RTVSPropertyOp14
 70
     2
102
RTVSPropertyOp15
 70
     0
102
RTVSPropertyOp16
 70
     0
102
RTVSPropertyOp17
 70
     0
102
RTVSPropertyOp18
 70
     0
102
RTVSPropertyOp19
 70
     0
102
RTVSPropertyOp20
 70
     0
102
RTVSPropertyOp21
 70
     0
102
RTVSPropertyOp22
 70
     0
102
RTVSPropertyOp23
 70
     0
102
RTVSPropertyOp24
 70
     0
102
RTVSPropertyOp25
 70
     0
102
RTVSPropertyOp26
 70
     0
102
RTVSPropertyOp27
 70
     0
102
RTVSPropertyOp28
 70
     0
102
RTVSPropertyOp29
 70
     0
102
RTVSPropertyOp30
 70
     0
102
RTVSPropertyOp31
 70
     0
102
RTVSPropertyOp32
 70
     0
102
RTVSPropertyOp33
 70
     0
102
RTVSPropertyOp34
 70
     0
102
RTVSPropertyOp35
 70
     0
102
RTVSPropertyOp36
 70
     0
102
RTVSPropertyOp37
 70
     0
102
RTVSPropertyOp38
 70
     0
102
RTVSPropertyOp39
 70
     0
102
RTVSPropertyOp40
 70
     0
102
RTVSPropertyOp41
 70
     0
102
RTVSPropertyOp42
 70
     0
102
RTVSPropertyOp43
 70
     0
102
RTVSPropertyOp44
 70
     0
102
RTVSPropertyOp45
 70
     0
102
RTVSPropertyOp46
 70
     0
102
RTVSPropertyOp47
 70
     0
102
RTVSPropertyOp48
 70
     0
102
RTVSPropertyOp49
 70
     0
102
RTVSPropertyOp50
 70
     0
102
RTVSPropertyOp51
 70
     0
102
RTVSPropertyOp52
 70
     0
102
RTVSPropertyOp53
 70
     0
102
RTVSPropertyOp54
 70
     0
102
RTVSPropertyOp55
 70
     0
102
RTVSPropertyOp56
 70
     0
102
RTVSPropertyOp57
 70
     0
102
RTVSPost2010Prop28
280
     0
102
RTVSPost2010PropOp28
 70
     0
102
RTVSPost2010Prop29
280
     1
102
RTVSPost2010PropOp29
 70
     0
102
RTVSPost2010Prop30
280
     1
102
RTVSPost2010PropOp30
 70
     0
102
RTVSPost2010Prop31
280
     0
102
RTVSPost2010PropOp31
 70
     0
102
RTVSPost2010Prop32
280
     0
102
RTVSPost2010PropOp32
 70
     0
102
RTVSPost2010Prop33
280
     0
102
RTVSPost2010PropOp33
 70
     0
102
RTVSPost2010Prop34
280
     0
102
RTVSPost2010PropOp34
 70
     0
102
RTVSPost2010Prop35
280
     0
102
RTVSPost2010PropOp35
 70
     0
102
RTVSPost2010Prop36
280
     0
102
RTVSPost2010PropOp36
 70
     0
102
RTVSPost2010Prop37
 90
       50
102
RTVSPost2010PropOp37
 70
     0
102
RTVSPost2010Prop38
140
0.0
102
RTVSPost2010PropOp38
 70
     0
102
RTVSPost2010Prop39
140
1.0
102
RTVSPost2010PropOp39
 70
     0
102
RTVSPost2010Prop40
 90
        0
102
RTVSPost2010PropOp40
 70
     0
102
RTVSPost2010Prop41ColorIndex
 90
       18
102
RTVSPost2010Prop41ColorRGB
 90
        0
102
RTVSPost2010PropOp41
 70
     0
102
RTVSPost2010Prop42
 90
       50
102
RTVSPost2010PropOp42
 70
     0
102
RTVSPost2010Prop43
 90
        3
102
RTVSPost2010PropOp43
 70
     0
102
RTVSPost2010Prop44ColorIndex
 90
        5
102
RTVSPost2010Prop44ColorRGB
 90
      255
102
RTVSPost2010PropOp44
 70
     0
102
RTVSPost2010Prop45
280
     0
102
RTVSPost2010PropOp45
 70
     0
102
RTVSPost2010Prop46
 90
       50
102
RTVSPost2010PropOp46
 70
     0
102
RTVSPost2010Prop47
 90
       50
102
RTVSPost2010PropOp47
 70
     0
102
RTVSPost2010Prop48
 90
       50
102
RTVSPost2010PropOp48
 70
     0
102
RTVSPost2010Prop49
280
     0
102
RTVSPost2010PropOp49
 70
     0
102
RTVSPost2010Prop50
 90
       50
102
RTVSPost2010PropOp50
 70
     0
102
RTVSPost2010Prop51ColorIndex
 90
      256
102
RTVSPost2010Prop51ColorRGB
 90
-16777216
102
RTVSPost2010PropOp51
 70
     0
102
RTVSPost2010Prop52
140
1.0
102
RTVSPost2010PropOp52
 70
     0
102
RTVSPost2010Prop53
 90
        2
102
RTVSPost2010PropOp53
 70
     0
102
RTVSPost2010Prop54
  1
strokes_ogs.tif
102
RTVSPost2010PropOp54
 70
     0
102
RTVSPost2010Prop55
280
     0
102
RTVSPost2010PropOp55
 70
     0
102
RTVSPost2010Prop56
140
1.0
102
RTVSPost2010PropOp56
 70
     0
102
RTVSPost2010Prop57
140
1.0
102
RTVSPost2010PropOp57
 70
     0
  0
XRECORD
  5
D51
102
{ACAD_REACTORS
330
D50
102
}
330
D50
100
AcDbXrecord
280
     1
102
RTVSPropertyOp0
 70
     1
102
RTVSPropertyOp1
 70
     1
102
RTVSPropertyOp2
 70
     1
102
RTVSPropertyOp3
 70
     1
102
RTVSPropertyOp4
 70
     1
102
RTVSPropertyOp5
 70
     1
102
RTVSPropertyOp6
 70
     1
102
RTVSPropertyOp7
 70
     1
102
RTVSPropertyOp8
 70
     1
102
RTVSPropertyOp9
 70
     1
102
RTVSPropertyOp10
 70
     1
102
RTVSPropertyOp11
 70
     1
102
RTVSPropertyOp12
 70
     1
102
RTVSPropertyOp13
 70
     1
102
RTVSPropertyOp14
 70
     1
102
RTVSPropertyOp15
 70
     1
102
RTVSPropertyOp16
 70
     1
102
RTVSPropertyOp17
 70
     1
102
RTVSPropertyOp18
 70
     1
102
RTVSPropertyOp19
 70
     1
102
RTVSPropertyOp20
 70
     1
102
RTVSPropertyOp21
 70
     1
102
RTVSPropertyOp22
 70
     1
102
RTVSPropertyOp23
 70
     1
102
RTVSPropertyOp24
 70
     1
102
RTVSPropertyOp25
 70
     1
102
RTVSPropertyOp26
 70
     1
102
RTVSPropertyOp27
 70
     1
102
RTVSPropertyOp28
 70
     1
102
RTVSPropertyOp29
 70
     1
102
RTVSPropertyOp30
 70
     1
102
RTVSPropertyOp31
 70
     1
102
RTVSPropertyOp32
 70
     1
102
RTVSPropertyOp33
 70
     1
102
RTVSPropertyOp34
 70
     1
102
RTVSPropertyOp35
 70
     1
102
RTVSPropertyOp36
 70
     1
102
RTVSPropertyOp37
 70
     1
102
RTVSPropertyOp38
 70
     1
102
RTVSPropertyOp39
 70
     1
102
RTVSPropertyOp40
 70
     1
102
RTVSPropertyOp41
 70
     1
102
RTVSPropertyOp42
 70
     1
102
RTVSPropertyOp43
 70
     1
102
RTVSPropertyOp44
 70
     1
102
RTVSPropertyOp45
 70
     1
102
RTVSPropertyOp46
 70
     1
102
RTVSPropertyOp47
 70
     1
102
RTVSPropertyOp48
 70
     1
102
RTVSPropertyOp49
 70
     1
102
RTVSPropertyOp50
 70
     1
102
RTVSPropertyOp51
 70
     0
102
RTVSPropertyOp52
 70
     0
102
RTVSPropertyOp53
 70
     1
102
RTVSPropertyOp54
 70
     1
102
RTVSPropertyOp55
 70
     1
102
RTVSPropertyOp56
 70
     1
102
RTVSPropertyOp57
 70
     1
102
RTVSPost2010Prop28
280
     0
102
RTVSPost2010PropOp28
 70
     1
102
RTVSPost2010Prop29
280
     1
102
RTVSPost2010PropOp29
 70
     1
102
RTVSPost2010Prop30
280
     1
102
RTVSPost2010PropOp30
 70
     1
102
RTVSPost2010Prop31
280
     0
102
RTVSPost2010PropOp31
 70
     1
102
RTVSPost2010Prop32
280
     0
102
RTVSPost2010PropOp32
 70
     1
102
RTVSPost2010Prop33
280
     0
102
RTVSPost2010PropOp33
 70
     1
102
RTVSPost2010Prop34
280
     0
102
RTVSPost2010PropOp34
 70
     1
102
RTVSPost2010Prop35
280
     0
102
RTVSPost2010PropOp35
 70
     1
102
RTVSPost2010Prop36
280
     0
102
RTVSPost2010PropOp36
 70
     1
102
RTVSPost2010Prop37
 90
       50
102
RTVSPost2010PropOp37
 70
     1
102
RTVSPost2010Prop38
140
0.0
102
RTVSPost2010PropOp38
 70
     1
102
RTVSPost2010Prop39
140
1.0
102
RTVSPost2010PropOp39
 70
     1
102
RTVSPost2010Prop40
 90
        0
102
RTVSPost2010PropOp40
 70
     1
102
RTVSPost2010Prop41ColorIndex
 90
       18
102
RTVSPost2010Prop41ColorRGB
 90
        0
102
RTVSPost2010PropOp41
 70
     1
102
RTVSPost2010Prop42
 90
       50
102
RTVSPost2010PropOp42
 70
     1
102
RTVSPost2010Prop43
 90
        3
102
RTVSPost2010PropOp43
 70
     1
102
RTVSPost2010Prop44ColorIndex
 90
        5
102
RTVSPost2010Prop44ColorRGB
 90
      255
102
RTVSPost2010PropOp44
 70
     1
102
RTVSPost2010Prop45
280
     0
102
RTVSPost2010PropOp45
 70
     1
102
RTVSPost2010Prop46
 90
       50
102
RTVSPost2010PropOp46
 70
     1
102
RTVSPost2010Prop47
 90
       50
102
RTVSPost2010PropOp47
 70
     1
102
RTVSPost2010Prop48
 90
       50
102
RTVSPost2010PropOp48
 70
     1
102
RTVSPost2010Prop49
280
     0
102
RTVSPost2010PropOp49
 70
     1
102
RTVSPost2010Prop50
 90
       50
102
RTVSPost2010PropOp50
 70
     1
102
RTVSPost2010Prop51ColorIndex
 90
      256
102
RTVSPost2010Prop51ColorRGB
 90
-16777216
102
RTVSPost2010PropOp51
 70
     0
102
RTVSPost2010Prop52
140
1.0
102
RTVSPost2010PropOp52
 70
     0
102
RTVSPost2010Prop53
 90
        2
102
RTVSPost2010PropOp53
 70
     1
102
RTVSPost2010Prop54
  1
strokes_ogs.tif
102
RTVSPost2010PropOp54
 70
     1
102
RTVSPost2010Prop55
280
     0
102
RTVSPost2010PropOp55
 70
     1
102
RTVSPost2010Prop56
140
1.0
102
RTVSPost2010PropOp56
 70
     1
102
RTVSPost2010Prop57
140
1.0
102
RTVSPost2010PropOp57
 70
     1
  0
XRECORD
  5
D53
102
{ACAD_REACTORS
330
D52
102
}
330
D52
100
AcDbXrecord
280
     1
102
RTVSPropertyOp0
 70
     1
102
RTVSPropertyOp1
 70
     1
102
RTVSPropertyOp2
 70
     1
102
RTVSPropertyOp3
 70
     1
102
RTVSPropertyOp4
 70
     1
102
RTVSPropertyOp5
 70
     1
102
RTVSPropertyOp6
 70
     1
102
RTVSPropertyOp7
 70
     1
102
RTVSPropertyOp8
 70
     1
102
RTVSPropertyOp9
 70
     1
102
RTVSPropertyOp10
 70
     1
102
RTVSPropertyOp11
 70
     1
102
RTVSPropertyOp12
 70
     1
102
RTVSPropertyOp13
 70
     1
102
RTVSPropertyOp14
 70
     1
102
RTVSPropertyOp15
 70
     1
102
RTVSPropertyOp16
 70
     1
102
RTVSPropertyOp17
 70
     1
102
RTVSPropertyOp18
 70
     1
102
RTVSPropertyOp19
 70
     1
102
RTVSPropertyOp20
 70
     1
102
RTVSPropertyOp21
 70
     1
102
RTVSPropertyOp22
 70
     1
102
RTVSPropertyOp23
 70
     1
102
RTVSPropertyOp24
 70
     1
102
RTVSPropertyOp25
 70
     1
102
RTVSPropertyOp26
 70
     1
102
RTVSPropertyOp27
 70
     1
102
RTVSPropertyOp28
 70
     1
102
RTVSPropertyOp29
 70
     1
102
RTVSPropertyOp30
 70
     1
102
RTVSPropertyOp31
 70
     1
102
RTVSPropertyOp32
 70
     1
102
RTVSPropertyOp33
 70
     1
102
RTVSPropertyOp34
 70
     1
102
RTVSPropertyOp35
 70
     1
102
RTVSPropertyOp36
 70
     1
102
RTVSPropertyOp37
 70
     1
102
RTVSPropertyOp38
 70
     1
102
RTVSPropertyOp39
 70
     1
102
RTVSPropertyOp40
 70
     1
102
RTVSPropertyOp41
 70
     1
102
RTVSPropertyOp42
 70
     1
102
RTVSPropertyOp43
 70
     1
102
RTVSPropertyOp44
 70
     1
102
RTVSPropertyOp45
 70
     1
102
RTVSPropertyOp46
 70
     1
102
RTVSPropertyOp47
 70
     1
102
RTVSPropertyOp48
 70
     1
102
RTVSPropertyOp49
 70
     1
102
RTVSPropertyOp50
 70
     1
102
RTVSPropertyOp51
 70
     0
102
RTVSPropertyOp52
 70
     0
102
RTVSPropertyOp53
 70
     1
102
RTVSPropertyOp54
 70
     1
102
RTVSPropertyOp55
 70
     1
102
RTVSPropertyOp56
 70
     1
102
RTVSPropertyOp57
 70
     1
102
RTVSPost2010Prop28
280
     0
102
RTVSPost2010PropOp28
 70
     1
102
RTVSPost2010Prop29
280
     1
102
RTVSPost2010PropOp29
 70
     1
102
RTVSPost2010Prop30
280
     1
102
RTVSPost2010PropOp30
 70
     1
102
RTVSPost2010Prop31
280
     0
102
RTVSPost2010PropOp31
 70
     1
102
RTVSPost2010Prop32
280
     0
102
RTVSPost2010PropOp32
 70
     1
102
RTVSPost2010Prop33
280
     0
102
RTVSPost2010PropOp33
 70
     1
102
RTVSPost2010Prop34
280
     0
102
RTVSPost2010PropOp34
 70
     1
102
RTVSPost2010Prop35
280
     0
102
RTVSPost2010PropOp35
 70
     1
102
RTVSPost2010Prop36
280
     0
102
RTVSPost2010PropOp36
 70
     1
102
RTVSPost2010Prop37
 90
       50
102
RTVSPost2010PropOp37
 70
     1
102
RTVSPost2010Prop38
140
0.0
102
RTVSPost2010PropOp38
 70
     1
102
RTVSPost2010Prop39
140
1.0
102
RTVSPost2010PropOp39
 70
     1
102
RTVSPost2010Prop40
 90
        0
102
RTVSPost2010PropOp40
 70
     1
102
RTVSPost2010Prop41ColorIndex
 90
       18
102
RTVSPost2010Prop41ColorRGB
 90
        0
102
RTVSPost2010PropOp41
 70
     1
102
RTVSPost2010Prop42
 90
       50
102
RTVSPost2010PropOp42
 70
     1
102
RTVSPost2010Prop43
 90
        3
102
RTVSPost2010PropOp43
 70
     1
102
RTVSPost2010Prop44ColorIndex
 90
        5
102
RTVSPost2010Prop44ColorRGB
 90
      255
102
RTVSPost2010PropOp44
 70
     1
102
RTVSPost2010Prop45
280
     0
102
RTVSPost2010PropOp45
 70
     1
102
RTVSPost2010Prop46
 90
       50
102
RTVSPost2010PropOp46
 70
     1
102
RTVSPost2010Prop47
 90
       50
102
RTVSPost2010PropOp47
 70
     1
102
RTVSPost2010Prop48
 90
       50
102
RTVSPost2010PropOp48
 70
     1
102
RTVSPost2010Prop49
280
     0
102
RTVSPost2010PropOp49
 70
     1
102
RTVSPost2010Prop50
 90
       50
102
RTVSPost2010PropOp50
 70
     1
102
RTVSPost2010Prop51ColorIndex
 90
      256
102
RTVSPost2010Prop51ColorRGB
 90
-16777216
102
RTVSPost2010PropOp51
 70
     0
102
RTVSPost2010Prop52
140
1.0
102
RTVSPost2010PropOp52
 70
     0
102
RTVSPost2010Prop53
 90
        2
102
RTVSPost2010PropOp53
 70
     1
102
RTVSPost2010Prop54
  1
strokes_ogs.tif
102
RTVSPost2010PropOp54
 70
     1
102
RTVSPost2010Prop55
280
     0
102
RTVSPost2010PropOp55
 70
     1
102
RTVSPost2010Prop56
140
1.0
102
RTVSPost2010PropOp56
 70
     1
102
RTVSPost2010Prop57
140
1.0
102
RTVSPost2010PropOp57
 70
     1
  0
XRECORD
  5
D55
102
{ACAD_REACTORS
330
D54
102
}
330
D54
100
AcDbXrecord
280
     1
102
RTVSPropertyOp0
 70
     1
102
RTVSPropertyOp1
 70
     1
102
RTVSPropertyOp2
 70
     1
102
RTVSPropertyOp3
 70
     1
102
RTVSPropertyOp4
 70
     1
102
RTVSPropertyOp5
 70
     1
102
RTVSPropertyOp6
 70
     1
102
RTVSPropertyOp7
 70
     1
102
RTVSPropertyOp8
 70
     1
102
RTVSPropertyOp9
 70
     1
102
RTVSPropertyOp10
 70
     1
102
RTVSPropertyOp11
 70
     1
102
RTVSPropertyOp12
 70
     1
102
RTVSPropertyOp13
 70
     1
102
RTVSPropertyOp14
 70
     1
102
RTVSPropertyOp15
 70
     1
102
RTVSPropertyOp16
 70
     1
102
RTVSPropertyOp17
 70
     1
102
RTVSPropertyOp18
 70
     1
102
RTVSPropertyOp19
 70
     1
102
RTVSPropertyOp20
 70
     1
102
RTVSPropertyOp21
 70
     1
102
RTVSPropertyOp22
 70
     1
102
RTVSPropertyOp23
 70
     1
102
RTVSPropertyOp24
 70
     1
102
RTVSPropertyOp25
 70
     1
102
RTVSPropertyOp26
 70
     1
102
RTVSPropertyOp27
 70
     1
102
RTVSPropertyOp28
 70
     1
102
RTVSPropertyOp29
 70
     1
102
RTVSPropertyOp30
 70
     1
102
RTVSPropertyOp31
 70
     1
102
RTVSPropertyOp32
 70
     1
102
RTVSPropertyOp33
 70
     1
102
RTVSPropertyOp34
 70
     1
102
RTVSPropertyOp35
 70
     1
102
RTVSPropertyOp36
 70
     1
102
RTVSPropertyOp37
 70
     1
102
RTVSPropertyOp38
 70
     1
102
RTVSPropertyOp39
 70
     1
102
RTVSPropertyOp40
 70
     1
102
RTVSPropertyOp41
 70
     1
102
RTVSPropertyOp42
 70
     1
102
RTVSPropertyOp43
 70
     1
102
RTVSPropertyOp44
 70
     1
102
RTVSPropertyOp45
 70
     1
102
RTVSPropertyOp46
 70
     1
102
RTVSPropertyOp47
 70
     1
102
RTVSPropertyOp48
 70
     1
102
RTVSPropertyOp49
 70
     1
102
RTVSPropertyOp50
 70
     1
102
RTVSPropertyOp51
 70
     0
102
RTVSPropertyOp52
 70
     0
102
RTVSPropertyOp53
 70
     1
102
RTVSPropertyOp54
 70
     1
102
RTVSPropertyOp55
 70
     1
102
RTVSPropertyOp56
 70
     1
102
RTVSPropertyOp57
 70
     1
102
RTVSPost2010Prop28
280
     0
102
RTVSPost2010PropOp28
 70
     1
102
RTVSPost2010Prop29
280
     1
102
RTVSPost2010PropOp29
 70
     1
102
RTVSPost2010Prop30
280
     1
102
RTVSPost2010PropOp30
 70
     1
102
RTVSPost2010Prop31
280
     0
102
RTVSPost2010PropOp31
 70
     1
102
RTVSPost2010Prop32
280
     0
102
RTVSPost2010PropOp32
 70
     1
102
RTVSPost2010Prop33
280
     0
102
RTVSPost2010PropOp33
 70
     1
102
RTVSPost2010Prop34
280
     0
102
RTVSPost2010PropOp34
 70
     1
102
RTVSPost2010Prop35
280
     0
102
RTVSPost2010PropOp35
 70
     1
102
RTVSPost2010Prop36
280
     0
102
RTVSPost2010PropOp36
 70
     1
102
RTVSPost2010Prop37
 90
       50
102
RTVSPost2010PropOp37
 70
     1
102
RTVSPost2010Prop38
140
0.0
102
RTVSPost2010PropOp38
 70
     1
102
RTVSPost2010Prop39
140
1.0
102
RTVSPost2010PropOp39
 70
     1
102
RTVSPost2010Prop40
 90
        0
102
RTVSPost2010PropOp40
 70
     1
102
RTVSPost2010Prop41ColorIndex
 90
       18
102
RTVSPost2010Prop41ColorRGB
 90
        0
102
RTVSPost2010PropOp41
 70
     1
102
RTVSPost2010Prop42
 90
       50
102
RTVSPost2010PropOp42
 70
     1
102
RTVSPost2010Prop43
 90
        3
102
RTVSPost2010PropOp43
 70
     1
102
RTVSPost2010Prop44ColorIndex
 90
        5
102
RTVSPost2010Prop44ColorRGB
 90
      255
102
RTVSPost2010PropOp44
 70
     1
102
RTVSPost2010Prop45
280
     0
102
RTVSPost2010PropOp45
 70
     1
102
RTVSPost2010Prop46
 90
       50
102
RTVSPost2010PropOp46
 70
     1
102
RTVSPost2010Prop47
 90
       50
102
RTVSPost2010PropOp47
 70
     1
102
RTVSPost2010Prop48
 90
       50
102
RTVSPost2010PropOp48
 70
     1
102
RTVSPost2010Prop49
280
     0
102
RTVSPost2010PropOp49
 70
     1
102
RTVSPost2010Prop50
 90
       50
102
RTVSPost2010PropOp50
 70
     1
102
RTVSPost2010Prop51ColorIndex
 90
      256
102
RTVSPost2010Prop51ColorRGB
 90
-16777216
102
RTVSPost2010PropOp51
 70
     0
102
RTVSPost2010Prop52
140
1.0
102
RTVSPost2010PropOp52
 70
     0
102
RTVSPost2010Prop53
 90
        2
102
RTVSPost2010PropOp53
 70
     1
102
RTVSPost2010Prop54
  1
strokes_ogs.tif
102
RTVSPost2010PropOp54
 70
     1
102
RTVSPost2010Prop55
280
     0
102
RTVSPost2010PropOp55
 70
     1
102
RTVSPost2010Prop56
140
1.0
102
RTVSPost2010PropOp56
 70
     1
102
RTVSPost2010Prop57
140
1.0
102
RTVSPost2010PropOp57
 70
     1
  0
XRECORD
  5
D57
102
{ACAD_REACTORS
330
D56
102
}
330
D56
100
AcDbXrecord
280
     1
102
RTVSPropertyOp0
 70
     1
102
RTVSPropertyOp1
 70
     1
102
RTVSPropertyOp2
 70
     1
102
RTVSPropertyOp3
 70
     1
102
RTVSPropertyOp4
 70
     1
102
RTVSPropertyOp5
 70
     1
102
RTVSPropertyOp6
 70
     1
102
RTVSPropertyOp7
 70
     1
102
RTVSPropertyOp8
 70
     1
102
RTVSPropertyOp9
 70
     1
102
RTVSPropertyOp10
 70
     1
102
RTVSPropertyOp11
 70
     1
102
RTVSPropertyOp12
 70
     1
102
RTVSPropertyOp13
 70
     1
102
RTVSPropertyOp14
 70
     1
102
RTVSPropertyOp15
 70
     1
102
RTVSPropertyOp16
 70
     1
102
RTVSPropertyOp17
 70
     1
102
RTVSPropertyOp18
 70
     1
102
RTVSPropertyOp19
 70
     1
102
RTVSPropertyOp20
 70
     1
102
RTVSPropertyOp21
 70
     1
102
RTVSPropertyOp22
 70
     1
102
RTVSPropertyOp23
 70
     1
102
RTVSPropertyOp24
 70
     1
102
RTVSPropertyOp25
 70
     1
102
RTVSPropertyOp26
 70
     1
102
RTVSPropertyOp27
 70
     1
102
RTVSPropertyOp28
 70
     1
102
RTVSPropertyOp29
 70
     1
102
RTVSPropertyOp30
 70
     1
102
RTVSPropertyOp31
 70
     1
102
RTVSPropertyOp32
 70
     1
102
RTVSPropertyOp33
 70
     1
102
RTVSPropertyOp34
 70
     1
102
RTVSPropertyOp35
 70
     1
102
RTVSPropertyOp36
 70
     1
102
RTVSPropertyOp37
 70
     1
102
RTVSPropertyOp38
 70
     1
102
RTVSPropertyOp39
 70
     1
102
RTVSPropertyOp40
 70
     1
102
RTVSPropertyOp41
 70
     1
102
RTVSPropertyOp42
 70
     1
102
RTVSPropertyOp43
 70
     1
102
RTVSPropertyOp44
 70
     1
102
RTVSPropertyOp45
 70
     1
102
RTVSPropertyOp46
 70
     1
102
RTVSPropertyOp47
 70
     1
102
RTVSPropertyOp48
 70
     1
102
RTVSPropertyOp49
 70
     1
102
RTVSPropertyOp50
 70
     1
102
RTVSPropertyOp51
 70
     0
102
RTVSPropertyOp52
 70
     0
102
RTVSPropertyOp53
 70
     1
102
RTVSPropertyOp54
 70
     1
102
RTVSPropertyOp55
 70
     1
102
RTVSPropertyOp56
 70
     1
102
RTVSPropertyOp57
 70
     1
102
RTVSPost2010Prop28
280
     0
102
RTVSPost2010PropOp28
 70
     1
102
RTVSPost2010Prop29
280
     1
102
RTVSPost2010PropOp29
 70
     1
102
RTVSPost2010Prop30
280
     1
102
RTVSPost2010PropOp30
 70
     1
102
RTVSPost2010Prop31
280
     0
102
RTVSPost2010PropOp31
 70
     1
102
RTVSPost2010Prop32
280
     0
102
RTVSPost2010PropOp32
 70
     1
102
RTVSPost2010Prop33
280
     0
102
RTVSPost2010PropOp33
 70
     1
102
RTVSPost2010Prop34
280
     0
102
RTVSPost2010PropOp34
 70
     1
102
RTVSPost2010Prop35
280
     0
102
RTVSPost2010PropOp35
 70
     1
102
RTVSPost2010Prop36
280
     0
102
RTVSPost2010PropOp36
 70
     1
102
RTVSPost2010Prop37
 90
       50
102
RTVSPost2010PropOp37
 70
     1
102
RTVSPost2010Prop38
140
0.0
102
RTVSPost2010PropOp38
 70
     1
102
RTVSPost2010Prop39
140
1.0
102
RTVSPost2010PropOp39
 70
     1
102
RTVSPost2010Prop40
 90
        0
102
RTVSPost2010PropOp40
 70
     1
102
RTVSPost2010Prop41ColorIndex
 90
       18
102
RTVSPost2010Prop41ColorRGB
 90
        0
102
RTVSPost2010PropOp41
 70
     1
102
RTVSPost2010Prop42
 90
       50
102
RTVSPost2010PropOp42
 70
     1
102
RTVSPost2010Prop43
 90
        3
102
RTVSPost2010PropOp43
 70
     1
102
RTVSPost2010Prop44ColorIndex
 90
        5
102
RTVSPost2010Prop44ColorRGB
 90
      255
102
RTVSPost2010PropOp44
 70
     1
102
RTVSPost2010Prop45
280
     0
102
RTVSPost2010PropOp45
 70
     1
102
RTVSPost2010Prop46
 90
       50
102
RTVSPost2010PropOp46
 70
     1
102
RTVSPost2010Prop47
 90
       50
102
RTVSPost2010PropOp47
 70
     1
102
RTVSPost2010Prop48
 90
       50
102
RTVSPost2010PropOp48
 70
     1
102
RTVSPost2010Prop49
280
     0
102
RTVSPost2010PropOp49
 70
     1
102
RTVSPost2010Prop50
 90
       50
102
RTVSPost2010PropOp50
 70
     1
102
RTVSPost2010Prop51ColorIndex
 90
      256
102
RTVSPost2010Prop51ColorRGB
 90
-16777216
102
RTVSPost2010PropOp51
 70
     0
102
RTVSPost2010Prop52
140
1.0
102
RTVSPost2010PropOp52
 70
     0
102
RTVSPost2010Prop53
 90
        2
102
RTVSPost2010PropOp53
 70
     1
102
RTVSPost2010Prop54
  1
strokes_ogs.tif
102
RTVSPost2010PropOp54
 70
     1
102
RTVSPost2010Prop55
280
     0
102
RTVSPost2010PropOp55
 70
     1
102
RTVSPost2010Prop56
140
1.0
102
RTVSPost2010PropOp56
 70
     1
102
RTVSPost2010Prop57
140
1.0
102
RTVSPost2010PropOp57
 70
     1
  0
XRECORD
  5
D59
102
{ACAD_REACTORS
330
D58
102
}
330
D58
100
AcDbXrecord
280
     1
102
RTVSPropertyOp0
 70
     1
102
RTVSPropertyOp1
 70
     1
102
RTVSPropertyOp2
 70
     1
102
RTVSPropertyOp3
 70
     1
102
RTVSPropertyOp4
 70
     1
102
RTVSPropertyOp5
 70
     1
102
RTVSPropertyOp6
 70
     1
102
RTVSPropertyOp7
 70
     1
102
RTVSPropertyOp8
 70
     1
102
RTVSPropertyOp9
 70
     1
102
RTVSPropertyOp10
 70
     1
102
RTVSPropertyOp11
 70
     1
102
RTVSPropertyOp12
 70
     1
102
RTVSPropertyOp13
 70
     1
102
RTVSPropertyOp14
 70
     1
102
RTVSPropertyOp15
 70
     1
102
RTVSPropertyOp16
 70
     1
102
RTVSPropertyOp17
 70
     1
102
RTVSPropertyOp18
 70
     1
102
RTVSPropertyOp19
 70
     1
102
RTVSPropertyOp20
 70
     1
102
RTVSPropertyOp21
 70
     1
102
RTVSPropertyOp22
 70
     1
102
RTVSPropertyOp23
 70
     1
102
RTVSPropertyOp24
 70
     1
102
RTVSPropertyOp25
 70
     1
102
RTVSPropertyOp26
 70
     1
102
RTVSPropertyOp27
 70
     1
102
RTVSPropertyOp28
 70
     1
102
RTVSPropertyOp29
 70
     1
102
RTVSPropertyOp30
 70
     1
102
RTVSPropertyOp31
 70
     1
102
RTVSPropertyOp32
 70
     1
102
RTVSPropertyOp33
 70
     1
102
RTVSPropertyOp34
 70
     1
102
RTVSPropertyOp35
 70
     1
102
RTVSPropertyOp36
 70
     1
102
RTVSPropertyOp37
 70
     1
102
RTVSPropertyOp38
 70
     1
102
RTVSPropertyOp39
 70
     1
102
RTVSPropertyOp40
 70
     1
102
RTVSPropertyOp41
 70
     1
102
RTVSPropertyOp42
 70
     1
102
RTVSPropertyOp43
 70
     1
102
RTVSPropertyOp44
 70
     1
102
RTVSPropertyOp45
 70
     1
102
RTVSPropertyOp46
 70
     1
102
RTVSPropertyOp47
 70
     1
102
RTVSPropertyOp48
 70
     1
102
RTVSPropertyOp49
 70
     1
102
RTVSPropertyOp50
 70
     1
102
RTVSPropertyOp51
 70
     0
102
RTVSPropertyOp52
 70
     0
102
RTVSPropertyOp53
 70
     1
102
RTVSPropertyOp54
 70
     1
102
RTVSPropertyOp55
 70
     1
102
RTVSPropertyOp56
 70
     1
102
RTVSPropertyOp57
 70
     1
102
RTVSPost2010Prop28
280
     0
102
RTVSPost2010PropOp28
 70
     1
102
RTVSPost2010Prop29
280
     1
102
RTVSPost2010PropOp29
 70
     1
102
RTVSPost2010Prop30
280
     1
102
RTVSPost2010PropOp30
 70
     1
102
RTVSPost2010Prop31
280
     0
102
RTVSPost2010PropOp31
 70
     1
102
RTVSPost2010Prop32
280
     0
102
RTVSPost2010PropOp32
 70
     1
102
RTVSPost2010Prop33
280
     0
102
RTVSPost2010PropOp33
 70
     1
102
RTVSPost2010Prop34
280
     0
102
RTVSPost2010PropOp34
 70
     1
102
RTVSPost2010Prop35
280
     0
102
RTVSPost2010PropOp35
 70
     1
102
RTVSPost2010Prop36
280
     0
102
RTVSPost2010PropOp36
 70
     1
102
RTVSPost2010Prop37
 90
       50
102
RTVSPost2010PropOp37
 70
     1
102
RTVSPost2010Prop38
140
0.0
102
RTVSPost2010PropOp38
 70
     1
102
RTVSPost2010Prop39
140
1.0
102
RTVSPost2010PropOp39
 70
     1
102
RTVSPost2010Prop40
 90
        0
102
RTVSPost2010PropOp40
 70
     1
102
RTVSPost2010Prop41ColorIndex
 90
       18
102
RTVSPost2010Prop41ColorRGB
 90
        0
102
RTVSPost2010PropOp41
 70
     1
102
RTVSPost2010Prop42
 90
       50
102
RTVSPost2010PropOp42
 70
     1
102
RTVSPost2010Prop43
 90
        3
102
RTVSPost2010PropOp43
 70
     1
102
RTVSPost2010Prop44ColorIndex
 90
        5
102
RTVSPost2010Prop44ColorRGB
 90
      255
102
RTVSPost2010PropOp44
 70
     1
102
RTVSPost2010Prop45
280
     0
102
RTVSPost2010PropOp45
 70
     1
102
RTVSPost2010Prop46
 90
       50
102
RTVSPost2010PropOp46
 70
     1
102
RTVSPost2010Prop47
 90
       50
102
RTVSPost2010PropOp47
 70
     1
102
RTVSPost2010Prop48
 90
       50
102
RTVSPost2010PropOp48
 70
     1
102
RTVSPost2010Prop49
280
     0
102
RTVSPost2010PropOp49
 70
     1
102
RTVSPost2010Prop50
 90
       50
102
RTVSPost2010PropOp50
 70
     1
102
RTVSPost2010Prop51ColorIndex
 90
      256
102
RTVSPost2010Prop51ColorRGB
 90
-16777216
102
RTVSPost2010PropOp51
 70
     0
102
RTVSPost2010Prop52
140
1.0
102
RTVSPost2010PropOp52
 70
     0
102
RTVSPost2010Prop53
 90
        2
102
RTVSPost2010PropOp53
 70
     1
102
RTVSPost2010Prop54
  1
strokes_ogs.tif
102
RTVSPost2010PropOp54
 70
     1
102
RTVSPost2010Prop55
280
     0
102
RTVSPost2010PropOp55
 70
     1
102
RTVSPost2010Prop56
140
1.0
102
RTVSPost2010PropOp56
 70
     1
102
RTVSPost2010Prop57
140
1.0
102
RTVSPost2010PropOp57
 70
     1
  0
XRECORD
  5
D5B
102
{ACAD_REACTORS
330
D5A
102
}
330
D5A
100
AcDbXrecord
280
     1
102
RTVSPropertyOp0
 70
     1
102
RTVSPropertyOp1
 70
     1
102
RTVSPropertyOp2
 70
     1
102
RTVSPropertyOp3
 70
     1
102
RTVSPropertyOp4
 70
     1
102
RTVSPropertyOp5
 70
     1
102
RTVSPropertyOp6
 70
     1
102
RTVSPropertyOp7
 70
     1
102
RTVSPropertyOp8
 70
     1
102
RTVSPropertyOp9
 70
     1
102
RTVSPropertyOp10
 70
     1
102
RTVSPropertyOp11
 70
     1
102
RTVSPropertyOp12
 70
     1
102
RTVSPropertyOp13
 70
     1
102
RTVSPropertyOp14
 70
     1
102
RTVSPropertyOp15
 70
     1
102
RTVSPropertyOp16
 70
     1
102
RTVSPropertyOp17
 70
     1
102
RTVSPropertyOp18
 70
     1
102
RTVSPropertyOp19
 70
     1
102
RTVSPropertyOp20
 70
     1
102
RTVSPropertyOp21
 70
     1
102
RTVSPropertyOp22
 70
     1
102
RTVSPropertyOp23
 70
     1
102
RTVSPropertyOp24
 70
     1
102
RTVSPropertyOp25
 70
     1
102
RTVSPropertyOp26
 70
     1
102
RTVSPropertyOp27
 70
     1
102
RTVSPropertyOp28
 70
     1
102
RTVSPropertyOp29
 70
     1
102
RTVSPropertyOp30
 70
     1
102
RTVSPropertyOp31
 70
     1
102
RTVSPropertyOp32
 70
     1
102
RTVSPropertyOp33
 70
     1
102
RTVSPropertyOp34
 70
     1
102
RTVSPropertyOp35
 70
     1
102
RTVSPropertyOp36
 70
     1
102
RTVSPropertyOp37
 70
     1
102
RTVSPropertyOp38
 70
     1
102
RTVSPropertyOp39
 70
     1
102
RTVSPropertyOp40
 70
     1
102
RTVSPropertyOp41
 70
     1
102
RTVSPropertyOp42
 70
     1
102
RTVSPropertyOp43
 70
     1
102
RTVSPropertyOp44
 70
     1
102
RTVSPropertyOp45
 70
     1
102
RTVSPropertyOp46
 70
     1
102
RTVSPropertyOp47
 70
     1
102
RTVSPropertyOp48
 70
     1
102
RTVSPropertyOp49
 70
     1
102
RTVSPropertyOp50
 70
     1
102
RTVSPropertyOp51
 70
     0
102
RTVSPropertyOp52
 70
     0
102
RTVSPropertyOp53
 70
     1
102
RTVSPropertyOp54
 70
     1
102
RTVSPropertyOp55
 70
     1
102
RTVSPropertyOp56
 70
     1
102
RTVSPropertyOp57
 70
     1
102
RTVSPost2010Prop28
280
     0
102
RTVSPost2010PropOp28
 70
     1
102
RTVSPost2010Prop29
280
     1
102
RTVSPost2010PropOp29
 70
     1
102
RTVSPost2010Prop30
280
     1
102
RTVSPost2010PropOp30
 70
     1
102
RTVSPost2010Prop31
280
     0
102
RTVSPost2010PropOp31
 70
     1
102
RTVSPost2010Prop32
280
     0
102
RTVSPost2010PropOp32
 70
     1
102
RTVSPost2010Prop33
280
     0
102
RTVSPost2010PropOp33
 70
     1
102
RTVSPost2010Prop34
280
     0
102
RTVSPost2010PropOp34
 70
     1
102
RTVSPost2010Prop35
280
     0
102
RTVSPost2010PropOp35
 70
     1
102
RTVSPost2010Prop36
280
     0
102
RTVSPost2010PropOp36
 70
     1
102
RTVSPost2010Prop37
 90
       50
102
RTVSPost2010PropOp37
 70
     1
102
RTVSPost2010Prop38
140
0.0
102
RTVSPost2010PropOp38
 70
     1
102
RTVSPost2010Prop39
140
1.0
102
RTVSPost2010PropOp39
 70
     1
102
RTVSPost2010Prop40
 90
        0
102
RTVSPost2010PropOp40
 70
     1
102
RTVSPost2010Prop41ColorIndex
 90
       18
102
RTVSPost2010Prop41ColorRGB
 90
        0
102
RTVSPost2010PropOp41
 70
     1
102
RTVSPost2010Prop42
 90
       50
102
RTVSPost2010PropOp42
 70
     1
102
RTVSPost2010Prop43
 90
        3
102
RTVSPost2010PropOp43
 70
     1
102
RTVSPost2010Prop44ColorIndex
 90
        5
102
RTVSPost2010Prop44ColorRGB
 90
      255
102
RTVSPost2010PropOp44
 70
     1
102
RTVSPost2010Prop45
280
     0
102
RTVSPost2010PropOp45
 70
     1
102
RTVSPost2010Prop46
 90
       50
102
RTVSPost2010PropOp46
 70
     1
102
RTVSPost2010Prop47
 90
       50
102
RTVSPost2010PropOp47
 70
     1
102
RTVSPost2010Prop48
 90
       50
102
RTVSPost2010PropOp48
 70
     1
102
RTVSPost2010Prop49
280
     0
102
RTVSPost2010PropOp49
 70
     1
102
RTVSPost2010Prop50
 90
       50
102
RTVSPost2010PropOp50
 70
     1
102
RTVSPost2010Prop51ColorIndex
 90
      256
102
RTVSPost2010Prop51ColorRGB
 90
-16777216
102
RTVSPost2010PropOp51
 70
     0
102
RTVSPost2010Prop52
140
1.0
102
RTVSPost2010PropOp52
 70
     0
102
RTVSPost2010Prop53
 90
        2
102
RTVSPost2010PropOp53
 70
     1
102
RTVSPost2010Prop54
  1
strokes_ogs.tif
102
RTVSPost2010PropOp54
 70
     1
102
RTVSPost2010Prop55
280
     0
102
RTVSPost2010PropOp55
 70
     1
102
RTVSPost2010Prop56
140
1.0
102
RTVSPost2010PropOp56
 70
     1
102
RTVSPost2010Prop57
140
1.0
102
RTVSPost2010PropOp57
 70
     1
  0
XRECORD
  5
D5D
102
{ACAD_REACTORS
330
D5C
102
}
330
D5C
100
AcDbXrecord
280
     1
102
RTVSPropertyOp0
 70
     0
102
RTVSPropertyOp1
 70
     0
102
RTVSPropertyOp2
 70
     0
102
RTVSPropertyOp3
 70
     0
102
RTVSPropertyOp4
 70
     0
102
RTVSPropertyOp5
 70
     0
102
RTVSPropertyOp6
 70
     0
102
RTVSPropertyOp7
 70
     0
102
RTVSPropertyOp8
 70
     0
102
RTVSPropertyOp9
 70
     0
102
RTVSPropertyOp10
 70
     0
102
RTVSPropertyOp11
 70
     0
102
RTVSPropertyOp12
 70
     0
102
RTVSPropertyOp13
 70
     0
102
RTVSPropertyOp14
 70
     2
102
RTVSPropertyOp15
 70
     0
102
RTVSPropertyOp16
 70
     0
102
RTVSPropertyOp17
 70
     0
102
RTVSPropertyOp18
 70
     0
102
RTVSPropertyOp19
 70
     0
102
RTVSPropertyOp20
 70
     0
102
RTVSPropertyOp21
 70
     0
102
RTVSPropertyOp22
 70
     0
102
RTVSPropertyOp23
 70
     0
102
RTVSPropertyOp24
 70
     0
102
RTVSPropertyOp25
 70
     0
102
RTVSPropertyOp26
 70
     0
102
RTVSPropertyOp27
 70
     0
102
RTVSPropertyOp28
 70
     0
102
RTVSPropertyOp29
 70
     0
102
RTVSPropertyOp30
 70
     0
102
RTVSPropertyOp31
 70
     0
102
RTVSPropertyOp32
 70
     0
102
RTVSPropertyOp33
 70
     0
102
RTVSPropertyOp34
 70
     0
102
RTVSPropertyOp35
 70
     0
102
RTVSPropertyOp36
 70
     0
102
RTVSPropertyOp37
 70
     0
102
RTVSPropertyOp38
 70
     0
102
RTVSPropertyOp39
 70
     0
102
RTVSPropertyOp40
 70
     0
102
RTVSPropertyOp41
 70
     0
102
RTVSPropertyOp42
 70
     0
102
RTVSPropertyOp43
 70
     0
102
RTVSPropertyOp44
 70
     0
102
RTVSPropertyOp45
 70
     0
102
RTVSPropertyOp46
 70
     0
102
RTVSPropertyOp47
 70
     0
102
RTVSPropertyOp48
 70
     0
102
RTVSPropertyOp49
 70
     0
102
RTVSPropertyOp50
 70
     0
102
RTVSPropertyOp51
 70
     0
102
RTVSPropertyOp52
 70
     0
102
RTVSPropertyOp53
 70
     0
102
RTVSPropertyOp54
 70
     0
102
RTVSPropertyOp55
 70
     0
102
RTVSPropertyOp56
 70
     0
102
RTVSPropertyOp57
 70
     0
102
RTVSPost2010Prop28
280
     0
102
RTVSPost2010PropOp28
 70
     0
102
RTVSPost2010Prop29
280
     1
102
RTVSPost2010PropOp29
 70
     0
102
RTVSPost2010Prop30
280
     1
102
RTVSPost2010PropOp30
 70
     0
102
RTVSPost2010Prop31
280
     0
102
RTVSPost2010PropOp31
 70
     0
102
RTVSPost2010Prop32
280
     0
102
RTVSPost2010PropOp32
 70
     0
102
RTVSPost2010Prop33
280
     0
102
RTVSPost2010PropOp33
 70
     0
102
RTVSPost2010Prop34
280
     0
102
RTVSPost2010PropOp34
 70
     0
102
RTVSPost2010Prop35
280
     0
102
RTVSPost2010PropOp35
 70
     0
102
RTVSPost2010Prop36
280
     0
102
RTVSPost2010PropOp36
 70
     0
102
RTVSPost2010Prop37
 90
       50
102
RTVSPost2010PropOp37
 70
     0
102
RTVSPost2010Prop38
140
0.0
102
RTVSPost2010PropOp38
 70
     0
102
RTVSPost2010Prop39
140
1.0
102
RTVSPost2010PropOp39
 70
     0
102
RTVSPost2010Prop40
 90
        0
102
RTVSPost2010PropOp40
 70
     0
102
RTVSPost2010Prop41ColorIndex
 90
       18
102
RTVSPost2010Prop41ColorRGB
 90
        0
102
RTVSPost2010PropOp41
 70
     0
102
RTVSPost2010Prop42
 90
       50
102
RTVSPost2010PropOp42
 70
     0
102
RTVSPost2010Prop43
 90
        3
102
RTVSPost2010PropOp43
 70
     0
102
RTVSPost2010Prop44ColorIndex
 90
        5
102
RTVSPost2010Prop44ColorRGB
 90
      255
102
RTVSPost2010PropOp44
 70
     0
102
RTVSPost2010Prop45
280
     0
102
RTVSPost2010PropOp45
 70
     0
102
RTVSPost2010Prop46
 90
       50
102
RTVSPost2010PropOp46
 70
     0
102
RTVSPost2010Prop47
 90
       50
102
RTVSPost2010PropOp47
 70
     0
102
RTVSPost2010Prop48
 90
       50
102
RTVSPost2010PropOp48
 70
     0
102
RTVSPost2010Prop49
280
     0
102
RTVSPost2010PropOp49
 70
     0
102
RTVSPost2010Prop50
 90
       50
102
RTVSPost2010PropOp50
 70
     0
102
RTVSPost2010Prop51ColorIndex
 90
      256
102
RTVSPost2010Prop51ColorRGB
 90
-16777216
102
RTVSPost2010PropOp51
 70
     0
102
RTVSPost2010Prop52
140
1.0
102
RTVSPost2010PropOp52
 70
     0
102
RTVSPost2010Prop53
 90
        2
102
RTVSPost2010PropOp53
 70
     0
102
RTVSPost2010Prop54
  1
strokes_ogs.tif
102
RTVSPost2010PropOp54
 70
     0
102
RTVSPost2010Prop55
280
     0
102
RTVSPost2010PropOp55
 70
     0
102
RTVSPost2010Prop56
140
1.0
102
RTVSPost2010PropOp56
 70
     0
102
RTVSPost2010Prop57
140
1.0
102
RTVSPost2010PropOp57
 70
     0
  0
XRECORD
  5
D5F
102
{ACAD_REACTORS
330
D5E
102
}
330
D5E
100
AcDbXrecord
280
     1
102
RTVSPropertyOp0
 70
     1
102
RTVSPropertyOp1
 70
     1
102
RTVSPropertyOp2
 70
     1
102
RTVSPropertyOp3
 70
     1
102
RTVSPropertyOp4
 70
     1
102
RTVSPropertyOp5
 70
     1
102
RTVSPropertyOp6
 70
     1
102
RTVSPropertyOp7
 70
     1
102
RTVSPropertyOp8
 70
     1
102
RTVSPropertyOp9
 70
     1
102
RTVSPropertyOp10
 70
     1
102
RTVSPropertyOp11
 70
     1
102
RTVSPropertyOp12
 70
     1
102
RTVSPropertyOp13
 70
     1
102
RTVSPropertyOp14
 70
     1
102
RTVSPropertyOp15
 70
     1
102
RTVSPropertyOp16
 70
     1
102
RTVSPropertyOp17
 70
     1
102
RTVSPropertyOp18
 70
     1
102
RTVSPropertyOp19
 70
     1
102
RTVSPropertyOp20
 70
     1
102
RTVSPropertyOp21
 70
     1
102
RTVSPropertyOp22
 70
     1
102
RTVSPropertyOp23
 70
     1
102
RTVSPropertyOp24
 70
     1
102
RTVSPropertyOp25
 70
     1
102
RTVSPropertyOp26
 70
     1
102
RTVSPropertyOp27
 70
     1
102
RTVSPropertyOp28
 70
     1
102
RTVSPropertyOp29
 70
     1
102
RTVSPropertyOp30
 70
     1
102
RTVSPropertyOp31
 70
     1
102
RTVSPropertyOp32
 70
     1
102
RTVSPropertyOp33
 70
     1
102
RTVSPropertyOp34
 70
     1
102
RTVSPropertyOp35
 70
     1
102
RTVSPropertyOp36
 70
     1
102
RTVSPropertyOp37
 70
     1
102
RTVSPropertyOp38
 70
     1
102
RTVSPropertyOp39
 70
     1
102
RTVSPropertyOp40
 70
     1
102
RTVSPropertyOp41
 70
     1
102
RTVSPropertyOp42
 70
     1
102
RTVSPropertyOp43
 70
     1
102
RTVSPropertyOp44
 70
     1
102
RTVSPropertyOp45
 70
     1
102
RTVSPropertyOp46
 70
     1
102
RTVSPropertyOp47
 70
     1
102
RTVSPropertyOp48
 70
     1
102
RTVSPropertyOp49
 70
     1
102
RTVSPropertyOp50
 70
     1
102
RTVSPropertyOp51
 70
     0
102
RTVSPropertyOp52
 70
     0
102
RTVSPropertyOp53
 70
     1
102
RTVSPropertyOp54
 70
     1
102
RTVSPropertyOp55
 70
     1
102
RTVSPropertyOp56
 70
     1
102
RTVSPropertyOp57
 70
     1
102
RTVSPost2010Prop28
280
     0
102
RTVSPost2010PropOp28
 70
     1
102
RTVSPost2010Prop29
280
     1
102
RTVSPost2010PropOp29
 70
     1
102
RTVSPost2010Prop30
280
     1
102
RTVSPost2010PropOp30
 70
     1
102
RTVSPost2010Prop31
280
     0
102
RTVSPost2010PropOp31
 70
     1
102
RTVSPost2010Prop32
280
     0
102
RTVSPost2010PropOp32
 70
     1
102
RTVSPost2010Prop33
280
     0
102
RTVSPost2010PropOp33
 70
     1
102
RTVSPost2010Prop34
280
     0
102
RTVSPost2010PropOp34
 70
     1
102
RTVSPost2010Prop35
280
     0
102
RTVSPost2010PropOp35
 70
     1
102
RTVSPost2010Prop36
280
     0
102
RTVSPost2010PropOp36
 70
     1
102
RTVSPost2010Prop37
 90
       50
102
RTVSPost2010PropOp37
 70
     1
102
RTVSPost2010Prop38
140
0.0
102
RTVSPost2010PropOp38
 70
     1
102
RTVSPost2010Prop39
140
1.0
102
RTVSPost2010PropOp39
 70
     1
102
RTVSPost2010Prop40
 90
        0
102
RTVSPost2010PropOp40
 70
     1
102
RTVSPost2010Prop41ColorIndex
 90
       18
102
RTVSPost2010Prop41ColorRGB
 90
        0
102
RTVSPost2010PropOp41
 70
     1
102
RTVSPost2010Prop42
 90
       50
102
RTVSPost2010PropOp42
 70
     1
102
RTVSPost2010Prop43
 90
        3
102
RTVSPost2010PropOp43
 70
     1
102
RTVSPost2010Prop44ColorIndex
 90
        5
102
RTVSPost2010Prop44ColorRGB
 90
      255
102
RTVSPost2010PropOp44
 70
     1
102
RTVSPost2010Prop45
280
     0
102
RTVSPost2010PropOp45
 70
     1
102
RTVSPost2010Prop46
 90
       50
102
RTVSPost2010PropOp46
 70
     1
102
RTVSPost2010Prop47
 90
       50
102
RTVSPost2010PropOp47
 70
     1
102
RTVSPost2010Prop48
 90
       50
102
RTVSPost2010PropOp48
 70
     1
102
RTVSPost2010Prop49
280
     0
102
RTVSPost2010PropOp49
 70
     1
102
RTVSPost2010Prop50
 90
       50
102
RTVSPost2010PropOp50
 70
     1
102
RTVSPost2010Prop51ColorIndex
 90
      256
102
RTVSPost2010Prop51ColorRGB
 90
-16777216
102
RTVSPost2010PropOp51
 70
     0
102
RTVSPost2010Prop52
140
1.0
102
RTVSPost2010PropOp52
 70
     0
102
RTVSPost2010Prop53
 90
        2
102
RTVSPost2010PropOp53
 70
     1
102
RTVSPost2010Prop54
  1
strokes_ogs.tif
102
RTVSPost2010PropOp54
 70
     1
102
RTVSPost2010Prop55
280
     0
102
RTVSPost2010PropOp55
 70
     1
102
RTVSPost2010Prop56
140
1.0
102
RTVSPost2010PropOp56
 70
     1
102
RTVSPost2010Prop57
140
1.0
102
RTVSPost2010PropOp57
 70
     1
  0
XRECORD
  5
D61
102
{ACAD_REACTORS
330
D60
102
}
330
D60
100
AcDbXrecord
280
     1
102
RTVSPropertyOp0
 70
     1
102
RTVSPropertyOp1
 70
     1
102
RTVSPropertyOp2
 70
     1
102
RTVSPropertyOp3
 70
     1
102
RTVSPropertyOp4
 70
     1
102
RTVSPropertyOp5
 70
     1
102
RTVSPropertyOp6
 70
     1
102
RTVSPropertyOp7
 70
     1
102
RTVSPropertyOp8
 70
     1
102
RTVSPropertyOp9
 70
     1
102
RTVSPropertyOp10
 70
     1
102
RTVSPropertyOp11
 70
     1
102
RTVSPropertyOp12
 70
     1
102
RTVSPropertyOp13
 70
     1
102
RTVSPropertyOp14
 70
     1
102
RTVSPropertyOp15
 70
     1
102
RTVSPropertyOp16
 70
     1
102
RTVSPropertyOp17
 70
     1
102
RTVSPropertyOp18
 70
     1
102
RTVSPropertyOp19
 70
     1
102
RTVSPropertyOp20
 70
     1
102
RTVSPropertyOp21
 70
     1
102
RTVSPropertyOp22
 70
     1
102
RTVSPropertyOp23
 70
     1
102
RTVSPropertyOp24
 70
     1
102
RTVSPropertyOp25
 70
     1
102
RTVSPropertyOp26
 70
     1
102
RTVSPropertyOp27
 70
     1
102
RTVSPropertyOp28
 70
     1
102
RTVSPropertyOp29
 70
     1
102
RTVSPropertyOp30
 70
     1
102
RTVSPropertyOp31
 70
     1
102
RTVSPropertyOp32
 70
     1
102
RTVSPropertyOp33
 70
     1
102
RTVSPropertyOp34
 70
     1
102
RTVSPropertyOp35
 70
     1
102
RTVSPropertyOp36
 70
     1
102
RTVSPropertyOp37
 70
     1
102
RTVSPropertyOp38
 70
     1
102
RTVSPropertyOp39
 70
     1
102
RTVSPropertyOp40
 70
     1
102
RTVSPropertyOp41
 70
     1
102
RTVSPropertyOp42
 70
     1
102
RTVSPropertyOp43
 70
     1
102
RTVSPropertyOp44
 70
     1
102
RTVSPropertyOp45
 70
     1
102
RTVSPropertyOp46
 70
     1
102
RTVSPropertyOp47
 70
     1
102
RTVSPropertyOp48
 70
     1
102
RTVSPropertyOp49
 70
     1
102
RTVSPropertyOp50
 70
     1
102
RTVSPropertyOp51
 70
     0
102
RTVSPropertyOp52
 70
     0
102
RTVSPropertyOp53
 70
     1
102
RTVSPropertyOp54
 70
     1
102
RTVSPropertyOp55
 70
     1
102
RTVSPropertyOp56
 70
     1
102
RTVSPropertyOp57
 70
     1
102
RTVSPost2010Prop28
280
     0
102
RTVSPost2010PropOp28
 70
     1
102
RTVSPost2010Prop29
280
     1
102
RTVSPost2010PropOp29
 70
     1
102
RTVSPost2010Prop30
280
     1
102
RTVSPost2010PropOp30
 70
     1
102
RTVSPost2010Prop31
280
     0
102
RTVSPost2010PropOp31
 70
     1
102
RTVSPost2010Prop32
280
     0
102
RTVSPost2010PropOp32
 70
     1
102
RTVSPost2010Prop33
280
     0
102
RTVSPost2010PropOp33
 70
     1
102
RTVSPost2010Prop34
280
     0
102
RTVSPost2010PropOp34
 70
     1
102
RTVSPost2010Prop35
280
     0
102
RTVSPost2010PropOp35
 70
     1
102
RTVSPost2010Prop36
280
     0
102
RTVSPost2010PropOp36
 70
     1
102
RTVSPost2010Prop37
 90
       50
102
RTVSPost2010PropOp37
 70
     1
102
RTVSPost2010Prop38
140
0.0
102
RTVSPost2010PropOp38
 70
     1
102
RTVSPost2010Prop39
140
1.0
102
RTVSPost2010PropOp39
 70
     1
102
RTVSPost2010Prop40
 90
        0
102
RTVSPost2010PropOp40
 70
     1
102
RTVSPost2010Prop41ColorIndex
 90
       18
102
RTVSPost2010Prop41ColorRGB
 90
        0
102
RTVSPost2010PropOp41
 70
     1
102
RTVSPost2010Prop42
 90
       50
102
RTVSPost2010PropOp42
 70
     1
102
RTVSPost2010Prop43
 90
        3
102
RTVSPost2010PropOp43
 70
     1
102
RTVSPost2010Prop44ColorIndex
 90
        5
102
RTVSPost2010Prop44ColorRGB
 90
      255
102
RTVSPost2010PropOp44
 70
     1
102
RTVSPost2010Prop45
280
     0
102
RTVSPost2010PropOp45
 70
     1
102
RTVSPost2010Prop46
 90
       50
102
RTVSPost2010PropOp46
 70
     1
102
RTVSPost2010Prop47
 90
       50
102
RTVSPost2010PropOp47
 70
     1
102
RTVSPost2010Prop48
 90
       50
102
RTVSPost2010PropOp48
 70
     1
102
RTVSPost2010Prop49
280
     0
102
RTVSPost2010PropOp49
 70
     1
102
RTVSPost2010Prop50
 90
       50
102
RTVSPost2010PropOp50
 70
     1
102
RTVSPost2010Prop51ColorIndex
 90
      256
102
RTVSPost2010Prop51ColorRGB
 90
-16777216
102
RTVSPost2010PropOp51
 70
     0
102
RTVSPost2010Prop52
140
1.0
102
RTVSPost2010PropOp52
 70
     0
102
RTVSPost2010Prop53
 90
        2
102
RTVSPost2010PropOp53
 70
     1
102
RTVSPost2010Prop54
  1
strokes_ogs.tif
102
RTVSPost2010PropOp54
 70
     1
102
RTVSPost2010Prop55
280
     0
102
RTVSPost2010PropOp55
 70
     1
102
RTVSPost2010Prop56
140
1.0
102
RTVSPost2010PropOp56
 70
     1
102
RTVSPost2010Prop57
140
1.0
102
RTVSPost2010PropOp57
 70
     1
  0
XRECORD
  5
D63
102
{ACAD_REACTORS
330
D62
102
}
330
D62
100
AcDbXrecord
280
     1
102
RTVSPropertyOp0
 70
     0
102
RTVSPropertyOp1
 70
     0
102
RTVSPropertyOp2
 70
     0
102
RTVSPropertyOp3
 70
     0
102
RTVSPropertyOp4
 70
     0
102
RTVSPropertyOp5
 70
     0
102
RTVSPropertyOp6
 70
     0
102
RTVSPropertyOp7
 70
     0
102
RTVSPropertyOp8
 70
     0
102
RTVSPropertyOp9
 70
     0
102
RTVSPropertyOp10
 70
     0
102
RTVSPropertyOp11
 70
     0
102
RTVSPropertyOp12
 70
     0
102
RTVSPropertyOp13
 70
     0
102
RTVSPropertyOp14
 70
     2
102
RTVSPropertyOp15
 70
     0
102
RTVSPropertyOp16
 70
     0
102
RTVSPropertyOp17
 70
     0
102
RTVSPropertyOp18
 70
     0
102
RTVSPropertyOp19
 70
     0
102
RTVSPropertyOp20
 70
     0
102
RTVSPropertyOp21
 70
     0
102
RTVSPropertyOp22
 70
     0
102
RTVSPropertyOp23
 70
     0
102
RTVSPropertyOp24
 70
     0
102
RTVSPropertyOp25
 70
     0
102
RTVSPropertyOp26
 70
     0
102
RTVSPropertyOp27
 70
     0
102
RTVSPropertyOp28
 70
     0
102
RTVSPropertyOp29
 70
     0
102
RTVSPropertyOp30
 70
     0
102
RTVSPropertyOp31
 70
     0
102
RTVSPropertyOp32
 70
     0
102
RTVSPropertyOp33
 70
     0
102
RTVSPropertyOp34
 70
     0
102
RTVSPropertyOp35
 70
     0
102
RTVSPropertyOp36
 70
     0
102
RTVSPropertyOp37
 70
     0
102
RTVSPropertyOp38
 70
     0
102
RTVSPropertyOp39
 70
     0
102
RTVSPropertyOp40
 70
     0
102
RTVSPropertyOp41
 70
     0
102
RTVSPropertyOp42
 70
     0
102
RTVSPropertyOp43
 70
     0
102
RTVSPropertyOp44
 70
     0
102
RTVSPropertyOp45
 70
     0
102
RTVSPropertyOp46
 70
     0
102
RTVSPropertyOp47
 70
     0
102
RTVSPropertyOp48
 70
     0
102
RTVSPropertyOp49
 70
     0
102
RTVSPropertyOp50
 70
     0
102
RTVSPropertyOp51
 70
     0
102
RTVSPropertyOp52
 70
     0
102
RTVSPropertyOp53
 70
     0
102
RTVSPropertyOp54
 70
     0
102
RTVSPropertyOp55
 70
     0
102
RTVSPropertyOp56
 70
     0
102
RTVSPropertyOp57
 70
     0
102
RTVSPost2010Prop28
280
     0
102
RTVSPost2010PropOp28
 70
     0
102
RTVSPost2010Prop29
280
     1
102
RTVSPost2010PropOp29
 70
     0
102
RTVSPost2010Prop30
280
     1
102
RTVSPost2010PropOp30
 70
     0
102
RTVSPost2010Prop31
280
     0
102
RTVSPost2010PropOp31
 70
     0
102
RTVSPost2010Prop32
280
     0
102
RTVSPost2010PropOp32
 70
     0
102
RTVSPost2010Prop33
280
     0
102
RTVSPost2010PropOp33
 70
     0
102
RTVSPost2010Prop34
280
     0
102
RTVSPost2010PropOp34
 70
     0
102
RTVSPost2010Prop35
280
     0
102
RTVSPost2010PropOp35
 70
     0
102
RTVSPost2010Prop36
280
     0
102
RTVSPost2010PropOp36
 70
     0
102
RTVSPost2010Prop37
 90
       50
102
RTVSPost2010PropOp37
 70
     0
102
RTVSPost2010Prop38
140
0.0
102
RTVSPost2010PropOp38
 70
     0
102
RTVSPost2010Prop39
140
1.0
102
RTVSPost2010PropOp39
 70
     0
102
RTVSPost2010Prop40
 90
        0
102
RTVSPost2010PropOp40
 70
     0
102
RTVSPost2010Prop41ColorIndex
 90
       18
102
RTVSPost2010Prop41ColorRGB
 90
        0
102
RTVSPost2010PropOp41
 70
     0
102
RTVSPost2010Prop42
 90
       50
102
RTVSPost2010PropOp42
 70
     0
102
RTVSPost2010Prop43
 90
        3
102
RTVSPost2010PropOp43
 70
     0
102
RTVSPost2010Prop44ColorIndex
 90
        5
102
RTVSPost2010Prop44ColorRGB
 90
      255
102
RTVSPost2010PropOp44
 70
     0
102
RTVSPost2010Prop45
280
     0
102
RTVSPost2010PropOp45
 70
     0
102
RTVSPost2010Prop46
 90
       50
102
RTVSPost2010PropOp46
 70
     0
102
RTVSPost2010Prop47
 90
       50
102
RTVSPost2010PropOp47
 70
     0
102
RTVSPost2010Prop48
 90
       50
102
RTVSPost2010PropOp48
 70
     0
102
RTVSPost2010Prop49
280
     0
102
RTVSPost2010PropOp49
 70
     0
102
RTVSPost2010Prop50
 90
       50
102
RTVSPost2010PropOp50
 70
     0
102
RTVSPost2010Prop51ColorIndex
 90
      256
102
RTVSPost2010Prop51ColorRGB
 90
-16777216
102
RTVSPost2010PropOp51
 70
     0
102
RTVSPost2010Prop52
140
1.0
102
RTVSPost2010PropOp52
 70
     0
102
RTVSPost2010Prop53
 90
        2
102
RTVSPost2010PropOp53
 70
     0
102
RTVSPost2010Prop54
  1
strokes_ogs.tif
102
RTVSPost2010PropOp54
 70
     0
102
RTVSPost2010Prop55
280
     0
102
RTVSPost2010PropOp55
 70
     0
102
RTVSPost2010Prop56
140
1.0
102
RTVSPost2010PropOp56
 70
     0
102
RTVSPost2010Prop57
140
1.0
102
RTVSPost2010PropOp57
 70
     0
  0
XRECORD
  5
D65
102
{ACAD_REACTORS
330
D64
102
}
330
D64
100
AcDbXrecord
280
     1
102
RTVSPropertyOp0
 70
     1
102
RTVSPropertyOp1
 70
     1
102
RTVSPropertyOp2
 70
     1
102
RTVSPropertyOp3
 70
     1
102
RTVSPropertyOp4
 70
     1
102
RTVSPropertyOp5
 70
     1
102
RTVSPropertyOp6
 70
     1
102
RTVSPropertyOp7
 70
     1
102
RTVSPropertyOp8
 70
     1
102
RTVSPropertyOp9
 70
     1
102
RTVSPropertyOp10
 70
     1
102
RTVSPropertyOp11
 70
     1
102
RTVSPropertyOp12
 70
     1
102
RTVSPropertyOp13
 70
     1
102
RTVSPropertyOp14
 70
     1
102
RTVSPropertyOp15
 70
     1
102
RTVSPropertyOp16
 70
     1
102
RTVSPropertyOp17
 70
     1
102
RTVSPropertyOp18
 70
     1
102
RTVSPropertyOp19
 70
     1
102
RTVSPropertyOp20
 70
     1
102
RTVSPropertyOp21
 70
     1
102
RTVSPropertyOp22
 70
     1
102
RTVSPropertyOp23
 70
     1
102
RTVSPropertyOp24
 70
     1
102
RTVSPropertyOp25
 70
     1
102
RTVSPropertyOp26
 70
     1
102
RTVSPropertyOp27
 70
     1
102
RTVSPropertyOp28
 70
     1
102
RTVSPropertyOp29
 70
     1
102
RTVSPropertyOp30
 70
     1
102
RTVSPropertyOp31
 70
     1
102
RTVSPropertyOp32
 70
     1
102
RTVSPropertyOp33
 70
     1
102
RTVSPropertyOp34
 70
     1
102
RTVSPropertyOp35
 70
     1
102
RTVSPropertyOp36
 70
     1
102
RTVSPropertyOp37
 70
     1
102
RTVSPropertyOp38
 70
     1
102
RTVSPropertyOp39
 70
     1
102
RTVSPropertyOp40
 70
     1
102
RTVSPropertyOp41
 70
     1
102
RTVSPropertyOp42
 70
     1
102
RTVSPropertyOp43
 70
     1
102
RTVSPropertyOp44
 70
     1
102
RTVSPropertyOp45
 70
     1
102
RTVSPropertyOp46
 70
     1
102
RTVSPropertyOp47
 70
     1
102
RTVSPropertyOp48
 70
     1
102
RTVSPropertyOp49
 70
     1
102
RTVSPropertyOp50
 70
     1
102
RTVSPropertyOp51
 70
     0
102
RTVSPropertyOp52
 70
     0
102
RTVSPropertyOp53
 70
     1
102
RTVSPropertyOp54
 70
     1
102
RTVSPropertyOp55
 70
     1
102
RTVSPropertyOp56
 70
     1
102
RTVSPropertyOp57
 70
     1
102
RTVSPost2010Prop28
280
     0
102
RTVSPost2010PropOp28
 70
     1
102
RTVSPost2010Prop29
280
     1
102
RTVSPost2010PropOp29
 70
     1
102
RTVSPost2010Prop30
280
     1
102
RTVSPost2010PropOp30
 70
     1
102
RTVSPost2010Prop31
280
     0
102
RTVSPost2010PropOp31
 70
     1
102
RTVSPost2010Prop32
280
     0
102
RTVSPost2010PropOp32
 70
     1
102
RTVSPost2010Prop33
280
     0
102
RTVSPost2010PropOp33
 70
     1
102
RTVSPost2010Prop34
280
     0
102
RTVSPost2010PropOp34
 70
     1
102
RTVSPost2010Prop35
280
     0
102
RTVSPost2010PropOp35
 70
     1
102
RTVSPost2010Prop36
280
     0
102
RTVSPost2010PropOp36
 70
     1
102
RTVSPost2010Prop37
 90
       50
102
RTVSPost2010PropOp37
 70
     1
102
RTVSPost2010Prop38
140
0.0
102
RTVSPost2010PropOp38
 70
     1
102
RTVSPost2010Prop39
140
1.0
102
RTVSPost2010PropOp39
 70
     1
102
RTVSPost2010Prop40
 90
        0
102
RTVSPost2010PropOp40
 70
     1
102
RTVSPost2010Prop41ColorIndex
 90
       18
102
RTVSPost2010Prop41ColorRGB
 90
        0
102
RTVSPost2010PropOp41
 70
     1
102
RTVSPost2010Prop42
 90
       50
102
RTVSPost2010PropOp42
 70
     1
102
RTVSPost2010Prop43
 90
        3
102
RTVSPost2010PropOp43
 70
     1
102
RTVSPost2010Prop44ColorIndex
 90
        5
102
RTVSPost2010Prop44ColorRGB
 90
      255
102
RTVSPost2010PropOp44
 70
     1
102
RTVSPost2010Prop45
280
     0
102
RTVSPost2010PropOp45
 70
     1
102
RTVSPost2010Prop46
 90
       50
102
RTVSPost2010PropOp46
 70
     1
102
RTVSPost2010Prop47
 90
       50
102
RTVSPost2010PropOp47
 70
     1
102
RTVSPost2010Prop48
 90
       50
102
RTVSPost2010PropOp48
 70
     1
102
RTVSPost2010Prop49
280
     0
102
RTVSPost2010PropOp49
 70
     1
102
RTVSPost2010Prop50
 90
       50
102
RTVSPost2010PropOp50
 70
     1
102
RTVSPost2010Prop51ColorIndex
 90
      256
102
RTVSPost2010Prop51ColorRGB
 90
-16777216
102
RTVSPost2010PropOp51
 70
     0
102
RTVSPost2010Prop52
140
1.0
102
RTVSPost2010PropOp52
 70
     0
102
RTVSPost2010Prop53
 90
        2
102
RTVSPost2010PropOp53
 70
     1
102
RTVSPost2010Prop54
  1
strokes_ogs.tif
102
RTVSPost2010PropOp54
 70
     1
102
RTVSPost2010Prop55
280
     0
102
RTVSPost2010PropOp55
 70
     1
102
RTVSPost2010Prop56
140
1.0
102
RTVSPost2010PropOp56
 70
     1
102
RTVSPost2010Prop57
140
1.0
102
RTVSPost2010PropOp57
 70
     1
  0
XRECORD
  5
D67
102
{ACAD_REACTORS
330
D66
102
}
330
D66
100
AcDbXrecord
280
     1
102
RTVSPropertyOp0
 70
     1
102
RTVSPropertyOp1
 70
     1
102
RTVSPropertyOp2
 70
     1
102
RTVSPropertyOp3
 70
     1
102
RTVSPropertyOp4
 70
     1
102
RTVSPropertyOp5
 70
     1
102
RTVSPropertyOp6
 70
     1
102
RTVSPropertyOp7
 70
     1
102
RTVSPropertyOp8
 70
     1
102
RTVSPropertyOp9
 70
     1
102
RTVSPropertyOp10
 70
     1
102
RTVSPropertyOp11
 70
     1
102
RTVSPropertyOp12
 70
     1
102
RTVSPropertyOp13
 70
     1
102
RTVSPropertyOp14
 70
     1
102
RTVSPropertyOp15
 70
     1
102
RTVSPropertyOp16
 70
     1
102
RTVSPropertyOp17
 70
     1
102
RTVSPropertyOp18
 70
     1
102
RTVSPropertyOp19
 70
     1
102
RTVSPropertyOp20
 70
     1
102
RTVSPropertyOp21
 70
     1
102
RTVSPropertyOp22
 70
     1
102
RTVSPropertyOp23
 70
     1
102
RTVSPropertyOp24
 70
     1
102
RTVSPropertyOp25
 70
     1
102
RTVSPropertyOp26
 70
     1
102
RTVSPropertyOp27
 70
     1
102
RTVSPropertyOp28
 70
     1
102
RTVSPropertyOp29
 70
     1
102
RTVSPropertyOp30
 70
     1
102
RTVSPropertyOp31
 70
     1
102
RTVSPropertyOp32
 70
     1
102
RTVSPropertyOp33
 70
     1
102
RTVSPropertyOp34
 70
     1
102
RTVSPropertyOp35
 70
     1
102
RTVSPropertyOp36
 70
     1
102
RTVSPropertyOp37
 70
     1
102
RTVSPropertyOp38
 70
     1
102
RTVSPropertyOp39
 70
     1
102
RTVSPropertyOp40
 70
     1
102
RTVSPropertyOp41
 70
     1
102
RTVSPropertyOp42
 70
     1
102
RTVSPropertyOp43
 70
     1
102
RTVSPropertyOp44
 70
     1
102
RTVSPropertyOp45
 70
     1
102
RTVSPropertyOp46
 70
     1
102
RTVSPropertyOp47
 70
     1
102
RTVSPropertyOp48
 70
     1
102
RTVSPropertyOp49
 70
     1
102
RTVSPropertyOp50
 70
     1
102
RTVSPropertyOp51
 70
     0
102
RTVSPropertyOp52
 70
     0
102
RTVSPropertyOp53
 70
     1
102
RTVSPropertyOp54
 70
     1
102
RTVSPropertyOp55
 70
     1
102
RTVSPropertyOp56
 70
     1
102
RTVSPropertyOp57
 70
     1
102
RTVSPost2010Prop28
280
     0
102
RTVSPost2010PropOp28
 70
     1
102
RTVSPost2010Prop29
280
     1
102
RTVSPost2010PropOp29
 70
     1
102
RTVSPost2010Prop30
280
     1
102
RTVSPost2010PropOp30
 70
     1
102
RTVSPost2010Prop31
280
     0
102
RTVSPost2010PropOp31
 70
     1
102
RTVSPost2010Prop32
280
     0
102
RTVSPost2010PropOp32
 70
     1
102
RTVSPost2010Prop33
280
     0
102
RTVSPost2010PropOp33
 70
     1
102
RTVSPost2010Prop34
280
     0
102
RTVSPost2010PropOp34
 70
     1
102
RTVSPost2010Prop35
280
     0
102
RTVSPost2010PropOp35
 70
     1
102
RTVSPost2010Prop36
280
     0
102
RTVSPost2010PropOp36
 70
     1
102
RTVSPost2010Prop37
 90
       50
102
RTVSPost2010PropOp37
 70
     1
102
RTVSPost2010Prop38
140
0.0
102
RTVSPost2010PropOp38
 70
     1
102
RTVSPost2010Prop39
140
1.0
102
RTVSPost2010PropOp39
 70
     1
102
RTVSPost2010Prop40
 90
        0
102
RTVSPost2010PropOp40
 70
     1
102
RTVSPost2010Prop41ColorIndex
 90
       18
102
RTVSPost2010Prop41ColorRGB
 90
        0
102
RTVSPost2010PropOp41
 70
     1
102
RTVSPost2010Prop42
 90
       50
102
RTVSPost2010PropOp42
 70
     1
102
RTVSPost2010Prop43
 90
        3
102
RTVSPost2010PropOp43
 70
     1
102
RTVSPost2010Prop44ColorIndex
 90
        5
102
RTVSPost2010Prop44ColorRGB
 90
      255
102
RTVSPost2010PropOp44
 70
     1
102
RTVSPost2010Prop45
280
     0
102
RTVSPost2010PropOp45
 70
     1
102
RTVSPost2010Prop46
 90
       50
102
RTVSPost2010PropOp46
 70
     1
102
RTVSPost2010Prop47
 90
       50
102
RTVSPost2010PropOp47
 70
     1
102
RTVSPost2010Prop48
 90
       50
102
RTVSPost2010PropOp48
 70
     1
102
RTVSPost2010Prop49
280
     0
102
RTVSPost2010PropOp49
 70
     1
102
RTVSPost2010Prop50
 90
       50
102
RTVSPost2010PropOp50
 70
     1
102
RTVSPost2010Prop51ColorIndex
 90
      256
102
RTVSPost2010Prop51ColorRGB
 90
-16777216
102
RTVSPost2010PropOp51
 70
     0
102
RTVSPost2010Prop52
140
1.0
102
RTVSPost2010PropOp52
 70
     0
102
RTVSPost2010Prop53
 90
        2
102
RTVSPost2010PropOp53
 70
     1
102
RTVSPost2010Prop54
  1
strokes_ogs.tif
102
RTVSPost2010PropOp54
 70
     1
102
RTVSPost2010Prop55
280
     0
102
RTVSPost2010PropOp55
 70
     1
102
RTVSPost2010Prop56
140
1.0
102
RTVSPost2010PropOp56
 70
     1
102
RTVSPost2010Prop57
140
1.0
102
RTVSPost2010PropOp57
 70
     1
  0
XRECORD
  5
D69
102
{ACAD_REACTORS
330
D68
102
}
330
D68
100
AcDbXrecord
280
     1
102
RTVSPropertyOp0
 70
     1
102
RTVSPropertyOp1
 70
     1
102
RTVSPropertyOp2
 70
     1
102
RTVSPropertyOp3
 70
     1
102
RTVSPropertyOp4
 70
     1
102
RTVSPropertyOp5
 70
     1
102
RTVSPropertyOp6
 70
     1
102
RTVSPropertyOp7
 70
     1
102
RTVSPropertyOp8
 70
     1
102
RTVSPropertyOp9
 70
     1
102
RTVSPropertyOp10
 70
     1
102
RTVSPropertyOp11
 70
     1
102
RTVSPropertyOp12
 70
     1
102
RTVSPropertyOp13
 70
     1
102
RTVSPropertyOp14
 70
     1
102
RTVSPropertyOp15
 70
     1
102
RTVSPropertyOp16
 70
     1
102
RTVSPropertyOp17
 70
     1
102
RTVSPropertyOp18
 70
     1
102
RTVSPropertyOp19
 70
     1
102
RTVSPropertyOp20
 70
     1
102
RTVSPropertyOp21
 70
     1
102
RTVSPropertyOp22
 70
     1
102
RTVSPropertyOp23
 70
     1
102
RTVSPropertyOp24
 70
     1
102
RTVSPropertyOp25
 70
     1
102
RTVSPropertyOp26
 70
     1
102
RTVSPropertyOp27
 70
     1
102
RTVSPropertyOp28
 70
     1
102
RTVSPropertyOp29
 70
     1
102
RTVSPropertyOp30
 70
     1
102
RTVSPropertyOp31
 70
     1
102
RTVSPropertyOp32
 70
     1
102
RTVSPropertyOp33
 70
     1
102
RTVSPropertyOp34
 70
     1
102
RTVSPropertyOp35
 70
     1
102
RTVSPropertyOp36
 70
     1
102
RTVSPropertyOp37
 70
     1
102
RTVSPropertyOp38
 70
     1
102
RTVSPropertyOp39
 70
     1
102
RTVSPropertyOp40
 70
     1
102
RTVSPropertyOp41
 70
     1
102
RTVSPropertyOp42
 70
     1
102
RTVSPropertyOp43
 70
     1
102
RTVSPropertyOp44
 70
     1
102
RTVSPropertyOp45
 70
     1
102
RTVSPropertyOp46
 70
     1
102
RTVSPropertyOp47
 70
     1
102
RTVSPropertyOp48
 70
     1
102
RTVSPropertyOp49
 70
     1
102
RTVSPropertyOp50
 70
     1
102
RTVSPropertyOp51
 70
     0
102
RTVSPropertyOp52
 70
     0
102
RTVSPropertyOp53
 70
     1
102
RTVSPropertyOp54
 70
     1
102
RTVSPropertyOp55
 70
     1
102
RTVSPropertyOp56
 70
     1
102
RTVSPropertyOp57
 70
     1
102
RTVSPost2010Prop28
280
     0
102
RTVSPost2010PropOp28
 70
     1
102
RTVSPost2010Prop29
280
     1
102
RTVSPost2010PropOp29
 70
     1
102
RTVSPost2010Prop30
280
     1
102
RTVSPost2010PropOp30
 70
     1
102
RTVSPost2010Prop31
280
     0
102
RTVSPost2010PropOp31
 70
     1
102
RTVSPost2010Prop32
280
     0
102
RTVSPost2010PropOp32
 70
     1
102
RTVSPost2010Prop33
280
     0
102
RTVSPost2010PropOp33
 70
     1
102
RTVSPost2010Prop34
280
     0
102
RTVSPost2010PropOp34
 70
     1
102
RTVSPost2010Prop35
280
     0
102
RTVSPost2010PropOp35
 70
     1
102
RTVSPost2010Prop36
280
     0
102
RTVSPost2010PropOp36
 70
     1
102
RTVSPost2010Prop37
 90
       50
102
RTVSPost2010PropOp37
 70
     1
102
RTVSPost2010Prop38
140
0.0
102
RTVSPost2010PropOp38
 70
     1
102
RTVSPost2010Prop39
140
1.0
102
RTVSPost2010PropOp39
 70
     1
102
RTVSPost2010Prop40
 90
        0
102
RTVSPost2010PropOp40
 70
     1
102
RTVSPost2010Prop41ColorIndex
 90
       18
102
RTVSPost2010Prop41ColorRGB
 90
        0
102
RTVSPost2010PropOp41
 70
     1
102
RTVSPost2010Prop42
 90
       50
102
RTVSPost2010PropOp42
 70
     1
102
RTVSPost2010Prop43
 90
        3
102
RTVSPost2010PropOp43
 70
     1
102
RTVSPost2010Prop44ColorIndex
 90
        5
102
RTVSPost2010Prop44ColorRGB
 90
      255
102
RTVSPost2010PropOp44
 70
     1
102
RTVSPost2010Prop45
280
     0
102
RTVSPost2010PropOp45
 70
     1
102
RTVSPost2010Prop46
 90
       50
102
RTVSPost2010PropOp46
 70
     1
102
RTVSPost2010Prop47
 90
       50
102
RTVSPost2010PropOp47
 70
     1
102
RTVSPost2010Prop48
 90
       50
102
RTVSPost2010PropOp48
 70
     1
102
RTVSPost2010Prop49
280
     0
102
RTVSPost2010PropOp49
 70
     1
102
RTVSPost2010Prop50
 90
       50
102
RTVSPost2010PropOp50
 70
     1
102
RTVSPost2010Prop51ColorIndex
 90
      256
102
RTVSPost2010Prop51ColorRGB
 90
-16777216
102
RTVSPost2010PropOp51
 70
     0
102
RTVSPost2010Prop52
140
1.0
102
RTVSPost2010PropOp52
 70
     0
102
RTVSPost2010Prop53
 90
        2
102
RTVSPost2010PropOp53
 70
     1
102
RTVSPost2010Prop54
  1
strokes_ogs.tif
102
RTVSPost2010PropOp54
 70
     1
102
RTVSPost2010Prop55
280
     0
102
RTVSPost2010PropOp55
 70
     1
102
RTVSPost2010Prop56
140
1.0
102
RTVSPost2010PropOp56
 70
     1
102
RTVSPost2010Prop57
140
1.0
102
RTVSPost2010PropOp57
 70
     1
  0
XRECORD
  5
D6B
102
{ACAD_REACTORS
330
D6A
102
}
330
D6A
100
AcDbXrecord
280
     1
102
RTVSPropertyOp0
 70
     1
102
RTVSPropertyOp1
 70
     1
102
RTVSPropertyOp2
 70
     1
102
RTVSPropertyOp3
 70
     1
102
RTVSPropertyOp4
 70
     1
102
RTVSPropertyOp5
 70
     1
102
RTVSPropertyOp6
 70
     1
102
RTVSPropertyOp7
 70
     1
102
RTVSPropertyOp8
 70
     1
102
RTVSPropertyOp9
 70
     1
102
RTVSPropertyOp10
 70
     1
102
RTVSPropertyOp11
 70
     1
102
RTVSPropertyOp12
 70
     1
102
RTVSPropertyOp13
 70
     1
102
RTVSPropertyOp14
 70
     1
102
RTVSPropertyOp15
 70
     1
102
RTVSPropertyOp16
 70
     1
102
RTVSPropertyOp17
 70
     1
102
RTVSPropertyOp18
 70
     1
102
RTVSPropertyOp19
 70
     1
102
RTVSPropertyOp20
 70
     1
102
RTVSPropertyOp21
 70
     1
102
RTVSPropertyOp22
 70
     1
102
RTVSPropertyOp23
 70
     1
102
RTVSPropertyOp24
 70
     1
102
RTVSPropertyOp25
 70
     1
102
RTVSPropertyOp26
 70
     1
102
RTVSPropertyOp27
 70
     1
102
RTVSPropertyOp28
 70
     1
102
RTVSPropertyOp29
 70
     1
102
RTVSPropertyOp30
 70
     1
102
RTVSPropertyOp31
 70
     1
102
RTVSPropertyOp32
 70
     1
102
RTVSPropertyOp33
 70
     1
102
RTVSPropertyOp34
 70
     1
102
RTVSPropertyOp35
 70
     1
102
RTVSPropertyOp36
 70
     1
102
RTVSPropertyOp37
 70
     1
102
RTVSPropertyOp38
 70
     1
102
RTVSPropertyOp39
 70
     1
102
RTVSPropertyOp40
 70
     1
102
RTVSPropertyOp41
 70
     1
102
RTVSPropertyOp42
 70
     1
102
RTVSPropertyOp43
 70
     1
102
RTVSPropertyOp44
 70
     1
102
RTVSPropertyOp45
 70
     1
102
RTVSPropertyOp46
 70
     1
102
RTVSPropertyOp47
 70
     1
102
RTVSPropertyOp48
 70
     1
102
RTVSPropertyOp49
 70
     1
102
RTVSPropertyOp50
 70
     1
102
RTVSPropertyOp51
 70
     0
102
RTVSPropertyOp52
 70
     0
102
RTVSPropertyOp53
 70
     1
102
RTVSPropertyOp54
 70
     1
102
RTVSPropertyOp55
 70
     1
102
RTVSPropertyOp56
 70
     1
102
RTVSPropertyOp57
 70
     1
102
RTVSPost2010Prop28
280
     0
102
RTVSPost2010PropOp28
 70
     1
102
RTVSPost2010Prop29
280
     1
102
RTVSPost2010PropOp29
 70
     1
102
RTVSPost2010Prop30
280
     1
102
RTVSPost2010PropOp30
 70
     1
102
RTVSPost2010Prop31
280
     0
102
RTVSPost2010PropOp31
 70
     1
102
RTVSPost2010Prop32
280
     0
102
RTVSPost2010PropOp32
 70
     1
102
RTVSPost2010Prop33
280
     0
102
RTVSPost2010PropOp33
 70
     1
102
RTVSPost2010Prop34
280
     0
102
RTVSPost2010PropOp34
 70
     1
102
RTVSPost2010Prop35
280
     0
102
RTVSPost2010PropOp35
 70
     1
102
RTVSPost2010Prop36
280
     0
102
RTVSPost2010PropOp36
 70
     1
102
RTVSPost2010Prop37
 90
       50
102
RTVSPost2010PropOp37
 70
     1
102
RTVSPost2010Prop38
140
0.0
102
RTVSPost2010PropOp38
 70
     1
102
RTVSPost2010Prop39
140
1.0
102
RTVSPost2010PropOp39
 70
     1
102
RTVSPost2010Prop40
 90
        0
102
RTVSPost2010PropOp40
 70
     1
102
RTVSPost2010Prop41ColorIndex
 90
       18
102
RTVSPost2010Prop41ColorRGB
 90
        0
102
RTVSPost2010PropOp41
 70
     1
102
RTVSPost2010Prop42
 90
       50
102
RTVSPost2010PropOp42
 70
     1
102
RTVSPost2010Prop43
 90
        3
102
RTVSPost2010PropOp43
 70
     1
102
RTVSPost2010Prop44ColorIndex
 90
        5
102
RTVSPost2010Prop44ColorRGB
 90
      255
102
RTVSPost2010PropOp44
 70
     1
102
RTVSPost2010Prop45
280
     0
102
RTVSPost2010PropOp45
 70
     1
102
RTVSPost2010Prop46
 90
       50
102
RTVSPost2010PropOp46
 70
     1
102
RTVSPost2010Prop47
 90
       50
102
RTVSPost2010PropOp47
 70
     1
102
RTVSPost2010Prop48
 90
       50
102
RTVSPost2010PropOp48
 70
     1
102
RTVSPost2010Prop49
280
     0
102
RTVSPost2010PropOp49
 70
     1
102
RTVSPost2010Prop50
 90
       50
102
RTVSPost2010PropOp50
 70
     1
102
RTVSPost2010Prop51ColorIndex
 90
      256
102
RTVSPost2010Prop51ColorRGB
 90
-16777216
102
RTVSPost2010PropOp51
 70
     0
102
RTVSPost2010Prop52
140
1.0
102
RTVSPost2010PropOp52
 70
     0
102
RTVSPost2010Prop53
 90
        2
102
RTVSPost2010PropOp53
 70
     1
102
RTVSPost2010Prop54
  1
strokes_ogs.tif
102
RTVSPost2010PropOp54
 70
     1
102
RTVSPost2010Prop55
280
     0
102
RTVSPost2010PropOp55
 70
     1
102
RTVSPost2010Prop56
140
1.0
102
RTVSPost2010PropOp56
 70
     1
102
RTVSPost2010Prop57
140
1.0
102
RTVSPost2010PropOp57
 70
     1
  0
XRECORD
  5
D6D
102
{ACAD_REACTORS
330
D6C
102
}
330
D6C
100
AcDbXrecord
280
     1
102
RTVSPropertyOp0
 70
     1
102
RTVSPropertyOp1
 70
     1
102
RTVSPropertyOp2
 70
     1
102
RTVSPropertyOp3
 70
     1
102
RTVSPropertyOp4
 70
     1
102
RTVSPropertyOp5
 70
     1
102
RTVSPropertyOp6
 70
     1
102
RTVSPropertyOp7
 70
     1
102
RTVSPropertyOp8
 70
     1
102
RTVSPropertyOp9
 70
     1
102
RTVSPropertyOp10
 70
     1
102
RTVSPropertyOp11
 70
     1
102
RTVSPropertyOp12
 70
     1
102
RTVSPropertyOp13
 70
     1
102
RTVSPropertyOp14
 70
     1
102
RTVSPropertyOp15
 70
     1
102
RTVSPropertyOp16
 70
     1
102
RTVSPropertyOp17
 70
     1
102
RTVSPropertyOp18
 70
     1
102
RTVSPropertyOp19
 70
     1
102
RTVSPropertyOp20
 70
     1
102
RTVSPropertyOp21
 70
     1
102
RTVSPropertyOp22
 70
     1
102
RTVSPropertyOp23
 70
     1
102
RTVSPropertyOp24
 70
     1
102
RTVSPropertyOp25
 70
     1
102
RTVSPropertyOp26
 70
     1
102
RTVSPropertyOp27
 70
     1
102
RTVSPropertyOp28
 70
     1
102
RTVSPropertyOp29
 70
     1
102
RTVSPropertyOp30
 70
     1
102
RTVSPropertyOp31
 70
     1
102
RTVSPropertyOp32
 70
     1
102
RTVSPropertyOp33
 70
     1
102
RTVSPropertyOp34
 70
     1
102
RTVSPropertyOp35
 70
     1
102
RTVSPropertyOp36
 70
     1
102
RTVSPropertyOp37
 70
     1
102
RTVSPropertyOp38
 70
     1
102
RTVSPropertyOp39
 70
     1
102
RTVSPropertyOp40
 70
     1
102
RTVSPropertyOp41
 70
     1
102
RTVSPropertyOp42
 70
     1
102
RTVSPropertyOp43
 70
     1
102
RTVSPropertyOp44
 70
     1
102
RTVSPropertyOp45
 70
     1
102
RTVSPropertyOp46
 70
     1
102
RTVSPropertyOp47
 70
     1
102
RTVSPropertyOp48
 70
     1
102
RTVSPropertyOp49
 70
     1
102
RTVSPropertyOp50
 70
     1
102
RTVSPropertyOp51
 70
     0
102
RTVSPropertyOp52
 70
     0
102
RTVSPropertyOp53
 70
     1
102
RTVSPropertyOp54
 70
     1
102
RTVSPropertyOp55
 70
     1
102
RTVSPropertyOp56
 70
     1
102
RTVSPropertyOp57
 70
     1
102
RTVSPost2010Prop28
280
     0
102
RTVSPost2010PropOp28
 70
     1
102
RTVSPost2010Prop29
280
     1
102
RTVSPost2010PropOp29
 70
     1
102
RTVSPost2010Prop30
280
     1
102
RTVSPost2010PropOp30
 70
     1
102
RTVSPost2010Prop31
280
     0
102
RTVSPost2010PropOp31
 70
     1
102
RTVSPost2010Prop32
280
     0
102
RTVSPost2010PropOp32
 70
     1
102
RTVSPost2010Prop33
280
     0
102
RTVSPost2010PropOp33
 70
     1
102
RTVSPost2010Prop34
280
     0
102
RTVSPost2010PropOp34
 70
     1
102
RTVSPost2010Prop35
280
     0
102
RTVSPost2010PropOp35
 70
     1
102
RTVSPost2010Prop36
280
     0
102
RTVSPost2010PropOp36
 70
     1
102
RTVSPost2010Prop37
 90
       50
102
RTVSPost2010PropOp37
 70
     1
102
RTVSPost2010Prop38
140
0.0
102
RTVSPost2010PropOp38
 70
     1
102
RTVSPost2010Prop39
140
1.0
102
RTVSPost2010PropOp39
 70
     1
102
RTVSPost2010Prop40
 90
        0
102
RTVSPost2010PropOp40
 70
     1
102
RTVSPost2010Prop41ColorIndex
 90
       18
102
RTVSPost2010Prop41ColorRGB
 90
        0
102
RTVSPost2010PropOp41
 70
     1
102
RTVSPost2010Prop42
 90
       50
102
RTVSPost2010PropOp42
 70
     1
102
RTVSPost2010Prop43
 90
        3
102
RTVSPost2010PropOp43
 70
     1
102
RTVSPost2010Prop44ColorIndex
 90
        5
102
RTVSPost2010Prop44ColorRGB
 90
      255
102
RTVSPost2010PropOp44
 70
     1
102
RTVSPost2010Prop45
280
     0
102
RTVSPost2010PropOp45
 70
     1
102
RTVSPost2010Prop46
 90
       50
102
RTVSPost2010PropOp46
 70
     1
102
RTVSPost2010Prop47
 90
       50
102
RTVSPost2010PropOp47
 70
     1
102
RTVSPost2010Prop48
 90
       50
102
RTVSPost2010PropOp48
 70
     1
102
RTVSPost2010Prop49
280
     0
102
RTVSPost2010PropOp49
 70
     1
102
RTVSPost2010Prop50
 90
       50
102
RTVSPost2010PropOp50
 70
     1
102
RTVSPost2010Prop51ColorIndex
 90
      256
102
RTVSPost2010Prop51ColorRGB
 90
-16777216
102
RTVSPost2010PropOp51
 70
     0
102
RTVSPost2010Prop52
140
1.0
102
RTVSPost2010PropOp52
 70
     0
102
RTVSPost2010Prop53
 90
        2
102
RTVSPost2010PropOp53
 70
     1
102
RTVSPost2010Prop54
  1
strokes_ogs.tif
102
RTVSPost2010PropOp54
 70
     1
102
RTVSPost2010Prop55
280
     0
102
RTVSPost2010PropOp55
 70
     1
102
RTVSPost2010Prop56
140
1.0
102
RTVSPost2010PropOp56
 70
     1
102
RTVSPost2010Prop57
140
1.0
102
RTVSPost2010PropOp57
 70
     1
  0
XRECORD
  5
D6F
102
{ACAD_REACTORS
330
D6E
102
}
330
D6E
100
AcDbXrecord
280
     1
102
RTVSPropertyOp0
 70
     1
102
RTVSPropertyOp1
 70
     1
102
RTVSPropertyOp2
 70
     1
102
RTVSPropertyOp3
 70
     1
102
RTVSPropertyOp4
 70
     1
102
RTVSPropertyOp5
 70
     1
102
RTVSPropertyOp6
 70
     1
102
RTVSPropertyOp7
 70
     1
102
RTVSPropertyOp8
 70
     1
102
RTVSPropertyOp9
 70
     1
102
RTVSPropertyOp10
 70
     1
102
RTVSPropertyOp11
 70
     1
102
RTVSPropertyOp12
 70
     1
102
RTVSPropertyOp13
 70
     1
102
RTVSPropertyOp14
 70
     1
102
RTVSPropertyOp15
 70
     1
102
RTVSPropertyOp16
 70
     1
102
RTVSPropertyOp17
 70
     1
102
RTVSPropertyOp18
 70
     1
102
RTVSPropertyOp19
 70
     1
102
RTVSPropertyOp20
 70
     1
102
RTVSPropertyOp21
 70
     1
102
RTVSPropertyOp22
 70
     1
102
RTVSPropertyOp23
 70
     1
102
RTVSPropertyOp24
 70
     1
102
RTVSPropertyOp25
 70
     1
102
RTVSPropertyOp26
 70
     1
102
RTVSPropertyOp27
 70
     1
102
RTVSPropertyOp28
 70
     1
102
RTVSPropertyOp29
 70
     1
102
RTVSPropertyOp30
 70
     1
102
RTVSPropertyOp31
 70
     1
102
RTVSPropertyOp32
 70
     1
102
RTVSPropertyOp33
 70
     1
102
RTVSPropertyOp34
 70
     1
102
RTVSPropertyOp35
 70
     1
102
RTVSPropertyOp36
 70
     1
102
RTVSPropertyOp37
 70
     1
102
RTVSPropertyOp38
 70
     1
102
RTVSPropertyOp39
 70
     1
102
RTVSPropertyOp40
 70
     1
102
RTVSPropertyOp41
 70
     1
102
RTVSPropertyOp42
 70
     1
102
RTVSPropertyOp43
 70
     1
102
RTVSPropertyOp44
 70
     1
102
RTVSPropertyOp45
 70
     1
102
RTVSPropertyOp46
 70
     1
102
RTVSPropertyOp47
 70
     1
102
RTVSPropertyOp48
 70
     1
102
RTVSPropertyOp49
 70
     1
102
RTVSPropertyOp50
 70
     1
102
RTVSPropertyOp51
 70
     0
102
RTVSPropertyOp52
 70
     0
102
RTVSPropertyOp53
 70
     1
102
RTVSPropertyOp54
 70
     1
102
RTVSPropertyOp55
 70
     1
102
RTVSPropertyOp56
 70
     1
102
RTVSPropertyOp57
 70
     1
102
RTVSPost2010Prop28
280
     0
102
RTVSPost2010PropOp28
 70
     1
102
RTVSPost2010Prop29
280
     1
102
RTVSPost2010PropOp29
 70
     1
102
RTVSPost2010Prop30
280
     1
102
RTVSPost2010PropOp30
 70
     1
102
RTVSPost2010Prop31
280
     0
102
RTVSPost2010PropOp31
 70
     1
102
RTVSPost2010Prop32
280
     0
102
RTVSPost2010PropOp32
 70
     1
102
RTVSPost2010Prop33
280
     0
102
RTVSPost2010PropOp33
 70
     1
102
RTVSPost2010Prop34
280
     0
102
RTVSPost2010PropOp34
 70
     1
102
RTVSPost2010Prop35
280
     0
102
RTVSPost2010PropOp35
 70
     1
102
RTVSPost2010Prop36
280
     0
102
RTVSPost2010PropOp36
 70
     1
102
RTVSPost2010Prop37
 90
       50
102
RTVSPost2010PropOp37
 70
     1
102
RTVSPost2010Prop38
140
0.0
102
RTVSPost2010PropOp38
 70
     1
102
RTVSPost2010Prop39
140
1.0
102
RTVSPost2010PropOp39
 70
     1
102
RTVSPost2010Prop40
 90
        0
102
RTVSPost2010PropOp40
 70
     1
102
RTVSPost2010Prop41ColorIndex
 90
       18
102
RTVSPost2010Prop41ColorRGB
 90
        0
102
RTVSPost2010PropOp41
 70
     1
102
RTVSPost2010Prop42
 90
       50
102
RTVSPost2010PropOp42
 70
     1
102
RTVSPost2010Prop43
 90
        3
102
RTVSPost2010PropOp43
 70
     1
102
RTVSPost2010Prop44ColorIndex
 90
        5
102
RTVSPost2010Prop44ColorRGB
 90
      255
102
RTVSPost2010PropOp44
 70
     1
102
RTVSPost2010Prop45
280
     0
102
RTVSPost2010PropOp45
 70
     1
102
RTVSPost2010Prop46
 90
       50
102
RTVSPost2010PropOp46
 70
     1
102
RTVSPost2010Prop47
 90
       50
102
RTVSPost2010PropOp47
 70
     1
102
RTVSPost2010Prop48
 90
       50
102
RTVSPost2010PropOp48
 70
     1
102
RTVSPost2010Prop49
280
     0
102
RTVSPost2010PropOp49
 70
     1
102
RTVSPost2010Prop50
 90
       50
102
RTVSPost2010PropOp50
 70
     1
102
RTVSPost2010Prop51ColorIndex
 90
      256
102
RTVSPost2010Prop51ColorRGB
 90
-16777216
102
RTVSPost2010PropOp51
 70
     0
102
RTVSPost2010Prop52
140
1.0
102
RTVSPost2010PropOp52
 70
     0
102
RTVSPost2010Prop53
 90
        2
102
RTVSPost2010PropOp53
 70
     1
102
RTVSPost2010Prop54
  1
strokes_ogs.tif
102
RTVSPost2010PropOp54
 70
     1
102
RTVSPost2010Prop55
280
     0
102
RTVSPost2010PropOp55
 70
     1
102
RTVSPost2010Prop56
140
1.0
102
RTVSPost2010PropOp56
 70
     1
102
RTVSPost2010Prop57
140
1.0
102
RTVSPost2010PropOp57
 70
     1
  0
XRECORD
  5
D71
102
{ACAD_REACTORS
330
D70
102
}
330
D70
100
AcDbXrecord
280
     1
102
RTVSPropertyOp0
 70
     1
102
RTVSPropertyOp1
 70
     1
102
RTVSPropertyOp2
 70
     1
102
RTVSPropertyOp3
 70
     1
102
RTVSPropertyOp4
 70
     1
102
RTVSPropertyOp5
 70
     1
102
RTVSPropertyOp6
 70
     1
102
RTVSPropertyOp7
 70
     1
102
RTVSPropertyOp8
 70
     1
102
RTVSPropertyOp9
 70
     1
102
RTVSPropertyOp10
 70
     1
102
RTVSPropertyOp11
 70
     1
102
RTVSPropertyOp12
 70
     1
102
RTVSPropertyOp13
 70
     1
102
RTVSPropertyOp14
 70
     1
102
RTVSPropertyOp15
 70
     1
102
RTVSPropertyOp16
 70
     1
102
RTVSPropertyOp17
 70
     1
102
RTVSPropertyOp18
 70
     1
102
RTVSPropertyOp19
 70
     1
102
RTVSPropertyOp20
 70
     1
102
RTVSPropertyOp21
 70
     1
102
RTVSPropertyOp22
 70
     1
102
RTVSPropertyOp23
 70
     1
102
RTVSPropertyOp24
 70
     1
102
RTVSPropertyOp25
 70
     1
102
RTVSPropertyOp26
 70
     1
102
RTVSPropertyOp27
 70
     1
102
RTVSPropertyOp28
 70
     1
102
RTVSPropertyOp29
 70
     1
102
RTVSPropertyOp30
 70
     1
102
RTVSPropertyOp31
 70
     1
102
RTVSPropertyOp32
 70
     1
102
RTVSPropertyOp33
 70
     1
102
RTVSPropertyOp34
 70
     1
102
RTVSPropertyOp35
 70
     1
102
RTVSPropertyOp36
 70
     1
102
RTVSPropertyOp37
 70
     1
102
RTVSPropertyOp38
 70
     1
102
RTVSPropertyOp39
 70
     1
102
RTVSPropertyOp40
 70
     1
102
RTVSPropertyOp41
 70
     1
102
RTVSPropertyOp42
 70
     1
102
RTVSPropertyOp43
 70
     1
102
RTVSPropertyOp44
 70
     1
102
RTVSPropertyOp45
 70
     1
102
RTVSPropertyOp46
 70
     1
102
RTVSPropertyOp47
 70
     1
102
RTVSPropertyOp48
 70
     1
102
RTVSPropertyOp49
 70
     1
102
RTVSPropertyOp50
 70
     1
102
RTVSPropertyOp51
 70
     0
102
RTVSPropertyOp52
 70
     0
102
RTVSPropertyOp53
 70
     1
102
RTVSPropertyOp54
 70
     1
102
RTVSPropertyOp55
 70
     1
102
RTVSPropertyOp56
 70
     1
102
RTVSPropertyOp57
 70
     1
102
RTVSPost2010Prop28
280
     0
102
RTVSPost2010PropOp28
 70
     1
102
RTVSPost2010Prop29
280
     1
102
RTVSPost2010PropOp29
 70
     1
102
RTVSPost2010Prop30
280
     1
102
RTVSPost2010PropOp30
 70
     1
102
RTVSPost2010Prop31
280
     0
102
RTVSPost2010PropOp31
 70
     1
102
RTVSPost2010Prop32
280
     0
102
RTVSPost2010PropOp32
 70
     1
102
RTVSPost2010Prop33
280
     0
102
RTVSPost2010PropOp33
 70
     1
102
RTVSPost2010Prop34
280
     0
102
RTVSPost2010PropOp34
 70
     1
102
RTVSPost2010Prop35
280
     0
102
RTVSPost2010PropOp35
 70
     1
102
RTVSPost2010Prop36
280
     0
102
RTVSPost2010PropOp36
 70
     1
102
RTVSPost2010Prop37
 90
       50
102
RTVSPost2010PropOp37
 70
     1
102
RTVSPost2010Prop38
140
0.0
102
RTVSPost2010PropOp38
 70
     1
102
RTVSPost2010Prop39
140
1.0
102
RTVSPost2010PropOp39
 70
     1
102
RTVSPost2010Prop40
 90
        0
102
RTVSPost2010PropOp40
 70
     1
102
RTVSPost2010Prop41ColorIndex
 90
       18
102
RTVSPost2010Prop41ColorRGB
 90
        0
102
RTVSPost2010PropOp41
 70
     1
102
RTVSPost2010Prop42
 90
       50
102
RTVSPost2010PropOp42
 70
     1
102
RTVSPost2010Prop43
 90
        3
102
RTVSPost2010PropOp43
 70
     1
102
RTVSPost2010Prop44ColorIndex
 90
        5
102
RTVSPost2010Prop44ColorRGB
 90
      255
102
RTVSPost2010PropOp44
 70
     1
102
RTVSPost2010Prop45
280
     0
102
RTVSPost2010PropOp45
 70
     1
102
RTVSPost2010Prop46
 90
       50
102
RTVSPost2010PropOp46
 70
     1
102
RTVSPost2010Prop47
 90
       50
102
RTVSPost2010PropOp47
 70
     1
102
RTVSPost2010Prop48
 90
       50
102
RTVSPost2010PropOp48
 70
     1
102
RTVSPost2010Prop49
280
     0
102
RTVSPost2010PropOp49
 70
     1
102
RTVSPost2010Prop50
 90
       50
102
RTVSPost2010PropOp50
 70
     1
102
RTVSPost2010Prop51ColorIndex
 90
      256
102
RTVSPost2010Prop51ColorRGB
 90
-16777216
102
RTVSPost2010PropOp51
 70
     0
102
RTVSPost2010Prop52
140
1.0
102
RTVSPost2010PropOp52
 70
     0
102
RTVSPost2010Prop53
 90
        2
102
RTVSPost2010PropOp53
 70
     1
102
RTVSPost2010Prop54
  1
strokes_ogs.tif
102
RTVSPost2010PropOp54
 70
     1
102
RTVSPost2010Prop55
280
     0
102
RTVSPost2010PropOp55
 70
     1
102
RTVSPost2010Prop56
140
1.0
102
RTVSPost2010PropOp56
 70
     1
102
RTVSPost2010Prop57
140
1.0
102
RTVSPost2010PropOp57
 70
     1
  0
XRECORD
  5
D73
102
{ACAD_REACTORS
330
D72
102
}
330
D72
100
AcDbXrecord
280
     1
102
RTVSPropertyOp0
 70
     1
102
RTVSPropertyOp1
 70
     1
102
RTVSPropertyOp2
 70
     1
102
RTVSPropertyOp3
 70
     1
102
RTVSPropertyOp4
 70
     1
102
RTVSPropertyOp5
 70
     1
102
RTVSPropertyOp6
 70
     1
102
RTVSPropertyOp7
 70
     1
102
RTVSPropertyOp8
 70
     1
102
RTVSPropertyOp9
 70
     1
102
RTVSPropertyOp10
 70
     1
102
RTVSPropertyOp11
 70
     1
102
RTVSPropertyOp12
 70
     1
102
RTVSPropertyOp13
 70
     1
102
RTVSPropertyOp14
 70
     1
102
RTVSPropertyOp15
 70
     1
102
RTVSPropertyOp16
 70
     1
102
RTVSPropertyOp17
 70
     1
102
RTVSPropertyOp18
 70
     1
102
RTVSPropertyOp19
 70
     1
102
RTVSPropertyOp20
 70
     1
102
RTVSPropertyOp21
 70
     1
102
RTVSPropertyOp22
 70
     1
102
RTVSPropertyOp23
 70
     1
102
RTVSPropertyOp24
 70
     1
102
RTVSPropertyOp25
 70
     1
102
RTVSPropertyOp26
 70
     1
102
RTVSPropertyOp27
 70
     1
102
RTVSPropertyOp28
 70
     1
102
RTVSPropertyOp29
 70
     1
102
RTVSPropertyOp30
 70
     1
102
RTVSPropertyOp31
 70
     1
102
RTVSPropertyOp32
 70
     1
102
RTVSPropertyOp33
 70
     1
102
RTVSPropertyOp34
 70
     1
102
RTVSPropertyOp35
 70
     1
102
RTVSPropertyOp36
 70
     1
102
RTVSPropertyOp37
 70
     1
102
RTVSPropertyOp38
 70
     1
102
RTVSPropertyOp39
 70
     1
102
RTVSPropertyOp40
 70
     1
102
RTVSPropertyOp41
 70
     1
102
RTVSPropertyOp42
 70
     1
102
RTVSPropertyOp43
 70
     1
102
RTVSPropertyOp44
 70
     1
102
RTVSPropertyOp45
 70
     1
102
RTVSPropertyOp46
 70
     1
102
RTVSPropertyOp47
 70
     1
102
RTVSPropertyOp48
 70
     1
102
RTVSPropertyOp49
 70
     1
102
RTVSPropertyOp50
 70
     1
102
RTVSPropertyOp51
 70
     0
102
RTVSPropertyOp52
 70
     0
102
RTVSPropertyOp53
 70
     1
102
RTVSPropertyOp54
 70
     1
102
RTVSPropertyOp55
 70
     1
102
RTVSPropertyOp56
 70
     1
102
RTVSPropertyOp57
 70
     1
102
RTVSPost2010Prop28
280
     0
102
RTVSPost2010PropOp28
 70
     1
102
RTVSPost2010Prop29
280
     1
102
RTVSPost2010PropOp29
 70
     1
102
RTVSPost2010Prop30
280
     1
102
RTVSPost2010PropOp30
 70
     1
102
RTVSPost2010Prop31
280
     0
102
RTVSPost2010PropOp31
 70
     1
102
RTVSPost2010Prop32
280
     0
102
RTVSPost2010PropOp32
 70
     1
102
RTVSPost2010Prop33
280
     0
102
RTVSPost2010PropOp33
 70
     1
102
RTVSPost2010Prop34
280
     0
102
RTVSPost2010PropOp34
 70
     1
102
RTVSPost2010Prop35
280
     0
102
RTVSPost2010PropOp35
 70
     1
102
RTVSPost2010Prop36
280
     0
102
RTVSPost2010PropOp36
 70
     1
102
RTVSPost2010Prop37
 90
       50
102
RTVSPost2010PropOp37
 70
     1
102
RTVSPost2010Prop38
140
0.0
102
RTVSPost2010PropOp38
 70
     1
102
RTVSPost2010Prop39
140
1.0
102
RTVSPost2010PropOp39
 70
     1
102
RTVSPost2010Prop40
 90
        0
102
RTVSPost2010PropOp40
 70
     1
102
RTVSPost2010Prop41ColorIndex
 90
       18
102
RTVSPost2010Prop41ColorRGB
 90
        0
102
RTVSPost2010PropOp41
 70
     1
102
RTVSPost2010Prop42
 90
       50
102
RTVSPost2010PropOp42
 70
     1
102
RTVSPost2010Prop43
 90
        3
102
RTVSPost2010PropOp43
 70
     1
102
RTVSPost2010Prop44ColorIndex
 90
        5
102
RTVSPost2010Prop44ColorRGB
 90
      255
102
RTVSPost2010PropOp44
 70
     1
102
RTVSPost2010Prop45
280
     0
102
RTVSPost2010PropOp45
 70
     1
102
RTVSPost2010Prop46
 90
       50
102
RTVSPost2010PropOp46
 70
     1
102
RTVSPost2010Prop47
 90
       50
102
RTVSPost2010PropOp47
 70
     1
102
RTVSPost2010Prop48
 90
       50
102
RTVSPost2010PropOp48
 70
     1
102
RTVSPost2010Prop49
280
     0
102
RTVSPost2010PropOp49
 70
     1
102
RTVSPost2010Prop50
 90
       50
102
RTVSPost2010PropOp50
 70
     1
102
RTVSPost2010Prop51ColorIndex
 90
      256
102
RTVSPost2010Prop51ColorRGB
 90
-16777216
102
RTVSPost2010PropOp51
 70
     0
102
RTVSPost2010Prop52
140
1.0
102
RTVSPost2010PropOp52
 70
     0
102
RTVSPost2010Prop53
 90
        2
102
RTVSPost2010PropOp53
 70
     1
102
RTVSPost2010Prop54
  1
strokes_ogs.tif
102
RTVSPost2010PropOp54
 70
     1
102
RTVSPost2010Prop55
280
     0
102
RTVSPost2010PropOp55
 70
     1
102
RTVSPost2010Prop56
140
1.0
102
RTVSPost2010PropOp56
 70
     1
102
RTVSPost2010Prop57
140
1.0
102
RTVSPost2010PropOp57
 70
     1
  0
ENDSEC
  0
SECTION
  2
THUMBNAILIMAGE
 90
    17448
310
28000000800000008000000001000800000000000000000000000000000000000000000000000000FFFFFF000000FF0000FFFF0000FF0000FFFF0000FF000000FF00FF000000000080808000C0C0C0000000FF007F7FFF000000A5005252A50000007F003F3F7F0000004C0026264C000000260013132600003FFF007F9FFF
310
000029A5005267A500001F7F003F4F7F0000134C00262F4C000009260013172600007FFF007FBFFF000052A500527CA500003F7F003F5F7F0000264C0026394C0000132600131C260000BFFF007FDFFF00007CA5005291A500005F7F003F6F7F0000394C0026424C00001C26001321260000FFFF007FFFFF0000A5A50052A5
310
A500007F7F003F7F7F00004C4C00264C4C00002626001326260000FFBF007FFFDF0000A57C0052A59100007F5F003F7F6F00004C3900264C420000261C001326210000FF7F007FFFBF0000A5520052A57C00007F3F003F7F5F00004C2600264C39000026130013261C0000FF3F007FFF9F0000A5290052A56700007F1F003F
310
7F4F00004C1300264C2F00002609001326170000FF00007FFF7F0000A5000052A55200007F00003F7F3F00004C0000264C260000260000132613003FFF00009FFF7F0029A5000067A552001F7F00004F7F3F00134C00002F4C260009260000172613007FFF0000BFFF7F0052A500007CA552003F7F00005F7F3F00264C0000
310
394C2600132600001C261300BFFF0000DFFF7F007CA5000091A552005F7F00006F7F3F00394C0000424C26001C26000021261300FFFF0000FFFF7F00A5A50000A5A552007F7F00007F7F3F004C4C00004C4C26002626000026261300FFBF0000FFDF7F00A57C0000A59152007F5F00007F6F3F004C3900004C422600261C00
310
0026211300FF7F0000FFBF7F00A5520000A57C52007F3F00007F5F3F004C2600004C39260026130000261C1300FF3F0000FF9F7F00A5290000A56752007F1F00007F4F3F004C1300004C2F26002609000026171300FF000000FF7F7F00A5000000A55252007F0000007F3F3F004C0000004C2626002600000026131300FF00
310
3F00FF7F9F00A5002900A55267007F001F007F3F4F004C0013004C262F002600090026131700FF007F00FF7FBF00A5005200A5527C007F003F007F3F5F004C0026004C2639002600130026131C00FF00BF00FF7FDF00A5007C00A55291007F005F007F3F6F004C0039004C26420026001C0026132100FF00FF00FF7FFF00A5
310
00A500A552A5007F007F007F3F7F004C004C004C264C002600260026132600BF00FF00DF7FFF007C00A5009152A5005F007F006F3F7F0039004C0042264C001C002600211326007F00FF00BF7FFF005200A5007C52A5003F007F005F3F7F0026004C0039264C00130026001C1326003F00FF009F7FFF002900A5006752A500
310
1F007F004F3F7F0013004C002F264C000900260017132600000000002D2D2D005B5B5B0089898900B7B7B700B3B3B30000000000000000000000000000000000000000000000000000000000000000000000000000000000000000000000000000000000000000000000000000000000000000000000000000000000000000
310
00000000000000000000000000000000000000000000000000000000000000000000000000000000000000000000000000000000000000000000000000000000000000000000000000000000000000000000000000000000000000000000000000000000000000000000000000000000000000000000000000000000000000
310
00000000000000000000000000000000000000000000000000000000000000000000000000000000000000000000000000000000000000000000000000000000000000000000000000000000000000000000000000000000000000000000000000000000000000000000000000000000000000000000000000000000000000
310
00000000000000000000000000000000000000000000000000000000000000000000000000000000000000000000000000000000000000000000000000000000000000000000000000000000000000000000000000000000000000000000000000000000000000000000000000000000000000000000000000000000000000
310
00000000000000000000000000000000000000000000000000000000000000000000000000000000000000000000000000000000000000000000000000000000000000000000000000000000000000000000000000000000000000000000000000000000000000000000000000000000000000000000000000000000000000
310
00000000000000000000000000000000000000000000000000000000000000000000000000000000000000000000000000000000000000000000000000000000000000000000000000000000000000000000000000000000000000000000000000000000000000000000000000000000000000000000000000000000000000
310
00000000000000000000000000000000000000000000000000000000000000000000000000000000000000000000000000000000000000000000000000000000000000000000000000000000000000000000000000000000000000000000000000000000000000000000000000000000000000000000000000000000000000
310
00000000000000000000000000000000000000000000000000000000000000000000000000000000000000000000000000000000000000000000000000000000000000000000000000000000000000000000000000000000000000000000000000000000000000000000000000000000000000000000000000000000000000
310
00000000000000000000000000000000000000000000000000000000000000000000000000000000000000000000000000000000000000000000000000000000000000000000000000000000000000000000000000000000000000000000000000000000000000000000000000000000000000000000000000000000000000
310
00000000000000000000000000000000000000000000000000000000000000000000000000000000000000000000000000000000000000000000000000000000000000000000000000000000000000000000000000000000000000000000000000000000000000000000000000000000000000000000000000000000000000
310
00000000000000000000000000000000000000000000000000000000000000000000000000000000000000000000000000000000000000000000000000000000000000000000000000000000000000000000000000000000000000000000000000000000000000000000000000000000000000000000000000000000000000
310
00000000000000000000000000000000000000000000000000000000000000000000000000000000000000000000000000000000000000000000000000000000000000000000000000000000000000000000000000000000000000000000000000000000000000000000000000000000000000000000000000000000000000
310
00000000000000000000000000000000000000000000000000000000000000000000000000000000000000000000000000000000000000000000000000000000000000000000000000000000000000000000000000000000000000000000000000000000000000000000000000000000000000000000000000000000000000
310
00000000000000000000000000000000000000000000000000000000000000000000000000000000000000000000000000000000000000000000000000000000000000000000000000000000000000000000000000000000000000000000000000000000000000000000000000000000000000000000000000000000000000
310
00000000000000000000000000000000000000000000000000000000000000000000000000000000000000000000000000000000000000000000000000000000000000000000000000000000000000000000000000000000000000000000000000000000000000000000000000000000000000000000000000000000000000
310
00000000000000000000000000000000000000000000000000000000000000000000000000000000000000000000000000000000000000000000000000000000000000000000000000000000000000000000000000000000000000000000000000000000000000000000000000000000000000000000000000000000000000
310
00000000000000000000000000000000000000000000000000000000000000000000000000000000000000000000000000000000000000000000000000000000000000000000000000000000000000000000000000000000000000000000000000000000000000000000000000000000000000000000000000000000000000
310
00000000000000000000000000000000000000000000000000000000000000000000000000000000000000000000000000000000000000000000000000000000000000000000000000000000000000000000000000000000000000000000000000000000000000000000000000000000000000000000000000000000000000
310
00000000000000000000000000000000000000000000000000000000000000000000000000000000000000000000000000000000000000000000000000000000000000000000000000000000000000000000000000000000000000000000000000000000000000000000000000000000000000000000000000000000000000
310
00000000000000000000000000000000000000000000000000000000000000000000000000000000000000000000000000000000000000000000000000000000000000000000000000000000000000000000000000000000000000000000000000000000000000000000000000000000000000000000000000000000000000
310
00000000000000000000000000000000000000000000000000000000000000000000000000000000000000000000000000000000000000000000000000000000000000000000000000000000000000000000000000000000000000000000000000000000000000000000000000000000000000000000000000000000000000
310
00000000000000000000000000000000000000000000000000000000000000000000000000000000000000000000000000000000000000000000000000000000000000000000000000000000000000000000000000000000000000000000000000000000000000000000000000000000000000000000000000000000000000
310
00000000000000000000000000000000000000000000000000000000000000000000000000000000000000000000000000000000000000000000000000000000000000000000000000000000000000000000000000000000000000000000000000000000000000000000000000000000000000000000000000000000000000
310
00000000000000000000000000000000000000000000000000000000000000000000000000000000000000000000000000000000000000000000000000000000000000000000000000000000000000000000000000000000000000000000000000000000000000000000000000000000000000000000000000000000000000
310
00000000000000000000000000000000000000000000000000000000000000000000000000000000000000000000000000000000000000000000000000000000000000000000000000000000000000000000000000000000000000000000000000000000000000000000000000000000000000000000000000000000000000
310
00000000000000000000000000000000000000000000000000000000000000000000000000000000000000000000000000000000000000000000000000000000000000000000000000000000000000000000000000000000000000000000000000000000000000000000000000000000000000000000000000000000000000
310
00000000000000000000000000000000000000000000000000000000000000000000000000000000000000000000000000000000000000000000000000000000000000000000000000000000000000000000000000000000000000000000000000000000000000000000000000000000000000000000000000000000000000
310
00000000000000000000000000000000000000000000000000000000000000000000000000000000000000000000000000000000000000000000000000000000000000000000000000000000000000000000000000000000000000000000000000000000000000000000000000000000000000000000000000000000000000
310
00000000000000000000000000000000000000000000000000000000000000000000000000000000000000000000000000000000000000000000000000000000000000000000000000000000000000000000000000000000000000000000000000000000000000000000000000000000000000000000000000000000000000
310
00000000000000000000000000000000000000000000000000000000000000000000000707070707070700000000000000000000000000000000000000000000000000000000000000000000000000000000000000000000000000000000000000000000000000000000000000000000000000000000000000000000000000
310
00000000000000000000000000000000000000000000000000000000000000000000000007070707070707000000000000000000000000000000000000000000000000000000000000000000000000000000000000000000000000000000000000000000000000000000000000000000000000000000000000000000000000
310
00000000000000000000000000000000000000000000000000000000000000000000000000000007070707070000000000000000000000000000000000000000000000000000000000000000000000000000000000000000000000000000000000000000000000000000000000000000000000000000000000000000000000
310
00000000000000000000000000000000000000000000000000000000000000000000000000000000000707070700000000000000000000000000000000000000000000000000000000000000000000000000000000000000000000000000000000000000000000000000000000000000000000000000000000000000000000
310
00000000000000000000000000000000000000000000000000000000000000000000000000000000000000000000000000000000000000000000000000000000000000000000000000000000000000000000000000000000000000000000000000000000000000000000000000000000000000000000000000000000000000
310
00000000000000000000000000000000000000000000000000000000000000000000000000000000000000000000000000000000000000000000000000000000000000000000000000000000000000000000000000000000000000000000000000000000000000000000000000000000000000000000000000000000000000
310
00000000000000000000000000000000000000000000000000000000000000000000000000000000000000000000000000000000000000000000000000000000000000000000000000000000000000000000000000000000000000000000000000000000000000000000000000000000000000000000000000000000000000
310
00000000000000000000000000000000000000000000000000000000000000000000000000000000000000000000000000000000000000000000000000000000000000000000000000000000000000000000000000000000000000000000000000000000000000000000000000000000000000000000000000000000000000
310
00840000000000000000000000000000000000000000000000000000000000848484848484840000000000000000000000000000000000000000000000000000000000000000000000000000000000000000000000000000000000000000000000000000000000000000000000000000000000000000000000000000000000
310
00848484848484840707070707000000000000000000000000000000000000070707070707070700000000000000000000000000000000000000000000000000000000000000000000000000000000000000000000000000000000000000000000000000000000000000000000000000000000000000000000000000000000
310
00008484848484848407000000070707070707070000000000000000000000000700000707000007000000000000000000000000000000000000000000000000000000000000000000000000000000000000000000000000000000000000000000000000000000000000000000000000000000000000000000000000000000
310
00000084848400008400070000000707070707070707000000000000000000000007070707070707070000000000000000000000000000000000000000000000000000000000000000000000000000000000000000000000000000000000000000000000000000000000000000000000000000000000000000000000000000
310
00000000840000000084840700000007070707070707070000000000000000000000070707000700070700000000000000000000000000000000000000000000000000000000000000000000000000000000000000000000000000000000000000000000000000000000000000000000000000000000000000000000000000
310
00000000000084000000000007000000070707070707070700000000000000000000000707000007000707000000000000000000000000000000000000000000000000000000000000000000000000000000000000000000000000000000000000000000000000000000000000000000000000000000000000000000000000
310
00000000000707848407070707070707070707070707070707070000000000000000000007070707070707070700000000000000000000000000000000000000000000000000000000000000000000000000000000000000000000000000000000000000000000000000000000000000000000000000000000000000000000
310
00000000000000008484000000000700000007070707070707070000000000000000000000070707000700070700000000000000000000000000000000000000000000000000000000000000000000000000000000000000000000000000000000000000000000000000000000000000000000000000000000000000000000
310
00000000000000000084840000000007000000070707070707070700000000000000000000000707070707070707000000000000000000000000000000000000000000000000000000000000000000000000000000000000000000000000000000000000000000000000000000000000000000000000000000000000000000
310
00000000000000000000840000000084070000000707070707070700000000000000000000000007000007070700070000000000000000000000000000000000000000000000000000000000000000000000000000000000000000000000000000000000000000000000000000000000000000000000000000000000000000
310
00000000000000000000008484848484840707070707000000000000000000000000000000000000070707070707070700000000000000000000000000000000000000000000000000000000000000000000000000000000000000000000000000000000000000000000000000000000000000000000000000000000000000
310
00000000000000000000000000000000000000000000000000000000000000000000000000000000000000000007000000000000000000000000000000000000000000000000000000000000000000000000000000000000000000000000000000000000000000000000000000000000000000000000000000000000000000
310
00000000000000000000000000000000000000000000000000000000000000000000000000000000000000000000000000000000000000000000000000000000000000000000000000000000000000000000000000000000000000000000000000000000000000000000000000000000000000000000000000000000000000
310
00000000000000000000000000000000000000000000000000000000000000000000000000000000000000000000000000000000000000000000000000000000000000000000000000000000000000000000000000000000000000000000000000000000000000000000000000000000000000000000000000000000000000
310
00000000000000000000000000000000000000000000000000000000000000000000000000000000000000000000000000000000000000000000000000000000000000000000000000000000000000000000000000000000000000000000000000000000000000000000000000000000000000000000000000000000000000
310
00000000000000000000000000000000000000000000000000000000000000000000000000000000000000000000000000000000000000000000000000000000000000000000000000000000000000000000000000000000000000000000000000000000000000000000000000000000000000000000000000000000000000
310
00000000000000000000000000000000000000000000000000000000000000000000000000000000000000000000000000000000000000000000000000000000000000000000000000000000000000000000000000000000000000000000000000000000000000000000000000000000000000000000000000000000000000
310
00000000000000000000000000000000000000000000000000000000000000000000000000000000000000000000000000000000000000000000000000000000000000000000000000000000000000000000000000000000000000000000000000000000000000000000000000000000000000000000000000000000000000
310
00000000000000000000000000000000000000000000000000000000000000000000000000000000000000000000000000000000000000000000000000000000000000000000000000000000000000000000000000000000000000000000000000000000000000000000000000000000000000000000000000000000000000
310
00000000000000000000000000000000000000848484848484840707070700070707070707000000000000000000000000000000000000000000000000000000000000000000000000000000000000000000000000000000000000000000000000000000000000000000000000000000000000000000000000000000000000
310
00000000000000000000000000000000000000848484000000840007000707070707070707070700000000000000000000000000000000000000000000000000000000000000000000000000000000000000000000000000000000000000000000000000000000000000000000000000000000000000000000000000000000
310
00000000000000000000000000000000000000000084840000008484070707070707070707070707000000000000000000000000000000000000000000000000000000000000000000000000000000000000000000000000000000000000000000000000000000000000000000000000000000000000000000000000000000
310
00000000000000000000000000000000000000000000848400000000000007070707070707070707070000000000000000000000000000000000000000000000000000000000000000000000000000000000000000000000000000000000000000000000000000000000000000000000000000000000000000000000000000
310
00000000000000000000000000000000000000000000078484070707070707070707070707070707070707000000000000000000000000000000000000000000000000000000000000000000000000000000000000000000000000000000000000000000000000000000000000000000000000000000000000000000000000
310
00000000000000000000000000000000000000000000000084840000008484070707070707070707070707000000000000000000000000000000000000000000000000000000000000000000000000000000000000000000000000000000000000000000000000000000000000000000000000000000000000000000000000
310
00000000000000000000000000000000000000000000000000848400000084000700070707070707070707070000000000000000000000000000000000000000000000000000000000000000000000000000000000000000000000000000000000000000000000000000000000000000000000000000000000000000000000
310
00000000000000000000000000000000000000000000000000008484848484848407070707070707070707070700000000000000000000000000000000000000000000000000000000000000000000000000000000000000000000000000000000000000000000000000000000000000000000000000000000000000000000
310
00000000000000000000000000000000000000000000000000000000000000000000000000000000000000000000000000000000000000000000000000000000000000000000000000000000000000000000000000000000000000000000000000000000000000000000000000000000000000000000000000000000000000
310
00000000000000000000000000000000000000000000000000000000000000000000000000000000000000000000000000000000000000000000000000000000000000000000000000000000000000000000000000000000000000000000000000000000000000000000000000000000000000000000000000000000000000
310
00000000000000000000000000000000000000000000000000000000000000000000000000000000000000000000000000000000000000000000000000000000000000000000000000000000000000000000000000000000000000000000000000000000000000000000000000000000000000000000000000000000000000
310
00000000000000000000000000000000000000000000000000000000000000000000000000000000000000000000000000000000000000000000000000000000000000000000000000000000000000000000000000000000000000000000000000000000000000000000000000000000000000000000000000000000000000
310
00000000000000000000000000000000000000000000000000000000000000000000000000000000000000000000000000000000000000000000000000000000000000000000000000000000000000000000000000000000000000000000000000000000000000000000000000000000000000000000000000000000000000
310
00000000000000000000000000000000000000000000000000000000000000000000000000000000000000000000000000000000000000000000000000000000000000000000000000000000000000000000000000000000000000000000000000000000000000000000000000000000000000000000000000000000000000
310
00000000000000000000000000000000000000000000000000000000000000000000000000000000000000000000000000000000000000000000000000000000000000000000000000000000000000000000000000000000000000000000000000000000000000000000000000000000000000000000000000000000000000
310
00000000000000000000000000000000000000000000000000000000000000000000000000000000000000000000000000000000000000000000000000000000000000000000000000000000000000000000000000000000000000000000000000000000000000000000000000000000000000000000000000000000000000
310
00000000000000000000000000000000000000000000000000000000000000000000000000000000000000000000000000000000000000000000000000000000000000000000000000000000000000000000000000000000000000000000000000000000000000000000000000000000000000000000000000000000000000
310
00000000000000000000000000000000000000000000000000000000000000000000000000000000000000000000000000000000000000000000000000000000000000000000000000000000000000000000000000000000000000000000000000000000000000000000000000000000000000000000000000000000000000
310
00000000000000000000000000000000000000000000000000000000000000000000000000000000000000000000000000000000000000000000000000000000000000000000000000000000000000000000000000000000000000000000000000000000000000000000000000000000000000000000000000000000000000
310
00000000000000000000000000000000000000000000000000000000000000000000000000000000000000000000000000000000000000000000000000000000000000000000000000000000000000000000000000000000000000000000000000000000000000000000000000000000000000000000000000000000000000
310
00000000000000000000000000000000000000000000000000000000000000000000000000000000000000000000000000000000000000000000000000000000000000000000000000000000000000000000000000000000000000000000000000000000000000000000000000000000000000000000000000000000000000
310
00000000000000000000000000000000000000000000000000000000000000000000000000000000000000000000000000000000000000000000000000000000000000000000000000000000000000000000000000000000000000000000000000000000000000000000000000000000000000000000000000000000000000
310
00000000000000000000000000000000000000000000000000000000000000000000000000000000000000000000000000000000000000000000000000000000000000000000000000000000000000000000000000000000000000000000000000000000000000000000000000000000000000000000000000000000000000
310
00000000000000000000000000000000000000000000000000000000000000000000000000000000000000000000000000000000000000000000000000000000000000000000000000000000000000000000000000000000000000000000000000000000000000000000000000000000000000000000000000000000000000
310
00000000000000000000000000000000000000000000000000000000000000000000000000000000000000000000000000000000000000000000000000000000000000000000000000000000000000000000000000000000000000000000000000000000000000000000000000000000000000000000000000000000000000
310
00000000000000000000000000000000000000000000000000000000000000000000000000000000000000000000000000000000000000000000000000000000000000000000000000000000000000000000000000000000000000000000000000000000000000000000000000000000000000000000000000000000000000
310
00000000000000000000000000000000000000000000000000000000000000000000000000000000000000000000000000000000000000000000000000000000000000000000000000000000000000000000000000000000000000000000000000000000000000000000000000000000000000000000000000000000000000
310
00000000000000000000000000000000000000000000000000000000000000000000000000000000000000000000000000000000000000000000000000000000000000000000000000000000000000000000000000000000000000000000000000000000000000000000000000000000000000000000000000000000000000
310
00000000000000000000000000000000000000000000000000000000000000000000000000000000000000000000000000000000000000000000000000000000000000000000000000000000000000000000000000000000000000000000000000000000000000000000000000000000000000000000000000000000000000
310
00000000000000000000000000000000000000000000000000000000000000000000000000000000000000000000000000000000000000000000000000000000000000000000000000000000000000000000000000000000000000000000000000000000000000000000000000000000000000000000000000000000000000
310
00000000000000000000000000000000000000000000000000000000000000000000000000000000000000000000000000000000000000000000000000000000000000000000000000000000000000000000000000000000000000000000000000000000000000000000000000000000000000000000000000000000000000
310
00000000000000000000000000000000000000000000000000000000000000000000000000000000000000000000000000000000000000000000000000000000000000000000000000000000000000000000000000000000000000000000000000000000000000000000000000000000000000000000000000000000000000
310
00000000000000000000000000000000000000000000000000000000000000000000000000000000000000000000000000000000000000000000000000000000000000000000000000000000000000000000000000000000000000000000000000000000000000000000000000000000000000000000000000000000000000
310
00000000000000000000000000000000000000000000000000000000000000000000000000000000000000000000000000000000000000000000000000000000000000000000000000000000000000000000000000000000000000000000000000000000000000000000000000000000000000000000000000000000000000
310
00000000000000000000000000000000000000000000000000000000000000000000000000000000000000000000000000000000000000000000000000000000000000000000000000000000000000000000000000000000000000000000000000000000000000000000000000000000000000000000000000000000000000
310
00000000000000000000000000000000000000000000000000000000000000000000000000000000000000000000000000000000000000000000000000000000000000000000000000000000000000000000000000000000000000000000000000000000000000000000000000000000000000000000000000000000000000
310
00000000000000000000000000000000000000000000000000000000000000000000000000000000000000000000000000000000000000000000000000000000000000000000000000000000000000000000000000000000000000000000000000000000000000000000000000000000000000000000000000000000000000
310
00000000000000000000000000000000000000000000000000000000000000000000000000000000000000000000000000000000000000000000000000000000000000000000000000000000000000000000000000000000000000000000000000000000000000000000000000000000000000000000000000000000000000
310
00000000000000000000000000000000000000000000000000000000000000000000000000000000000000000000000000000000000000000000000000000000000000000000000000000000000000000000000000000000000000000000000000000000000000000000000000000000000000000000000000000000000000
310
00000000000000000000000000000000000000000000000000000000000000000000000000000000000000000000000000000000000000000000000000000000000000000000000000000000000000000000000000000000000000000000000000000000000000000000000000000000000000000000000000000000000000
310
00000000000000000000000000000000000000000000000000000000000000000000000000000000000000000000000000000000000000000000000000000000000000000000000000000000000000000000000000000000000000000000000000000000000000000000000000000000000000000000000000000000000000
310
00000000000000000000000000000000000000000000000000000000000000000000000000000000000000000000000000000000000000000000000000000000000000000000000000000000000000000000000000000000000000000000000000000000000000000000000000000000000000000000000000000000000000
310
00000000000000000000000000000000000000000000000000000000000000000000000000000000000000000000000000000000000000000000000000000000000000000000000000000000000000000000000000000000000000000000000000000000000000000000000000000000000000000000000000000000000000
310
00000000000000000000000000000000000000000000000000000000000000000000000000000000000000000000000000000000000000000000000000000000000000000000000000000000000000000000000000000000000000000000000000000000000000000000000000000000000000000000000000000000000000
310
00000000000000000000000000000000000000000000000000000000000000000000000000000000000000000000000000000000000000000000000000000000000000000000000000000000000000000000000000000000000000000000000000000000000000000000000000000000000000000000000000000000000000
310
00000000000000000000000000000000000000000000000000000000000000000000000000000000000000000000000000000000000000000000000000000000000000000000000000000000000000000000000000000000000000000000000000000000000000000000000000000000000000000000000000000000000000
310
00000000000000000000000000000000000000000000000000000000000000000000000000000000000000000000000000000000000000000000000000000000000000000000000000000000000000000000000000000000000000000000000000000000000000000000000000000000000000000000000000000000000000
310
00000000000000000000000000000000000000000000000000000000000000000000000000000000000000000000000000000000000000000000000000000000000000000000000000000000000000000000000000000000000000000000000000000000000000000000000000000000000000000000000000000000000000
310
00000000000000000000000000000000000000000000000000000000000000000000000000000000000000000000000000000000000000000000000000000000000000000000000000000000000000000000000000000000000000000000000000000000000000000000000000000000000000000000000000000000000000
310
00000000000000000000000000000000000000000000000000000000000000000000000000000000000000000000000000000000000000000000000000000000000000000000000000000000000000000000000000000000000000000000000000000000000000000000000000000000000000000000000000000000000000
310
00000000000000000000000000000000000000000000000000000000000000000000000000000000000000000000000000000000000000000000000000000000000000000000000000000000000000000000000000000000000000000000000000000000000000000000000000000000000000000000000000000000000000
310
00000000000000000000000000000000000000000000000000000000000000000000000000000000000000000000000000000000000000000000000000000000000000000000000000000000000000000000000000000000000000000000000000000000000000000000000000000000000000000000000000000000000000
310
00000000000000000000000000000000000000000000000000000000000000000000000000000000000000000000000000000000000000000000000000000000000000000000000000000000000000000000000000000000000000000000000000000000000000000000000000000000000000000000000000000000000000
310
00000000000000000000000000000000000000000000000000000000000000000000000000000000000000000000000000000000000000000000000000000000000000000000000000000000000000000000000000000000000000000000000000000000000000000000000000000000000000000000000000000000000000
310
00000000000000000000000000000000000000000000000000000000000000000000000000000000000000000000000000000000000000000000000000000000000000000000000000000000000000000000000000000000000000000000000000000000000000000000000000000000000000000000000000000000000000
310
00000000000000000000000000000000000000000000000000000000000000000000000000000000000000000000000000000000000000000000000000000000000000000000000000000000000000000000000000000000000000000000000000000000000000000000000000000000000000000000000000000000000000
310
00000000000000000000000000000000000000000000000000000000000000000000000000000000000000000000000000000000000000000000000000000000000000000000000000000000000000000000000000000000000000000000000000000000000000000000000000000000000000000000000000000000000000
310
00000000000000000000000000000000000000000000000000000000000000000000000000000000000000000000000000000000000000000000000000000000000000000000000000000000000000000000000000000000000000000000000000000000000000000000000000000000000000000000000000000000000000
310
00000000000000000000000000000000000000000000000000000000000000000000000000000000000000000000000000000000000000000000000000000000000000000000000000000000000000000000000000000000000000000000000000000000000000000000000000000000000000000000000000000000000000
310
00000000000000000000000000000000000000000000000000000000000000000000000000000000000000000000000000000000000000000000000000000000000000000000000000000000000000000000000000000000000000000000000000000000000000000000000000000000000000000000000000000000000000
310
00000000000000000000000000000000000000000000000000000000000000000000000000000000000000000000000000000000000000000000000000000000000000000000000000000000000000000000000000000000000000000000000000000000000000000000000000000000000000000000000000000000000000
310
00000000000000000000000000000000000000000000000000000000000000000000000000000000000000000000000000000000000000000000000000000000000000000000000000000000000000000000000000000000000000000000000000000000000000000000000000000000000000000000000000000000000000
310
00000000000000000000000000000000000000000000000000000000000000000000000000000000000000000000000000000000000000000000000000000000000000000000000000000000000000000000000000000000000000000000000000000000000000000000000000000000000000000000000000000000000000
310
00000000000000000000000000000000000000000000000000000000000000000000000000000000000000000000000000000000000000000000000000000000000000000000000000000000000000000000000000000000000000000000000000000000000000000000000000000000000000000000000000000000000000
310
00000000000000000000000000000000000000000000000000000000000000000000000000000000000000000000000000000000000000000000000000000000000000000000000000000000000000000000000000000000000000000000000000000000000000000000000000000000000000000000000000000000000000
310
00000000000000000000000000000000000000000000000000000000000000000000000000000000000000000000000000000000000000000000000000000000000000000000000000000000000000000000000000000000000000000000000000000000000000000000000000000000000000000000000000000000000000
310
00000000000000000000000000000000000000000000000000000000000000000000000000000000000000000000000000000000000000000000000000000000000000000000000000000000000000000000000000000000000000000000000000000000000000000000000000000000000000000000000000000000000000
310
00000000000000000000000000000000000000000000000000000000000000000000000000000000000000000000000000000000000000000000000000000000000000000000000000000000000000000000000000000000000000000000000000000000000000000000000000000000000000000000000000000000000000
310
00000000000000000000000000000000000000000000000000000000000000000000000000000000000000000000000000000000000000000000000000000000000000000000000000000000000000000000000000000000000000000000000000000000000000000000000000000000000000000000000000000000000000
310
00000000000000000000000000000000000000000000000000000000000000000000000000000000000000000000000000000000000000000000000000000000000000000000000000000000000000000000000000000000000000000000000000000000000000000000000000000000000000000000000000000000000000
310
00000000000000000000000000000000000000000000000000000000000000000000000000000000000000000000000000000000000000000000000000000000000000000000000000000000000000000000000000000000000000000000000000000000000000000000000000000000000000000000000000000000000000
310
00000000000000000000000000000000000000000000000000000000000000000000000000000000000000000000000000000000000000000000000000000000000000000000000000000000000000000000000000000000000000000000000000000000000000000000000000000000000000000000000000000000000000
310
00000000000000000000000000000000000000000000000000000000000000000000000000000000000000000000000000000000000000000000000000000000000000000000000000000000000000000000000000000000000000000000000000000000000000000000000000000000000000000000000000000000000000
310
00000000000000000000000000000000000000000000000000000000000000000000000000000000000000000000000000
  0
ENDSEC
  0
EOF
