  0
SECTION
  2
HEADER
  9
$ACADVER
  1
AC1015
  9
$ACADMAINTVER
 70
     6
  9
$DWGCODEPAGE
  3
ANSI_932
  9
$INSBASE
 10
0.0
 20
0.0
 30
0.0
  9
$EXTMIN
 10
-175.6564605139
 20
69.12019861516
 30
0.0
  9
$EXTMAX
 10
-13.995332778426
 20
212.7405123067
 30
0.0
  9
$LIMMIN
 10
-215.1752441406
 20
-3.175
  9
$LIMMAX
 10
3.175
 20
300.175
  9
$ORTHOMODE
 70
     0
  9
$REGENMODE
 70
     1
  9
$FILLMODE
 70
     1
  9
$QTEXTMODE
 70
     0
  9
$MIRRTEXT
 70
     0
  9
$LTSCALE
 40
1.0
  9
$ATTMODE
 70
     1
  9
$TEXTSIZE
 40
2.5
  9
$TRACEWID
 40
0.05
  9
$TEXTSTYLE
  7
IDEC_TEXT
  9
$CLAYER
  8
中線
  9
$CELTYPE
  6
BYLAYER
  9
$CECOLOR
 62
   256
  9
$CELTSCALE
 40
1.0
  9
$DISPSILH
 70
     0
  9
$DIMSCALE
 40
1.0
  9
$DIMASZ
 40
2.0
  9
$DIMEXO
 40
0.625
  9
$DIMDLI
 40
5.0
  9
$DIMRND
 40
0.0
  9
$DIMDLE
 40
0.0
  9
$DIMEXE
 40
1.25
  9
$DIMTP
 40
0.0
  9
$DIMTM
 40
0.0
  9
$DIMTXT
 40
2.5
  9
$DIMCEN
 40
2.5
  9
$DIMTSZ
 40
0.0
  9
$DIMTOL
 70
     0
  9
$DIMLIM
 70
     0
  9
$DIMTIH
 70
     0
  9
$DIMTOH
 70
     0
  9
$DIMSE1
 70
     0
  9
$DIMSE2
 70
     0
  9
$DIMTAD
 70
     1
  9
$DIMZIN
 70
     0
  9
$DIMBLK
  1
OPEN30
  9
$DIMASO
 70
     1
  9
$DIMSHO
 70
     0
  9
$DIMPOST
  1

  9
$DIMAPOST
  1

  9
$DIMALT
 70
     0
  9
$DIMALTD
 70
     1
  9
$DIMALTF
 40
0.03937007874
  9
$DIMLFAC
 40
1.0
  9
$DIMTOFL
 70
     1
  9
$DIMTVP
 40
0.0
  9
$DIMTIX
 70
     0
  9
$DIMSOXD
 70
     0
  9
$DIMSAH
 70
     0
  9
$DIMBLK1
  1

  9
$DIMBLK2
  1

  9
$DIMSTYLE
  2
IDEC_DIM
  9
$DIMCLRD
 70
   256
  9
$DIMCLRE
 70
   256
  9
$DIMCLRT
 70
   256
  9
$DIMTFAC
 40
0.5
  9
$DIMGAP
 40
0.5
  9
$DIMJUST
 70
     0
  9
$DIMSD1
 70
     0
  9
$DIMSD2
 70
     0
  9
$DIMTOLJ
 70
     2
  9
$DIMTZIN
 70
     8
  9
$DIMALTZ
 70
     0
  9
$DIMALTTZ
 70
     0
  9
$DIMUPT
 70
     0
  9
$DIMDEC
 70
     1
  9
$DIMTDEC
 70
     1
  9
$DIMALTU
 70
     2
  9
$DIMALTTD
 70
     3
  9
$DIMTXSTY
  7
IDEC_TEXT
  9
$DIMAUNIT
 70
     1
  9
$DIMADEC
 70
     1
  9
$DIMALTRND
 40
0.0
  9
$DIMAZIN
 70
     2
  9
$DIMDSEP
 70
    46
  9
$DIMATFIT
 70
     3
  9
$DIMFRAC
 70
     0
  9
$DIMLDRBLK
  1
OPEN30
  9
$DIMLUNIT
 70
     2
  9
$DIMLWD
 70
    13
  9
$DIMLWE
 70
    13
  9
$DIMTMOVE
 70
     0
  9
$LUNITS
 70
     2
  9
$LUPREC
 70
     3
  9
$SKETCHINC
 40
0.1
  9
$FILLETRAD
 40
0.0625
  9
$AUNITS
 70
     0
  9
$AUPREC
 70
     0
  9
$MENU
  1
ACAD
  9
$ELEVATION
 40
0.0
  9
$PELEVATION
 40
0.0
  9
$THICKNESS
 40
0.0
  9
$LIMCHECK
 70
     0
  9
$CHAMFERA
 40
0.0
  9
$CHAMFERB
 40
0.0
  9
$CHAMFERC
 40
0.0
  9
$CHAMFERD
 40
0.0
  9
$SKPOLY
 70
     0
  9
$TDCREATE
 40
2454848.667615741
  9
$TDUCREATE
 40
2454848.292615741
  9
$TDUPDATE
 40
2458304.645877546
  9
$TDUUPDATE
 40
2458304.270877546
  9
$TDINDWG
 40
0.0014903125
  9
$TDUSRTIMER
 40
0.0014901273
  9
$USRTIMER
 70
     1
  9
$ANGBASE
 50
0.0
  9
$ANGDIR
 70
     0
  9
$PDMODE
 70
     0
  9
$PDSIZE
 40
0.0
  9
$PLINEWID
 40
0.0
  9
$SPLFRAME
 70
     0
  9
$SPLINETYPE
 70
     6
  9
$SPLINESEGS
 70
     8
  9
$HANDSEED
  5
4BF
  9
$SURFTAB1
 70
     6
  9
$SURFTAB2
 70
     6
  9
$SURFTYPE
 70
     6
  9
$SURFU
 70
     6
  9
$SURFV
 70
     6
  9
$UCSBASE
  2

  9
$UCSNAME
  2

  9
$UCSORG
 10
0.0
 20
0.0
 30
0.0
  9
$UCSXDIR
 10
1.0
 20
0.0
 30
0.0
  9
$UCSYDIR
 10
0.0
 20
1.0
 30
0.0
  9
$UCSORTHOREF
  2

  9
$UCSORTHOVIEW
 70
     0
  9
$UCSORGTOP
 10
0.0
 20
0.0
 30
0.0
  9
$UCSORGBOTTOM
 10
0.0
 20
0.0
 30
0.0
  9
$UCSORGLEFT
 10
0.0
 20
0.0
 30
0.0
  9
$UCSORGRIGHT
 10
0.0
 20
0.0
 30
0.0
  9
$UCSORGFRONT
 10
0.0
 20
0.0
 30
0.0
  9
$UCSORGBACK
 10
0.0
 20
0.0
 30
0.0
  9
$PUCSBASE
  2

  9
$PUCSNAME
  2

  9
$PUCSORG
 10
0.0
 20
0.0
 30
0.0
  9
$PUCSXDIR
 10
1.0
 20
0.0
 30
0.0
  9
$PUCSYDIR
 10
0.0
 20
1.0
 30
0.0
  9
$PUCSORTHOREF
  2

  9
$PUCSORTHOVIEW
 70
     0
  9
$PUCSORGTOP
 10
0.0
 20
0.0
 30
0.0
  9
$PUCSORGBOTTOM
 10
0.0
 20
0.0
 30
0.0
  9
$PUCSORGLEFT
 10
0.0
 20
0.0
 30
0.0
  9
$PUCSORGRIGHT
 10
0.0
 20
0.0
 30
0.0
  9
$PUCSORGFRONT
 10
0.0
 20
0.0
 30
0.0
  9
$PUCSORGBACK
 10
0.0
 20
0.0
 30
0.0
  9
$USERI1
 70
     0
  9
$USERI2
 70
     0
  9
$USERI3
 70
     0
  9
$USERI4
 70
     0
  9
$USERI5
 70
     0
  9
$USERR1
 40
0.0
  9
$USERR2
 40
0.0
  9
$USERR3
 40
0.0
  9
$USERR4
 40
0.0
  9
$USERR5
 40
0.0
  9
$WORLDVIEW
 70
     1
  9
$SHADEDGE
 70
     3
  9
$SHADEDIF
 70
    70
  9
$TILEMODE
 70
     1
  9
$MAXACTVP
 70
    32
  9
$PINSBASE
 10
0.0
 20
0.0
 30
0.0
  9
$PLIMCHECK
 70
     0
  9
$PEXTMIN
 10
1.000000000000E+20
 20
1.000000000000E+20
 30
1.000000000000E+20
  9
$PEXTMAX
 10
-1.000000000000E+20
 20
-1.000000000000E+20
 30
-1.000000000000E+20
  9
$PLIMMIN
 10
-224.654947035763
 20
-12.65468796652
  9
$PLIMMAX
 10
192.451323491121
 20
309.654702895163
  9
$UNITMODE
 70
     0
  9
$VISRETAIN
 70
     0
  9
$PLINEGEN
 70
     0
  9
$PSLTSCALE
 70
     1
  9
$TREEDEPTH
 70
  3020
  9
$CMLSTYLE
  2
STANDARD
  9
$CMLJUST
 70
     0
  9
$CMLSCALE
 40
1.0
  9
$PROXYGRAPHICS
 70
     0
  9
$MEASUREMENT
 70
     1
  9
$CELWEIGHT
370
    -1
  9
$ENDCAPS
280
     0
  9
$JOINSTYLE
280
     0
  9
$LWDISPLAY
290
     0
  9
$INSUNITS
 70
     4
  9
$HYPERLINKBASE
  1

  9
$STYLESHEET
  1

  9
$XEDIT
290
     1
  9
$CEPSNTYPE
380
     0
  9
$PSTYLEMODE
290
     1
  9
$FINGERPRINTGUID
  2
{EE29EE7B-7AD2-4EDC-8982-5450C68BA41F}
  9
$VERSIONGUID
  2
{6A572F12-BF73-4605-ACB4-ED7DE5F1E0A3}
  9
$EXTNAMES
290
     1
  9
$PSVPSCALE
 40
0.0
  9
$OLESTARTUP
290
     0
  0
ENDSEC
  0
SECTION
  2
CLASSES
  0
CLASS
  1
ACDBDICTIONARYWDFLT
  2
AcDbDictionaryWithDefault
  3
ObjectDBX Classes
 90
        0
280
     0
281
     0
  0
CLASS
  1
MATERIAL
  2
AcDbMaterial
  3
ObjectDBX Classes
 90
     1153
280
     0
281
     0
  0
CLASS
  1
VISUALSTYLE
  2
AcDbVisualStyle
  3
ObjectDBX Classes
 90
     4095
280
     0
281
     0
  0
CLASS
  1
TABLESTYLE
  2
AcDbTableStyle
  3
ObjectDBX Classes
 90
     4095
280
     0
281
     0
  0
CLASS
  1
DICTIONARYVAR
  2
AcDbDictionaryVar
  3
ObjectDBX Classes
 90
        0
280
     0
281
     0
  0
CLASS
  1
SCALE
  2
AcDbScale
  3
ObjectDBX Classes
 90
     1153
280
     0
281
     0
  0
CLASS
  1
MLEADERSTYLE
  2
AcDbMLeaderStyle
  3
ACDB_MLEADERSTYLE_CLASS
 90
     4095
280
     0
281
     0
  0
CLASS
  1
SUN
  2
AcDbSun
  3
SCENEOE
 90
     1153
280
     0
281
     0
  0
CLASS
  1
RASTERVARIABLES
  2
AcDbRasterVariables
  3
ISM
 90
        0
280
     0
281
     0
  0
CLASS
  1
SORTENTSTABLE
  2
AcDbSortentsTable
  3
ObjectDBX Classes
 90
        0
280
     0
281
     0
  0
CLASS
  1
ACDBPLACEHOLDER
  2
AcDbPlaceHolder
  3
ObjectDBX Classes
 90
        0
280
     0
281
     0
  0
CLASS
  1
LAYOUT
  2
AcDbLayout
  3
ObjectDBX Classes
 90
        0
280
     0
281
     0
  0
ENDSEC
  0
SECTION
  2
TABLES
  0
TABLE
  2
VPORT
  5
3
102
{ACAD_XDICTIONARY
360
47D
102
}
330
0
100
AcDbSymbolTable
 70
     1
  0
VPORT
  5
2E3
330
3
100
AcDbSymbolTableRecord
100
AcDbViewportTableRecord
  2
*Active
 70
     0
 10
0.0
 20
0.0
 11
1.0
 21
1.0
 12
-94.825896646163
 22
141.18035546093
 13
0.0
 23
0.0
 14
0.5
 24
0.5
 15
0.5
 25
0.5
 16
0.0
 26
0.0
 36
1.0
 17
0.0
 27
0.0
 37
0.0
 40
145.98271996537
 41
2.336734693878
 42
50.0
 43
0.0
 44
0.0
 50
0.0
 51
0.0
 71
    16
 72
   100
 73
     1
 74
     3
 75
     0
 76
     0
 77
     0
 78
     0
281
     0
 65
     1
110
0.0
120
0.0
130
0.0
111
1.0
121
0.0
131
0.0
112
0.0
122
1.0
132
0.0
 79
     0
146
0.0
  0
ENDTAB
  0
TABLE
  2
LTYPE
  5
4
330
0
100
AcDbSymbolTable
 70
    10
  0
LTYPE
  5
6
330
4
100
AcDbSymbolTableRecord
100
AcDbLinetypeTableRecord
  2
BYBLOCK
 70
     0
  3

 72
    65
 73
     0
 40
0.0
  0
LTYPE
  5
5
330
4
100
AcDbSymbolTableRecord
100
AcDbLinetypeTableRecord
  2
BYLAYER
 70
     0
  3

 72
    65
 73
     0
 40
0.0
  0
LTYPE
  5
2B
330
4
100
AcDbSymbolTableRecord
100
AcDbLinetypeTableRecord
  2
Continuous
 70
     0
  3
Solid line
 72
    65
 73
     0
 40
0.0
  0
LTYPE
  5
7
330
4
100
AcDbSymbolTableRecord
100
AcDbLinetypeTableRecord
  2
SOLID
 70
     0
  3
Solid
 72
    65
 73
     0
 40
0.0
  0
LTYPE
  5
9
330
4
100
AcDbSymbolTableRecord
100
AcDbLinetypeTableRecord
  2
GAP
 70
     0
  3
Gap
 72
    65
 73
     3
 40
2540.9999980092
 49
0.0
 74
     0
 49
-0.9999980092
 74
     0
 49
2540.0
 74
     0
  0
LTYPE
  5
321
330
4
100
AcDbSymbolTableRecord
100
AcDbLinetypeTableRecord
  2
CENTERX2
 70
     0
  3
________  __  ________  __  ________  __  ______
 72
    65
 73
     4
 40
4.0
 49
2.5
 74
     0
 49
-0.5
 74
     0
 49
0.5
 74
     0
 49
-0.5
 74
     0
  0
LTYPE
  5
323
330
4
100
AcDbSymbolTableRecord
100
AcDbLinetypeTableRecord
  2
PHANTOMX2
 70
     0
  3
____________    ____    ____    ____________    
 72
    65
 73
     6
 40
5.0
 49
2.5
 74
     0
 49
-0.5
 74
     0
 49
0.5
 74
     0
 49
-0.5
 74
     0
 49
0.5
 74
     0
 49
-0.5
 74
     0
  0
LTYPE
  5
329
330
4
100
AcDbSymbolTableRecord
100
AcDbLinetypeTableRecord
  2
DASHEDX2
 70
     0
  3
____  ____  ____  ____  ____  ____  ____  ____  
 72
    65
 73
     2
 40
1.5
 49
1.0
 74
     0
 49
-0.5
 74
     0
  0
ENDTAB
  0
TABLE
  2
LAYER
  5
D
330
0
100
AcDbSymbolTable
 70
    19
  0
LAYER
  5
E
330
D
100
AcDbSymbolTableRecord
100
AcDbLayerTableRecord
  2
0
 70
     0
 62
     7
  6
Continuous
370
    -3
390
2C3
  0
LAYER
  5
14
330
D
100
AcDbSymbolTableRecord
100
AcDbLayerTableRecord
  2
VIEWPORTS
 70
     0
 62
     7
  6
SOLID
370
    -3
390
2C3
  0
LAYER
  5
31E
330
D
100
AcDbSymbolTableRecord
100
AcDbLayerTableRecord
  2
Defpoints
 70
     0
 62
     7
  6
Continuous
290
     0
370
    -3
390
2C3
  0
LAYER
  5
31F
330
D
100
AcDbSymbolTableRecord
100
AcDbLayerTableRecord
  2
CENTER
 70
     0
 62
     7
  6
CENTERX2
370
    13
390
2C3
  0
LAYER
  5
322
330
D
100
AcDbSymbolTableRecord
100
AcDbLayerTableRecord
  2
PHANTOM
 70
     0
 62
     4
  6
PHANTOMX2
370
    13
390
2C3
  0
LAYER
  5
324
330
D
100
AcDbSymbolTableRecord
100
AcDbLayerTableRecord
  2
太線
 70
     0
 62
     5
  6
Continuous
370
    40
390
2C3
  0
LAYER
  5
325
330
D
100
AcDbSymbolTableRecord
100
AcDbLayerTableRecord
  2
細線
 70
     0
 62
     7
  6
Continuous
370
    13
390
2C3
  0
LAYER
  5
326
330
D
100
AcDbSymbolTableRecord
100
AcDbLayerTableRecord
  2
中線
 70
     0
 62
     3
  6
Continuous
370
    25
390
2C3
  0
LAYER
  5
327
330
D
100
AcDbSymbolTableRecord
100
AcDbLayerTableRecord
  2
IDEC_DIM
 70
     0
 62
     2
  6
Continuous
370
    13
390
2C3
  0
LAYER
  5
328
330
D
100
AcDbSymbolTableRecord
100
AcDbLayerTableRecord
  2
HIDDEN
 70
     0
 62
     6
  6
DASHEDX2
370
    13
390
2C3
  0
LAYER
  5
32A
330
D
100
AcDbSymbolTableRecord
100
AcDbLayerTableRecord
  2
CMNT
 70
     0
 62
     7
  6
Continuous
370
    13
390
2C3
  0
LAYER
  5
32B
330
D
100
AcDbSymbolTableRecord
100
AcDbLayerTableRecord
  2
IDEC_DRAWINGFRAME
 70
     4
 62
     3
  6
Continuous
370
    13
390
2C3
  0
LAYER
  5
32C
330
D
100
AcDbSymbolTableRecord
100
AcDbLayerTableRecord
  2
DIF_SCALE_TEXT
 70
     0
 62
   250
  6
Continuous
290
     0
370
     0
390
2C3
  0
LAYER
  5
32D
330
D
100
AcDbSymbolTableRecord
100
AcDbLayerTableRecord
  2
DIF_SCALE_AREA
 70
     0
 62
   250
  6
Continuous
290
     0
370
     0
390
2C3
  0
ENDTAB
  0
TABLE
  2
STYLE
  5
15
330
0
100
AcDbSymbolTable
 70
     2
  0
STYLE
  5
16
330
15
100
AcDbSymbolTableRecord
100
AcDbTextStyleTableRecord
  2
STANDARD
 70
     0
 40
0.0
 41
1.0
 50
0.0
 71
     0
 42
2.5
  3
simplex.shx
  4
extfont2.shx
  0
STYLE
  5
32F
330
15
100
AcDbSymbolTableRecord
100
AcDbTextStyleTableRecord
  2
IDEC_TEXT
 70
     0
 40
0.0
 41
1.0
 50
0.0
 71
     0
 42
2.5
  3
simplex.shx
  4
extfont2.shx
  0
ENDTAB
  0
TABLE
  2
VIEW
  5
1F
330
0
100
AcDbSymbolTable
 70
     0
  0
ENDTAB
  0
TABLE
  2
UCS
  5
20
330
0
100
AcDbSymbolTable
 70
     0
  0
ENDTAB
  0
TABLE
  2
APPID
  5
1D
330
0
100
AcDbSymbolTable
 70
     7
  0
APPID
  5
1E
330
1D
100
AcDbSymbolTableRecord
100
AcDbRegAppTableRecord
  2
ACAD
 70
     0
  0
APPID
  5
315
330
1D
100
AcDbSymbolTableRecord
100
AcDbRegAppTableRecord
  2
ACAD_NAV_VCDISPLAY
 70
     0
  0
APPID
  5
336
330
1D
100
AcDbSymbolTableRecord
100
AcDbRegAppTableRecord
  2
BJM_BLN_TBL
 70
     0
  0
APPID
  5
337
330
1D
100
AcDbSymbolTableRecord
100
AcDbRegAppTableRecord
  2
DENKISCL
 70
     0
  0
APPID
  5
338
330
1D
100
AcDbSymbolTableRecord
100
AcDbRegAppTableRecord
  2
DENKISCLORG
 70
     0
  0
APPID
  5
47F
330
1D
100
AcDbSymbolTableRecord
100
AcDbRegAppTableRecord
  2
ACAD_DSTYLE_DIMTEXT_FILL
 70
     0
  0
APPID
  5
4BC
330
1D
100
AcDbSymbolTableRecord
100
AcDbRegAppTableRecord
  2
ACAD_MLEADERVER
 70
     0
  0
ENDTAB
  0
TABLE
  2
DIMSTYLE
  5
17
330
0
100
AcDbSymbolTable
 70
     6
100
AcDbDimStyleTable
  0
DIMSTYLE
105
32E
102
{ACAD_REACTORS
330
37D
330
392
102
}
330
17
100
AcDbSymbolTableRecord
100
AcDbDimStyleTableRecord
  2
IDEC_DIM
 70
     0
 41
2.0
 42
0.625
 43
5.0
 44
1.25
 73
     0
 74
     0
 77
     1
 79
     2
140
2.5
141
2.5
143
0.03937007874
146
0.5
147
0.5
171
     1
172
     1
176
   256
177
   256
271
     1
178
   256
179
     1
271
     1
272
     1
274
     3
275
     1
283
     2
284
     8
340
32F
341
330
342
330
371
    13
372
    13
1001
ACAD_DSTYLE_DIMTEXT_FILL
1070
   376
1070
     0
  0
ENDTAB
  0
TABLE
  2
BLOCK_RECORD
  5
21
330
0
100
AcDbSymbolTable
 70
    32
  0
BLOCK_RECORD
  5
22
330
21
100
AcDbSymbolTableRecord
100
AcDbBlockTableRecord
  2
*MODEL_SPACE
340
2DF
  0
BLOCK_RECORD
  5
23
330
21
100
AcDbSymbolTableRecord
100
AcDbBlockTableRecord
  2
*PAPER_SPACE
340
2E0
  0
BLOCK_RECORD
  5
25
330
21
100
AcDbSymbolTableRecord
100
AcDbBlockTableRecord
  2
*D1
340
0
  0
BLOCK_RECORD
  5
26
330
21
100
AcDbSymbolTableRecord
100
AcDbBlockTableRecord
  2
*D2
340
0
  0
BLOCK_RECORD
  5
27
330
21
100
AcDbSymbolTableRecord
100
AcDbBlockTableRecord
  2
*D3
340
0
  0
BLOCK_RECORD
  5
28
330
21
100
AcDbSymbolTableRecord
100
AcDbBlockTableRecord
  2
*D4
340
0
  0
BLOCK_RECORD
  5
90
330
21
100
AcDbSymbolTableRecord
100
AcDbBlockTableRecord
  2
*D5
340
0
  0
BLOCK_RECORD
  5
91
330
21
100
AcDbSymbolTableRecord
100
AcDbBlockTableRecord
  2
*D6
340
0
  0
BLOCK_RECORD
  5
92
330
21
100
AcDbSymbolTableRecord
100
AcDbBlockTableRecord
  2
*D7
340
0
  0
BLOCK_RECORD
  5
93
330
21
100
AcDbSymbolTableRecord
100
AcDbBlockTableRecord
  2
*D8
340
0
  0
BLOCK_RECORD
  5
95
330
21
100
AcDbSymbolTableRecord
100
AcDbBlockTableRecord
  2
*D10
340
0
  0
BLOCK_RECORD
  5
330
330
21
100
AcDbSymbolTableRecord
100
AcDbBlockTableRecord
  2
_OPEN30
340
0
102
{BLKREFS
331
3CC
331
3CB
331
3D6
331
3D5
331
3E2
331
3E1
331
3EE
331
3ED
331
0
331
3FA
331
407
331
406
331
0
331
413
331
0
331
420
331
3C1
331
3C0
331
3F9
331
412
331
41F
102
}
  0
BLOCK_RECORD
  5
37E
330
21
100
AcDbSymbolTableRecord
100
AcDbBlockTableRecord
  2
*D19
340
0
  0
BLOCK_RECORD
  5
384
102
{ACAD_XDICTIONARY
360
385
102
}
330
21
100
AcDbSymbolTableRecord
100
AcDbBlockTableRecord
  2
_IDEC_OPEN30
340
0
102
{BLKREFS
331
383
331
38C
102
}
1001
ACAD
1000
DesignCenter Data
1002
{
1070
     1
1070
     4
1002
}
  0
BLOCK_RECORD
  5
393
330
21
100
AcDbSymbolTableRecord
100
AcDbBlockTableRecord
  2
*D21
340
0
  0
BLOCK_RECORD
  5
399
102
{ACAD_XDICTIONARY
360
39A
102
}
330
21
100
AcDbSymbolTableRecord
100
AcDbBlockTableRecord
  2
_IDEC_OPEN30R
340
0
102
{BLKREFS
331
398
331
3A1
102
}
1001
ACAD
1000
DesignCenter Data
1002
{
1070
     1
1070
     4
1002
}
  0
BLOCK_RECORD
  5
3B8
330
21
100
AcDbSymbolTableRecord
100
AcDbBlockTableRecord
  2
*D23
340
0
  0
BLOCK_RECORD
  5
3C4
330
21
100
AcDbSymbolTableRecord
100
AcDbBlockTableRecord
  2
*D24
340
0
  0
BLOCK_RECORD
  5
3CF
330
21
100
AcDbSymbolTableRecord
100
AcDbBlockTableRecord
  2
*D25
340
0
  0
BLOCK_RECORD
  5
3DB
330
21
100
AcDbSymbolTableRecord
100
AcDbBlockTableRecord
  2
*D26
340
0
  0
BLOCK_RECORD
  5
3E7
330
21
100
AcDbSymbolTableRecord
100
AcDbBlockTableRecord
  2
*D27
340
0
  0
BLOCK_RECORD
  5
3F3
330
21
100
AcDbSymbolTableRecord
100
AcDbBlockTableRecord
  2
*D28
340
0
  0
BLOCK_RECORD
  5
400
330
21
100
AcDbSymbolTableRecord
100
AcDbBlockTableRecord
  2
*D29
340
0
  0
BLOCK_RECORD
  5
40C
330
21
100
AcDbSymbolTableRecord
100
AcDbBlockTableRecord
  2
*D30
340
0
  0
BLOCK_RECORD
  5
419
330
21
100
AcDbSymbolTableRecord
100
AcDbBlockTableRecord
  2
*D31
340
0
  0
ENDTAB
  0
ENDSEC
  0
SECTION
  2
BLOCKS
  0
BLOCK
  5
9C
330
22
100
AcDbEntity
  8
0
100
AcDbBlockBegin
  2
*MODEL_SPACE
 70
     0
 10
0.0
 20
0.0
 30
0.0
  3
*MODEL_SPACE
  1

  0
ENDBLK
  5
3C3
330
22
100
AcDbEntity
  8
0
100
AcDbBlockEnd
  0
BLOCK
  5
9E
330
23
100
AcDbEntity
 67
     1
  8
0
100
AcDbBlockBegin
  2
*PAPER_SPACE
 70
     0
 10
0.0
 20
0.0
 30
0.0
  3
*PAPER_SPACE
  1

  0
ENDBLK
  5
9F
330
23
100
AcDbEntity
 67
     1
  8
0
100
AcDbBlockEnd
  0
BLOCK
  5
A0
330
25
100
AcDbEntity
  8
0
100
AcDbBlockBegin
  2
*D1
 70
     1
 10
0.0
 20
0.0
 30
0.0
  3
*D1
  1

  0
LINE
  5
A1
330
25
100
AcDbEntity
  8
0
100
AcDbLine
 10
-150.6943330686
 20
201.3369430647
 30
0.0
 11
-152.2224330851
 21
202.6272571116
 31
0.0
  0
LINE
  5
A2
330
25
100
AcDbEntity
  8
0
100
AcDbLine
 10
-150.6943330686
 20
201.3369430647
 30
0.0
 11
-152.5043221892
 21
202.1877893395
 31
0.0
  0
LINE
  5
A3
330
25
100
AcDbEntity
  8
0
100
AcDbLine
 10
-156.1655348057
 20
204.846352068
 30
0.0
 11
-154.6374347892
 21
203.5560380211
 31
0.0
  0
LINE
  5
A4
330
25
100
AcDbEntity
  8
0
100
AcDbLine
 10
-156.1655348057
 20
204.846352068
 30
0.0
 11
-154.3555456851
 21
203.9955057931
 31
0.0
  0
LINE
  5
A5
330
25
100
AcDbEntity
  8
0
100
AcDbLine
 10
-150.6943330686
 20
201.3369430647
 30
0.0
 11
-156.1655348057
 21
204.846352068
 31
0.0
  0
LINE
  5
A6
330
25
100
AcDbEntity
  8
0
100
AcDbLine
 10
-156.1655348057
 20
204.846352068
 30
0.0
 11
-176.5067597089
 21
217.8938837153
 31
0.0
  0
TEXT
  5
A7
330
25
100
AcDbEntity
  8
0
100
AcDbText
 10
-175.1846528645
 20
217.6398606136
 30
0.0
 40
2.4999949932
  1
2-%%c6.5
 50
327.322547935002
 41
1.100593129436
 72
     5
 11
-163.1636002144
 21
209.9291607578
 31
0.0
100
AcDbText
  0
ENDBLK
  5
A8
330
25
100
AcDbEntity
  8
0
100
AcDbBlockEnd
  0
BLOCK
  5
A9
330
26
100
AcDbEntity
  8
0
100
AcDbBlockBegin
  2
*D2
 70
     1
 10
0.0
 20
0.0
 30
0.0
  3
*D2
  1

  0
LINE
  5
AA
330
26
100
AcDbEntity
  8
0
100
AcDbLine
 10
-172.4299339372
 20
153.0916475663
 30
0.0
 11
-170.4470442144
 21
152.8305951819
 31
0.0
  0
LINE
  5
AB
330
26
100
AcDbEntity
  8
0
100
AcDbLine
 10
-172.4299339372
 20
153.0916475663
 30
0.0
 11
-170.4470442144
 21
153.3526999508
 31
0.0
  0
LINE
  5
AC
330
26
100
AcDbEntity
  8
0
100
AcDbLine
 10
-134.4299339372
 20
153.0916475663
 30
0.0
 11
-136.4128236599
 21
153.3526999508
 31
0.0
  0
LINE
  5
AD
330
26
100
AcDbEntity
  8
0
100
AcDbLine
 10
-134.4299339372
 20
153.0916475663
 30
0.0
 11
-136.4128236599
 21
152.8305951819
 31
0.0
  0
LINE
  5
AE
330
26
100
AcDbEntity
  8
0
100
AcDbLine
 10
-172.4299339372
 20
153.0916475663
 30
0.0
 11
-134.4299339372
 21
153.0916475663
 31
0.0
  0
LINE
  5
AF
330
26
100
AcDbEntity
  8
0
  6
GAP
100
AcDbLine
 10
-172.4299339372
 20
179.5516476045
 30
0.0
 11
-172.4299339372
 21
151.5916505465
 31
0.0
  0
LINE
  5
B0
330
26
100
AcDbEntity
  8
0
  6
GAP
100
AcDbLine
 10
-134.4299339372
 20
179.5516476045
 30
0.0
 11
-134.4299339372
 21
151.5916505465
 31
0.0
  0
TEXT
  5
B1
330
26
100
AcDbEntity
  8
0
100
AcDbText
 10
-155.5956827883
 20
153.5916473777
 30
0.0
 40
2.4999949932
  1
38
 50
0.000005009332
 41
1.070136848017
 72
     5
 11
-151.2641851735
 21
153.5916477564
 31
0.0
100
AcDbText
  0
ENDBLK
  5
B2
330
26
100
AcDbEntity
  8
0
100
AcDbBlockEnd
  0
BLOCK
  5
B3
330
27
100
AcDbEntity
  8
0
100
AcDbBlockBegin
  2
*D3
 70
     1
 10
0.0
 20
0.0
 30
0.0
  3
*D3
  1

  0
LINE
  5
B4
330
27
100
AcDbEntity
  8
0
100
AcDbLine
 10
-159.9299339372
 20
158.0916475663
 30
0.0
 11
-157.9470442144
 21
157.8305951819
 31
0.0
  0
LINE
  5
B5
330
27
100
AcDbEntity
  8
0
100
AcDbLine
 10
-159.9299339372
 20
158.0916475663
 30
0.0
 11
-157.9470442144
 21
158.3526999508
 31
0.0
  0
LINE
  5
B6
330
27
100
AcDbEntity
  8
0
100
AcDbLine
 10
-146.9299339372
 20
158.0916475663
 30
0.0
 11
-148.9128236599
 21
158.3526999508
 31
0.0
  0
LINE
  5
B7
330
27
100
AcDbEntity
  8
0
100
AcDbLine
 10
-146.9299339372
 20
158.0916475663
 30
0.0
 11
-148.9128236599
 21
157.8305951819
 31
0.0
  0
LINE
  5
B8
330
27
100
AcDbEntity
  8
0
100
AcDbLine
 10
-159.9299339372
 20
158.0916475663
 30
0.0
 11
-146.9299339372
 21
158.0916475663
 31
0.0
  0
LINE
  5
B9
330
27
100
AcDbEntity
  8
0
  6
GAP
100
AcDbLine
 10
-159.9299339372
 20
162.5516476045
 30
0.0
 11
-159.9299339372
 21
156.5916505465
 31
0.0
  0
LINE
  5
BA
330
27
100
AcDbEntity
  8
0
  6
GAP
100
AcDbLine
 10
-146.9299339372
 20
162.5516476045
 30
0.0
 11
-146.9299339372
 21
156.5916505465
 31
0.0
  0
TEXT
  5
BB
330
27
100
AcDbEntity
  8
0
100
AcDbText
 10
-155.5956827883
 20
158.5916473777
 30
0.0
 40
2.4999949932
  1
13
 50
0.000005009332
 41
1.212821761086
 72
     5
 11
-151.2641851735
 21
158.5916477564
 31
0.0
100
AcDbText
  0
ENDBLK
  5
BC
330
27
100
AcDbEntity
  8
0
100
AcDbBlockEnd
  0
BLOCK
  5
BD
330
28
100
AcDbEntity
  8
0
100
AcDbBlockBegin
  2
*D4
 70
     1
 10
0.0
 20
0.0
 30
0.0
  3
*D4
  1

  0
LINE
  5
BE
330
28
100
AcDbEntity
  8
0
100
AcDbLine
 10
-123.4299339372
 20
210.0916475663
 30
0.0
 11
-123.6909863216
 21
208.1087578436
 31
0.0
  0
LINE
  5
BF
330
28
100
AcDbEntity
  8
0
100
AcDbLine
 10
-123.4299339372
 20
210.0916475663
 30
0.0
 11
-123.1688815527
 21
208.1087578436
 31
0.0
  0
LINE
  5
C0
330
28
100
AcDbEntity
  8
0
100
AcDbLine
 10
-123.4299339372
 20
164.0916475663
 30
0.0
 11
-123.1688815527
 21
166.0745372891
 31
0.0
  0
LINE
  5
C1
330
28
100
AcDbEntity
  8
0
100
AcDbLine
 10
-123.4299339372
 20
164.0916475663
 30
0.0
 11
-123.6909863216
 21
166.0745372891
 31
0.0
  0
LINE
  5
C2
330
28
100
AcDbEntity
  8
0
100
AcDbLine
 10
-123.4299339372
 20
210.0916475663
 30
0.0
 11
-123.4299339372
 21
164.0916475663
 31
0.0
  0
LINE
  5
C3
330
28
100
AcDbEntity
  8
0
  6
GAP
100
AcDbLine
 10
-145.3899339753
 20
210.0916475663
 30
0.0
 11
-121.9299369174
 21
210.0916475663
 31
0.0
  0
LINE
  5
C4
330
28
100
AcDbEntity
  8
0
  6
GAP
100
AcDbLine
 10
-145.3899339753
 20
164.0916475663
 30
0.0
 11
-121.9299369174
 21
164.0916475663
 31
0.0
  0
TEXT
  5
C5
330
28
100
AcDbEntity
  8
0
100
AcDbText
 10
-123.9299341014
 20
184.9258987967
 30
0.0
 40
2.4999949932
  1
46
 50
89.99999567454
 41
1.102565237351
 72
     5
 11
-123.9299337744
 21
189.2573964115
 31
0.0
100
AcDbText
  0
ENDBLK
  5
C6
330
28
100
AcDbEntity
  8
0
100
AcDbBlockEnd
  0
BLOCK
  5
C7
330
90
100
AcDbEntity
  8
0
100
AcDbBlockBegin
  2
*D5
 70
     1
 10
0.0
 20
0.0
 30
0.0
  3
*D5
  1

  0
LINE
  5
C8
330
90
100
AcDbEntity
  8
0
100
AcDbLine
 10
-128.4299339372
 20
193.0916475663
 30
0.0
 11
-128.6909863216
 21
191.1087578436
 31
0.0
  0
LINE
  5
C9
330
90
100
AcDbEntity
  8
0
100
AcDbLine
 10
-128.4299339372
 20
193.0916475663
 30
0.0
 11
-128.1688815527
 21
191.1087578436
 31
0.0
  0
LINE
  5
CA
330
90
100
AcDbEntity
  8
0
100
AcDbLine
 10
-128.4299339372
 20
181.0916475663
 30
0.0
 11
-128.1688815527
 21
183.0745372891
 31
0.0
  0
LINE
  5
CB
330
90
100
AcDbEntity
  8
0
100
AcDbLine
 10
-128.4299339372
 20
181.0916475663
 30
0.0
 11
-128.6909863216
 21
183.0745372891
 31
0.0
  0
LINE
  5
CC
330
90
100
AcDbEntity
  8
0
100
AcDbLine
 10
-128.4299339372
 20
193.0916475663
 30
0.0
 11
-128.4299339372
 21
181.0916475663
 31
0.0
  0
LINE
  5
CD
330
90
100
AcDbEntity
  8
0
  6
GAP
100
AcDbLine
 10
-132.8899339753
 20
193.0916475663
 30
0.0
 11
-126.9299369174
 21
193.0916475663
 31
0.0
  0
LINE
  5
CE
330
90
100
AcDbEntity
  8
0
  6
GAP
100
AcDbLine
 10
-132.8899339753
 20
181.0916475663
 30
0.0
 11
-126.9299369174
 21
181.0916475663
 31
0.0
  0
TEXT
  5
CF
330
90
100
AcDbEntity
  8
0
100
AcDbText
 10
-128.9299341014
 20
184.9258987967
 30
0.0
 40
2.4999949932
  1
12
 50
89.99999567454
 41
1.212821761086
 72
     5
 11
-128.9299337744
 21
189.2573964115
 31
0.0
100
AcDbText
  0
ENDBLK
  5
D0
330
90
100
AcDbEntity
  8
0
100
AcDbBlockEnd
  0
BLOCK
  5
D1
330
91
100
AcDbEntity
  8
0
100
AcDbBlockBegin
  2
*D6
 70
     1
 10
0.0
 20
0.0
 30
0.0
  3
*D6
  1

  0
LINE
  5
D2
330
91
100
AcDbEntity
  8
0
100
AcDbLine
 10
-178.4299339372
 20
203.0916475663
 30
0.0
 11
-178.6909863216
 21
201.1087578436
 31
0.0
  0
LINE
  5
D3
330
91
100
AcDbEntity
  8
0
100
AcDbLine
 10
-178.4299339372
 20
203.0916475663
 30
0.0
 11
-178.1688815527
 21
201.1087578436
 31
0.0
  0
LINE
  5
D4
330
91
100
AcDbEntity
  8
0
100
AcDbLine
 10
-178.4299339372
 20
171.0916475663
 30
0.0
 11
-178.1688815527
 21
173.0745372891
 31
0.0
  0
LINE
  5
D5
330
91
100
AcDbEntity
  8
0
100
AcDbLine
 10
-178.4299339372
 20
171.0916475663
 30
0.0
 11
-178.6909863216
 21
173.0745372891
 31
0.0
  0
LINE
  5
D6
330
91
100
AcDbEntity
  8
0
100
AcDbLine
 10
-178.4299339372
 20
203.0916475663
 30
0.0
 11
-178.4299339372
 21
171.0916475663
 31
0.0
  0
LINE
  5
D7
330
91
100
AcDbEntity
  8
0
  6
GAP
100
AcDbLine
 10
-161.219933899
 20
203.0916475663
 30
0.0
 11
-179.9299309569
 21
203.0916475663
 31
0.0
  0
LINE
  5
D8
330
91
100
AcDbEntity
  8
0
  6
GAP
100
AcDbLine
 10
-161.219933899
 20
171.0916475663
 30
0.0
 11
-179.9299309569
 21
171.0916475663
 31
0.0
  0
TEXT
  5
D9
330
91
100
AcDbEntity
  8
0
100
AcDbText
 10
-178.9299341014
 20
184.9258987967
 30
0.0
 40
2.4999949932
  1
32
 50
89.99999567454
 41
1.070136848017
 72
     5
 11
-178.9299337744
 21
189.2573964115
 31
0.0
100
AcDbText
  0
ENDBLK
  5
DA
330
91
100
AcDbEntity
  8
0
100
AcDbBlockEnd
  0
BLOCK
  5
DB
330
92
100
AcDbEntity
  8
0
100
AcDbBlockBegin
  2
*D7
 70
     1
 10
0.0
 20
0.0
 30
0.0
  3
*D7
  1

  0
LINE
  5
DC
330
92
100
AcDbEntity
  8
0
100
AcDbLine
 10
-128.4299339372
 20
123.0916475663
 30
0.0
 11
-128.1688815527
 21
125.0745372891
 31
0.0
  0
LINE
  5
DD
330
92
100
AcDbEntity
  8
0
100
AcDbLine
 10
-128.4299339372
 20
123.0916475663
 30
0.0
 11
-128.6909863216
 21
125.0745372891
 31
0.0
  0
LINE
  5
DE
330
92
100
AcDbEntity
  8
0
100
AcDbLine
 10
-128.4299339372
 20
130.0916475663
 30
0.0
 11
-128.6909863216
 21
128.1087578436
 31
0.0
  0
LINE
  5
DF
330
92
100
AcDbEntity
  8
0
100
AcDbLine
 10
-128.4299339372
 20
130.0916475663
 30
0.0
 11
-128.1688815527
 21
128.1087578436
 31
0.0
  0
LINE
  5
E0
330
92
100
AcDbEntity
  8
0
100
AcDbLine
 10
-128.4299339372
 20
123.0916475663
 30
0.0
 11
-128.4299339372
 21
130.0916475663
 31
0.0
  0
LINE
  5
E1
330
92
100
AcDbEntity
  8
0
  6
GAP
100
AcDbLine
 10
-131.8899339753
 20
123.0916475663
 30
0.0
 11
-126.9299369174
 21
123.0916475663
 31
0.0
  0
TEXT
  5
E2
330
92
100
AcDbEntity
  8
0
  6
GAP
100
AcDbText
 10
-128.9299340071
 20
125.675896191
 30
0.0
 40
2.4999949932
  1
7
 50
89.999995673494
 41
1.098903804717
 72
     5
 11
-128.9299338688
 21
127.5073988642
 31
0.0
100
AcDbText
  0
ENDBLK
  5
E3
330
92
100
AcDbEntity
  8
0
100
AcDbBlockEnd
  0
BLOCK
  5
E4
330
93
100
AcDbEntity
  8
0
100
AcDbBlockBegin
  2
*D8
 70
     1
 10
0.0
 20
0.0
 30
0.0
  3
*D8
  1

  0
LINE
  5
E5
330
93
100
AcDbEntity
  8
0
100
AcDbLine
 10
-123.4299339372
 20
136.5916475663
 30
0.0
 11
-123.6909863216
 21
134.6087578436
 31
0.0
  0
LINE
  5
E6
330
93
100
AcDbEntity
  8
0
100
AcDbLine
 10
-123.4299339372
 20
136.5916475663
 30
0.0
 11
-123.1688815527
 21
134.6087578436
 31
0.0
  0
LINE
  5
E7
330
93
100
AcDbEntity
  8
0
100
AcDbLine
 10
-123.4299339372
 20
130.0916475663
 30
0.0
 11
-123.1688815527
 21
132.0745372891
 31
0.0
  0
LINE
  5
E8
330
93
100
AcDbEntity
  8
0
100
AcDbLine
 10
-123.4299339372
 20
130.0916475663
 30
0.0
 11
-123.6909863216
 21
132.0745372891
 31
0.0
  0
LINE
  5
E9
330
93
100
AcDbEntity
  8
0
100
AcDbLine
 10
-123.4299339372
 20
136.5916475663
 30
0.0
 11
-123.4299339372
 21
130.0916475663
 31
0.0
  0
LINE
  5
EA
330
93
100
AcDbEntity
  8
0
100
AcDbLine
 10
-123.4299339372
 20
136.5916475663
 30
0.0
 11
-123.4299339372
 21
133.3416476984
 31
0.0
  0
LINE
  5
EB
330
93
100
AcDbEntity
  8
0
  6
GAP
100
AcDbLine
 10
-132.8899339753
 20
136.5916475663
 30
0.0
 11
-121.9299369174
 21
136.5916475663
 31
0.0
  0
LINE
  5
EC
330
93
100
AcDbEntity
  8
0
  6
GAP
100
AcDbLine
 10
-131.8899339753
 20
130.0916475663
 30
0.0
 11
-121.9299369174
 21
130.0916475663
 31
0.0
  0
LINE
  5
ED
330
93
100
AcDbEntity
  8
0
100
AcDbLine
 10
-123.4299339372
 20
133.3416476984
 30
0.0
 11
-123.4299349973
 21
119.2997070623
 31
0.0
  0
TEXT
  5
EE
330
93
100
AcDbEntity
  8
0
100
AcDbText
 10
-123.9299349037
 20
120.5497045967
 30
0.0
 40
2.4999949932
  1
6.5
 50
89.999995673982
 41
1.304196645435
 72
     5
 11
-123.9299343879
 21
127.3811971531
 31
0.0
100
AcDbText
  0
ENDBLK
  5
EF
330
93
100
AcDbEntity
  8
0
100
AcDbBlockEnd
  0
BLOCK
  5
F0
330
95
100
AcDbEntity
  8
0
100
AcDbBlockBegin
  2
*D10
 70
     1
 10
0.0
 20
0.0
 30
0.0
  3
*D10
  1

  0
LINE
  5
F1
330
95
100
AcDbEntity
  8
0
100
AcDbLine
 10
-123.4299339372
 20
138.0916475663
 30
0.0
 11
-123.6909863216
 21
140.0745372891
 31
0.0
  0
LINE
  5
F2
330
95
100
AcDbEntity
  8
0
100
AcDbLine
 10
-123.4299339372
 20
138.0916475663
 30
0.0
 11
-123.1688815527
 21
140.0745372891
 31
0.0
  0
LINE
  5
F3
330
95
100
AcDbEntity
  8
0
100
AcDbLine
 10
-123.4299339372
 20
138.0916475663
 30
0.0
 11
-123.4299339372
 21
142.5916475655
 31
0.0
  0
LINE
  5
F4
330
95
100
AcDbEntity
  8
0
100
AcDbLine
 10
-123.4299339372
 20
136.5916475663
 30
0.0
 11
-123.1688815527
 21
134.6087578436
 31
0.0
  0
LINE
  5
F5
330
95
100
AcDbEntity
  8
0
100
AcDbLine
 10
-123.4299339372
 20
136.5916475663
 30
0.0
 11
-123.6909863216
 21
134.6087578436
 31
0.0
  0
LINE
  5
F6
330
95
100
AcDbEntity
  8
0
100
AcDbLine
 10
-123.4299339372
 20
136.5916475663
 30
0.0
 11
-123.4299339372
 21
132.0916475671
 31
0.0
  0
LINE
  5
F7
330
95
100
AcDbEntity
  8
0
100
AcDbLine
 10
-123.4299339372
 20
138.0916475663
 30
0.0
 11
-123.4299339372
 21
136.5916475663
 31
0.0
  0
LINE
  5
F8
330
95
100
AcDbEntity
  8
0
100
AcDbLine
 10
-123.4299339372
 20
136.5916475663
 30
0.0
 11
-123.4299339372
 21
137.3416475663
 31
0.0
  0
LINE
  5
F9
330
95
100
AcDbEntity
  8
0
  6
GAP
100
AcDbLine
 10
-147.6399339753
 20
138.0916475663
 30
0.0
 11
-121.9299369174
 21
138.0916475663
 31
0.0
  0
LINE
  5
FA
330
95
100
AcDbEntity
  8
0
100
AcDbLine
 10
-123.4299339372
 20
137.3416475663
 30
0.0
 11
-123.4299331158
 21
148.2216199712
 31
0.0
  0
TEXT
  5
FB
330
95
100
AcDbEntity
  8
0
100
AcDbText
 10
-123.9299337267
 20
140.1401299559
 30
0.0
 40
2.4999949932
  1
1.5
 50
89.999995673982
 41
1.434616309979
 72
     5
 11
-123.9299332109
 21
146.9716225123
 31
0.0
100
AcDbText
  0
ENDBLK
  5
FC
330
95
100
AcDbEntity
  8
0
100
AcDbBlockEnd
  0
BLOCK
  5
3A9
330
330
100
AcDbEntity
  8
0
100
AcDbBlockBegin
  2
_OPEN30
 70
     0
 10
0.0
 20
0.0
 30
0.0
  3
_OPEN30
  1

  0
LINE
  5
332
330
330
100
AcDbEntity
  8
0
  6
ByBlock
 62
     0
370
    -2
100
AcDbLine
 10
-1.0
 20
0.267949
 30
0.0
 11
0.0
 21
0.0
 31
0.0
  0
LINE
  5
333
330
330
100
AcDbEntity
  8
0
  6
ByBlock
 62
     0
370
    -2
100
AcDbLine
 10
0.0
 20
0.0
 30
0.0
 11
-1.0
 21
-0.267949
 31
0.0
  0
LINE
  5
334
330
330
100
AcDbEntity
  8
0
  6
ByBlock
 62
     0
370
    -2
100
AcDbLine
 10
0.0
 20
0.0
 30
0.0
 11
-1.0
 21
0.0
 31
0.0
  0
ENDBLK
  5
3AA
330
330
100
AcDbEntity
  8
0
100
AcDbBlockEnd
  0
BLOCK
  5
3AB
330
37E
100
AcDbEntity
  8
0
100
AcDbBlockBegin
  2
*D19
 70
     1
 10
0.0
 20
0.0
 30
0.0
  3
*D19
  1

  0
LINE
  5
380
330
37E
100
AcDbEntity
  8
IDEC_DIM
370
    13
100
AcDbLine
 10
-67.986284281356
 20
2.655404490394
 30
0.0
 11
-67.986284281356
 21
14.744548293611
 31
0.0
  0
LINE
  5
381
330
37E
100
AcDbEntity
  8
IDEC_DIM
370
    13
100
AcDbLine
 10
-57.986284281356
 20
3.280404490394
 30
0.0
 11
-57.986284281356
 21
14.744548293611
 31
0.0
  0
LINE
  5
382
330
37E
100
AcDbEntity
  8
IDEC_DIM
370
    13
100
AcDbLine
 10
-65.986284281356
 20
13.494548293611
 30
0.0
 11
-59.986284281356
 21
13.494548293611
 31
0.0
  0
INSERT
  5
383
330
37E
100
AcDbEntity
  8
IDEC_DIM
370
    13
100
AcDbBlockReference
  2
_IDEC_OPEN30
 10
-67.986284281356
 20
13.494548293611
 30
0.0
 41
2.0
 42
2.0
 43
2.0
 50
180.0
  0
INSERT
  5
38C
330
37E
100
AcDbEntity
  8
IDEC_DIM
370
    13
100
AcDbBlockReference
  2
_IDEC_OPEN30
 10
-57.986284281356
 20
13.494548293611
 30
0.0
 41
2.0
 42
2.0
 43
2.0
  0
MTEXT
  5
38D
330
37E
100
AcDbEntity
  8
IDEC_DIM
100
AcDbMText
 10
-62.986284281356
 20
15.244548293611
 30
0.0
 40
2.5
 41
0.0
 71
     5
 72
     1
  1
\A2;10.0
  7
IDEC_TEXT
 73
     1
 44
1.0
  0
POINT
  5
38E
330
37E
100
AcDbEntity
  8
Defpoints
 62
     0
100
AcDbPoint
 10
-67.986284281356
 20
2.030404490394
 30
0.0
  0
POINT
  5
38F
330
37E
100
AcDbEntity
  8
Defpoints
 62
     0
100
AcDbPoint
 10
-57.986284281356
 20
2.655404490394
 30
0.0
  0
POINT
  5
390
330
37E
100
AcDbEntity
  8
Defpoints
 62
     0
100
AcDbPoint
 10
-57.986284281356
 20
13.494548293611
 30
0.0
  0
ENDBLK
  5
3AC
330
37E
100
AcDbEntity
  8
0
100
AcDbBlockEnd
  0
BLOCK
  5
3AD
330
384
100
AcDbEntity
  8
0
100
AcDbBlockBegin
  2
_IDEC_OPEN30
 70
     0
 10
0.0
 20
0.0
 30
0.0
  3
_IDEC_OPEN30
  1

  0
LINE
  5
388
330
384
100
AcDbEntity
  8
0
  6
ByBlock
 62
     0
370
    -2
100
AcDbLine
 10
-1.0
 20
0.267949
 30
0.0
 11
0.0
 21
0.0
 31
0.0
  0
LINE
  5
389
330
384
100
AcDbEntity
  8
0
  6
ByBlock
 62
     0
370
    -2
100
AcDbLine
 10
0.0
 20
0.0
 30
0.0
 11
-1.0
 21
-0.267949
 31
0.0
  0
LINE
  5
38A
330
384
100
AcDbEntity
  8
0
  6
ByBlock
 62
     0
370
    -2
100
AcDbLine
 10
0.0
 20
0.0
 30
0.0
 11
-2.0
 21
0.0
 31
0.0
  0
ENDBLK
  5
3AE
330
384
100
AcDbEntity
  8
0
100
AcDbBlockEnd
  0
BLOCK
  5
3AF
330
393
100
AcDbEntity
  8
0
100
AcDbBlockBegin
  2
*D21
 70
     1
 10
0.0
 20
0.0
 30
0.0
  3
*D21
  1

  0
LINE
  5
395
330
393
100
AcDbEntity
  8
IDEC_DIM
370
    13
100
AcDbLine
 10
-86.986284281356
 20
1.780574075025
 30
0.0
 11
-86.986284281356
 21
14.744548293611
 31
0.0
  0
LINE
  5
396
330
393
100
AcDbEntity
  8
IDEC_DIM
370
    13
100
AcDbLine
 10
-76.986284281356
 20
1.780574075025
 30
0.0
 11
-76.986284281356
 21
14.744548293611
 31
0.0
  0
LINE
  5
397
330
393
100
AcDbEntity
  8
IDEC_DIM
370
    13
100
AcDbLine
 10
-84.986284281356
 20
13.494548293611
 30
0.0
 11
-78.986284281356
 21
13.494548293611
 31
0.0
  0
INSERT
  5
398
330
393
100
AcDbEntity
  8
IDEC_DIM
370
    13
100
AcDbBlockReference
  2
_IDEC_OPEN30R
 10
-86.986284281356
 20
13.494548293611
 30
0.0
 41
2.0
 42
2.0
 43
2.0
 50
180.0
  0
INSERT
  5
3A1
330
393
100
AcDbEntity
  8
IDEC_DIM
370
    13
100
AcDbBlockReference
  2
_IDEC_OPEN30R
 10
-76.986284281356
 20
13.494548293611
 30
0.0
 41
2.0
 42
2.0
 43
2.0
  0
MTEXT
  5
3A2
330
393
100
AcDbEntity
  8
IDEC_DIM
100
AcDbMText
 10
-81.986284281356
 20
15.244548293611
 30
0.0
 40
2.5
 41
0.0
 71
     5
 72
     1
  1
\A2;10.0
  7
IDEC_TEXT
 73
     1
 44
1.0
  0
POINT
  5
3A3
330
393
100
AcDbEntity
  8
Defpoints
 62
     0
100
AcDbPoint
 10
-86.986284281356
 20
1.155574075025
 30
0.0
  0
POINT
  5
3A4
330
393
100
AcDbEntity
  8
Defpoints
 62
     0
100
AcDbPoint
 10
-76.986284281356
 20
1.155574075025
 30
0.0
  0
POINT
  5
3A5
330
393
100
AcDbEntity
  8
Defpoints
 62
     0
100
AcDbPoint
 10
-76.986284281356
 20
13.494548293611
 30
0.0
  0
ENDBLK
  5
3B0
330
393
100
AcDbEntity
  8
0
100
AcDbBlockEnd
  0
BLOCK
  5
3B1
330
399
100
AcDbEntity
  8
0
100
AcDbBlockBegin
  2
_IDEC_OPEN30R
 70
     0
 10
0.0
 20
0.0
 30
0.0
  3
_IDEC_OPEN30R
  1

  0
LINE
  5
39D
330
399
100
AcDbEntity
  8
0
  6
ByBlock
 62
     0
370
    -2
100
AcDbLine
 10
1.0
 20
0.267949
 30
0.0
 11
0.0
 21
0.0
 31
0.0
  0
LINE
  5
39E
330
399
100
AcDbEntity
  8
0
  6
ByBlock
 62
     0
370
    -2
100
AcDbLine
 10
0.0
 20
0.0
 30
0.0
 11
1.0
 21
-0.267949
 31
0.0
  0
LINE
  5
39F
330
399
100
AcDbEntity
  8
0
  6
ByBlock
 62
     0
370
    -2
100
AcDbLine
 10
-1.0
 20
0.0
 30
0.0
 11
2.0
 21
0.0
 31
0.0
  0
ENDBLK
  5
3B2
330
399
100
AcDbEntity
  8
0
100
AcDbBlockEnd
  0
BLOCK
  5
3B9
330
3B8
100
AcDbEntity
  8
0
100
AcDbBlockBegin
  2
*D23
 70
     1
 10
0.0
 20
0.0
 30
0.0
  3
*D23
  1

  0
LINE
  5
3BB
330
3B8
100
AcDbEntity
  8
IDEC_DIM
370
    13
100
AcDbLine
 10
-149.5549339372
 20
138.0916475663
 30
0.0
 11
-122.1799339372
 21
138.0916475663
 31
0.0
  0
LINE
  5
3BC
330
3B8
100
AcDbEntity
  8
IDEC_DIM
370
    13
100
AcDbLine
 10
-134.8049339372
 20
136.5916475663
 30
0.0
 11
-122.1799339372
 21
136.5916475663
 31
0.0
  0
LINE
  5
3BD
330
3B8
100
AcDbEntity
  8
IDEC_DIM
370
    13
100
AcDbLine
 10
-123.4299339372
 20
134.5916475663
 30
0.0
 11
-123.4299339372
 21
126.829742804395
 31
0.0
  0
LINE
  5
3BE
330
3B8
100
AcDbEntity
  8
IDEC_DIM
370
    13
100
AcDbLine
 10
-123.4299339372
 20
138.0916475663
 30
0.0
 11
-123.4299339372
 21
136.5916475663
 31
0.0
  0
LINE
  5
3BF
330
3B8
100
AcDbEntity
  8
IDEC_DIM
370
    13
100
AcDbLine
 10
-123.4299339372
 20
140.0916475663
 30
0.0
 11
-123.4299339372
 21
142.0916475663
 31
0.0
  0
INSERT
  5
3C0
330
3B8
100
AcDbEntity
  8
IDEC_DIM
370
    13
100
AcDbBlockReference
  2
_OPEN30
 10
-123.4299339372
 20
138.0916475663
 30
0.0
 41
2.0
 42
2.0
 43
2.0
 50
270.0
  0
INSERT
  5
3C1
330
3B8
100
AcDbEntity
  8
IDEC_DIM
370
    13
100
AcDbBlockReference
  2
_OPEN30
 10
-123.4299339372
 20
136.5916475663
 30
0.0
 41
2.0
 42
2.0
 43
2.0
 50
90.0
  0
MTEXT
  5
3C2
330
3B8
100
AcDbEntity
  8
IDEC_DIM
100
AcDbMText
 10
-125.1799339372
 20
129.710695185348
 30
0.0
 40
2.5
 41
0.0
 71
     5
 72
     1
  1
\A2;1.5
  7
IDEC_TEXT
 11
0.0
 21
1.0
 31
0.0
 73
     1
 44
1.0
  0
POINT
  5
426
330
3B8
100
AcDbEntity
  8
Defpoints
 62
     0
100
AcDbPoint
 10
-150.1799339372
 20
138.0916475663
 30
0.0
  0
POINT
  5
427
330
3B8
100
AcDbEntity
  8
Defpoints
 62
     0
100
AcDbPoint
 10
-135.4299339372
 20
136.5916475663
 30
0.0
  0
POINT
  5
428
330
3B8
100
AcDbEntity
  8
Defpoints
 62
     0
100
AcDbPoint
 10
-123.4299339372
 20
136.5916475663
 30
0.0
  0
ENDBLK
  5
3BA
330
3B8
100
AcDbEntity
  8
0
100
AcDbBlockEnd
  0
BLOCK
  5
3C5
330
3C4
100
AcDbEntity
  8
0
100
AcDbBlockBegin
  2
*D24
 70
     1
 10
0.0
 20
0.0
 30
0.0
  3
*D24
  1

  0
LINE
  5
3C7
330
3C4
100
AcDbEntity
  8
IDEC_DIM
370
    13
100
AcDbLine
 10
-140.172791266545
 20
194.588079596855
 30
0.0
 11
-149.010886380271
 21
200.257124909845
 31
0.0
  0
LINE
  5
3C8
330
3C4
100
AcDbEntity
  8
IDEC_DIM
370
    13
100
AcDbLine
 10
-157.848981494029
 20
205.926170222855
 30
0.0
 11
-159.532428182357
 21
207.005988377711
 31
0.0
  0
MTEXT
  5
3C9
330
3C4
100
AcDbEntity
  8
IDEC_DIM
100
AcDbMText
 10
-142.805274593746
 20
198.35570902821
 30
0.0
 40
2.5
 41
0.0
 71
     5
 72
     1
  1
\A2;%%c6.5
  7
IDEC_TEXT
 11
0.8417233441643602
 21
-0.5399090774276408
 31
0.0
 73
     1
 44
1.0
  0
LINE
  5
3CA
330
3C4
100
AcDbEntity
  8
IDEC_DIM
370
    13
100
AcDbLine
 10
-156.1655348057
 20
204.846352068
 30
0.0
 11
-150.6943330686
 21
201.3369430647
 31
0.0
  0
INSERT
  5
3CB
330
3C4
100
AcDbEntity
  8
IDEC_DIM
370
    13
100
AcDbBlockReference
  2
_OPEN30
 10
-156.1655348057
 20
204.846352068
 30
0.0
 41
2.0
 42
2.0
 43
2.0
 50
327.322550432194
  0
INSERT
  5
3CC
330
3C4
100
AcDbEntity
  8
IDEC_DIM
370
    13
100
AcDbBlockReference
  2
_OPEN30
 10
-150.6943330686
 20
201.3369430647
 30
0.0
 41
2.0
 42
2.0
 43
2.0
 50
147.322550432194
  0
POINT
  5
3CD
330
3C4
100
AcDbEntity
  8
Defpoints
 62
     0
100
AcDbPoint
 10
-150.6943330686
 20
201.3369430647
 30
0.0
  0
POINT
  5
3CE
330
3C4
100
AcDbEntity
  8
Defpoints
 62
     0
100
AcDbPoint
 10
-156.1655348057
 20
204.846352068
 30
0.0
  0
ENDBLK
  5
3C6
330
3C4
100
AcDbEntity
  8
0
100
AcDbBlockEnd
  0
BLOCK
  5
3D0
330
3CF
100
AcDbEntity
  8
0
100
AcDbBlockBegin
  2
*D25
 70
     1
 10
0.0
 20
0.0
 30
0.0
  3
*D25
  1

  0
LINE
  5
3D2
330
3CF
100
AcDbEntity
  8
IDEC_DIM
370
    13
100
AcDbLine
 10
-172.4299339372
 20
181.4666475663
 30
0.0
 11
-172.4299339372
 21
151.8416475663
 31
0.0
  0
LINE
  5
3D3
330
3CF
100
AcDbEntity
  8
IDEC_DIM
370
    13
100
AcDbLine
 10
-134.4299339372
 20
181.4666475663
 30
0.0
 11
-134.4299339372
 21
151.8416475663
 31
0.0
  0
LINE
  5
3D4
330
3CF
100
AcDbEntity
  8
IDEC_DIM
370
    13
100
AcDbLine
 10
-170.4299339372
 20
153.0916475663
 30
0.0
 11
-136.4299339372
 21
153.0916475663
 31
0.0
  0
INSERT
  5
3D5
330
3CF
100
AcDbEntity
  8
IDEC_DIM
370
    13
100
AcDbBlockReference
  2
_OPEN30
 10
-172.4299339372
 20
153.0916475663
 30
0.0
 41
2.0
 42
2.0
 43
2.0
 50
180.0
  0
INSERT
  5
3D6
330
3CF
100
AcDbEntity
  8
IDEC_DIM
370
    13
100
AcDbBlockReference
  2
_OPEN30
 10
-134.4299339372
 20
153.0916475663
 30
0.0
 41
2.0
 42
2.0
 43
2.0
  0
MTEXT
  5
3D7
330
3CF
100
AcDbEntity
  8
IDEC_DIM
100
AcDbMText
 10
-153.4299339372
 20
154.8416475663
 30
0.0
 40
2.5
 41
0.0
 71
     5
 72
     1
  1
\A2;38.0
  7
IDEC_TEXT
 73
     1
 44
1.0
  0
POINT
  5
3D8
330
3CF
100
AcDbEntity
  8
Defpoints
 62
     0
100
AcDbPoint
 10
-172.4299339372
 20
182.0916475663
 30
0.0
  0
POINT
  5
3D9
330
3CF
100
AcDbEntity
  8
Defpoints
 62
     0
100
AcDbPoint
 10
-134.4299339372
 20
182.0916475663
 30
0.0
  0
POINT
  5
3DA
330
3CF
100
AcDbEntity
  8
Defpoints
 62
     0
100
AcDbPoint
 10
-134.4299339372
 20
153.0916475663
 30
0.0
  0
ENDBLK
  5
3D1
330
3CF
100
AcDbEntity
  8
0
100
AcDbBlockEnd
  0
BLOCK
  5
3DC
330
3DB
100
AcDbEntity
  8
0
100
AcDbBlockBegin
  2
*D26
 70
     1
 10
0.0
 20
0.0
 30
0.0
  3
*D26
  1

  0
LINE
  5
3DE
330
3DB
100
AcDbEntity
  8
IDEC_DIM
370
    13
100
AcDbLine
 10
-159.9299339372
 20
164.4666475663
 30
0.0
 11
-159.9299339372
 21
156.8416475663
 31
0.0
  0
LINE
  5
3DF
330
3DB
100
AcDbEntity
  8
IDEC_DIM
370
    13
100
AcDbLine
 10
-146.9299339372
 20
164.4666475663
 30
0.0
 11
-146.9299339372
 21
156.8416475663
 31
0.0
  0
LINE
  5
3E0
330
3DB
100
AcDbEntity
  8
IDEC_DIM
370
    13
100
AcDbLine
 10
-157.9299339372
 20
158.0916475663
 30
0.0
 11
-148.9299339372
 21
158.0916475663
 31
0.0
  0
INSERT
  5
3E1
330
3DB
100
AcDbEntity
  8
IDEC_DIM
370
    13
100
AcDbBlockReference
  2
_OPEN30
 10
-159.9299339372
 20
158.0916475663
 30
0.0
 41
2.0
 42
2.0
 43
2.0
 50
180.0
  0
INSERT
  5
3E2
330
3DB
100
AcDbEntity
  8
IDEC_DIM
370
    13
100
AcDbBlockReference
  2
_OPEN30
 10
-146.9299339372
 20
158.0916475663
 30
0.0
 41
2.0
 42
2.0
 43
2.0
  0
MTEXT
  5
3E3
330
3DB
100
AcDbEntity
  8
IDEC_DIM
100
AcDbMText
 10
-153.4299339372
 20
159.8416475663
 30
0.0
 40
2.5
 41
0.0
 71
     5
 72
     1
  1
\A2;13.0
  7
IDEC_TEXT
 73
     1
 44
1.0
  0
POINT
  5
3E4
330
3DB
100
AcDbEntity
  8
Defpoints
 62
     0
100
AcDbPoint
 10
-159.9299339372
 20
165.0916475663
 30
0.0
  0
POINT
  5
3E5
330
3DB
100
AcDbEntity
  8
Defpoints
 62
     0
100
AcDbPoint
 10
-146.9299339372
 20
165.0916475663
 30
0.0
  0
POINT
  5
3E6
330
3DB
100
AcDbEntity
  8
Defpoints
 62
     0
100
AcDbPoint
 10
-146.9299339372
 20
158.0916475663
 30
0.0
  0
ENDBLK
  5
3DD
330
3DB
100
AcDbEntity
  8
0
100
AcDbBlockEnd
  0
BLOCK
  5
3E8
330
3E7
100
AcDbEntity
  8
0
100
AcDbBlockBegin
  2
*D27
 70
     1
 10
0.0
 20
0.0
 30
0.0
  3
*D27
  1

  0
LINE
  5
3EA
330
3E7
100
AcDbEntity
  8
IDEC_DIM
370
    13
100
AcDbLine
 10
-147.3049339372
 20
210.0916475663
 30
0.0
 11
-122.1799339372
 21
210.0916475663
 31
0.0
  0
LINE
  5
3EB
330
3E7
100
AcDbEntity
  8
IDEC_DIM
370
    13
100
AcDbLine
 10
-147.3049339372
 20
164.0916475663
 30
0.0
 11
-122.1799339372
 21
164.0916475663
 31
0.0
  0
LINE
  5
3EC
330
3E7
100
AcDbEntity
  8
IDEC_DIM
370
    13
100
AcDbLine
 10
-123.4299339372
 20
208.0916475663
 30
0.0
 11
-123.4299339372
 21
166.0916475663
 31
0.0
  0
INSERT
  5
3ED
330
3E7
100
AcDbEntity
  8
IDEC_DIM
370
    13
100
AcDbBlockReference
  2
_OPEN30
 10
-123.4299339372
 20
210.0916475663
 30
0.0
 41
2.0
 42
2.0
 43
2.0
 50
90.0
  0
INSERT
  5
3EE
330
3E7
100
AcDbEntity
  8
IDEC_DIM
370
    13
100
AcDbBlockReference
  2
_OPEN30
 10
-123.4299339372
 20
164.0916475663
 30
0.0
 41
2.0
 42
2.0
 43
2.0
 50
270.0
  0
MTEXT
  5
3EF
330
3E7
100
AcDbEntity
  8
IDEC_DIM
100
AcDbMText
 10
-125.1799339372
 20
187.0916475663
 30
0.0
 40
2.5
 41
0.0
 71
     5
 72
     1
  1
\A2;46.0
  7
IDEC_TEXT
 11
0.0
 21
1.0
 31
0.0
 73
     1
 44
1.0
  0
POINT
  5
3F0
330
3E7
100
AcDbEntity
  8
Defpoints
 62
     0
100
AcDbPoint
 10
-147.9299339372
 20
210.0916475663
 30
0.0
  0
POINT
  5
3F1
330
3E7
100
AcDbEntity
  8
Defpoints
 62
     0
100
AcDbPoint
 10
-147.9299339372
 20
164.0916475663
 30
0.0
  0
POINT
  5
3F2
330
3E7
100
AcDbEntity
  8
Defpoints
 62
     0
100
AcDbPoint
 10
-123.4299339372
 20
164.0916475663
 30
0.0
  0
ENDBLK
  5
3E9
330
3E7
100
AcDbEntity
  8
0
100
AcDbBlockEnd
  0
BLOCK
  5
3F4
330
3F3
100
AcDbEntity
  8
0
100
AcDbBlockBegin
  2
*D28
 70
     1
 10
0.0
 20
0.0
 30
0.0
  3
*D28
  1

  0
LINE
  5
3F6
330
3F3
100
AcDbEntity
  8
IDEC_DIM
370
    13
100
AcDbLine
 10
-134.8049339372
 20
193.0916475663
 30
0.0
 11
-127.1799339372
 21
193.0916475663
 31
0.0
  0
LINE
  5
3F7
330
3F3
100
AcDbEntity
  8
IDEC_DIM
370
    13
100
AcDbLine
 10
-134.8049339372
 20
181.0916475663
 30
0.0
 11
-127.1799339372
 21
181.0916475663
 31
0.0
  0
LINE
  5
3F8
330
3F3
100
AcDbEntity
  8
IDEC_DIM
370
    13
100
AcDbLine
 10
-128.4299339372
 20
191.0916475663
 30
0.0
 11
-128.4299339372
 21
183.0916475663
 31
0.0
  0
INSERT
  5
3F9
330
3F3
100
AcDbEntity
  8
IDEC_DIM
370
    13
100
AcDbBlockReference
  2
_OPEN30
 10
-128.4299339372
 20
193.0916475663
 30
0.0
 41
2.0
 42
2.0
 43
2.0
 50
90.0
  0
INSERT
  5
3FA
330
3F3
100
AcDbEntity
  8
IDEC_DIM
370
    13
100
AcDbBlockReference
  2
_OPEN30
 10
-128.4299339372
 20
181.0916475663
 30
0.0
 41
2.0
 42
2.0
 43
2.0
 50
270.0
  0
MTEXT
  5
3FB
330
3F3
100
AcDbEntity
  8
IDEC_DIM
100
AcDbMText
 10
-130.1799339372
 20
187.0916475663
 30
0.0
 40
2.5
 41
0.0
 71
     5
 72
     1
  1
\A2;12.0
  7
IDEC_TEXT
 11
0.0
 21
1.0
 31
0.0
 73
     1
 44
1.0
  0
POINT
  5
3FC
330
3F3
100
AcDbEntity
  8
Defpoints
 62
     0
100
AcDbPoint
 10
-135.4299339372
 20
193.0916475663
 30
0.0
  0
POINT
  5
3FD
330
3F3
100
AcDbEntity
  8
Defpoints
 62
     0
100
AcDbPoint
 10
-135.4299339372
 20
181.0916475663
 30
0.0
  0
POINT
  5
3FE
330
3F3
100
AcDbEntity
  8
Defpoints
 62
     0
100
AcDbPoint
 10
-128.4299339372
 20
181.0916475663
 30
0.0
  0
ENDBLK
  5
3F5
330
3F3
100
AcDbEntity
  8
0
100
AcDbBlockEnd
  0
BLOCK
  5
401
330
400
100
AcDbEntity
  8
0
100
AcDbBlockBegin
  2
*D29
 70
     1
 10
0.0
 20
0.0
 30
0.0
  3
*D29
  1

  0
LINE
  5
403
330
400
100
AcDbEntity
  8
IDEC_DIM
370
    13
100
AcDbLine
 10
-159.3049339372
 20
203.0916475663
 30
0.0
 11
-179.6799339372
 21
203.0916475663
 31
0.0
  0
LINE
  5
404
330
400
100
AcDbEntity
  8
IDEC_DIM
370
    13
100
AcDbLine
 10
-159.3049339372
 20
171.0916475663
 30
0.0
 11
-179.6799339372
 21
171.0916475663
 31
0.0
  0
LINE
  5
405
330
400
100
AcDbEntity
  8
IDEC_DIM
370
    13
100
AcDbLine
 10
-178.4299339372
 20
201.0916475663
 30
0.0
 11
-178.4299339372
 21
173.0916475663
 31
0.0
  0
INSERT
  5
406
330
400
100
AcDbEntity
  8
IDEC_DIM
370
    13
100
AcDbBlockReference
  2
_OPEN30
 10
-178.4299339372
 20
203.0916475663
 30
0.0
 41
2.0
 42
2.0
 43
2.0
 50
90.0
  0
INSERT
  5
407
330
400
100
AcDbEntity
  8
IDEC_DIM
370
    13
100
AcDbBlockReference
  2
_OPEN30
 10
-178.4299339372
 20
171.0916475663
 30
0.0
 41
2.0
 42
2.0
 43
2.0
 50
270.0
  0
MTEXT
  5
408
330
400
100
AcDbEntity
  8
IDEC_DIM
100
AcDbMText
 10
-180.1799339372
 20
187.0916475663
 30
0.0
 40
2.5
 41
0.0
 71
     5
 72
     1
  1
\A2;32.0
  7
IDEC_TEXT
 11
0.0
 21
1.0
 31
0.0
 73
     1
 44
1.0
  0
POINT
  5
409
330
400
100
AcDbEntity
  8
Defpoints
 62
     0
100
AcDbPoint
 10
-158.6799339372
 20
203.0916475663
 30
0.0
  0
POINT
  5
40A
330
400
100
AcDbEntity
  8
Defpoints
 62
     0
100
AcDbPoint
 10
-158.6799339372
 20
171.0916475663
 30
0.0
  0
POINT
  5
40B
330
400
100
AcDbEntity
  8
Defpoints
 62
     0
100
AcDbPoint
 10
-178.4299339372
 20
171.0916475663
 30
0.0
  0
ENDBLK
  5
402
330
400
100
AcDbEntity
  8
0
100
AcDbBlockEnd
  0
BLOCK
  5
40D
330
40C
100
AcDbEntity
  8
0
100
AcDbBlockBegin
  2
*D30
 70
     1
 10
0.0
 20
0.0
 30
0.0
  3
*D30
  1

  0
LINE
  5
40F
330
40C
100
AcDbEntity
  8
IDEC_DIM
370
    13
100
AcDbLine
 10
-133.8049339372
 20
123.0916475663
 30
0.0
 11
-127.1799339372
 21
123.0916475663
 31
0.0
  0
LINE
  5
410
330
40C
100
AcDbEntity
  8
IDEC_DIM
370
    13
100
AcDbLine
 10
-133.8049339372
 20
130.0916475663
 30
0.0
 11
-127.1799339372
 21
130.0916475663
 31
0.0
  0
LINE
  5
411
330
40C
100
AcDbEntity
  8
IDEC_DIM
370
    13
100
AcDbLine
 10
-128.4299339372
 20
125.0916475663
 30
0.0
 11
-128.4299339372
 21
128.0916475663
 31
0.0
  0
INSERT
  5
412
330
40C
100
AcDbEntity
  8
IDEC_DIM
370
    13
100
AcDbBlockReference
  2
_OPEN30
 10
-128.4299339372
 20
123.0916475663
 30
0.0
 41
2.0
 42
2.0
 43
2.0
 50
270.0
  0
INSERT
  5
413
330
40C
100
AcDbEntity
  8
IDEC_DIM
370
    13
100
AcDbBlockReference
  2
_OPEN30
 10
-128.4299339372
 20
130.0916475663
 30
0.0
 41
2.0
 42
2.0
 43
2.0
 50
90.0
  0
MTEXT
  5
414
330
40C
100
AcDbEntity
  8
IDEC_DIM
100
AcDbMText
 10
-130.1799339372
 20
126.5916475663
 30
0.0
 40
2.5
 41
0.0
 71
     5
 72
     1
  1
\A2;7.0
  7
IDEC_TEXT
 11
0.0
 21
1.0
 31
0.0
 73
     1
 44
1.0
  0
POINT
  5
415
330
40C
100
AcDbEntity
  8
Defpoints
 62
     0
100
AcDbPoint
 10
-134.4299339372
 20
123.0916475663
 30
0.0
  0
POINT
  5
416
330
40C
100
AcDbEntity
  8
Defpoints
 62
     0
100
AcDbPoint
 10
-134.4299339372
 20
130.0916475663
 30
0.0
  0
POINT
  5
417
330
40C
100
AcDbEntity
  8
Defpoints
 62
     0
100
AcDbPoint
 10
-128.4299339372
 20
130.0916475663
 30
0.0
  0
ENDBLK
  5
40E
330
40C
100
AcDbEntity
  8
0
100
AcDbBlockEnd
  0
BLOCK
  5
41A
330
419
100
AcDbEntity
  8
0
100
AcDbBlockBegin
  2
*D31
 70
     1
 10
0.0
 20
0.0
 30
0.0
  3
*D31
  1

  0
LINE
  5
41C
330
419
100
AcDbEntity
  8
IDEC_DIM
370
    13
100
AcDbLine
 10
-134.8049339372
 20
136.5916475663
 30
0.0
 11
-122.1799339372
 21
136.5916475663
 31
0.0
  0
LINE
  5
41D
330
419
100
AcDbEntity
  8
IDEC_DIM
370
    13
100
AcDbLine
 10
-133.8049339372
 20
130.0916475663
 30
0.0
 11
-122.1799339372
 21
130.0916475663
 31
0.0
  0
LINE
  5
41E
330
419
100
AcDbEntity
  8
IDEC_DIM
370
    13
100
AcDbLine
 10
-123.4299339372
 20
134.5916475663
 30
0.0
 11
-123.4299339372
 21
132.0916475663
 31
0.0
  0
INSERT
  5
41F
330
419
100
AcDbEntity
  8
IDEC_DIM
370
    13
100
AcDbBlockReference
  2
_OPEN30
 10
-123.4299339372
 20
136.5916475663
 30
0.0
 41
2.0
 42
2.0
 43
2.0
 50
90.0
  0
INSERT
  5
420
330
419
100
AcDbEntity
  8
IDEC_DIM
370
    13
100
AcDbBlockReference
  2
_OPEN30
 10
-123.4299339372
 20
130.0916475663
 30
0.0
 41
2.0
 42
2.0
 43
2.0
 50
270.0
  0
MTEXT
  5
421
330
419
100
AcDbEntity
  8
IDEC_DIM
100
AcDbMText
 10
-125.1799339372
 20
133.3416475663
 30
0.0
 40
2.5
 41
0.0
 71
     5
 72
     1
  1
\A2;6.5
  7
IDEC_TEXT
 11
0.0
 21
1.0
 31
0.0
 73
     1
 44
1.0
  0
POINT
  5
422
330
419
100
AcDbEntity
  8
Defpoints
 62
     0
100
AcDbPoint
 10
-135.4299339372
 20
136.5916475663
 30
0.0
  0
POINT
  5
423
330
419
100
AcDbEntity
  8
Defpoints
 62
     0
100
AcDbPoint
 10
-134.4299339372
 20
130.0916475663
 30
0.0
  0
POINT
  5
424
330
419
100
AcDbEntity
  8
Defpoints
 62
     0
100
AcDbPoint
 10
-123.4299339372
 20
130.0916475663
 30
0.0
  0
ENDBLK
  5
41B
330
419
100
AcDbEntity
  8
0
100
AcDbBlockEnd
  0
ENDSEC
  0
SECTION
  2
ENTITIES
  0
LINE
  5
12E
330
22
100
AcDbEntity
  8
中線
100
AcDbLine
 10
-71.4299339372
 20
166.8416475663
 30
0.0
 11
-70.9299339372
 21
166.8416475663
 31
0.0
  0
LINE
  5
12F
330
22
100
AcDbEntity
  8
中線
100
AcDbLine
 10
-71.4299339372
 20
198.8416475663
 30
0.0
 11
-70.9299339372
 21
198.8416475663
 31
0.0
  0
LINE
  5
130
330
22
100
AcDbEntity
  8
中線
100
AcDbLine
 10
-71.4299339372
 20
175.3416475663
 30
0.0
 11
-70.9299339372
 21
175.3416475663
 31
0.0
  0
LINE
  5
131
330
22
100
AcDbEntity
  8
中線
100
AcDbLine
 10
-71.4299339372
 20
207.3416475663
 30
0.0
 11
-70.9299339372
 21
207.3416475663
 31
0.0
  0
LINE
  5
132
330
22
100
AcDbEntity
  8
中線
100
AcDbLine
 10
-72.4299339372
 20
199.8416475663
 30
0.0
 11
-72.4299339372
 21
206.3416475663
 31
0.0
  0
ARC
  5
133
330
22
100
AcDbEntity
  8
中線
100
AcDbCircle
 10
-71.4299339372
 20
206.3416475663
 30
0.0
 40
1.0
100
AcDbArc
 50
90.0
 51
180.0
  0
ARC
  5
134
330
22
100
AcDbEntity
  8
中線
100
AcDbCircle
 10
-71.4299339372
 20
199.8416475663
 30
0.0
 40
1.0
100
AcDbArc
 50
180.0
 51
270.0
  0
ARC
  5
135
330
22
100
AcDbEntity
  8
中線
100
AcDbCircle
 10
-71.4299339372
 20
174.3416475663
 30
0.0
 40
1.0
100
AcDbArc
 50
90.0
 51
180.0
  0
ARC
  5
136
330
22
100
AcDbEntity
  8
中線
100
AcDbCircle
 10
-71.4299339372
 20
167.8416475663
 30
0.0
 40
1.0
100
AcDbArc
 50
180.0
 51
270.0
  0
LINE
  5
137
330
22
100
AcDbEntity
  8
中線
100
AcDbLine
 10
-72.4299339372
 20
174.3416475663
 30
0.0
 11
-72.4299339372
 21
167.8416475663
 31
0.0
  0
LINE
  5
138
330
22
100
AcDbEntity
  8
中線
100
AcDbLine
 10
-64.9299339372
 20
189.4655336747
 30
0.0
 11
-64.9299339372
 21
184.7177156815
 31
0.0
  0
LINE
  5
139
330
22
100
AcDbEntity
  8
中線
100
AcDbLine
 10
-64.4299339372
 20
182.0916475663
 30
0.0
 11
-58.4299339372
 21
182.0916475663
 31
0.0
  0
LINE
  5
13A
330
22
100
AcDbEntity
  8
中線
100
AcDbLine
 10
-64.4299339372
 20
192.0916475663
 30
0.0
 11
-58.4299339372
 21
192.0916475663
 31
0.0
  0
LINE
  5
13B
330
22
100
AcDbEntity
  8
中線
100
AcDbLine
 10
-64.4299339372
 20
182.0916475663
 30
0.0
 11
-64.4299339372
 21
177.4145693192
 31
0.0
  0
LINE
  5
13C
330
22
100
AcDbEntity
  8
中線
100
AcDbLine
 10
-66.9299339372
 20
176.0916475663
 30
0.0
 11
-66.9299339372
 21
167.0916475663
 31
0.0
  0
LINE
  5
13D
330
22
100
AcDbEntity
  8
中線
100
AcDbLine
 10
-64.4299339372
 20
196.7687258134
 30
0.0
 11
-64.4299339372
 21
192.0916475663
 31
0.0
  0
LINE
  5
13E
330
22
100
AcDbEntity
  8
中線
100
AcDbLine
 10
-66.9299339372
 20
207.0916475663
 30
0.0
 11
-66.9299339372
 21
197.7687258134
 31
0.0
  0
LINE
  5
13F
330
22
100
AcDbEntity
  8
中線
100
AcDbLine
 10
-59.4299339372
 20
189.441638411
 30
0.0
 11
-59.4299339372
 21
184.7416414628
 31
0.0
  0
LINE
  5
140
330
22
100
AcDbEntity
  8
中線
100
AcDbLine
 10
-57.4299339372
 20
191.0916475663
 30
0.0
 11
-57.4299339372
 21
183.0916475663
 31
0.0
  0
LINE
  5
141
330
22
100
AcDbEntity
  8
中線
100
AcDbLine
 10
-60.4299339372
 20
210.0916475663
 30
0.0
 11
-60.4299339372
 21
208.0916475663
 31
0.0
  0
LINE
  5
142
330
22
100
AcDbEntity
  8
中線
100
AcDbLine
 10
-66.9299339372
 20
167.0916475663
 30
0.0
 11
-61.4299339372
 21
167.0916475663
 31
0.0
  0
LINE
  5
143
330
22
100
AcDbEntity
  8
中線
100
AcDbLine
 10
-66.9299339372
 20
207.0916475663
 30
0.0
 11
-61.4299339372
 21
207.0916475663
 31
0.0
  0
LINE
  5
144
330
22
100
AcDbEntity
  8
CENTER
100
AcDbLine
 10
-75.9299339372
 20
187.0916475663
 30
0.0
 11
-19.2251325938
 21
187.0916475663
 31
0.0
  0
LINE
  5
145
330
22
100
AcDbEntity
  8
中線
100
AcDbLine
 10
-60.4299339372
 20
166.0916475663
 30
0.0
 11
-60.4299339372
 21
164.0916475663
 31
0.0
  0
LINE
  5
146
330
22
100
AcDbEntity
  8
中線
100
AcDbLine
 10
-70.9299339372
 20
209.0916475663
 30
0.0
 11
-70.9299339372
 21
165.0916475663
 31
0.0
  0
LINE
  5
147
330
22
100
AcDbEntity
  8
中線
100
AcDbLine
 10
-69.9299339372
 20
181.0916475663
 30
0.0
 11
-64.4299339372
 21
181.0916475663
 31
0.0
  0
LINE
  5
148
330
22
100
AcDbEntity
  8
中線
100
AcDbLine
 10
-69.9299339372
 20
193.0916475663
 30
0.0
 11
-64.4299339372
 21
193.0916475663
 31
0.0
  0
LINE
  5
149
330
22
100
AcDbEntity
  8
中線
100
AcDbLine
 10
-69.9299339372
 20
164.0916475663
 30
0.0
 11
-60.4299339372
 21
164.0916475663
 31
0.0
  0
LINE
  5
14A
330
22
100
AcDbEntity
  8
中線
100
AcDbLine
 10
-69.9299339372
 20
210.0916475663
 30
0.0
 11
-60.4299339372
 21
210.0916475663
 31
0.0
  0
ARC
  5
14B
330
22
100
AcDbEntity
  8
中線
100
AcDbCircle
 10
-65.4299339372
 20
177.4145693192
 30
0.0
 40
1.0
100
AcDbArc
 50
270.0000179861
 51
360.0
  0
ARC
  5
14C
330
22
100
AcDbEntity
  8
中線
100
AcDbCircle
 10
-65.4299339372
 20
196.7687258134
 30
0.0
 40
1.0
100
AcDbArc
 50
0.0
 51
89.9999820139
  0
ARC
  5
14D
330
22
100
AcDbEntity
  8
中線
100
AcDbCircle
 10
-58.4299339372
 20
183.0916475663
 30
0.0
 40
1.0
100
AcDbArc
 50
270.0000179861
 51
360.0
  0
ARC
  5
14E
330
22
100
AcDbEntity
  8
中線
100
AcDbCircle
 10
-58.4299339372
 20
191.0916475663
 30
0.0
 40
1.0
100
AcDbArc
 50
0.0
 51
89.9999820139
  0
ARC
  5
14F
330
22
100
AcDbEntity
  8
中線
100
AcDbCircle
 10
-61.4299339372
 20
208.0916475663
 30
0.0
 40
1.0
100
AcDbArc
 50
270.0000179861
 51
360.0
  0
ARC
  5
150
330
22
100
AcDbEntity
  8
中線
100
AcDbCircle
 10
-61.4299339372
 20
166.0916475663
 30
0.0
 40
1.0
100
AcDbArc
 50
0.0
 51
89.9999820139
  0
ARC
  5
151
330
22
100
AcDbEntity
  8
中線
100
AcDbCircle
 10
-69.9299339372
 20
165.0916475663
 30
0.0
 40
1.0
100
AcDbArc
 50
179.9999640278
 51
270.0000006832
  0
ARC
  5
152
330
22
100
AcDbEntity
  8
中線
100
AcDbCircle
 10
-69.9299339372
 20
182.0916475663
 30
0.0
 40
1.0
100
AcDbArc
 50
179.9999640278
 51
270.0000006832
  0
ARC
  5
153
330
22
100
AcDbEntity
  8
中線
100
AcDbCircle
 10
-69.9299339372
 20
209.0916475663
 30
0.0
 40
1.0
100
AcDbArc
 50
89.9999820139
 51
179.9999640278
  0
ARC
  5
154
330
22
100
AcDbEntity
  8
中線
100
AcDbCircle
 10
-69.9299339372
 20
192.0916475663
 30
0.0
 40
1.0
100
AcDbArc
 50
89.9999820139
 51
179.9999640278
  0
LINE
  5
155
330
22
100
AcDbEntity
  8
中線
100
AcDbLine
 10
-70.9299025223
 20
189.4915957907
 30
0.0
 11
-59.4299046989
 21
189.4415927849
 31
0.0
  0
LINE
  5
156
330
22
100
AcDbEntity
  8
中線
100
AcDbLine
 10
-59.4299059869
 20
184.7416054577
 30
0.0
 11
-70.9299038103
 21
184.6916024518
 31
0.0
  0
LINE
  5
157
330
22
100
AcDbEntity
  8
中線
100
AcDbLine
 10
-70.9299339372
 20
197.7687258134
 30
0.0
 11
-65.4299339372
 21
197.7687258134
 31
0.0
  0
LINE
  5
158
330
22
100
AcDbEntity
  8
中線
100
AcDbLine
 10
-65.4299339372
 20
176.4145693192
 30
0.0
 11
-70.9299339372
 21
176.4145693192
 31
0.0
  0
ARC
  5
159
330
22
100
AcDbEntity
  8
PHANTOM
100
AcDbCircle
 10
-64.9299339372
 20
167.0916628251
 30
0.0
 40
1.0
100
AcDbArc
 50
180.0000906137
 51
270.0000726276
  0
ARC
  5
15A
330
22
100
AcDbEntity
  8
PHANTOM
100
AcDbCircle
 10
-66.1900352555
 20
169.4119905839
 30
0.0
 40
1.0
100
AcDbArc
 50
196.2570883101
 51
222.2773223307
  0
ARC
  5
15B
330
22
100
AcDbEntity
  8
HIDDEN
100
AcDbCircle
 10
-60.429949196
 20
171.0916780839
 30
0.0
 40
7.0
100
AcDbArc
 50
180.0000906137
 51
196.2570883101
  0
ARC
  5
15C
330
22
100
AcDbEntity
  8
PHANTOM
100
AcDbCircle
 10
-66.1900352555
 20
172.7713503251
 30
0.0
 40
1.0
100
AcDbArc
 50
137.7227323108
 51
163.7429663314
  0
ARC
  5
15D
330
22
100
AcDbEntity
  8
HIDDEN
100
AcDbCircle
 10
-60.429949196
 20
171.0916780839
 30
0.0
 40
7.0
100
AcDbArc
 50
163.7430209729
 51
180.0000186693
  0
ARC
  5
15E
330
22
100
AcDbEntity
  8
HIDDEN
100
AcDbCircle
 10
-66.1900352555
 20
126.5213198075
 30
0.0
 40
1.0
100
AcDbArc
 50
94.9999536939
 51
163.7429663314
  0
ARC
  5
15F
330
22
100
AcDbEntity
  8
HIDDEN
100
AcDbCircle
 10
-60.429949196
 20
124.8416323075
 30
0.0
 40
7.0
100
AcDbArc
 50
163.7429663314
 51
196.2569617242
  0
ARC
  5
160
330
22
100
AcDbEntity
  8
HIDDEN
100
AcDbCircle
 10
-66.1900352555
 20
123.1619600663
 30
0.0
 40
1.0
100
AcDbArc
 50
196.2570336686
 51
265.0000463061
  0
ARC
  5
161
330
22
100
AcDbEntity
  8
PHANTOM
100
AcDbCircle
 10
-64.9299339372
 20
207.0916323075
 30
0.0
 40
1.0
100
AcDbArc
 50
89.9999820139
 51
179.9999640278
  0
ARC
  5
162
330
22
100
AcDbEntity
  8
HIDDEN
100
AcDbCircle
 10
-64.9299339372
 20
128.6506533036
 30
0.0
 40
0.5
100
AcDbArc
 50
0.0
 51
63.4348628221
  0
ARC
  5
163
330
22
100
AcDbEntity
  8
HIDDEN
100
AcDbCircle
 10
-65.9299339372
 20
128.0326265702
 30
0.0
 40
0.5
100
AcDbArc
 50
0.0
 51
63.4349174636
  0
ARC
  5
164
330
22
100
AcDbEntity
  8
HIDDEN
100
AcDbCircle
 10
-65.929949196
 20
121.6506533036
 30
0.0
 40
0.5
100
AcDbArc
 50
296.5651371779
 51
360.0000726276
  0
ARC
  5
165
330
22
100
AcDbEntity
  8
HIDDEN
100
AcDbCircle
 10
-64.929949196
 20
121.0326265702
 30
0.0
 40
0.5
100
AcDbArc
 50
296.5651371779
 51
360.0001272691
  0
ARC
  5
166
330
22
100
AcDbEntity
  8
PHANTOM
100
AcDbCircle
 10
-60.429949196
 20
126.4597353349
 30
0.0
 40
0.5
100
AcDbArc
 50
0.0
 51
74.744836465
  0
ARC
  5
167
330
22
100
AcDbEntity
  8
PHANTOM
100
AcDbCircle
 10
-60.429949196
 20
123.223544539
 30
0.0
 40
0.5
100
AcDbArc
 50
285.255163535
 51
360.0000726276
  0
ARC
  5
168
330
22
100
AcDbEntity
  8
PHANTOM
100
AcDbCircle
 10
-66.1900352555
 20
204.7713045487
 30
0.0
 40
1.0
100
AcDbArc
 50
137.7227323108
 51
163.7429663314
  0
ARC
  5
169
330
22
100
AcDbEntity
  8
HIDDEN
100
AcDbCircle
 10
-60.429949196
 20
203.0916170487
 30
0.0
 40
7.0
100
AcDbArc
 50
163.7429663314
 51
196.2569617242
  0
ARC
  5
16A
330
22
100
AcDbEntity
  8
PHANTOM
100
AcDbCircle
 10
-66.1900352555
 20
201.4119448075
 30
0.0
 40
1.0
100
AcDbArc
 50
196.2570336686
 51
222.2772676892
  0
ARC
  5
16B
330
22
100
AcDbEntity
  8
PHANTOM
100
AcDbCircle
 10
-55.2299369889
 20
167.3916506181
 30
0.0
 40
0.2999999523
100
AcDbArc
 50
270.0000179861
 51
360.0
  0
ARC
  5
16C
330
22
100
AcDbEntity
  8
PHANTOM
100
AcDbCircle
 10
-55.2299369889
 20
206.7916445146
 30
0.0
 40
0.2999999523
100
AcDbArc
 50
0.0
 51
89.9999820139
  0
ARC
  5
16D
330
22
100
AcDbEntity
  8
PHANTOM
100
AcDbCircle
 10
-31.1071800309
 20
183.2608217606
 30
0.0
 40
8.0
100
AcDbArc
 50
286.1462573349
 51
342.8617234855
  0
ARC
  5
16E
330
22
100
AcDbEntity
  8
PHANTOM
100
AcDbCircle
 10
-31.1071800309
 20
190.9224581132
 30
0.0
 40
8.0
100
AcDbArc
 50
17.1382765145
 51
73.8537426651
  0
ARC
  5
16F
330
22
100
AcDbEntity
  8
PHANTOM
100
AcDbCircle
 10
-36.5299400407
 20
201.9916414628
 30
0.0
 40
27.5
100
AcDbArc
 50
276.9144097282
 51
286.1462573349
  0
ARC
  5
170
330
22
100
AcDbEntity
  8
PHANTOM
100
AcDbCircle
 10
-36.5299400407
 20
172.191638411
 30
0.0
 40
27.5
100
AcDbArc
 50
73.8537426651
 51
83.0856449133
  0
ARC
  5
171
330
22
100
AcDbEntity
  8
PHANTOM
100
AcDbCircle
 10
-43.5299400407
 20
187.0916323075
 30
0.0
 40
21.0
100
AcDbArc
 50
342.8617269006
 51
377.1382730994
  0
ARC
  5
172
330
22
100
AcDbEntity
  8
PHANTOM
100
AcDbCircle
 10
-55.2299522477
 20
107.1416506181
 30
0.0
 40
0.2999999523
100
AcDbArc
 50
270.0000179861
 51
360.0
  0
ARC
  5
173
330
22
100
AcDbEntity
  8
PHANTOM
100
AcDbCircle
 10
-55.2299522477
 20
142.5415987382
 30
0.0
 40
0.2999999523
100
AcDbArc
 50
0.0
 51
89.9999820139
  0
ARC
  5
174
330
22
100
AcDbEntity
  8
PHANTOM
100
AcDbCircle
 10
-31.1071952897
 20
121.0108217606
 30
0.0
 40
8.0
100
AcDbArc
 50
286.1462573349
 51
342.8617234855
  0
ARC
  5
175
330
22
100
AcDbEntity
  8
PHANTOM
100
AcDbCircle
 10
-31.1071952897
 20
128.6724581132
 30
0.0
 40
8.0
100
AcDbArc
 50
17.1382765145
 51
73.8537426651
  0
ARC
  5
176
330
22
100
AcDbEntity
  8
PHANTOM
100
AcDbCircle
 10
-36.5299552995
 20
139.7416414628
 30
0.0
 40
27.5
100
AcDbArc
 50
276.9144097282
 51
286.1462573349
  0
ARC
  5
177
330
22
100
AcDbEntity
  8
PHANTOM
100
AcDbCircle
 10
-36.5299552995
 20
109.941638411
 30
0.0
 40
27.5
100
AcDbArc
 50
73.8537426651
 51
83.0856449133
  0
ARC
  5
178
330
22
100
AcDbEntity
  8
PHANTOM
100
AcDbCircle
 10
-43.5299552995
 20
124.8416323075
 30
0.0
 40
21.0
100
AcDbArc
 50
342.8617269006
 51
377.1382730994
  0
LINE
  5
179
330
22
100
AcDbEntity
  8
PHANTOM
100
AcDbLine
 10
-64.4299339372
 20
121.6143526444
 30
0.0
 11
-64.4299339372
 21
106.8416475663
 31
0.0
  0
LINE
  5
17A
330
22
100
AcDbEntity
  8
PHANTOM
100
AcDbLine
 10
-65.9299339372
 20
167.0916628251
 30
0.0
 11
-65.9299339372
 21
167.2916597733
 31
0.0
  0
LINE
  5
17B
330
22
100
AcDbEntity
  8
PHANTOM
100
AcDbLine
 10
-61.4299339372
 20
166.0916628251
 30
0.0
 11
-64.9299339372
 21
166.0916628251
 31
0.0
  0
LINE
  5
17C
330
22
100
AcDbEntity
  8
PHANTOM
100
AcDbLine
 10
-61.4299339372
 20
166.0916628251
 30
0.0
 11
-61.4299339372
 21
167.0916475663
 31
0.0
  0
LINE
  5
17D
330
22
100
AcDbEntity
  8
PHANTOM
100
AcDbLine
 10
-64.9299339372
 20
167.2916597733
 30
0.0
 11
-66.9299339372
 21
167.2916597733
 31
0.0
  0
LINE
  5
17E
330
22
100
AcDbEntity
  8
PHANTOM
100
AcDbLine
 10
-66.4299339372
 20
167.2916597733
 30
0.0
 11
-66.4299339372
 21
174.8916506181
 31
0.0
  0
LINE
  5
17F
330
22
100
AcDbEntity
  8
PHANTOM
100
AcDbLine
 10
-64.9299339372
 20
174.8916506181
 30
0.0
 11
-64.9299339372
 21
167.0916475663
 31
0.0
  0
LINE
  5
180
330
22
100
AcDbEntity
  8
PHANTOM
100
AcDbLine
 10
-66.9299339372
 20
167.2916597733
 30
0.0
 11
-66.9299339372
 21
174.8916506181
 31
0.0
  0
LINE
  5
181
330
22
100
AcDbEntity
  8
PHANTOM
100
AcDbLine
 10
-66.9299339372
 20
174.8916506181
 30
0.0
 11
-64.4299339372
 21
174.8916506181
 31
0.0
  0
LINE
  5
182
330
22
100
AcDbEntity
  8
HIDDEN
100
AcDbLine
 10
-66.9299369644
 20
125.7076502051
 30
0.0
 11
-67.429937024
 21
124.8416248169
 31
0.0
  0
LINE
  5
183
330
22
100
AcDbEntity
  8
HIDDEN
100
AcDbLine
 10
-66.4299384788
 20
123.1095870717
 30
0.0
 11
-67.4299383596
 21
124.8416379674
 31
0.0
  0
LINE
  5
184
330
22
100
AcDbEntity
  8
HIDDEN
100
AcDbLine
 10
-65.4299369623
 20
127.591626752
 30
0.0
 11
-66.2771797773
 21
127.5175026994
 31
0.0
  0
LINE
  5
185
330
22
100
AcDbEntity
  8
HIDDEN
100
AcDbLine
 10
-65.429949196
 20
122.0916323075
 30
0.0
 11
-65.429949196
 21
127.5916323075
 31
0.0
  0
LINE
  5
186
330
22
100
AcDbEntity
  8
HIDDEN
100
AcDbLine
 10
-66.2771902336
 20
122.165738077
 30
0.0
 11
-65.4299322179
 21
122.0916126438
 31
0.0
  0
LINE
  5
187
330
22
100
AcDbEntity
  8
PHANTOM
100
AcDbLine
 10
-65.9299339372
 20
206.8916353593
 30
0.0
 11
-65.9299339372
 21
207.0916323075
 31
0.0
  0
LINE
  5
188
330
22
100
AcDbEntity
  8
PHANTOM
100
AcDbLine
 10
-64.9299339372
 20
208.0916323075
 30
0.0
 11
-61.4299339372
 21
208.0916323075
 31
0.0
  0
LINE
  5
189
330
22
100
AcDbEntity
  8
PHANTOM
100
AcDbLine
 10
-61.4299339372
 20
207.0916475663
 30
0.0
 11
-61.4299339372
 21
208.0916323075
 31
0.0
  0
LINE
  5
18A
330
22
100
AcDbEntity
  8
PHANTOM
100
AcDbLine
 10
-66.9299339372
 20
206.8916353593
 30
0.0
 11
-64.9299339372
 21
206.8916353593
 31
0.0
  0
LINE
  5
18B
330
22
100
AcDbEntity
  8
PHANTOM
100
AcDbLine
 10
-66.4299339372
 20
199.2916445146
 30
0.0
 11
-66.4299339372
 21
206.8916353593
 31
0.0
  0
LINE
  5
18C
330
22
100
AcDbEntity
  8
PHANTOM
100
AcDbLine
 10
-64.9299339372
 20
207.0916475663
 30
0.0
 11
-64.9299339372
 21
199.2916445146
 31
0.0
  0
LINE
  5
18D
330
22
100
AcDbEntity
  8
PHANTOM
100
AcDbLine
 10
-66.9299339372
 20
199.2916445146
 30
0.0
 11
-66.9299339372
 21
206.8916353593
 31
0.0
  0
LINE
  5
18E
330
22
100
AcDbEntity
  8
PHANTOM
100
AcDbLine
 10
-64.4299339372
 20
199.2916445146
 30
0.0
 11
-66.9299339372
 21
199.2916445146
 31
0.0
  0
LINE
  5
18F
330
22
100
AcDbEntity
  8
HIDDEN
100
AcDbLine
 10
-66.4299380658
 20
120.8416463834
 30
0.0
 11
-65.9827234028
 21
119.9472197396
 31
0.0
  0
LINE
  5
190
330
22
100
AcDbEntity
  8
HIDDEN
100
AcDbLine
 10
-66.4299387323
 20
128.8416218016
 30
0.0
 11
-65.9827240096
 21
129.7360483859
 31
0.0
  0
LINE
  5
191
330
22
100
AcDbEntity
  8
HIDDEN
100
AcDbLine
 10
-64.429949196
 20
128.0689119706
 30
0.0
 11
-64.429949196
 21
128.6506533036
 31
0.0
  0
LINE
  5
192
330
22
100
AcDbEntity
  8
HIDDEN
100
AcDbLine
 10
-64.429949196
 20
121.0326265702
 30
0.0
 11
-64.429949196
 21
121.6143679032
 31
0.0
  0
LINE
  5
193
330
22
100
AcDbEntity
  8
HIDDEN
100
AcDbLine
 10
-65.982739003
 20
129.7360494883
 30
0.0
 11
-64.7063487261
 21
129.0978543498
 31
0.0
  0
LINE
  5
194
330
22
100
AcDbEntity
  8
HIDDEN
100
AcDbLine
 10
-65.9827281603
 20
119.9472313785
 30
0.0
 11
-64.7063377984
 21
120.5854264319
 31
0.0
  0
LINE
  5
195
330
22
100
AcDbEntity
  8
HIDDEN
100
AcDbLine
 10
-66.4299525931
 20
128.841622308
 30
0.0
 11
-65.7063422248
 21
128.4798171238
 31
0.0
  0
LINE
  5
196
330
22
100
AcDbEntity
  8
HIDDEN
100
AcDbLine
 10
-66.4299416908
 20
120.8416586184
 30
0.0
 11
-65.7063312743
 21
121.2034637544
 31
0.0
  0
LINE
  5
197
330
22
100
AcDbEntity
  8
PHANTOM
100
AcDbLine
 10
-65.5702140915
 20
128.3798825075
 30
0.0
 11
-60.2983869136
 21
126.9421116367
 31
0.0
  0
LINE
  5
198
330
22
100
AcDbEntity
  8
PHANTOM
100
AcDbLine
 10
-59.929949196
 20
123.223544539
 30
0.0
 11
-59.929949196
 21
126.4597353349
 31
0.0
  0
LINE
  5
199
330
22
100
AcDbEntity
  8
PHANTOM
100
AcDbLine
 10
-65.5702171471
 20
121.3033772246
 30
0.0
 11
-60.2983752481
 21
122.7411517846
 31
0.0
  0
LINE
  5
19A
330
22
100
AcDbEntity
  8
PHANTOM
100
AcDbLine
 10
-65.429949196
 20
121.6506533036
 30
0.0
 11
-65.429949196
 21
128.0326265702
 31
0.0
  0
LINE
  5
19B
330
22
100
AcDbEntity
  8
PHANTOM
100
AcDbLine
 10
-64.9299339372
 20
207.0916475663
 30
0.0
 11
-55.2299369889
 21
207.0916475663
 31
0.0
  0
LINE
  5
19C
330
22
100
AcDbEntity
  8
PHANTOM
100
AcDbLine
 10
-64.4299339372
 20
167.0916475663
 30
0.0
 11
-55.2299369889
 21
167.0916475663
 31
0.0
  0
LINE
  5
19D
330
22
100
AcDbEntity
  8
PHANTOM
100
AcDbLine
 10
-64.4299339372
 20
167.0916475663
 30
0.0
 11
-64.4299339372
 21
207.0916475663
 31
0.0
  0
LINE
  5
19E
330
22
100
AcDbEntity
  8
PHANTOM
100
AcDbLine
 10
-51.929949196
 20
206.5916017899
 30
0.0
 11
-51.929949196
 21
167.5916475663
 31
0.0
  0
LINE
  5
19F
330
22
100
AcDbEntity
  8
PHANTOM
100
AcDbLine
 10
-45.9299644548
 20
172.8915590653
 30
0.0
 11
-48.9299797135
 21
172.8915590653
 31
0.0
  0
LINE
  5
1A0
330
22
100
AcDbEntity
  8
PHANTOM
100
AcDbLine
 10
-45.9299186784
 20
201.2915834794
 30
0.0
 11
-48.9299186784
 21
201.2915834794
 31
0.0
  0
LINE
  5
1A1
330
22
100
AcDbEntity
  8
PHANTOM
100
AcDbLine
 10
-45.9299186784
 20
202.0915865312
 30
0.0
 11
-48.9299186784
 21
202.0915865312
 31
0.0
  0
LINE
  5
1A2
330
22
100
AcDbEntity
  8
PHANTOM
100
AcDbLine
 10
-45.9299644548
 20
172.0915560136
 30
0.0
 11
-48.9299797135
 21
172.0915560136
 31
0.0
  0
LINE
  5
1A3
330
22
100
AcDbEntity
  8
PHANTOM
100
AcDbLine
 10
-36.929949196
 20
199.4916414628
 30
0.0
 11
-33.2193321305
 21
199.4916414628
 31
0.0
  0
LINE
  5
1A4
330
22
100
AcDbEntity
  8
PHANTOM
100
AcDbLine
 10
-36.929949196
 20
174.691638411
 30
0.0
 11
-33.2193321305
 21
174.691638411
 31
0.0
  0
LINE
  5
1A5
330
22
100
AcDbEntity
  8
PHANTOM
100
AcDbLine
 10
-45.9299339372
 20
170.0916170487
 30
0.0
 11
-45.9299339372
 21
204.091525496
 31
0.0
  0
LINE
  5
1A6
330
22
100
AcDbEntity
  8
PHANTOM
100
AcDbLine
 10
-54.929949196
 20
206.5916017899
 30
0.0
 11
-48.929949196
 21
206.5916017899
 31
0.0
  0
LINE
  5
1A7
330
22
100
AcDbEntity
  8
PHANTOM
100
AcDbLine
 10
-54.9298868899
 20
167.5916106919
 30
0.0
 11
-48.9299174075
 21
167.5916259506
 31
0.0
  0
LINE
  5
1A8
330
22
100
AcDbEntity
  8
PHANTOM
100
AcDbLine
 10
-50.429949196
 20
206.5916017899
 30
0.0
 11
-50.429949196
 21
167.5916628251
 31
0.0
  0
LINE
  5
1A9
330
22
100
AcDbEntity
  8
PHANTOM
100
AcDbLine
 10
-54.929949196
 20
206.7916445146
 30
0.0
 11
-54.929949196
 21
167.3916506181
 31
0.0
  0
LINE
  5
1AA
330
22
100
AcDbEntity
  8
PHANTOM
100
AcDbLine
 10
-45.4299339372
 20
184.8916201005
 30
0.0
 11
-41.4299339372
 21
184.8916201005
 31
0.0
  0
LINE
  5
1AB
330
22
100
AcDbEntity
  8
PHANTOM
100
AcDbLine
 10
-45.4299339372
 20
181.9916109452
 30
0.0
 11
-41.4299339372
 21
181.9916109452
 31
0.0
  0
LINE
  5
1AC
330
22
100
AcDbEntity
  8
PHANTOM
100
AcDbLine
 10
-45.4299339372
 20
179.3916201005
 30
0.0
 11
-41.4299339372
 21
179.3916201005
 31
0.0
  0
LINE
  5
1AD
330
22
100
AcDbEntity
  8
PHANTOM
100
AcDbLine
 10
-45.4299339372
 20
177.0916170487
 30
0.0
 11
-41.4299339372
 21
177.0916170487
 31
0.0
  0
LINE
  5
1AE
330
22
100
AcDbEntity
  8
PHANTOM
100
AcDbLine
 10
-45.4299339372
 20
175.0916170487
 30
0.0
 11
-41.4299339372
 21
175.0916170487
 31
0.0
  0
LINE
  5
1AF
330
22
100
AcDbEntity
  8
PHANTOM
100
AcDbLine
 10
-45.4299339372
 20
173.3916201005
 30
0.0
 11
-41.4299339372
 21
173.3916201005
 31
0.0
  0
LINE
  5
1B0
330
22
100
AcDbEntity
  8
PHANTOM
100
AcDbLine
 10
-45.4299339372
 20
171.9916109452
 30
0.0
 11
-41.4299339372
 21
171.9916109452
 31
0.0
  0
LINE
  5
1B1
330
22
100
AcDbEntity
  8
PHANTOM
100
AcDbLine
 10
-45.4299339372
 20
170.8916658769
 30
0.0
 11
-41.4299339372
 21
170.8916658769
 31
0.0
  0
LINE
  5
1B2
330
22
100
AcDbEntity
  8
PHANTOM
100
AcDbLine
 10
-45.4299339372
 20
170.0916628251
 30
0.0
 11
-41.4299339372
 21
170.0916628251
 31
0.0
  0
LINE
  5
1B3
330
22
100
AcDbEntity
  8
PHANTOM
100
AcDbLine
 10
-41.4299339372
 20
189.2915987382
 30
0.0
 11
-45.4299339372
 21
189.2915987382
 31
0.0
  0
LINE
  5
1B4
330
22
100
AcDbEntity
  8
PHANTOM
100
AcDbLine
 10
-41.4299339372
 20
192.1916078935
 30
0.0
 11
-45.4299339372
 21
192.1916078935
 31
0.0
  0
LINE
  5
1B5
330
22
100
AcDbEntity
  8
PHANTOM
100
AcDbLine
 10
-41.4299339372
 20
194.7915987382
 30
0.0
 11
-45.4299339372
 21
194.7915987382
 31
0.0
  0
LINE
  5
1B6
330
22
100
AcDbEntity
  8
PHANTOM
100
AcDbLine
 10
-41.4299339372
 20
197.0916017899
 30
0.0
 11
-45.4299339372
 21
197.0916017899
 31
0.0
  0
LINE
  5
1B7
330
22
100
AcDbEntity
  8
PHANTOM
100
AcDbLine
 10
-41.4299339372
 20
199.0916017899
 30
0.0
 11
-45.4299339372
 21
199.0916017899
 31
0.0
  0
LINE
  5
1B8
330
22
100
AcDbEntity
  8
PHANTOM
100
AcDbLine
 10
-41.4299339372
 20
200.7915987382
 30
0.0
 11
-45.4299339372
 21
200.7915987382
 31
0.0
  0
LINE
  5
1B9
330
22
100
AcDbEntity
  8
PHANTOM
100
AcDbLine
 10
-41.4299339372
 20
202.1916078935
 30
0.0
 11
-45.4299339372
 21
202.1916078935
 31
0.0
  0
LINE
  5
1BA
330
22
100
AcDbEntity
  8
PHANTOM
100
AcDbLine
 10
-41.4299339372
 20
203.2915834794
 30
0.0
 11
-45.4299339372
 21
203.2915834794
 31
0.0
  0
LINE
  5
1BB
330
22
100
AcDbEntity
  8
PHANTOM
100
AcDbLine
 10
-41.4299339372
 20
204.0915865312
 30
0.0
 11
-45.4299339372
 21
204.0915865312
 31
0.0
  0
LINE
  5
1BC
330
22
100
AcDbEntity
  8
PHANTOM
100
AcDbLine
 10
-41.1299709157
 20
170.0916266993
 30
0.0
 11
-36.9299676978
 21
171.5916265384
 31
0.0
  0
LINE
  5
1BD
330
22
100
AcDbEntity
  8
PHANTOM
100
AcDbLine
 10
-41.4299238599
 20
169.5915611165
 30
0.0
 11
-41.1299222126
 21
170.0915650088
 31
0.0
  0
LINE
  5
1BE
330
22
100
AcDbEntity
  8
PHANTOM
100
AcDbLine
 10
-45.4299339372
 20
169.5916628251
 30
0.0
 11
-41.4299339372
 21
169.5916628251
 31
0.0
  0
LINE
  5
1BF
330
22
100
AcDbEntity
  8
PHANTOM
100
AcDbLine
 10
-45.9299332521
 20
170.0915821316
 30
0.0
 11
-45.4299327634
 21
169.5915815165
 31
0.0
  0
LINE
  5
1C0
330
22
100
AcDbEntity
  8
PHANTOM
100
AcDbLine
 10
-45.4299445224
 20
204.5915608045
 30
0.0
 11
-45.9299451375
 21
204.0915603159
 31
0.0
  0
LINE
  5
1C1
330
22
100
AcDbEntity
  8
PHANTOM
100
AcDbLine
 10
-41.4299339372
 20
204.5915865312
 30
0.0
 11
-45.4299339372
 21
204.5915865312
 31
0.0
  0
LINE
  5
1C2
330
22
100
AcDbEntity
  8
PHANTOM
100
AcDbLine
 10
-41.1299448712
 20
204.0915961441
 30
0.0
 11
-41.4299385289
 21
204.5915870216
 31
0.0
  0
LINE
  5
1C3
330
22
100
AcDbEntity
  8
PHANTOM
100
AcDbLine
 10
-36.9299074158
 20
202.591508029
 30
0.0
 11
-41.129910102
 21
204.0915089314
 31
0.0
  0
LINE
  5
1C4
330
22
100
AcDbEntity
  8
PHANTOM
100
AcDbLine
 10
-41.1299308854
 20
204.0915865312
 30
0.0
 11
-41.1299308854
 21
170.0916628251
 31
0.0
  0
LINE
  5
1C5
330
22
100
AcDbEntity
  8
PHANTOM
100
AcDbLine
 10
-41.4299339372
 20
204.5915865312
 30
0.0
 11
-41.4299339372
 21
169.5916628251
 31
0.0
  0
LINE
  5
1C6
330
22
100
AcDbEntity
  8
PHANTOM
100
AcDbLine
 10
-45.4299339372
 20
204.5915865312
 30
0.0
 11
-45.4299339372
 21
169.5916628251
 31
0.0
  0
LINE
  5
1C7
330
22
100
AcDbEntity
  8
PHANTOM
100
AcDbLine
 10
-36.929949196
 20
202.5916017899
 30
0.0
 11
-36.929949196
 21
171.5916170487
 31
0.0
  0
LINE
  5
1C8
330
22
100
AcDbEntity
  8
PHANTOM
100
AcDbLine
 10
-48.9299339372
 20
206.5915560136
 30
0.0
 11
-48.9299339372
 21
167.5916475663
 31
0.0
  0
LINE
  5
1C9
330
22
100
AcDbEntity
  8
PHANTOM
100
AcDbLine
 10
-51.929949196
 20
144.3416017899
 30
0.0
 11
-51.929949196
 21
105.3416475663
 31
0.0
  0
LINE
  5
1CA
330
22
100
AcDbEntity
  8
PHANTOM
100
AcDbLine
 10
-64.4299339372
 20
142.8416017899
 30
0.0
 11
-64.4299339372
 21
128.0688967118
 31
0.0
  0
LINE
  5
1CB
330
22
100
AcDbEntity
  8
PHANTOM
100
AcDbLine
 10
-45.929949196
 20
110.6415590653
 30
0.0
 11
-48.929949196
 21
110.6415590653
 31
0.0
  0
LINE
  5
1CC
330
22
100
AcDbEntity
  8
PHANTOM
100
AcDbLine
 10
-45.9299339372
 20
139.0415834794
 30
0.0
 11
-48.9299339372
 21
139.0415834794
 31
0.0
  0
LINE
  5
1CD
330
22
100
AcDbEntity
  8
PHANTOM
100
AcDbLine
 10
-45.9299339372
 20
139.8415865312
 30
0.0
 11
-48.9299339372
 21
139.8415865312
 31
0.0
  0
LINE
  5
1CE
330
22
100
AcDbEntity
  8
PHANTOM
100
AcDbLine
 10
-45.929949196
 20
109.8415407548
 30
0.0
 11
-48.929949196
 21
109.8415407548
 31
0.0
  0
LINE
  5
1CF
330
22
100
AcDbEntity
  8
PHANTOM
100
AcDbLine
 10
-36.9299644548
 20
137.2416414628
 30
0.0
 11
-33.2193473893
 21
137.2416414628
 31
0.0
  0
LINE
  5
1D0
330
22
100
AcDbEntity
  8
PHANTOM
100
AcDbLine
 10
-36.9299644548
 20
112.441638411
 30
0.0
 11
-33.2193473893
 21
112.441638411
 31
0.0
  0
LINE
  5
1D1
330
22
100
AcDbEntity
  8
PHANTOM
100
AcDbLine
 10
-45.929949196
 20
107.8416170487
 30
0.0
 11
-45.929949196
 21
141.841525496
 31
0.0
  0
LINE
  5
1D2
330
22
100
AcDbEntity
  8
PHANTOM
100
AcDbLine
 10
-64.429949196
 20
106.8416475663
 30
0.0
 11
-55.2299369889
 21
106.8416475663
 31
0.0
  0
LINE
  5
1D3
330
22
100
AcDbEntity
  8
PHANTOM
100
AcDbLine
 10
-64.429949196
 20
142.8416017899
 30
0.0
 11
-55.2299369889
 21
142.8416017899
 31
0.0
  0
LINE
  5
1D4
330
22
100
AcDbEntity
  8
PHANTOM
100
AcDbLine
 10
-54.929949196
 20
144.3416017899
 30
0.0
 11
-48.929949196
 21
144.3416017899
 31
0.0
  0
LINE
  5
1D5
330
22
100
AcDbEntity
  8
PHANTOM
100
AcDbLine
 10
-54.92988689
 20
105.3416106917
 30
0.0
 11
-48.9299326663
 21
105.3416259503
 31
0.0
  0
LINE
  5
1D6
330
22
100
AcDbEntity
  8
PHANTOM
100
AcDbLine
 10
-50.429949196
 20
144.3416017899
 30
0.0
 11
-50.429949196
 21
105.3416628251
 31
0.0
  0
LINE
  5
1D7
330
22
100
AcDbEntity
  8
PHANTOM
100
AcDbLine
 10
-54.929949196
 20
144.3416017899
 30
0.0
 11
-54.929949196
 21
105.3416628251
 31
0.0
  0
LINE
  5
1D8
330
22
100
AcDbEntity
  8
PHANTOM
100
AcDbLine
 10
-45.429949196
 20
122.6416201005
 30
0.0
 11
-41.429949196
 21
122.6416201005
 31
0.0
  0
LINE
  5
1D9
330
22
100
AcDbEntity
  8
PHANTOM
100
AcDbLine
 10
-45.429949196
 20
119.7416109452
 30
0.0
 11
-41.429949196
 21
119.7416109452
 31
0.0
  0
LINE
  5
1DA
330
22
100
AcDbEntity
  8
PHANTOM
100
AcDbLine
 10
-45.429949196
 20
117.1416201005
 30
0.0
 11
-41.429949196
 21
117.1416201005
 31
0.0
  0
LINE
  5
1DB
330
22
100
AcDbEntity
  8
PHANTOM
100
AcDbLine
 10
-45.429949196
 20
114.8416170487
 30
0.0
 11
-41.429949196
 21
114.8416170487
 31
0.0
  0
LINE
  5
1DC
330
22
100
AcDbEntity
  8
PHANTOM
100
AcDbLine
 10
-45.429949196
 20
112.8416170487
 30
0.0
 11
-41.429949196
 21
112.8416170487
 31
0.0
  0
LINE
  5
1DD
330
22
100
AcDbEntity
  8
PHANTOM
100
AcDbLine
 10
-45.429949196
 20
111.1416201005
 30
0.0
 11
-41.429949196
 21
111.1416201005
 31
0.0
  0
LINE
  5
1DE
330
22
100
AcDbEntity
  8
PHANTOM
100
AcDbLine
 10
-45.429949196
 20
109.7416109452
 30
0.0
 11
-41.429949196
 21
109.7416109452
 31
0.0
  0
LINE
  5
1DF
330
22
100
AcDbEntity
  8
PHANTOM
100
AcDbLine
 10
-45.429949196
 20
108.6416658769
 30
0.0
 11
-41.429949196
 21
108.6416658769
 31
0.0
  0
LINE
  5
1E0
330
22
100
AcDbEntity
  8
PHANTOM
100
AcDbLine
 10
-45.429949196
 20
107.8416628251
 30
0.0
 11
-41.429949196
 21
107.8416628251
 31
0.0
  0
LINE
  5
1E1
330
22
100
AcDbEntity
  8
PHANTOM
100
AcDbLine
 10
-41.429949196
 20
127.0415987382
 30
0.0
 11
-45.429949196
 21
127.0415987382
 31
0.0
  0
LINE
  5
1E2
330
22
100
AcDbEntity
  8
PHANTOM
100
AcDbLine
 10
-41.429949196
 20
129.9416078935
 30
0.0
 11
-45.429949196
 21
129.9416078935
 31
0.0
  0
LINE
  5
1E3
330
22
100
AcDbEntity
  8
PHANTOM
100
AcDbLine
 10
-41.429949196
 20
132.5415987382
 30
0.0
 11
-45.429949196
 21
132.5415987382
 31
0.0
  0
LINE
  5
1E4
330
22
100
AcDbEntity
  8
PHANTOM
100
AcDbLine
 10
-41.429949196
 20
134.8416017899
 30
0.0
 11
-45.429949196
 21
134.8416017899
 31
0.0
  0
LINE
  5
1E5
330
22
100
AcDbEntity
  8
PHANTOM
100
AcDbLine
 10
-41.429949196
 20
136.8416017899
 30
0.0
 11
-45.429949196
 21
136.8416017899
 31
0.0
  0
LINE
  5
1E6
330
22
100
AcDbEntity
  8
PHANTOM
100
AcDbLine
 10
-41.429949196
 20
138.5415987382
 30
0.0
 11
-45.429949196
 21
138.5415987382
 31
0.0
  0
LINE
  5
1E7
330
22
100
AcDbEntity
  8
PHANTOM
100
AcDbLine
 10
-41.429949196
 20
139.9416078935
 30
0.0
 11
-45.429949196
 21
139.9416078935
 31
0.0
  0
LINE
  5
1E8
330
22
100
AcDbEntity
  8
PHANTOM
100
AcDbLine
 10
-41.429949196
 20
141.0415834794
 30
0.0
 11
-45.429949196
 21
141.0415834794
 31
0.0
  0
LINE
  5
1E9
330
22
100
AcDbEntity
  8
PHANTOM
100
AcDbLine
 10
-41.429949196
 20
141.8415865312
 30
0.0
 11
-45.429949196
 21
141.8415865312
 31
0.0
  0
LINE
  5
1EA
330
22
100
AcDbEntity
  8
PHANTOM
100
AcDbLine
 10
-41.1299700657
 20
107.8416319582
 30
0.0
 11
-36.9299812177
 21
109.3416266652
 31
0.0
  0
LINE
  5
1EB
330
22
100
AcDbEntity
  8
PHANTOM
100
AcDbLine
 10
-41.4299354313
 20
107.3415617126
 30
0.0
 11
-41.1299337841
 21
107.841565605
 31
0.0
  0
LINE
  5
1EC
330
22
100
AcDbEntity
  8
PHANTOM
100
AcDbLine
 10
-45.429949196
 20
107.3416628251
 30
0.0
 11
-41.429949196
 21
107.3416628251
 31
0.0
  0
LINE
  5
1ED
330
22
100
AcDbEntity
  8
PHANTOM
100
AcDbLine
 10
-45.9299462333
 20
107.8415815706
 30
0.0
 11
-45.4299457446
 21
107.3415809555
 31
0.0
  0
LINE
  5
1EE
330
22
100
AcDbEntity
  8
PHANTOM
100
AcDbLine
 10
-45.4299521088
 20
142.3415656383
 30
0.0
 11
-45.9299527239
 21
141.8415651497
 31
0.0
  0
LINE
  5
1EF
330
22
100
AcDbEntity
  8
PHANTOM
100
AcDbLine
 10
-41.429949196
 20
142.3415865312
 30
0.0
 11
-45.429949196
 21
142.3415865312
 31
0.0
  0
LINE
  5
1F0
330
22
100
AcDbEntity
  8
PHANTOM
100
AcDbLine
 10
-41.1299613493
 20
141.8415884808
 30
0.0
 11
-41.4299550069
 21
142.3415793583
 31
0.0
  0
LINE
  5
1F1
330
22
100
AcDbEntity
  8
PHANTOM
100
AcDbLine
 10
-36.9299241432
 20
140.3415152125
 30
0.0
 11
-41.1299268294
 21
141.8415161149
 31
0.0
  0
LINE
  5
1F2
330
22
100
AcDbEntity
  8
PHANTOM
100
AcDbLine
 10
-41.1299461442
 20
141.8415865312
 30
0.0
 11
-41.1299461442
 21
107.8416628251
 31
0.0
  0
LINE
  5
1F3
330
22
100
AcDbEntity
  8
PHANTOM
100
AcDbLine
 10
-41.429949196
 20
142.3415865312
 30
0.0
 11
-41.429949196
 21
107.3416628251
 31
0.0
  0
LINE
  5
1F4
330
22
100
AcDbEntity
  8
PHANTOM
100
AcDbLine
 10
-45.429949196
 20
142.3415865312
 30
0.0
 11
-45.429949196
 21
107.3416628251
 31
0.0
  0
LINE
  5
1F5
330
22
100
AcDbEntity
  8
PHANTOM
100
AcDbLine
 10
-36.9299644548
 20
140.3416017899
 30
0.0
 11
-36.9299644548
 21
109.3416170487
 31
0.0
  0
LINE
  5
1F6
330
22
100
AcDbEntity
  8
PHANTOM
100
AcDbLine
 10
-48.929949196
 20
144.3415560136
 30
0.0
 11
-48.929949196
 21
105.3416475663
 31
0.0
  0
LINE
  5
1F7
330
22
100
AcDbEntity
  8
中線
100
AcDbLine
 10
-69.9299339372
 20
131.3416475663
 30
0.0
 11
-60.4299339372
 21
131.3416475663
 31
0.0
  0
LINE
  5
1F8
330
22
100
AcDbEntity
  8
中線
100
AcDbLine
 10
-69.9299339372
 20
118.3416475663
 30
0.0
 11
-60.4299339372
 21
118.3416475663
 31
0.0
  0
LINE
  5
1F9
330
22
100
AcDbEntity
  8
中線
100
AcDbLine
 10
-69.9299339372
 20
105.8416475663
 30
0.0
 11
-57.4299339372
 21
105.8416475663
 31
0.0
  0
LINE
  5
1FA
330
22
100
AcDbEntity
  8
中線
100
AcDbLine
 10
-69.9299339372
 20
143.8416475663
 30
0.0
 11
-57.4299339372
 21
143.8416475663
 31
0.0
  0
LINE
  5
1FB
330
22
100
AcDbEntity
  8
中線
100
AcDbLine
 10
-70.9299339372
 20
106.8416475663
 30
0.0
 11
-70.9299339372
 21
142.8416475663
 31
0.0
  0
LINE
  5
1FC
330
22
100
AcDbEntity
  8
中線
100
AcDbLine
 10
-57.4299339372
 20
105.8416475663
 30
0.0
 11
-57.4299339372
 21
106.3416628251
 31
0.0
  0
LINE
  5
1FD
330
22
100
AcDbEntity
  8
中線
100
AcDbLine
 10
-64.4299339372
 20
106.8416475663
 30
0.0
 11
-57.9299339372
 21
106.8416475663
 31
0.0
  0
LINE
  5
1FE
330
22
100
AcDbEntity
  8
中線
100
AcDbLine
 10
-64.4299339372
 20
142.8416475663
 30
0.0
 11
-57.9299339372
 21
142.8416475663
 31
0.0
  0
LINE
  5
1FF
330
22
100
AcDbEntity
  8
中線
100
AcDbLine
 10
-57.4299339372
 20
143.3416323075
 30
0.0
 11
-57.4299339372
 21
143.8416475663
 31
0.0
  0
LINE
  5
200
330
22
100
AcDbEntity
  8
中線
100
AcDbLine
 10
-57.9298458464
 20
106.8416943562
 30
0.0
 11
-57.4298452735
 21
106.3416938676
 31
0.0
  0
LINE
  5
201
330
22
100
AcDbEntity
  8
中線
100
AcDbLine
 10
-57.9298127726
 20
142.841646305
 30
0.0
 11
-57.4298142229
 21
143.3416272377
 31
0.0
  0
LINE
  5
202
330
22
100
AcDbEntity
  8
中線
100
AcDbLine
 10
-60.4299339372
 20
118.3416475663
 30
0.0
 11
-60.4299339372
 21
131.3416475663
 31
0.0
  0
LINE
  5
203
330
22
100
AcDbEntity
  8
中線
100
AcDbLine
 10
-64.4299339372
 20
105.8416475663
 30
0.0
 11
-64.4299339372
 21
118.3416475663
 31
0.0
  0
LINE
  5
204
330
22
100
AcDbEntity
  8
中線
100
AcDbLine
 10
-64.4299339372
 20
131.3416475663
 30
0.0
 11
-64.4299339372
 21
143.8416475663
 31
0.0
  0
LINE
  5
205
330
22
100
AcDbEntity
  8
CENTER
100
AcDbLine
 10
-18.5768322496
 20
124.8416475663
 30
0.0
 11
-75.9299339372
 21
124.8416475663
 31
0.0
  0
LINE
  5
206
330
22
100
AcDbEntity
  8
中線
100
AcDbLine
 10
-70.9299339372
 20
113.8757967362
 30
0.0
 11
-64.4299339372
 21
113.8757967362
 31
0.0
  0
LINE
  5
207
330
22
100
AcDbEntity
  8
中線
100
AcDbLine
 10
-70.9299339372
 20
135.8074983964
 30
0.0
 11
-64.4299339372
 21
135.8074983964
 31
0.0
  0
ARC
  5
208
330
22
100
AcDbEntity
  8
中線
100
AcDbCircle
 10
-69.9299339372
 20
106.8416475663
 30
0.0
 40
1.0
100
AcDbArc
 50
179.9999820139
 51
269.9999640278
  0
ARC
  5
209
330
22
100
AcDbEntity
  8
中線
100
AcDbCircle
 10
-69.9299339372
 20
142.8416475663
 30
0.0
 40
1.0
100
AcDbArc
 50
90.0
 51
179.9999820139
  0
ARC
  5
20A
330
22
100
AcDbEntity
  8
中線
100
AcDbCircle
 10
-69.9299339372
 20
130.3416475663
 30
0.0
 40
1.0
100
AcDbArc
 50
90.0
 51
179.9999820139
  0
ARC
  5
20B
330
22
100
AcDbEntity
  8
中線
100
AcDbCircle
 10
-69.9299339372
 20
119.3416475663
 30
0.0
 40
1.0
100
AcDbArc
 50
179.9999820139
 51
269.9999640278
  0
LINE
  5
20C
330
22
100
AcDbEntity
  8
中線
100
AcDbLine
 10
-72.4299339372
 20
121.5916475663
 30
0.0
 11
-72.4299339372
 21
128.0916475663
 31
0.0
  0
ARC
  5
20D
330
22
100
AcDbEntity
  8
中線
100
AcDbCircle
 10
-71.4299339372
 20
121.5916475663
 30
0.0
 40
1.0
100
AcDbArc
 50
180.0
 51
270.0
  0
ARC
  5
20E
330
22
100
AcDbEntity
  8
中線
100
AcDbCircle
 10
-71.4299339372
 20
128.0916475663
 30
0.0
 40
1.0
100
AcDbArc
 50
90.0
 51
180.0
  0
LINE
  5
20F
330
22
100
AcDbEntity
  8
中線
100
AcDbLine
 10
-71.4299339372
 20
120.5916475663
 30
0.0
 11
-70.9299339372
 21
120.5916475663
 31
0.0
  0
LINE
  5
210
330
22
100
AcDbEntity
  8
中線
100
AcDbLine
 10
-71.4299339372
 20
129.0916475663
 30
0.0
 11
-70.9299339372
 21
129.0916475663
 31
0.0
  0
LINE
  5
211
330
22
100
AcDbEntity
  8
中線
100
AcDbLine
 10
-99.4299339372
 20
176.4145693192
 30
0.0
 11
-104.9299339372
 21
176.4145693192
 31
0.0
  0
LINE
  5
212
330
22
100
AcDbEntity
  8
中線
100
AcDbLine
 10
-104.9299339372
 20
197.7687258134
 30
0.0
 11
-99.4299339372
 21
197.7687258134
 31
0.0
  0
LINE
  5
213
330
22
100
AcDbEntity
  8
中線
100
AcDbLine
 10
-93.4299059869
 20
184.7416054577
 30
0.0
 11
-104.9299038103
 21
184.6916024518
 31
0.0
  0
LINE
  5
214
330
22
100
AcDbEntity
  8
中線
100
AcDbLine
 10
-104.9299025223
 20
189.4915957907
 30
0.0
 11
-93.4299046989
 21
189.4415927849
 31
0.0
  0
LINE
  5
215
330
22
100
AcDbEntity
  8
CENTER
100
AcDbLine
 10
-153.4299339372
 20
212.7405123067
 30
0.0
 11
-153.4299339372
 21
161.722900058
 31
0.0
  0
LINE
  5
216
330
22
100
AcDbEntity
  8
中線
100
AcDbLine
 10
-146.9299339372
 20
209.0916475663
 30
0.0
 11
-146.9299339372
 21
197.7687258134
 31
0.0
  0
LINE
  5
217
330
22
100
AcDbEntity
  8
中線
100
AcDbLine
 10
-159.9299339372
 20
209.0916475663
 30
0.0
 11
-159.9299339372
 21
197.7687258134
 31
0.0
  0
LINE
  5
218
330
22
100
AcDbEntity
  8
CENTER
100
AcDbLine
 10
-175.6564605139
 20
187.0916475663
 30
0.0
 11
-131.7183847667
 21
187.0916475663
 31
0.0
  0
LINE
  5
219
330
22
100
AcDbEntity
  8
中線
100
AcDbLine
 10
-171.4299339372
 20
193.0916475663
 30
0.0
 11
-164.3957847673
 21
193.0916475663
 31
0.0
  0
LINE
  5
21A
330
22
100
AcDbEntity
  8
中線
100
AcDbLine
 10
-171.4299339372
 20
181.0916475663
 30
0.0
 11
-164.3957847673
 21
181.0916475663
 31
0.0
  0
LINE
  5
21B
330
22
100
AcDbEntity
  8
中線
100
AcDbLine
 10
-158.9299339372
 20
210.0916475663
 30
0.0
 11
-147.9299339372
 21
210.0916475663
 31
0.0
  0
LINE
  5
21C
330
22
100
AcDbEntity
  8
中線
100
AcDbLine
 10
-158.9299339372
 20
164.0916475663
 30
0.0
 11
-147.9299339372
 21
164.0916475663
 31
0.0
  0
LINE
  5
21D
330
22
100
AcDbEntity
  8
中線
100
AcDbLine
 10
-172.4299339372
 20
192.0916475663
 30
0.0
 11
-172.4299339372
 21
182.0916475663
 31
0.0
  0
LINE
  5
21E
330
22
100
AcDbEntity
  8
中線
100
AcDbLine
 10
-142.4640678483
 20
193.0916475663
 30
0.0
 11
-135.4299339372
 21
193.0916475663
 31
0.0
  0
LINE
  5
21F
330
22
100
AcDbEntity
  8
中線
100
AcDbLine
 10
-146.9299339372
 20
176.4145540605
 30
0.0
 11
-146.9299339372
 21
165.0916475663
 31
0.0
  0
LINE
  5
220
330
22
100
AcDbEntity
  8
CENTER
100
AcDbLine
 10
-158.6799339372
 20
171.0916475663
 30
0.0
 11
-148.1799339372
 21
171.0916475663
 31
0.0
  0
LINE
  5
221
330
22
100
AcDbEntity
  8
中線
100
AcDbLine
 10
-172.4299339372
 20
189.441638411
 30
0.0
 11
-171.4299339372
 21
189.441638411
 31
0.0
  0
LINE
  5
222
330
22
100
AcDbEntity
  8
中線
100
AcDbLine
 10
-135.4299339372
 20
184.7416414628
 30
0.0
 11
-135.4299339372
 21
189.441638411
 31
0.0
  0
LINE
  5
223
330
22
100
AcDbEntity
  8
中線
100
AcDbLine
 10
-135.4299339372
 20
189.441638411
 30
0.0
 11
-134.4299339372
 21
189.441638411
 31
0.0
  0
LINE
  5
224
330
22
100
AcDbEntity
  8
中線
100
AcDbLine
 10
-135.4299339372
 20
184.7416414628
 30
0.0
 11
-134.4299339372
 21
184.7416414628
 31
0.0
  0
LINE
  5
225
330
22
100
AcDbEntity
  8
中線
100
AcDbLine
 10
-156.4299339372
 20
193.0916475663
 30
0.0
 11
-150.4299339372
 21
193.0916475663
 31
0.0
  0
LINE
  5
226
330
22
100
AcDbEntity
  8
中線
100
AcDbLine
 10
-156.4299339372
 20
181.0916475663
 30
0.0
 11
-150.4299339372
 21
181.0916475663
 31
0.0
  0
LINE
  5
227
330
22
100
AcDbEntity
  8
中線
100
AcDbLine
 10
-157.4299339372
 20
192.0916475663
 30
0.0
 11
-157.4299339372
 21
182.0916475663
 31
0.0
  0
LINE
  5
228
330
22
100
AcDbEntity
  8
中線
100
AcDbLine
 10
-149.4299339372
 20
192.0916475663
 30
0.0
 11
-149.4299339372
 21
182.0916475663
 31
0.0
  0
LINE
  5
229
330
22
100
AcDbEntity
  8
中線
100
AcDbLine
 10
-146.9299339372
 20
135.5916475663
 30
0.0
 11
-146.9299339372
 21
126.0916475663
 31
0.0
  0
LINE
  5
22A
330
22
100
AcDbEntity
  8
中線
100
AcDbLine
 10
-159.9299339372
 20
135.5916475663
 30
0.0
 11
-159.9299339372
 21
126.0916475663
 31
0.0
  0
LINE
  5
22B
330
22
100
AcDbEntity
  8
中線
100
AcDbLine
 10
-172.4299339372
 20
135.5916475663
 30
0.0
 11
-172.4299339372
 21
123.0916475663
 31
0.0
  0
LINE
  5
22C
330
22
100
AcDbEntity
  8
中線
100
AcDbLine
 10
-134.4299339372
 20
135.5916475663
 30
0.0
 11
-134.4299339372
 21
123.0916475663
 31
0.0
  0
LINE
  5
22D
330
22
100
AcDbEntity
  8
中線
100
AcDbLine
 10
-171.4299339372
 20
136.5916475663
 30
0.0
 11
-135.4299339372
 21
136.5916475663
 31
0.0
  0
LINE
  5
22E
330
22
100
AcDbEntity
  8
中線
100
AcDbLine
 10
-172.4299339372
 20
123.0916475663
 30
0.0
 11
-171.9299186784
 21
123.0916475663
 31
0.0
  0
LINE
  5
22F
330
22
100
AcDbEntity
  8
中線
100
AcDbLine
 10
-171.4299339372
 20
130.0916475663
 30
0.0
 11
-171.4299339372
 21
123.5916475663
 31
0.0
  0
LINE
  5
230
330
22
100
AcDbEntity
  8
中線
100
AcDbLine
 10
-135.4299339372
 20
130.0916475663
 30
0.0
 11
-135.4299339372
 21
123.5916475663
 31
0.0
  0
LINE
  5
231
330
22
100
AcDbEntity
  8
中線
100
AcDbLine
 10
-134.929949196
 20
123.0916475663
 30
0.0
 11
-134.4299339372
 21
123.0916475663
 31
0.0
  0
LINE
  5
232
330
22
100
AcDbEntity
  8
中線
100
AcDbLine
 10
-171.4298871472
 20
123.5915594755
 30
0.0
 11
-171.9298876359
 21
123.0915589026
 31
0.0
  0
LINE
  5
233
330
22
100
AcDbEntity
  8
中線
100
AcDbLine
 10
-135.4299351985
 20
123.5915264017
 30
0.0
 11
-134.9299542658
 21
123.091527852
 31
0.0
  0
LINE
  5
234
330
22
100
AcDbEntity
  8
中線
100
AcDbLine
 10
-159.9299339372
 20
126.0916475663
 30
0.0
 11
-146.9299339372
 21
126.0916475663
 31
0.0
  0
LINE
  5
235
330
22
100
AcDbEntity
  8
中線
100
AcDbLine
 10
-172.4299339372
 20
130.0916475663
 30
0.0
 11
-159.9299339372
 21
130.0916475663
 31
0.0
  0
LINE
  5
236
330
22
100
AcDbEntity
  8
中線
100
AcDbLine
 10
-146.9299339372
 20
130.0916475663
 30
0.0
 11
-134.4299339372
 21
130.0916475663
 31
0.0
  0
LINE
  5
237
330
22
100
AcDbEntity
  8
CENTER
100
AcDbLine
 10
-153.4299339372
 20
121.0916475663
 30
0.0
 11
-153.4299339372
 21
141.5916475663
 31
0.0
  0
LINE
  5
238
330
22
100
AcDbEntity
  8
中線
100
AcDbLine
 10
-164.3957847673
 20
136.5916475663
 30
0.0
 11
-164.3957847673
 21
130.0916475663
 31
0.0
  0
LINE
  5
239
330
22
100
AcDbEntity
  8
中線
100
AcDbLine
 10
-142.4640831071
 20
136.5916475663
 30
0.0
 11
-142.4640831071
 21
130.0916475663
 31
0.0
  0
CIRCLE
  5
23A
330
22
100
AcDbEntity
  8
中線
100
AcDbCircle
 10
-153.4299339372
 20
171.0916475663
 30
0.0
 40
3.25
  0
CIRCLE
  5
23B
330
22
100
AcDbEntity
  8
中線
100
AcDbCircle
 10
-153.4299339372
 20
203.0916475663
 30
0.0
 40
3.25
  0
ARC
  5
23C
330
22
100
AcDbEntity
  8
中線
100
AcDbCircle
 10
-158.9299339372
 20
209.0916475663
 30
0.0
 40
1.0
100
AcDbArc
 50
89.9999820139
 51
179.9999640278
  0
ARC
  5
23D
330
22
100
AcDbEntity
  8
中線
100
AcDbCircle
 10
-147.9299339372
 20
209.0916475663
 30
0.0
 40
1.0
100
AcDbArc
 50
0.0
 51
89.9999820139
  0
ARC
  5
23E
330
22
100
AcDbEntity
  8
中線
100
AcDbCircle
 10
-158.9299339372
 20
165.0916475663
 30
0.0
 40
1.0
100
AcDbArc
 50
179.9999640278
 51
270.0000006832
  0
ARC
  5
23F
330
22
100
AcDbEntity
  8
中線
100
AcDbCircle
 10
-147.9299339372
 20
165.0916475663
 30
0.0
 40
1.0
100
AcDbArc
 50
270.0000179861
 51
360.0
  0
ARC
  5
240
330
22
100
AcDbEntity
  8
中線
100
AcDbCircle
 10
-171.4299339372
 20
192.0916475663
 30
0.0
 40
1.0
100
AcDbArc
 50
89.9999820139
 51
179.9999640278
  0
ARC
  5
241
330
22
100
AcDbEntity
  8
中線
100
AcDbCircle
 10
-171.4299339372
 20
182.0916475663
 30
0.0
 40
1.0
100
AcDbArc
 50
179.9999640278
 51
270.0000006832
  0
ARC
  5
242
330
22
100
AcDbEntity
  8
中線
100
AcDbCircle
 10
-135.4299339372
 20
192.0916475663
 30
0.0
 40
1.0
100
AcDbArc
 50
0.0
 51
89.9999820139
  0
ARC
  5
243
330
22
100
AcDbEntity
  8
中線
100
AcDbCircle
 10
-135.4299339372
 20
182.0916475663
 30
0.0
 40
1.0
100
AcDbArc
 50
270.0000179861
 51
360.0
  0
ARC
  5
244
330
22
100
AcDbEntity
  8
中線
100
AcDbCircle
 10
-153.4299339372
 20
187.0916475663
 30
0.0
 40
12.5
100
AcDbArc
 50
28.6854011555
 51
58.6677186305
  0
ARC
  5
245
330
22
100
AcDbEntity
  8
中線
100
AcDbCircle
 10
-153.4299339372
 20
187.0916475663
 30
0.0
 40
12.5
100
AcDbArc
 50
121.3322453973
 51
151.3145901931
  0
ARC
  5
246
330
22
100
AcDbEntity
  8
中線
100
AcDbCircle
 10
-153.4299339372
 20
187.0916475663
 30
0.0
 40
12.5
100
AcDbArc
 50
208.6854098069
 51
238.6677546027
  0
ARC
  5
247
330
22
100
AcDbEntity
  8
中線
100
AcDbCircle
 10
-153.4299339372
 20
187.0916475663
 30
0.0
 40
12.5
100
AcDbArc
 50
301.3322813695
 51
331.3145988445
  0
ARC
  5
248
330
22
100
AcDbEntity
  8
中線
100
AcDbCircle
 10
-150.4299339372
 20
182.0916475663
 30
0.0
 40
1.0
100
AcDbArc
 50
270.0000179861
 51
360.0
  0
ARC
  5
249
330
22
100
AcDbEntity
  8
中線
100
AcDbCircle
 10
-156.4299339372
 20
182.0916475663
 30
0.0
 40
1.0
100
AcDbArc
 50
179.9999640278
 51
270.0000006832
  0
ARC
  5
24A
330
22
100
AcDbEntity
  8
中線
100
AcDbCircle
 10
-150.4299339372
 20
192.0916475663
 30
0.0
 40
1.0
100
AcDbArc
 50
0.0
 51
89.9999820139
  0
ARC
  5
24B
330
22
100
AcDbEntity
  8
中線
100
AcDbCircle
 10
-156.4299339372
 20
192.0916475663
 30
0.0
 40
1.0
100
AcDbArc
 50
89.9999820139
 51
179.9999640278
  0
ARC
  5
24C
330
22
100
AcDbEntity
  8
中線
100
AcDbCircle
 10
-171.4299339372
 20
135.5916475663
 30
0.0
 40
1.0
100
AcDbArc
 50
89.9999820139
 51
179.9999640278
  0
ARC
  5
24D
330
22
100
AcDbEntity
  8
中線
100
AcDbCircle
 10
-135.4299339372
 20
135.5916475663
 30
0.0
 40
1.0
100
AcDbArc
 50
0.0
 51
89.9999820139
  0
ARC
  5
24E
330
22
100
AcDbEntity
  8
中線
100
AcDbCircle
 10
-147.9299339372
 20
135.5916475663
 30
0.0
 40
1.0
100
AcDbArc
 50
0.0
 51
89.9999820139
  0
ARC
  5
24F
330
22
100
AcDbEntity
  8
中線
100
AcDbCircle
 10
-158.9299339372
 20
135.5916475663
 30
0.0
 40
1.0
100
AcDbArc
 50
89.9999820139
 51
179.9999640278
  0
ARC
  5
250
330
22
100
AcDbEntity
  8
中線
100
AcDbCircle
 10
-103.9299339372
 20
192.0916475663
 30
0.0
 40
1.0
100
AcDbArc
 50
89.9999820139
 51
179.9999640278
  0
ARC
  5
251
330
22
100
AcDbEntity
  8
中線
100
AcDbCircle
 10
-103.9299339372
 20
209.0916475663
 30
0.0
 40
1.0
100
AcDbArc
 50
89.9999820139
 51
179.9999640278
  0
ARC
  5
252
330
22
100
AcDbEntity
  8
中線
100
AcDbCircle
 10
-103.9299339372
 20
182.0916475663
 30
0.0
 40
1.0
100
AcDbArc
 50
179.9999640278
 51
270.0000006832
  0
ARC
  5
253
330
22
100
AcDbEntity
  8
中線
100
AcDbCircle
 10
-103.9299339372
 20
165.0916475663
 30
0.0
 40
1.0
100
AcDbArc
 50
179.9999640278
 51
270.0000006832
  0
ARC
  5
254
330
22
100
AcDbEntity
  8
中線
100
AcDbCircle
 10
-95.4299339372
 20
166.0916475663
 30
0.0
 40
1.0
100
AcDbArc
 50
0.0
 51
89.9999820139
  0
ARC
  5
255
330
22
100
AcDbEntity
  8
中線
100
AcDbCircle
 10
-95.4299339372
 20
208.0916475663
 30
0.0
 40
1.0
100
AcDbArc
 50
270.0000179861
 51
360.0
  0
ARC
  5
256
330
22
100
AcDbEntity
  8
中線
100
AcDbCircle
 10
-92.4299339372
 20
191.0916475663
 30
0.0
 40
1.0
100
AcDbArc
 50
0.0
 51
89.9999820139
  0
ARC
  5
257
330
22
100
AcDbEntity
  8
中線
100
AcDbCircle
 10
-92.4299339372
 20
183.0916475663
 30
0.0
 40
1.0
100
AcDbArc
 50
270.0000179861
 51
360.0
  0
ARC
  5
258
330
22
100
AcDbEntity
  8
中線
100
AcDbCircle
 10
-99.4299339372
 20
196.7687258134
 30
0.0
 40
1.0
100
AcDbArc
 50
0.0
 51
89.9999820139
  0
ARC
  5
259
330
22
100
AcDbEntity
  8
中線
100
AcDbCircle
 10
-99.4299339372
 20
177.4145693192
 30
0.0
 40
1.0
100
AcDbArc
 50
270.0000179861
 51
360.0
  0
LINE
  5
25A
330
22
100
AcDbEntity
  8
中線
100
AcDbLine
 10
-103.9299339372
 20
210.0916475663
 30
0.0
 11
-94.4299339372
 21
210.0916475663
 31
0.0
  0
LINE
  5
25B
330
22
100
AcDbEntity
  8
中線
100
AcDbLine
 10
-103.9299339372
 20
164.0916475663
 30
0.0
 11
-94.4299339372
 21
164.0916475663
 31
0.0
  0
LINE
  5
25C
330
22
100
AcDbEntity
  8
中線
100
AcDbLine
 10
-103.9299339372
 20
193.0916475663
 30
0.0
 11
-98.4299339372
 21
193.0916475663
 31
0.0
  0
LINE
  5
25D
330
22
100
AcDbEntity
  8
中線
100
AcDbLine
 10
-103.9299339372
 20
181.0916475663
 30
0.0
 11
-98.4299339372
 21
181.0916475663
 31
0.0
  0
LINE
  5
25E
330
22
100
AcDbEntity
  8
中線
100
AcDbLine
 10
-104.9299339372
 20
209.0916475663
 30
0.0
 11
-104.9299339372
 21
165.0916475663
 31
0.0
  0
LINE
  5
25F
330
22
100
AcDbEntity
  8
中線
100
AcDbLine
 10
-94.4299339372
 20
166.0916475663
 30
0.0
 11
-94.4299339372
 21
164.0916475663
 31
0.0
  0
LINE
  5
260
330
22
100
AcDbEntity
  8
CENTER
100
AcDbLine
 10
-109.9299339372
 20
187.0916475663
 30
0.0
 11
-86.9367504903
 21
187.0916475663
 31
0.0
  0
LINE
  5
261
330
22
100
AcDbEntity
  8
中線
100
AcDbLine
 10
-100.9299339372
 20
207.0916475663
 30
0.0
 11
-95.4299339372
 21
207.0916475663
 31
0.0
  0
LINE
  5
262
330
22
100
AcDbEntity
  8
中線
100
AcDbLine
 10
-100.9299339372
 20
167.0916475663
 30
0.0
 11
-95.4299339372
 21
167.0916475663
 31
0.0
  0
LINE
  5
263
330
22
100
AcDbEntity
  8
中線
100
AcDbLine
 10
-94.4299339372
 20
210.0916475663
 30
0.0
 11
-94.4299339372
 21
208.0916475663
 31
0.0
  0
LINE
  5
264
330
22
100
AcDbEntity
  8
中線
100
AcDbLine
 10
-91.4299339372
 20
191.0916475663
 30
0.0
 11
-91.4299339372
 21
183.0916475663
 31
0.0
  0
LINE
  5
265
330
22
100
AcDbEntity
  8
中線
100
AcDbLine
 10
-93.4299339372
 20
189.441638411
 30
0.0
 11
-93.4299339372
 21
184.7416414628
 31
0.0
  0
LINE
  5
266
330
22
100
AcDbEntity
  8
中線
100
AcDbLine
 10
-100.9299339372
 20
207.0916475663
 30
0.0
 11
-100.9299339372
 21
197.7687258134
 31
0.0
  0
LINE
  5
267
330
22
100
AcDbEntity
  8
中線
100
AcDbLine
 10
-98.4299339372
 20
196.7687258134
 30
0.0
 11
-98.4299339372
 21
192.0916475663
 31
0.0
  0
LINE
  5
268
330
22
100
AcDbEntity
  8
中線
100
AcDbLine
 10
-100.9299339372
 20
176.0916475663
 30
0.0
 11
-100.9299339372
 21
167.0916475663
 31
0.0
  0
LINE
  5
269
330
22
100
AcDbEntity
  8
中線
100
AcDbLine
 10
-98.4299339372
 20
182.0916475663
 30
0.0
 11
-98.4299339372
 21
177.4145693192
 31
0.0
  0
LINE
  5
26A
330
22
100
AcDbEntity
  8
中線
100
AcDbLine
 10
-98.4299339372
 20
192.0916475663
 30
0.0
 11
-92.4299339372
 21
192.0916475663
 31
0.0
  0
LINE
  5
26B
330
22
100
AcDbEntity
  8
中線
100
AcDbLine
 10
-98.4299339372
 20
182.0916475663
 30
0.0
 11
-92.4299339372
 21
182.0916475663
 31
0.0
  0
LINE
  5
26C
330
22
100
AcDbEntity
  8
中線
100
AcDbLine
 10
-98.9299339372
 20
189.4655336747
 30
0.0
 11
-98.9299339372
 21
184.7177156815
 31
0.0
  0
LINE
  5
26D
330
22
100
AcDbEntity
  8
中線
100
AcDbLine
 10
-134.4299339372
 20
192.0916475663
 30
0.0
 11
-134.4299339372
 21
182.0916475663
 31
0.0
  0
LINE
  5
26E
330
22
100
AcDbEntity
  8
中線
100
AcDbLine
 10
-142.4640678483
 20
181.0916475663
 30
0.0
 11
-135.4299339372
 21
181.0916475663
 31
0.0
  0
LINE
  5
26F
330
22
100
AcDbEntity
  8
中線
100
AcDbLine
 10
-159.9299339372
 20
176.4145540605
 30
0.0
 11
-159.9299339372
 21
165.0916475663
 31
0.0
  0
LINE
  5
270
330
22
100
AcDbEntity
  8
中線
100
AcDbLine
 10
-171.4299339372
 20
189.441638411
 30
0.0
 11
-171.4299339372
 21
184.7416414628
 31
0.0
  0
LINE
  5
271
330
22
100
AcDbEntity
  8
CENTER
100
AcDbLine
 10
-158.6799339372
 20
203.0916475663
 30
0.0
 11
-148.1799339372
 21
203.0916475663
 31
0.0
  0
LINE
  5
272
330
22
100
AcDbEntity
  8
中線
100
AcDbLine
 10
-172.4299339372
 20
184.7416414628
 30
0.0
 11
-171.4299339372
 21
184.7416414628
 31
0.0
  0
TEXT
  5
273
330
22
100
AcDbEntity
  8
CMNT
100
AcDbText
 10
-160.2654967193
 20
177.3416475663
 30
0.0
 40
2.5
  1
APN-PVL
 41
0.800634429478
 72
     5
 11
-146.5403350711
 21
177.3416475663
 31
0.0
100
AcDbText
  0
CIRCLE
  5
274
330
22
100
AcDbEntity
  8
中線
100
AcDbCircle
 10
-153.4299339372
 20
171.0916475663
 30
0.0
 40
4.25
  0
CIRCLE
  5
275
330
22
100
AcDbEntity
  8
中線
100
AcDbCircle
 10
-153.4299339372
 20
203.0916475663
 30
0.0
 40
4.25
  0
LINE
  5
276
330
22
100
AcDbEntity
  8
中線
100
AcDbLine
 10
-106.4299339372
 20
174.3416475663
 30
0.0
 11
-106.4299339372
 21
167.8416475663
 31
0.0
  0
ARC
  5
277
330
22
100
AcDbEntity
  8
中線
100
AcDbCircle
 10
-105.4299339372
 20
167.8416475663
 30
0.0
 40
1.0
100
AcDbArc
 50
180.0
 51
270.0
  0
ARC
  5
278
330
22
100
AcDbEntity
  8
中線
100
AcDbCircle
 10
-105.4299339372
 20
174.3416475663
 30
0.0
 40
1.0
100
AcDbArc
 50
90.0
 51
180.0
  0
ARC
  5
279
330
22
100
AcDbEntity
  8
中線
100
AcDbCircle
 10
-105.4299339372
 20
199.8416475663
 30
0.0
 40
1.0
100
AcDbArc
 50
180.0
 51
270.0
  0
ARC
  5
27A
330
22
100
AcDbEntity
  8
中線
100
AcDbCircle
 10
-105.4299339372
 20
206.3416475663
 30
0.0
 40
1.0
100
AcDbArc
 50
90.0
 51
180.0
  0
LINE
  5
27B
330
22
100
AcDbEntity
  8
中線
100
AcDbLine
 10
-106.4299339372
 20
199.8416475663
 30
0.0
 11
-106.4299339372
 21
206.3416475663
 31
0.0
  0
LINE
  5
27C
330
22
100
AcDbEntity
  8
中線
100
AcDbLine
 10
-156.6799339372
 20
138.0916475663
 30
0.0
 11
-150.1799339372
 21
138.0916475663
 31
0.0
  0
ARC
  5
27D
330
22
100
AcDbEntity
  8
中線
100
AcDbCircle
 10
-156.6799339372
 20
137.0916475663
 30
0.0
 40
1.0
100
AcDbArc
 50
90.0
 51
180.0
  0
ARC
  5
27E
330
22
100
AcDbEntity
  8
中線
100
AcDbCircle
 10
-150.1799339372
 20
137.0916475663
 30
0.0
 40
1.0
100
AcDbArc
 50
0.0
 51
90.0
  0
LINE
  5
27F
330
22
100
AcDbEntity
  8
中線
100
AcDbLine
 10
-105.4299339372
 20
207.3416475663
 30
0.0
 11
-104.9299339372
 21
207.3416475663
 31
0.0
  0
LINE
  5
280
330
22
100
AcDbEntity
  8
中線
100
AcDbLine
 10
-105.4299339372
 20
175.3416475663
 30
0.0
 11
-104.9299339372
 21
175.3416475663
 31
0.0
  0
LINE
  5
281
330
22
100
AcDbEntity
  8
中線
100
AcDbLine
 10
-105.4299339372
 20
198.8416475663
 30
0.0
 11
-104.9299339372
 21
198.8416475663
 31
0.0
  0
LINE
  5
282
330
22
100
AcDbEntity
  8
中線
100
AcDbLine
 10
-105.4299339372
 20
166.8416475663
 30
0.0
 11
-104.9299339372
 21
166.8416475663
 31
0.0
  0
LINE
  5
283
330
22
100
AcDbEntity
  8
中線
100
AcDbLine
 10
-157.6799339372
 20
137.0916475663
 30
0.0
 11
-157.6799339372
 21
136.5916475663
 31
0.0
  0
LINE
  5
284
330
22
100
AcDbEntity
  8
中線
100
AcDbLine
 10
-149.1799339372
 20
137.0916475663
 30
0.0
 11
-149.1799339372
 21
136.5916475663
 31
0.0
  0
TEXT
  5
3B4
330
22
100
AcDbEntity
  8
CMNT
100
AcDbText
 10
-68.617860446064
 20
77.109622819242
 30
0.0
 40
4.167171
  1
APN-PVL
 41
0.99627999027
 72
     5
 11
-40.149272446064
 21
77.109622819242
 31
0.0
100
AcDbText
  0
TEXT
  5
3B6
330
22
100
AcDbEntity
  8
CMNT
100
AcDbText
 10
-68.036725778426
 20
69.12019861516
 30
0.0
 40
5.0
  1
MA4-A01325C
 41
1.008772669333
 72
     5
 11
-13.995332778426
 21
69.12019861516
 31
0.0
100
AcDbText
  0
VIEWPORT
  5
11A
102
{ACAD_XDICTIONARY
360
479
102
}
330
23
100
AcDbEntity
 67
     1
  8
0
  6
SOLID
100
AcDbViewport
 10
-106.000122
 20
148.5
 30
0.0
 40
218.350244
 41
303.35
 68
     2
 69
     1
 12
-106.000122
 22
148.5
 13
0.0
 23
0.0
 14
1.0
 24
1.0
 15
0.0
 25
0.0
 16
0.0
 26
0.0
 36
1.0
 17
0.0
 27
0.0
 37
0.0
 42
0.0
 43
0.0
 44
0.0
 45
303.35
 50
0.0
 51
0.0
 72
   100
 90
      160
  1

281
     0
 71
     1
 74
     0
110
0.0
120
0.0
130
0.0
111
1.0
121
0.0
131
0.0
112
0.0
122
1.0
132
0.0
 79
     0
146
0.0
  0
VIEWPORT
  5
2BD
102
{ACAD_XDICTIONARY
360
47B
102
}
330
23
100
AcDbEntity
 67
     1
  8
VIEWPORTS
  6
SOLID
100
AcDbViewport
 10
-106.0001220703
 20
148.5
 30
0.0
 40
218.3502441406
 41
303.35
 68
     1
 69
     2
 12
-106.0001220703
 22
148.5
 13
0.0
 23
0.0
 14
5.0
 24
5.0
 15
5.0
 25
5.0
 16
0.0
 26
0.0
 36
1.0
 17
0.0
 27
0.0
 37
0.0
 42
0.0
 43
0.0
 44
0.0
 45
303.35
 50
0.0
 51
0.0
 72
   100
 90
      160
  1

281
     0
 71
     1
 74
     0
110
0.0
120
0.0
130
0.0
111
1.0
121
0.0
131
0.0
112
0.0
122
1.0
132
0.0
 79
     0
146
0.0
1001
ACAD_NAV_VCDISPLAY
1070
     0
  0
ENDSEC
  0
SECTION
  2
OBJECTS
  0
DICTIONARY
  5
2BE
330
0
100
AcDbDictionary
281
     1
  3
ACAD_COLOR
350
2D9
  3
ACAD_GROUP
350
2BF
  3
ACAD_IMAGE_VARS
350
314
  3
ACAD_LAYOUT
350
2DE
  3
ACAD_MATERIAL
350
2C4
  3
ACAD_MLEADERSTYLE
350
310
  3
ACAD_MLINESTYLE
350
2C0
  3
ACAD_PLOTSETTINGS
350
2DD
  3
ACAD_PLOTSTYLENAME
350
2C2
  3
ACAD_SCALELIST
350
2E4
  3
ACAD_TABLESTYLE
350
2DA
  3
ACAD_VISUALSTYLE
350
2C8
  3
ACDBHEADERROUNDTRIPXREC
350
475
  3
AcDbVariableDictionary
350
2E1
  3
DWGPROPS
350
478
  0
DICTIONARY
  5
47D
330
3
100
AcDbDictionary
280
     1
281
     1
  3
ACAD_XREC_ROUNDTRIP
360
47E
  0
DICTIONARY
  5
385
330
384
100
AcDbDictionary
280
     1
281
     1
  3
ACAD_SORTENTS
360
386
  0
DICTIONARY
  5
39A
330
399
100
AcDbDictionary
280
     1
281
     1
  3
ACAD_SORTENTS
360
39B
  0
DICTIONARY
  5
479
330
11A
100
AcDbDictionary
280
     1
281
     1
  3
ACAD_XREC_ROUNDTRIP
360
47A
  0
DICTIONARY
  5
47B
330
2BD
100
AcDbDictionary
280
     1
281
     1
  3
ACAD_XREC_ROUNDTRIP
360
47C
  0
DICTIONARY
  5
2D9
102
{ACAD_REACTORS
330
2BE
102
}
330
2BE
100
AcDbDictionary
281
     1
  0
DICTIONARY
  5
2BF
102
{ACAD_REACTORS
330
2BE
102
}
330
2BE
100
AcDbDictionary
281
     1
  0
RASTERVARIABLES
  5
314
102
{ACAD_REACTORS
330
2BE
102
}
330
2BE
100
AcDbRasterVariables
 90
        0
 70
     1
 71
     1
 72
     1
  0
DICTIONARY
  5
2DE
102
{ACAD_REACTORS
330
2BE
102
}
330
2BE
100
AcDbDictionary
281
     1
  3
Model
350
2DF
  3
レイアウト1
350
2E0
  0
DICTIONARY
  5
2C4
102
{ACAD_REACTORS
330
2BE
102
}
330
2BE
100
AcDbDictionary
281
     1
  3
ByBlock
350
2C6
  3
ByLayer
350
2C5
  3
Global
350
2C7
  0
DICTIONARY
  5
310
102
{ACAD_REACTORS
330
2BE
102
}
330
2BE
100
AcDbDictionary
281
     1
  3
Standard
350
311
  0
DICTIONARY
  5
2C0
102
{ACAD_REACTORS
330
2BE
102
}
330
2BE
100
AcDbDictionary
281
     1
  3
STANDARD
350
2C1
  0
DICTIONARY
  5
2DD
102
{ACAD_REACTORS
330
2BE
102
}
330
2BE
100
AcDbDictionary
281
     1
  0
ACDBDICTIONARYWDFLT
  5
2C2
102
{ACAD_REACTORS
330
2BE
102
}
330
2BE
100
AcDbDictionary
281
     1
  3
Normal
350
2C3
100
AcDbDictionaryWithDefault
340
2C3
  0
DICTIONARY
  5
2E4
102
{ACAD_REACTORS
330
2BE
102
}
330
2BE
100
AcDbDictionary
281
     1
  3
A0
350
2E5
  3
A1
350
2E6
  3
A2
350
2E7
  3
A3
350
2E8
  3
A4
350
2E9
  3
A5
350
2EA
  3
A6
350
2EB
  3
A7
350
2EC
  3
A8
350
2ED
  3
A9
350
2EE
  3
B0
350
2EF
  3
B1
350
2F0
  3
B2
350
2F1
  3
B3
350
2F2
  3
B4
350
2F3
  3
B5
350
2F4
  3
B6
350
2F5
  3
B7
350
2F6
  3
B8
350
2F7
  3
B9
350
2F8
  3
C0
350
2F9
  3
C1
350
2FA
  3
C2
350
2FB
  3
C3
350
2FC
  3
C4
350
2FD
  3
C5
350
2FE
  3
C6
350
2FF
  3
C7
350
300
  3
C8
350
301
  3
C9
350
302
  3
D0
350
303
  3
D1
350
304
  3
D2
350
305
  0
DICTIONARY
  5
2DA
102
{ACAD_REACTORS
330
2BE
102
}
330
2BE
100
AcDbDictionary
281
     1
  3
Standard
350
2DB
  0
DICTIONARY
  5
2C8
102
{ACAD_REACTORS
330
2BE
102
}
330
2BE
100
AcDbDictionary
281
     1
  3
2dWireframe
350
2CE
  3
3D Hidden
350
2D0
  3
3dWireframe
350
2CF
  3
Basic
350
2CD
  3
Brighten
350
2D4
  3
ColorChange
350
2D8
  3
Conceptual
350
2D1
  3
Dim
350
2D3
  3
EdgeColorOff
350
30A
  3
Facepattern
350
2D7
  3
Flat
350
2C9
  3
FlatWithEdges
350
2CA
  3
Gouraud
350
2CB
  3
GouraudWithEdges
350
2CC
  3
Hidden
350
307
  3
JitterOff
350
308
  3
Linepattern
350
2D6
  3
Modeling
350
312
  3
OverhangOff
350
309
  3
Realistic
350
2D2
  3
Shaded
350
30F
  3
Shaded with edges
350
30E
  3
Shades of Gray
350
30B
  3
Sketchy
350
30C
  3
Thicken
350
2D5
  3
Wireframe
350
306
  3
X-Ray
350
30D
  0
DICTIONARY
  5
475
102
{ACAD_REACTORS
330
2BE
102
}
330
2BE
100
AcDbDictionary
281
     1
  3
COLORDICT
350
476
  3
MATERIALDICT
350
477
  0
DICTIONARY
  5
2E1
102
{ACAD_REACTORS
330
2BE
102
}
330
2BE
100
AcDbDictionary
281
     1
  3
CANNOSCALE
350
317
  3
CMLEADERSTYLE
350
318
  3
CTABLESTYLE
350
2E2
  3
DIMASSOC
350
429
  3
HIDETEXT
350
42A
  3
MSLTSCALE
350
319
  3
XCLIPFRAME
350
31A
  0
XRECORD
  5
478
102
{ACAD_REACTORS
330
2BE
102
}
330
2BE
100
AcDbXrecord
280
     1
  1
DWGPROPS COOKIE
  2

  3

  4

  6

  7

  8
1003167
  9

300
=
301
=
302
=
303
=
304
=
305
=
306
=
307
=
308
=
309
=
 40
0.0
 41
2454848.292615741
 42
2458304.270877546
  1

 90
        0
  0
XRECORD
  5
47E
102
{ACAD_REACTORS
330
47D
102
}
330
47D
100
AcDbXrecord
280
     1
102
VTR_0.000_0.000_1.000_1.000_GRIDDISPLAY
 70
     3
102
VTR_0.000_0.000_1.000_1.000_GRIDMAJOR
 70
     5
102
VTR_0.000_0.000_1.000_1.000_DEFAULTLIGHTING
280
     0
102
VTR_0.000_0.000_1.000_1.000_DEFAULTLIGHTINGTYPE
 70
     1
102
VTR_0.000_0.000_1.000_1.000_BRIGHTNESS
141
0.0
102
VTR_0.000_0.000_1.000_1.000_CONTRAST
142
0.0
  0
SORTENTSTABLE
  5
386
102
{ACAD_REACTORS
330
385
102
}
330
385
100
AcDbSortentsTable
330
384
  0
SORTENTSTABLE
  5
39B
102
{ACAD_REACTORS
330
39A
102
}
330
39A
100
AcDbSortentsTable
330
399
  0
XRECORD
  5
47A
102
{ACAD_REACTORS
330
479
102
}
330
479
100
AcDbXrecord
280
     1
102
VISUALSTYLE
340
2CE
102
GRIDDISPLAY
 70
     0
102
GRIDMAJOR
 70
     5
102
DEFAULTLIGHTING
280
     1
102
DEFAULTLIGHTINGTYPE
 70
     1
102
BRIGHTNESS
141
0.0
102
CONTRAST
142
0.0
  0
XRECORD
  5
47C
102
{ACAD_REACTORS
330
47B
102
}
330
47B
100
AcDbXrecord
280
     1
102
VISUALSTYLE
340
2CE
102
GRIDDISPLAY
 70
     0
102
GRIDMAJOR
 70
     5
102
DEFAULTLIGHTING
280
     1
102
DEFAULTLIGHTINGTYPE
 70
     1
102
BRIGHTNESS
141
0.0
102
CONTRAST
142
0.0
102
SUNID
360
0
  0
LAYOUT
  5
2DF
102
{ACAD_REACTORS
330
2DE
102
}
330
2DE
100
AcDbPlotSettings
  1

  2
\\s-w03-hon002\FX DocuWide 2050 (本社7F)
  4

  6

 40
0.0
 41
0.0
 42
0.0
 43
0.0
 44
0.0
 45
0.0
 46
0.0
 47
0.0
 48
0.0
 49
0.0
140
0.0
141
0.0
142
1.0
143
1.0
 70
  1712
 72
     0
 73
     0
 74
     0
  7

 75
     0
147
1.0
148
0.0
149
0.0
100
AcDbLayout
  1
Model
 70
     1
 71
     0
 10
0.0
 20
0.0
 11
12.0
 21
9.0
 12
0.0
 22
0.0
 32
0.0
 14
-175.6564605139
 24
69.12019861516
 34
0.0
 15
-13.995332778426
 25
212.7405123067
 35
0.0
146
0.0
 13
0.0
 23
0.0
 33
0.0
 16
1.0
 26
0.0
 36
0.0
 17
0.0
 27
1.0
 37
0.0
 76
     0
330
22
331
2E3
  0
LAYOUT
  5
2E0
102
{ACAD_REACTORS
330
2DE
102
}
330
2DE
100
AcDbPlotSettings
  1

  2
none_device
  4
Letter_(8.50_x_11.00_Inches)
  6

 40
6.35
 41
6.35
 42
6.35001
 43
6.35001
 44
215.9
 45
279.4
 46
0.0
 47
0.0
 48
0.0
 49
0.0
140
0.0
141
0.0
142
1.0
143
37.91875186608
 70
   688
 72
     0
 73
     1
 74
     1
  7

 75
     0
147
0.026372176055
148
5465.45120117124
149
80.645
100
AcDbLayout
  1
レイアウト1
 70
     1
 71
     1
 10
-224.654947035763
 20
-12.65468796652
 11
192.451323491121
 21
309.654702895163
 12
0.0
 22
0.0
 32
0.0
 14
1.000000000000E+20
 24
1.000000000000E+20
 34
1.000000000000E+20
 15
-1.000000000000E+20
 25
-1.000000000000E+20
 35
-1.000000000000E+20
146
0.0
 13
0.0
 23
0.0
 33
0.0
 16
1.0
 26
0.0
 36
0.0
 17
0.0
 27
1.0
 37
0.0
 76
     0
330
23
331
2BD
  0
MATERIAL
  5
2C6
102
{ACAD_REACTORS
330
2C4
102
}
102
{ACAD_XDICTIONARY
360
480
102
}
330
2C4
100
AcDbMaterial
  1
ByBlock
  0
MATERIAL
  5
2C5
102
{ACAD_REACTORS
330
2C4
102
}
102
{ACAD_XDICTIONARY
360
482
102
}
330
2C4
100
AcDbMaterial
  1
ByLayer
  0
MATERIAL
  5
2C7
102
{ACAD_REACTORS
330
2C4
102
}
102
{ACAD_XDICTIONARY
360
484
102
}
330
2C4
100
AcDbMaterial
  1
Global
  0
MLEADERSTYLE
  5
311
102
{ACAD_REACTORS
330
310
102
}
102
{ACAD_XDICTIONARY
360
4BD
102
}
330
310
100
AcDbMLeaderStyle
170
     2
171
     1
172
     0
 90
        2
 40
0.0
 41
0.0
173
     1
 91
-1056964608
340
6
 92
       -2
290
     1
 42
0.09
291
     1
 43
0.36
  3
Standard
341
0
 44
0.18
300

342
16
174
     1
178
     6
175
     1
176
     0
 93
-1056964608
 45
0.18
292
     0
297
     0
 46
0.18
343
0
 94
-1056964608
 47
1.0
 49
1.0
140
1.0
293
     1
141
0.0
294
     1
177
     0
142
1.0
295
     0
296
     0
143
0.125
1001
ACAD_MLEADERVER
1070
     2
  0
MLINESTYLE
  5
2C1
102
{ACAD_REACTORS
330
2C0
102
}
330
2C0
100
AcDbMlineStyle
  2
STANDARD
 70
     0
  3

 62
   256
 51
90.0
 52
90.0
 71
     2
 49
1.5
 62
   256
  6
Continuous
 49
0.5
 62
   256
  6
Continuous
  0
ACDBPLACEHOLDER
  5
2C3
102
{ACAD_REACTORS
330
2C2
102
}
330
2C2
  0
SCALE
  5
2E5
102
{ACAD_REACTORS
330
2E4
102
}
330
2E4
100
AcDbScale
 70
     0
300
1:1
140
1.0
141
1.0
290
     1
  0
SCALE
  5
2E6
102
{ACAD_REACTORS
330
2E4
102
}
330
2E4
100
AcDbScale
 70
     0
300
1:2
140
1.0
141
2.0
290
     0
  0
SCALE
  5
2E7
102
{ACAD_REACTORS
330
2E4
102
}
330
2E4
100
AcDbScale
 70
     0
300
1:4
140
1.0
141
4.0
290
     0
  0
SCALE
  5
2E8
102
{ACAD_REACTORS
330
2E4
102
}
330
2E4
100
AcDbScale
 70
     0
300
1:5
140
1.0
141
5.0
290
     0
  0
SCALE
  5
2E9
102
{ACAD_REACTORS
330
2E4
102
}
330
2E4
100
AcDbScale
 70
     0
300
1:8
140
1.0
141
8.0
290
     0
  0
SCALE
  5
2EA
102
{ACAD_REACTORS
330
2E4
102
}
330
2E4
100
AcDbScale
 70
     0
300
1:10
140
1.0
141
10.0
290
     0
  0
SCALE
  5
2EB
102
{ACAD_REACTORS
330
2E4
102
}
330
2E4
100
AcDbScale
 70
     0
300
1:16
140
1.0
141
16.0
290
     0
  0
SCALE
  5
2EC
102
{ACAD_REACTORS
330
2E4
102
}
330
2E4
100
AcDbScale
 70
     0
300
1:20
140
1.0
141
20.0
290
     0
  0
SCALE
  5
2ED
102
{ACAD_REACTORS
330
2E4
102
}
330
2E4
100
AcDbScale
 70
     0
300
1:30
140
1.0
141
30.0
290
     0
  0
SCALE
  5
2EE
102
{ACAD_REACTORS
330
2E4
102
}
330
2E4
100
AcDbScale
 70
     0
300
1:40
140
1.0
141
40.0
290
     0
  0
SCALE
  5
2EF
102
{ACAD_REACTORS
330
2E4
102
}
330
2E4
100
AcDbScale
 70
     0
300
1:50
140
1.0
141
50.0
290
     0
  0
SCALE
  5
2F0
102
{ACAD_REACTORS
330
2E4
102
}
330
2E4
100
AcDbScale
 70
     0
300
1:100
140
1.0
141
100.0
290
     0
  0
SCALE
  5
2F1
102
{ACAD_REACTORS
330
2E4
102
}
330
2E4
100
AcDbScale
 70
     0
300
2:1
140
2.0
141
1.0
290
     0
  0
SCALE
  5
2F2
102
{ACAD_REACTORS
330
2E4
102
}
330
2E4
100
AcDbScale
 70
     0
300
4:1
140
4.0
141
1.0
290
     0
  0
SCALE
  5
2F3
102
{ACAD_REACTORS
330
2E4
102
}
330
2E4
100
AcDbScale
 70
     0
300
8:1
140
8.0
141
1.0
290
     0
  0
SCALE
  5
2F4
102
{ACAD_REACTORS
330
2E4
102
}
330
2E4
100
AcDbScale
 70
     0
300
10:1
140
10.0
141
1.0
290
     0
  0
SCALE
  5
2F5
102
{ACAD_REACTORS
330
2E4
102
}
330
2E4
100
AcDbScale
 70
     0
300
100:1
140
100.0
141
1.0
290
     0
  0
SCALE
  5
2F6
102
{ACAD_REACTORS
330
2E4
102
}
330
2E4
100
AcDbScale
 70
     0
300
1/128" = 1'-0"
140
0.0078125
141
12.0
290
     0
  0
SCALE
  5
2F7
102
{ACAD_REACTORS
330
2E4
102
}
330
2E4
100
AcDbScale
 70
     0
300
1/64" = 1'-0"
140
0.015625
141
12.0
290
     0
  0
SCALE
  5
2F8
102
{ACAD_REACTORS
330
2E4
102
}
330
2E4
100
AcDbScale
 70
     0
300
1/32" = 1'-0"
140
0.03125
141
12.0
290
     0
  0
SCALE
  5
2F9
102
{ACAD_REACTORS
330
2E4
102
}
330
2E4
100
AcDbScale
 70
     0
300
1/16" = 1'-0"
140
0.0625
141
12.0
290
     0
  0
SCALE
  5
2FA
102
{ACAD_REACTORS
330
2E4
102
}
330
2E4
100
AcDbScale
 70
     0
300
3/32" = 1'-0"
140
0.09375
141
12.0
290
     0
  0
SCALE
  5
2FB
102
{ACAD_REACTORS
330
2E4
102
}
330
2E4
100
AcDbScale
 70
     0
300
1/8" = 1'-0"
140
0.125
141
12.0
290
     0
  0
SCALE
  5
2FC
102
{ACAD_REACTORS
330
2E4
102
}
330
2E4
100
AcDbScale
 70
     0
300
3/16" = 1'-0"
140
0.1875
141
12.0
290
     0
  0
SCALE
  5
2FD
102
{ACAD_REACTORS
330
2E4
102
}
330
2E4
100
AcDbScale
 70
     0
300
1/4" = 1'-0"
140
0.25
141
12.0
290
     0
  0
SCALE
  5
2FE
102
{ACAD_REACTORS
330
2E4
102
}
330
2E4
100
AcDbScale
 70
     0
300
3/8" = 1'-0"
140
0.375
141
12.0
290
     0
  0
SCALE
  5
2FF
102
{ACAD_REACTORS
330
2E4
102
}
330
2E4
100
AcDbScale
 70
     0
300
1/2" = 1'-0"
140
0.5
141
12.0
290
     0
  0
SCALE
  5
300
102
{ACAD_REACTORS
330
2E4
102
}
330
2E4
100
AcDbScale
 70
     0
300
3/4" = 1'-0"
140
0.75
141
12.0
290
     0
  0
SCALE
  5
301
102
{ACAD_REACTORS
330
2E4
102
}
330
2E4
100
AcDbScale
 70
     0
300
1" = 1'-0"
140
1.0
141
12.0
290
     0
  0
SCALE
  5
302
102
{ACAD_REACTORS
330
2E4
102
}
330
2E4
100
AcDbScale
 70
     0
300
1-1/2" = 1'-0"
140
1.5
141
12.0
290
     0
  0
SCALE
  5
303
102
{ACAD_REACTORS
330
2E4
102
}
330
2E4
100
AcDbScale
 70
     0
300
3" = 1'-0"
140
3.0
141
12.0
290
     0
  0
SCALE
  5
304
102
{ACAD_REACTORS
330
2E4
102
}
330
2E4
100
AcDbScale
 70
     0
300
6" = 1'-0"
140
6.0
141
12.0
290
     0
  0
SCALE
  5
305
102
{ACAD_REACTORS
330
2E4
102
}
330
2E4
100
AcDbScale
 70
     0
300
1'-0" = 1'-0"
140
12.0
141
12.0
290
     0
  0
TABLESTYLE
  5
2DB
102
{ACAD_REACTORS
330
2DA
102
}
330
2DA
100
AcDbTableStyle
  3
Standard
 70
     0
 71
     0
 40
0.06
 41
0.06
280
     0
281
     0
  7
STANDARD
140
0.18
170
     2
 62
     0
 63
   257
283
     0
274
    -2
284
     1
 64
     0
275
    -2
285
     1
 65
     0
276
    -2
286
     1
 66
     0
277
    -2
287
     1
 67
     0
278
    -2
288
     1
 68
     0
279
    -2
289
     1
 69
     0
  7
STANDARD
140
0.25
170
     5
 62
     0
 63
   257
283
     0
274
    -2
284
     1
 64
     0
275
    -2
285
     1
 65
     0
276
    -2
286
     1
 66
     0
277
    -2
287
     1
 67
     0
278
    -2
288
     1
 68
     0
279
    -2
289
     1
 69
     0
  7
STANDARD
140
0.18
170
     5
 62
     0
 63
   257
283
     0
274
    -2
284
     1
 64
     0
275
    -2
285
     1
 65
     0
276
    -2
286
     1
 66
     0
277
    -2
287
     1
 67
     0
278
    -2
288
     1
 68
     0
279
    -2
289
     1
 69
     0
  0
VISUALSTYLE
  5
2CE
102
{ACAD_REACTORS
330
2C8
102
}
102
{ACAD_XDICTIONARY
360
486
102
}
330
2C8
100
AcDbVisualStyle
  2
2dWireframe
 70
     4
 71
     0
 72
     2
 73
     0
 90
        0
 40
-0.6
 41
-30.0
 62
     5
 63
     7
 74
     1
 91
        4
 64
     7
 65
   257
 75
     1
175
     1
 42
1.0
 92
        0
 66
   257
 43
1.0
 76
     1
 77
     6
 78
     2
 67
     7
 79
     5
170
     0
171
     0
290
     0
174
     0
 93
        1
 44
0.0
173
     0
291
     0
 45
0.0
1001
ACAD
1000
AcDbSavedByObjectVersion
1070
     0
  0
VISUALSTYLE
  5
2D0
102
{ACAD_REACTORS
330
2C8
102
}
102
{ACAD_XDICTIONARY
360
488
102
}
330
2C8
100
AcDbVisualStyle
  2
3D Hidden
 70
     6
 71
     1
 72
     2
 73
     2
 90
        0
 40
-0.6
 41
-30.0
 62
     5
 63
     7
 74
     2
 91
        2
 64
     7
 65
   257
 75
     2
175
     1
 42
40.0
 92
        0
 66
   257
 43
1.0
 76
     1
 77
     6
 78
     2
 67
     7
 79
     3
170
     0
171
     0
290
     0
174
     0
 93
        1
 44
0.0
173
     0
291
     0
 45
0.0
1001
ACAD
1000
AcDbSavedByObjectVersion
1070
     0
  0
VISUALSTYLE
  5
2CF
102
{ACAD_REACTORS
330
2C8
102
}
102
{ACAD_XDICTIONARY
360
48A
102
}
330
2C8
100
AcDbVisualStyle
  2
3dWireframe
 70
     5
 71
     0
 72
     2
 73
     0
 90
        0
 40
-0.6
 41
-30.0
 62
     5
 63
     7
 74
     1
 91
        4
 64
     7
 65
   257
 75
     1
175
     1
 42
1.0
 92
        0
 66
   257
 43
1.0
 76
     1
 77
     6
 78
     2
 67
     7
 79
     5
170
     0
171
     0
290
     0
174
     0
 93
        1
 44
0.0
173
     0
291
     0
 45
0.0
1001
ACAD
1000
AcDbSavedByObjectVersion
1070
     0
  0
VISUALSTYLE
  5
2CD
102
{ACAD_REACTORS
330
2C8
102
}
102
{ACAD_XDICTIONARY
360
48C
102
}
330
2C8
100
AcDbVisualStyle
  2
Basic
 70
     7
 71
     1
 72
     0
 73
     1
 90
        0
 40
-0.6
 41
-30.0
 62
     5
 63
     7
 74
     0
 91
        4
 64
     7
 65
   257
 75
     1
175
     1
 42
1.0
 92
        8
 66
     7
 43
1.0
 76
     1
 77
     6
 78
     2
 67
     7
 79
     5
170
     0
171
     0
290
     0
174
     0
 93
        1
 44
0.0
173
     0
291
     1
 45
0.0
1001
ACAD
1000
AcDbSavedByObjectVersion
1070
     0
  0
VISUALSTYLE
  5
2D4
102
{ACAD_REACTORS
330
2C8
102
}
102
{ACAD_XDICTIONARY
360
48E
102
}
330
2C8
100
AcDbVisualStyle
  2
Brighten
 70
    12
 71
     2
 72
     2
 73
     0
 90
        0
 40
-0.6
 41
-30.0
 62
     5
 63
     7
 74
     1
 91
        4
 64
     7
 65
   257
 75
     1
175
     1
 42
1.0
 92
        8
 66
     7
 43
1.0
 76
     1
 77
     6
 78
     2
 67
     7
 79
     5
170
     0
171
     0
290
     0
174
     0
 93
        1
 44
50.0
173
     0
291
     1
 45
0.0
1001
ACAD
1000
AcDbSavedByObjectVersion
1070
     0
  0
VISUALSTYLE
  5
2D8
102
{ACAD_REACTORS
330
2C8
102
}
102
{ACAD_XDICTIONARY
360
490
102
}
330
2C8
100
AcDbVisualStyle
  2
ColorChange
 70
    16
 71
     2
 72
     2
 73
     3
 90
        0
 40
-0.6
 41
-30.0
 62
     5
 63
     8
 74
     1
 91
        4
 64
     7
 65
   257
 75
     1
175
     1
 42
1.0
 92
        8
 66
     8
 43
1.0
 76
     1
 77
     6
 78
     2
 67
     7
 79
     5
170
     0
171
     0
290
     0
174
     0
 93
        1
 44
0.0
173
     0
291
     1
 45
0.0
1001
ACAD
1000
AcDbSavedByObjectVersion
1070
     0
  0
VISUALSTYLE
  5
2D1
102
{ACAD_REACTORS
330
2C8
102
}
102
{ACAD_XDICTIONARY
360
492
102
}
330
2C8
100
AcDbVisualStyle
  2
Conceptual
 70
     9
 71
     3
 72
     2
 73
     0
 90
        0
 40
-0.6
 41
-30.0
 62
     5
 63
     7
 74
     2
 91
        2
 64
     7
 65
   257
 75
     1
175
     1
 42
40.0
 92
        8
 66
     7
 43
1.0
 76
     1
 77
     6
 78
     2
 67
     7
 79
     3
170
     0
171
     0
290
     0
174
     0
 93
        1
 44
0.0
173
     0
291
     0
 45
0.0
1001
ACAD
1000
AcDbSavedByObjectVersion
1070
     0
  0
VISUALSTYLE
  5
2D3
102
{ACAD_REACTORS
330
2C8
102
}
102
{ACAD_XDICTIONARY
360
494
102
}
330
2C8
100
AcDbVisualStyle
  2
Dim
 70
    11
 71
     2
 72
     2
 73
     0
 90
        0
 40
-0.6
 41
-30.0
 62
     5
 63
     7
 74
     1
 91
        4
 64
     7
 65
   257
 75
     1
175
     1
 42
1.0
 92
        8
 66
     7
 43
1.0
 76
     1
 77
     6
 78
     2
 67
     7
 79
     5
170
     0
171
     0
290
     0
174
     0
 93
        1
 44
-50.0
173
     0
291
     1
 45
0.0
1001
ACAD
1000
AcDbSavedByObjectVersion
1070
     0
  0
VISUALSTYLE
  5
30A
102
{ACAD_REACTORS
330
2C8
102
}
102
{ACAD_XDICTIONARY
360
4AE
102
}
330
2C8
100
AcDbVisualStyle
  2
EdgeColorOff
 70
    22
 71
     2
 72
     2
 73
     0
 90
        0
 40
0.6
 41
30.0
 62
     5
 63
     7
 74
     1
 91
        4
 64
     7
 65
   257
 75
     1
175
     1
 42
1.0
 92
        8
 66
     7
 43
1.0
 76
     1
 77
     6
 78
     2
 67
     7
 79
     5
170
     0
171
     0
290
     0
174
     0
 93
        1
 44
0.0
173
     0
291
     1
 45
0.0
1001
ACAD
1000
AcDbSavedByObjectVersion
1070
     0
  0
VISUALSTYLE
  5
2D7
102
{ACAD_REACTORS
330
2C8
102
}
102
{ACAD_XDICTIONARY
360
496
102
}
330
2C8
100
AcDbVisualStyle
  2
Facepattern
 70
    15
 71
     2
 72
     2
 73
     0
 90
        0
 40
-0.6
 41
-30.0
 62
     5
 63
     7
 74
     1
 91
        4
 64
     7
 65
   257
 75
     1
175
     1
 42
1.0
 92
        8
 66
     7
 43
1.0
 76
     1
 77
     6
 78
     2
 67
     7
 79
     5
170
     0
171
     0
290
     0
174
     0
 93
        1
 44
0.0
173
     0
291
     1
 45
0.0
1001
ACAD
1000
AcDbSavedByObjectVersion
1070
     0
  0
VISUALSTYLE
  5
2C9
102
{ACAD_REACTORS
330
2C8
102
}
102
{ACAD_XDICTIONARY
360
498
102
}
330
2C8
100
AcDbVisualStyle
  2
Flat
 70
     0
 71
     2
 72
     1
 73
     1
 90
        2
 40
-0.6
 41
30.0
 62
     5
 63
     7
 74
     0
 91
        4
 64
     7
 65
   257
 75
     1
175
     1
 42
1.0
 92
        8
 66
     7
 43
1.0
 76
     1
 77
     6
 78
     2
 67
     7
 79
     5
170
     0
171
     0
290
     0
174
     0
 93
       13
 44
0.0
173
     0
291
     1
 45
0.0
1001
ACAD
1000
AcDbSavedByObjectVersion
1070
     0
  0
VISUALSTYLE
  5
2CA
102
{ACAD_REACTORS
330
2C8
102
}
102
{ACAD_XDICTIONARY
360
49A
102
}
330
2C8
100
AcDbVisualStyle
  2
FlatWithEdges
 70
     1
 71
     2
 72
     1
 73
     1
 90
        2
 40
-0.6
 41
30.0
 62
     5
 63
     7
 74
     1
 91
        4
 64
     7
 65
   257
 75
     1
175
     1
 42
1.0
 92
        0
 66
   257
 43
1.0
 76
     1
 77
     6
 78
     2
 67
     7
 79
     5
170
     0
171
     0
290
     0
174
     0
 93
       13
 44
0.0
173
     0
291
     1
 45
0.0
1001
ACAD
1000
AcDbSavedByObjectVersion
1070
     0
  0
VISUALSTYLE
  5
2CB
102
{ACAD_REACTORS
330
2C8
102
}
102
{ACAD_XDICTIONARY
360
49C
102
}
330
2C8
100
AcDbVisualStyle
  2
Gouraud
 70
     2
 71
     2
 72
     2
 73
     1
 90
        2
 40
-0.6
 41
30.0
 62
     5
 63
     7
 74
     0
 91
        4
 64
     7
 65
   257
 75
     1
175
     1
 42
1.0
 92
        0
 66
     7
 43
1.0
 76
     1
 77
     6
 78
     2
 67
     7
 79
     5
170
     0
171
     0
290
     0
174
     0
 93
       13
 44
0.0
173
     0
291
     1
 45
0.0
1001
ACAD
1000
AcDbSavedByObjectVersion
1070
     0
  0
VISUALSTYLE
  5
2CC
102
{ACAD_REACTORS
330
2C8
102
}
102
{ACAD_XDICTIONARY
360
49E
102
}
330
2C8
100
AcDbVisualStyle
  2
GouraudWithEdges
 70
     3
 71
     2
 72
     2
 73
     1
 90
        2
 40
-0.6
 41
30.0
 62
     5
 63
     7
 74
     1
 91
        4
 64
     7
 65
   257
 75
     1
175
     1
 42
1.0
 92
        0
 66
   257
 43
1.0
 76
     1
 77
     6
 78
     2
 67
     7
 79
     5
170
     0
171
     0
290
     0
174
     0
 93
       13
 44
0.0
173
     0
291
     1
 45
0.0
1001
ACAD
1000
AcDbSavedByObjectVersion
1070
     0
  0
VISUALSTYLE
  5
307
102
{ACAD_REACTORS
330
2C8
102
}
102
{ACAD_XDICTIONARY
360
4A8
102
}
330
2C8
100
AcDbVisualStyle
  2
Hidden
 70
     6
 71
     1
 72
     2
 73
     2
 90
        0
 40
0.6
 41
30.0
 62
     5
 63
     7
 74
     2
 91
        2
 64
     7
 65
   257
 75
     2
175
     1
 42
40.0
 92
        0
 66
   257
 43
1.0
 76
     1
 77
     6
 78
     2
 67
     7
 79
     3
170
     0
171
     0
290
     0
174
     0
 93
        1
 44
0.0
173
     0
291
     0
 45
0.0
1001
ACAD
1000
AcDbSavedByObjectVersion
1070
     0
  0
VISUALSTYLE
  5
308
102
{ACAD_REACTORS
330
2C8
102
}
102
{ACAD_XDICTIONARY
360
4AA
102
}
330
2C8
100
AcDbVisualStyle
  2
JitterOff
 70
    20
 71
     2
 72
     2
 73
     0
 90
        0
 40
0.6
 41
30.0
 62
     5
 63
     7
 74
     1
 91
        4
 64
     7
 65
   257
 75
     1
175
     1
 42
1.0
 92
       10
 66
     7
 43
1.0
 76
     1
 77
     6
 78
     2
 67
     7
 79
     5
170
     0
171
     0
290
     0
174
     0
 93
        1
 44
0.0
173
     0
291
     1
 45
0.0
1001
ACAD
1000
AcDbSavedByObjectVersion
1070
     0
  0
VISUALSTYLE
  5
2D6
102
{ACAD_REACTORS
330
2C8
102
}
102
{ACAD_XDICTIONARY
360
4A0
102
}
330
2C8
100
AcDbVisualStyle
  2
Linepattern
 70
    14
 71
     2
 72
     2
 73
     0
 90
        0
 40
-0.6
 41
-30.0
 62
     5
 63
     7
 74
     1
 91
        4
 64
     7
 65
   257
 75
     7
175
     7
 42
1.0
 92
        8
 66
     7
 43
1.0
 76
     1
 77
     6
 78
     2
 67
     7
 79
     5
170
     0
171
     0
290
     0
174
     0
 93
        1
 44
0.0
173
     0
291
     1
 45
0.0
1001
ACAD
1000
AcDbSavedByObjectVersion
1070
     0
  0
VISUALSTYLE
  5
312
102
{ACAD_REACTORS
330
2C8
102
}
102
{ACAD_XDICTIONARY
360
4BA
102
}
330
2C8
100
AcDbVisualStyle
  2
Modeling
 70
    10
 71
     2
 72
     3
 73
     0
 90
        2
 40
0.6
 41
30.0
 62
     5
 63
     7
 74
     2
 91
        0
 64
     7
 65
   257
 75
     1
175
     1
 42
180.0
 92
        8
 66
     8
 43
1.0
 76
     1
 77
     6
 78
     2
 67
     7
 79
     5
170
     0
171
     0
290
     0
174
     0
 93
       13
 44
0.0
173
     0
291
     0
 45
0.0
1001
ACAD
1000
AcDbSavedByObjectVersion
1070
     0
  0
VISUALSTYLE
  5
309
102
{ACAD_REACTORS
330
2C8
102
}
102
{ACAD_XDICTIONARY
360
4AC
102
}
330
2C8
100
AcDbVisualStyle
  2
OverhangOff
 70
    21
 71
     2
 72
     2
 73
     0
 90
        0
 40
0.6
 41
30.0
 62
     5
 63
     7
 74
     1
 91
        4
 64
     7
 65
   257
 75
     1
175
     1
 42
1.0
 92
        9
 66
     7
 43
1.0
 76
     1
 77
     6
 78
     2
 67
     7
 79
     5
170
     0
171
     0
290
     0
174
     0
 93
        1
 44
0.0
173
     0
291
     1
 45
0.0
1001
ACAD
1000
AcDbSavedByObjectVersion
1070
     0
  0
VISUALSTYLE
  5
2D2
102
{ACAD_REACTORS
330
2C8
102
}
102
{ACAD_XDICTIONARY
360
4A2
102
}
330
2C8
100
AcDbVisualStyle
  2
Realistic
 70
     8
 71
     2
 72
     2
 73
     0
 90
        0
 40
-0.6
 41
-30.0
 62
     5
 63
     7
 74
     1
 91
        0
 64
     7
 65
   257
 75
     1
175
     1
 42
1.0
 92
        8
 66
     8
 43
1.0
 76
     1
 77
     6
 78
     2
 67
     7
 79
     5
170
     0
171
     0
290
     0
174
     0
 93
       13
 44
0.0
173
     0
291
     0
 45
0.0
1001
ACAD
1000
AcDbSavedByObjectVersion
1070
     0
  0
VISUALSTYLE
  5
30F
102
{ACAD_REACTORS
330
2C8
102
}
102
{ACAD_XDICTIONARY
360
4B8
102
}
330
2C8
100
AcDbVisualStyle
  2
Shaded
 70
    27
 71
     2
 72
     2
 73
     1
 90
        2
 40
0.6
 41
30.0
 62
     5
 63
     7
 74
     0
 91
        4
 64
     7
 65
   257
 75
     1
175
     1
 42
1.0
 92
        8
 66
   257
 43
1.0
 76
     1
 77
     6
 78
     2
 67
     8
 79
     3
170
     0
171
     0
290
     0
174
     0
 93
        5
 44
0.0
173
     0
291
     0
 45
0.0
1001
ACAD
1000
AcDbSavedByObjectVersion
1070
     0
  0
VISUALSTYLE
  5
30E
102
{ACAD_REACTORS
330
2C8
102
}
102
{ACAD_XDICTIONARY
360
4B6
102
}
330
2C8
100
AcDbVisualStyle
  2
Shaded with edges
 70
    26
 71
     2
 72
     2
 73
     1
 90
        2
 40
0.6
 41
30.0
 62
     5
 63
     7
 74
     1
 91
       10
 64
     7
 65
   257
 75
     2
175
     1
 42
1.0
 92
        8
 66
   257
 43
1.0
 76
     1
 77
     6
 78
     2
 67
     7
 79
     3
170
     0
171
     0
290
     0
174
     0
 93
        5
 44
0.0
173
     0
291
     0
 45
0.0
1001
ACAD
1000
AcDbSavedByObjectVersion
1070
     0
  0
VISUALSTYLE
  5
30B
102
{ACAD_REACTORS
330
2C8
102
}
102
{ACAD_XDICTIONARY
360
4B0
102
}
330
2C8
100
AcDbVisualStyle
  2
Shades of Gray
 70
    23
 71
     2
 72
     2
 73
     3
 90
        0
 40
0.6
 41
30.0
 62
     5
 63
     7
 74
     2
 91
        2
 64
     7
 65
     7
 75
     1
175
     1
 42
40.0
 92
        8
 66
     7
 43
1.0
 76
     1
 77
     6
 78
     2
 67
     7
 79
     3
170
     0
171
     0
290
     0
174
     0
 93
        1
 44
0.0
173
     0
291
     0
 45
0.0
1001
ACAD
1000
AcDbSavedByObjectVersion
1070
     0
  0
VISUALSTYLE
  5
30C
102
{ACAD_REACTORS
330
2C8
102
}
102
{ACAD_XDICTIONARY
360
4B2
102
}
330
2C8
100
AcDbVisualStyle
  2
Sketchy
 70
    24
 71
     1
 72
     2
 73
     2
 90
        0
 40
0.6
 41
30.0
 62
     5
 63
     7
 74
     2
 91
        2
 64
     7
 65
     7
 75
     1
175
     1
 42
40.0
 92
       11
 66
     7
 43
1.0
 76
     1
 77
     6
 78
     2
 67
     7
 79
     6
170
     0
171
     0
290
     0
174
     0
 93
        1
 44
0.0
173
     0
291
     0
 45
0.0
1001
ACAD
1000
AcDbSavedByObjectVersion
1070
     0
  0
VISUALSTYLE
  5
2D5
102
{ACAD_REACTORS
330
2C8
102
}
102
{ACAD_XDICTIONARY
360
4A4
102
}
330
2C8
100
AcDbVisualStyle
  2
Thicken
 70
    13
 71
     2
 72
     2
 73
     0
 90
        0
 40
-0.6
 41
-30.0
 62
     5
 63
     7
 74
     1
 91
        4
 64
     7
 65
   257
 75
     1
175
     1
 42
1.0
 92
       12
 66
     7
 43
1.0
 76
     1
 77
     6
 78
     2
 67
     7
 79
     5
170
     0
171
     0
290
     0
174
     0
 93
        1
 44
0.0
173
     0
291
     1
 45
0.0
1001
ACAD
1000
AcDbSavedByObjectVersion
1070
     0
  0
VISUALSTYLE
  5
306
102
{ACAD_REACTORS
330
2C8
102
}
102
{ACAD_XDICTIONARY
360
4A6
102
}
330
2C8
100
AcDbVisualStyle
  2
Wireframe
 70
     5
 71
     0
 72
     2
 73
     0
 90
        0
 40
0.6
 41
30.0
 62
     5
 63
     7
 74
     1
 91
        4
 64
     7
 65
   257
 75
     1
175
     1
 42
1.0
 92
        0
 66
   257
 43
1.0
 76
     1
 77
     6
 78
     2
 67
     7
 79
     3
170
     0
171
     0
290
     0
174
     0
 93
        1
 44
0.0
173
     0
291
     0
 45
0.0
1001
ACAD
1000
AcDbSavedByObjectVersion
1070
     0
  0
VISUALSTYLE
  5
30D
102
{ACAD_REACTORS
330
2C8
102
}
102
{ACAD_XDICTIONARY
360
4B4
102
}
330
2C8
100
AcDbVisualStyle
  2
X-Ray
 70
    25
 71
     2
 72
     2
 73
     1
 90
        1
 40
0.5
 41
30.0
 62
     5
 63
     7
 74
     1
 91
        0
 64
     7
 65
   257
 75
     1
175
     1
 42
1.0
 92
        8
 66
     7
 43
1.0
 76
     1
 77
     6
 78
     2
 67
     7
 79
     3
170
     0
171
     0
290
     0
174
     0
 93
       13
 44
0.0
173
     0
291
     0
 45
0.0
1001
ACAD
1000
AcDbSavedByObjectVersion
1070
     0
  0
XRECORD
  5
476
102
{ACAD_REACTORS
330
475
102
}
330
475
100
AcDbXrecord
280
     1
340
2D9
  0
XRECORD
  5
477
102
{ACAD_REACTORS
330
475
102
}
330
475
100
AcDbXrecord
280
     1
340
2C4
  0
DICTIONARYVAR
  5
317
102
{ACAD_REACTORS
330
2E1
102
}
330
2E1
100
DictionaryVariables
280
     0
  1
1:1
  0
DICTIONARYVAR
  5
318
102
{ACAD_REACTORS
330
2E1
102
}
330
2E1
100
DictionaryVariables
280
     0
  1
Standard
  0
DICTIONARYVAR
  5
2E2
102
{ACAD_REACTORS
330
2E1
102
}
330
2E1
100
DictionaryVariables
280
     0
  1
Standard
  0
DICTIONARYVAR
  5
429
102
{ACAD_REACTORS
330
2E1
102
}
330
2E1
100
DictionaryVariables
280
     0
  1
1
  0
DICTIONARYVAR
  5
42A
102
{ACAD_REACTORS
330
2E1
102
}
330
2E1
100
DictionaryVariables
280
     0
  1
0
  0
DICTIONARYVAR
  5
319
102
{ACAD_REACTORS
330
2E1
102
}
330
2E1
100
DictionaryVariables
280
     0
  1
0
  0
DICTIONARYVAR
  5
31A
102
{ACAD_REACTORS
330
2E1
102
}
330
2E1
100
DictionaryVariables
280
     0
  1
0
  0
DICTIONARY
  5
480
330
2C6
100
AcDbDictionary
280
     1
281
     1
  3
ACAD_XREC_ROUNDTRIP
360
481
  0
DICTIONARY
  5
482
330
2C5
100
AcDbDictionary
280
     1
281
     1
  3
ACAD_XREC_ROUNDTRIP
360
483
  0
DICTIONARY
  5
484
330
2C7
100
AcDbDictionary
280
     1
281
     1
  3
ACAD_XREC_ROUNDTRIP
360
485
  0
DICTIONARY
  5
4BD
330
311
100
AcDbDictionary
280
     1
281
     1
  3
ACAD_XREC_ROUNDTRIP
360
4BE
  0
DICTIONARY
  5
486
330
2CE
100
AcDbDictionary
280
     1
281
     1
  3
ACAD_XREC_ROUNDTRIP
360
487
  0
DICTIONARY
  5
488
330
2D0
100
AcDbDictionary
280
     1
281
     1
  3
ACAD_XREC_ROUNDTRIP
360
489
  0
DICTIONARY
  5
48A
330
2CF
100
AcDbDictionary
280
     1
281
     1
  3
ACAD_XREC_ROUNDTRIP
360
48B
  0
DICTIONARY
  5
48C
330
2CD
100
AcDbDictionary
280
     1
281
     1
  3
ACAD_XREC_ROUNDTRIP
360
48D
  0
DICTIONARY
  5
48E
330
2D4
100
AcDbDictionary
280
     1
281
     1
  3
ACAD_XREC_ROUNDTRIP
360
48F
  0
DICTIONARY
  5
490
330
2D8
100
AcDbDictionary
280
     1
281
     1
  3
ACAD_XREC_ROUNDTRIP
360
491
  0
DICTIONARY
  5
492
330
2D1
100
AcDbDictionary
280
     1
281
     1
  3
ACAD_XREC_ROUNDTRIP
360
493
  0
DICTIONARY
  5
494
330
2D3
100
AcDbDictionary
280
     1
281
     1
  3
ACAD_XREC_ROUNDTRIP
360
495
  0
DICTIONARY
  5
4AE
330
30A
100
AcDbDictionary
280
     1
281
     1
  3
ACAD_XREC_ROUNDTRIP
360
4AF
  0
DICTIONARY
  5
496
330
2D7
100
AcDbDictionary
280
     1
281
     1
  3
ACAD_XREC_ROUNDTRIP
360
497
  0
DICTIONARY
  5
498
330
2C9
100
AcDbDictionary
280
     1
281
     1
  3
ACAD_XREC_ROUNDTRIP
360
499
  0
DICTIONARY
  5
49A
330
2CA
100
AcDbDictionary
280
     1
281
     1
  3
ACAD_XREC_ROUNDTRIP
360
49B
  0
DICTIONARY
  5
49C
330
2CB
100
AcDbDictionary
280
     1
281
     1
  3
ACAD_XREC_ROUNDTRIP
360
49D
  0
DICTIONARY
  5
49E
330
2CC
100
AcDbDictionary
280
     1
281
     1
  3
ACAD_XREC_ROUNDTRIP
360
49F
  0
DICTIONARY
  5
4A8
330
307
100
AcDbDictionary
280
     1
281
     1
  3
ACAD_XREC_ROUNDTRIP
360
4A9
  0
DICTIONARY
  5
4AA
330
308
100
AcDbDictionary
280
     1
281
     1
  3
ACAD_XREC_ROUNDTRIP
360
4AB
  0
DICTIONARY
  5
4A0
330
2D6
100
AcDbDictionary
280
     1
281
     1
  3
ACAD_XREC_ROUNDTRIP
360
4A1
  0
DICTIONARY
  5
4BA
330
312
100
AcDbDictionary
280
     1
281
     1
  3
ACAD_XREC_ROUNDTRIP
360
4BB
  0
DICTIONARY
  5
4AC
330
309
100
AcDbDictionary
280
     1
281
     1
  3
ACAD_XREC_ROUNDTRIP
360
4AD
  0
DICTIONARY
  5
4A2
330
2D2
100
AcDbDictionary
280
     1
281
     1
  3
ACAD_XREC_ROUNDTRIP
360
4A3
  0
DICTIONARY
  5
4B8
330
30F
100
AcDbDictionary
280
     1
281
     1
  3
ACAD_XREC_ROUNDTRIP
360
4B9
  0
DICTIONARY
  5
4B6
330
30E
100
AcDbDictionary
280
     1
281
     1
  3
ACAD_XREC_ROUNDTRIP
360
4B7
  0
DICTIONARY
  5
4B0
330
30B
100
AcDbDictionary
280
     1
281
     1
  3
ACAD_XREC_ROUNDTRIP
360
4B1
  0
DICTIONARY
  5
4B2
330
30C
100
AcDbDictionary
280
     1
281
     1
  3
ACAD_XREC_ROUNDTRIP
360
4B3
  0
DICTIONARY
  5
4A4
330
2D5
100
AcDbDictionary
280
     1
281
     1
  3
ACAD_XREC_ROUNDTRIP
360
4A5
  0
DICTIONARY
  5
4A6
330
306
100
AcDbDictionary
280
     1
281
     1
  3
ACAD_XREC_ROUNDTRIP
360
4A7
  0
DICTIONARY
  5
4B4
330
30D
100
AcDbDictionary
280
     1
281
     1
  3
ACAD_XREC_ROUNDTRIP
360
4B5
  0
XRECORD
  5
481
102
{ACAD_REACTORS
330
480
102
}
330
480
100
AcDbXrecord
280
     1
102
MATERIAL
148
0.0
149
0.0
149
0.0
 93
        0
 94
       63
282
     0
 72
     1
 77
     1
171
     1
175
     1
179
     1
273
     0
  0
XRECORD
  5
483
102
{ACAD_REACTORS
330
482
102
}
330
482
100
AcDbXrecord
280
     1
102
MATERIAL
148
0.0
149
0.0
149
0.0
 93
        0
 94
       63
282
     0
 72
     1
 77
     1
171
     1
175
     1
179
     1
273
     0
  0
XRECORD
  5
485
102
{ACAD_REACTORS
330
484
102
}
330
484
100
AcDbXrecord
280
     1
102
MATERIAL
148
0.0
149
0.0
149
0.0
 93
        0
 94
       63
282
     0
 72
     1
 77
     1
171
     1
175
     1
179
     1
273
     0
  0
XRECORD
  5
4BE
102
{ACAD_REACTORS
330
4BD
102
}
330
4BD
100
AcDbXrecord
280
     1
102
ACAD_ROUNDTRIP_2010_MLEADER_STYLE
  0
XRECORD
  5
487
102
{ACAD_REACTORS
330
486
102
}
330
486
100
AcDbXrecord
280
     1
102
RTVSPropertyOp0
 70
     1
102
RTVSPropertyOp1
 70
     1
102
RTVSPropertyOp2
 70
     1
102
RTVSPropertyOp3
 70
     1
102
RTVSPropertyOp4
 70
     1
102
RTVSPropertyOp5
 70
     1
102
RTVSPropertyOp6
 70
     1
102
RTVSPropertyOp7
 70
     1
102
RTVSPropertyOp8
 70
     1
102
RTVSPropertyOp9
 70
     1
102
RTVSPropertyOp10
 70
     1
102
RTVSPropertyOp11
 70
     1
102
RTVSPropertyOp12
 70
     1
102
RTVSPropertyOp13
 70
     1
102
RTVSPropertyOp14
 70
     1
102
RTVSPropertyOp15
 70
     1
102
RTVSPropertyOp16
 70
     1
102
RTVSPropertyOp17
 70
     1
102
RTVSPropertyOp18
 70
     1
102
RTVSPropertyOp19
 70
     1
102
RTVSPropertyOp20
 70
     1
102
RTVSPropertyOp21
 70
     1
102
RTVSPropertyOp22
 70
     1
102
RTVSPropertyOp23
 70
     1
102
RTVSPropertyOp24
 70
     1
102
RTVSPropertyOp25
 70
     1
102
RTVSPropertyOp26
 70
     1
102
RTVSPropertyOp27
 70
     1
102
RTVSPropertyOp28
 70
     1
102
RTVSPropertyOp29
 70
     1
102
RTVSPropertyOp30
 70
     1
102
RTVSPropertyOp31
 70
     1
102
RTVSPropertyOp32
 70
     1
102
RTVSPropertyOp33
 70
     1
102
RTVSPropertyOp34
 70
     1
102
RTVSPropertyOp35
 70
     1
102
RTVSPropertyOp36
 70
     1
102
RTVSPropertyOp37
 70
     1
102
RTVSPropertyOp38
 70
     1
102
RTVSPropertyOp39
 70
     1
102
RTVSPropertyOp40
 70
     1
102
RTVSPropertyOp41
 70
     1
102
RTVSPropertyOp42
 70
     1
102
RTVSPropertyOp43
 70
     1
102
RTVSPropertyOp44
 70
     1
102
RTVSPropertyOp45
 70
     1
102
RTVSPropertyOp46
 70
     1
102
RTVSPropertyOp47
 70
     1
102
RTVSPropertyOp48
 70
     1
102
RTVSPropertyOp49
 70
     1
102
RTVSPropertyOp50
 70
     1
102
RTVSPropertyOp51
 70
     0
102
RTVSPropertyOp52
 70
     0
102
RTVSPropertyOp53
 70
     1
102
RTVSPropertyOp54
 70
     1
102
RTVSPropertyOp55
 70
     1
102
RTVSPropertyOp56
 70
     1
102
RTVSPropertyOp57
 70
     1
102
RTVSPost2010Prop28
280
     1
102
RTVSPost2010PropOp28
 70
     1
102
RTVSPost2010Prop29
280
     1
102
RTVSPost2010PropOp29
 70
     1
102
RTVSPost2010Prop30
280
     0
102
RTVSPost2010PropOp30
 70
     1
102
RTVSPost2010Prop31
280
     0
102
RTVSPost2010PropOp31
 70
     1
102
RTVSPost2010Prop32
280
     0
102
RTVSPost2010PropOp32
 70
     1
102
RTVSPost2010Prop33
280
     0
102
RTVSPost2010PropOp33
 70
     1
102
RTVSPost2010Prop34
280
     0
102
RTVSPost2010PropOp34
 70
     1
102
RTVSPost2010Prop35
280
     0
102
RTVSPost2010PropOp35
 70
     1
102
RTVSPost2010Prop36
280
     0
102
RTVSPost2010PropOp36
 70
     1
102
RTVSPost2010Prop37
 90
       50
102
RTVSPost2010PropOp37
 70
     1
102
RTVSPost2010Prop38
140
0.0
102
RTVSPost2010PropOp38
 70
     1
102
RTVSPost2010Prop39
140
1.0
102
RTVSPost2010PropOp39
 70
     1
102
RTVSPost2010Prop40
 90
        0
102
RTVSPost2010PropOp40
 70
     1
102
RTVSPost2010Prop41ColorIndex
 90
       18
102
RTVSPost2010Prop41ColorRGB
 90
        0
102
RTVSPost2010PropOp41
 70
     1
102
RTVSPost2010Prop42
 90
       50
102
RTVSPost2010PropOp42
 70
     1
102
RTVSPost2010Prop43
 90
        3
102
RTVSPost2010PropOp43
 70
     1
102
RTVSPost2010Prop44ColorIndex
 90
        5
102
RTVSPost2010Prop44ColorRGB
 90
      255
102
RTVSPost2010PropOp44
 70
     1
102
RTVSPost2010Prop45
280
     0
102
RTVSPost2010PropOp45
 70
     1
102
RTVSPost2010Prop46
 90
       50
102
RTVSPost2010PropOp46
 70
     1
102
RTVSPost2010Prop47
 90
       50
102
RTVSPost2010PropOp47
 70
     1
102
RTVSPost2010Prop48
 90
       50
102
RTVSPost2010PropOp48
 70
     1
102
RTVSPost2010Prop49
280
     0
102
RTVSPost2010PropOp49
 70
     1
102
RTVSPost2010Prop50
 90
       50
102
RTVSPost2010PropOp50
 70
     1
102
RTVSPost2010Prop51ColorIndex
 90
      256
102
RTVSPost2010Prop51ColorRGB
 90
-16777216
102
RTVSPost2010PropOp51
 70
     0
102
RTVSPost2010Prop52
140
1.0
102
RTVSPost2010PropOp52
 70
     0
102
RTVSPost2010Prop53
 90
        2
102
RTVSPost2010PropOp53
 70
     1
102
RTVSPost2010Prop54
  1
strokes_ogs.tif
102
RTVSPost2010PropOp54
 70
     1
102
RTVSPost2010Prop55
280
     0
102
RTVSPost2010PropOp55
 70
     1
102
RTVSPost2010Prop56
140
1.0
102
RTVSPost2010PropOp56
 70
     1
102
RTVSPost2010Prop57
140
1.0
102
RTVSPost2010PropOp57
 70
     1
  0
XRECORD
  5
489
102
{ACAD_REACTORS
330
488
102
}
330
488
100
AcDbXrecord
280
     1
102
RTVSPropertyOp0
 70
     1
102
RTVSPropertyOp1
 70
     1
102
RTVSPropertyOp2
 70
     1
102
RTVSPropertyOp3
 70
     1
102
RTVSPropertyOp4
 70
     1
102
RTVSPropertyOp5
 70
     1
102
RTVSPropertyOp6
 70
     1
102
RTVSPropertyOp7
 70
     1
102
RTVSPropertyOp8
 70
     1
102
RTVSPropertyOp9
 70
     1
102
RTVSPropertyOp10
 70
     1
102
RTVSPropertyOp11
 70
     1
102
RTVSPropertyOp12
 70
     1
102
RTVSPropertyOp13
 70
     1
102
RTVSPropertyOp14
 70
     1
102
RTVSPropertyOp15
 70
     1
102
RTVSPropertyOp16
 70
     1
102
RTVSPropertyOp17
 70
     1
102
RTVSPropertyOp18
 70
     1
102
RTVSPropertyOp19
 70
     1
102
RTVSPropertyOp20
 70
     1
102
RTVSPropertyOp21
 70
     1
102
RTVSPropertyOp22
 70
     1
102
RTVSPropertyOp23
 70
     1
102
RTVSPropertyOp24
 70
     1
102
RTVSPropertyOp25
 70
     1
102
RTVSPropertyOp26
 70
     1
102
RTVSPropertyOp27
 70
     1
102
RTVSPropertyOp28
 70
     1
102
RTVSPropertyOp29
 70
     1
102
RTVSPropertyOp30
 70
     1
102
RTVSPropertyOp31
 70
     1
102
RTVSPropertyOp32
 70
     1
102
RTVSPropertyOp33
 70
     1
102
RTVSPropertyOp34
 70
     1
102
RTVSPropertyOp35
 70
     1
102
RTVSPropertyOp36
 70
     1
102
RTVSPropertyOp37
 70
     1
102
RTVSPropertyOp38
 70
     1
102
RTVSPropertyOp39
 70
     1
102
RTVSPropertyOp40
 70
     1
102
RTVSPropertyOp41
 70
     1
102
RTVSPropertyOp42
 70
     1
102
RTVSPropertyOp43
 70
     1
102
RTVSPropertyOp44
 70
     1
102
RTVSPropertyOp45
 70
     1
102
RTVSPropertyOp46
 70
     1
102
RTVSPropertyOp47
 70
     1
102
RTVSPropertyOp48
 70
     1
102
RTVSPropertyOp49
 70
     1
102
RTVSPropertyOp50
 70
     1
102
RTVSPropertyOp51
 70
     0
102
RTVSPropertyOp52
 70
     0
102
RTVSPropertyOp53
 70
     1
102
RTVSPropertyOp54
 70
     1
102
RTVSPropertyOp55
 70
     1
102
RTVSPropertyOp56
 70
     1
102
RTVSPropertyOp57
 70
     1
102
RTVSPost2010Prop28
280
     0
102
RTVSPost2010PropOp28
 70
     1
102
RTVSPost2010Prop29
280
     1
102
RTVSPost2010PropOp29
 70
     1
102
RTVSPost2010Prop30
280
     1
102
RTVSPost2010PropOp30
 70
     1
102
RTVSPost2010Prop31
280
     0
102
RTVSPost2010PropOp31
 70
     1
102
RTVSPost2010Prop32
280
     0
102
RTVSPost2010PropOp32
 70
     1
102
RTVSPost2010Prop33
280
     0
102
RTVSPost2010PropOp33
 70
     1
102
RTVSPost2010Prop34
280
     0
102
RTVSPost2010PropOp34
 70
     1
102
RTVSPost2010Prop35
280
     0
102
RTVSPost2010PropOp35
 70
     1
102
RTVSPost2010Prop36
280
     0
102
RTVSPost2010PropOp36
 70
     1
102
RTVSPost2010Prop37
 90
       50
102
RTVSPost2010PropOp37
 70
     1
102
RTVSPost2010Prop38
140
0.0
102
RTVSPost2010PropOp38
 70
     1
102
RTVSPost2010Prop39
140
1.0
102
RTVSPost2010PropOp39
 70
     1
102
RTVSPost2010Prop40
 90
        0
102
RTVSPost2010PropOp40
 70
     1
102
RTVSPost2010Prop41ColorIndex
 90
       18
102
RTVSPost2010Prop41ColorRGB
 90
        0
102
RTVSPost2010PropOp41
 70
     1
102
RTVSPost2010Prop42
 90
       50
102
RTVSPost2010PropOp42
 70
     1
102
RTVSPost2010Prop43
 90
        3
102
RTVSPost2010PropOp43
 70
     1
102
RTVSPost2010Prop44ColorIndex
 90
        5
102
RTVSPost2010Prop44ColorRGB
 90
      255
102
RTVSPost2010PropOp44
 70
     1
102
RTVSPost2010Prop45
280
     0
102
RTVSPost2010PropOp45
 70
     1
102
RTVSPost2010Prop46
 90
       50
102
RTVSPost2010PropOp46
 70
     1
102
RTVSPost2010Prop47
 90
       50
102
RTVSPost2010PropOp47
 70
     1
102
RTVSPost2010Prop48
 90
       50
102
RTVSPost2010PropOp48
 70
     1
102
RTVSPost2010Prop49
280
     0
102
RTVSPost2010PropOp49
 70
     1
102
RTVSPost2010Prop50
 90
       50
102
RTVSPost2010PropOp50
 70
     1
102
RTVSPost2010Prop51ColorIndex
 90
      256
102
RTVSPost2010Prop51ColorRGB
 90
-16777216
102
RTVSPost2010PropOp51
 70
     0
102
RTVSPost2010Prop52
140
1.0
102
RTVSPost2010PropOp52
 70
     0
102
RTVSPost2010Prop53
 90
        2
102
RTVSPost2010PropOp53
 70
     1
102
RTVSPost2010Prop54
  1
strokes_ogs.tif
102
RTVSPost2010PropOp54
 70
     1
102
RTVSPost2010Prop55
280
     0
102
RTVSPost2010PropOp55
 70
     1
102
RTVSPost2010Prop56
140
1.0
102
RTVSPost2010PropOp56
 70
     1
102
RTVSPost2010Prop57
140
1.0
102
RTVSPost2010PropOp57
 70
     1
  0
XRECORD
  5
48B
102
{ACAD_REACTORS
330
48A
102
}
330
48A
100
AcDbXrecord
280
     1
102
RTVSPropertyOp0
 70
     1
102
RTVSPropertyOp1
 70
     1
102
RTVSPropertyOp2
 70
     1
102
RTVSPropertyOp3
 70
     1
102
RTVSPropertyOp4
 70
     1
102
RTVSPropertyOp5
 70
     1
102
RTVSPropertyOp6
 70
     1
102
RTVSPropertyOp7
 70
     1
102
RTVSPropertyOp8
 70
     1
102
RTVSPropertyOp9
 70
     1
102
RTVSPropertyOp10
 70
     1
102
RTVSPropertyOp11
 70
     1
102
RTVSPropertyOp12
 70
     1
102
RTVSPropertyOp13
 70
     1
102
RTVSPropertyOp14
 70
     1
102
RTVSPropertyOp15
 70
     1
102
RTVSPropertyOp16
 70
     1
102
RTVSPropertyOp17
 70
     1
102
RTVSPropertyOp18
 70
     1
102
RTVSPropertyOp19
 70
     1
102
RTVSPropertyOp20
 70
     1
102
RTVSPropertyOp21
 70
     1
102
RTVSPropertyOp22
 70
     1
102
RTVSPropertyOp23
 70
     1
102
RTVSPropertyOp24
 70
     1
102
RTVSPropertyOp25
 70
     1
102
RTVSPropertyOp26
 70
     1
102
RTVSPropertyOp27
 70
     1
102
RTVSPropertyOp28
 70
     1
102
RTVSPropertyOp29
 70
     1
102
RTVSPropertyOp30
 70
     1
102
RTVSPropertyOp31
 70
     1
102
RTVSPropertyOp32
 70
     1
102
RTVSPropertyOp33
 70
     1
102
RTVSPropertyOp34
 70
     1
102
RTVSPropertyOp35
 70
     1
102
RTVSPropertyOp36
 70
     1
102
RTVSPropertyOp37
 70
     1
102
RTVSPropertyOp38
 70
     1
102
RTVSPropertyOp39
 70
     1
102
RTVSPropertyOp40
 70
     1
102
RTVSPropertyOp41
 70
     1
102
RTVSPropertyOp42
 70
     1
102
RTVSPropertyOp43
 70
     1
102
RTVSPropertyOp44
 70
     1
102
RTVSPropertyOp45
 70
     1
102
RTVSPropertyOp46
 70
     1
102
RTVSPropertyOp47
 70
     1
102
RTVSPropertyOp48
 70
     1
102
RTVSPropertyOp49
 70
     1
102
RTVSPropertyOp50
 70
     1
102
RTVSPropertyOp51
 70
     0
102
RTVSPropertyOp52
 70
     0
102
RTVSPropertyOp53
 70
     1
102
RTVSPropertyOp54
 70
     1
102
RTVSPropertyOp55
 70
     1
102
RTVSPropertyOp56
 70
     1
102
RTVSPropertyOp57
 70
     1
102
RTVSPost2010Prop28
280
     0
102
RTVSPost2010PropOp28
 70
     1
102
RTVSPost2010Prop29
280
     1
102
RTVSPost2010PropOp29
 70
     1
102
RTVSPost2010Prop30
280
     1
102
RTVSPost2010PropOp30
 70
     1
102
RTVSPost2010Prop31
280
     0
102
RTVSPost2010PropOp31
 70
     1
102
RTVSPost2010Prop32
280
     0
102
RTVSPost2010PropOp32
 70
     1
102
RTVSPost2010Prop33
280
     0
102
RTVSPost2010PropOp33
 70
     1
102
RTVSPost2010Prop34
280
     0
102
RTVSPost2010PropOp34
 70
     1
102
RTVSPost2010Prop35
280
     0
102
RTVSPost2010PropOp35
 70
     1
102
RTVSPost2010Prop36
280
     0
102
RTVSPost2010PropOp36
 70
     1
102
RTVSPost2010Prop37
 90
       50
102
RTVSPost2010PropOp37
 70
     1
102
RTVSPost2010Prop38
140
0.0
102
RTVSPost2010PropOp38
 70
     1
102
RTVSPost2010Prop39
140
1.0
102
RTVSPost2010PropOp39
 70
     1
102
RTVSPost2010Prop40
 90
        0
102
RTVSPost2010PropOp40
 70
     1
102
RTVSPost2010Prop41ColorIndex
 90
       18
102
RTVSPost2010Prop41ColorRGB
 90
        0
102
RTVSPost2010PropOp41
 70
     1
102
RTVSPost2010Prop42
 90
       50
102
RTVSPost2010PropOp42
 70
     1
102
RTVSPost2010Prop43
 90
        3
102
RTVSPost2010PropOp43
 70
     1
102
RTVSPost2010Prop44ColorIndex
 90
        5
102
RTVSPost2010Prop44ColorRGB
 90
      255
102
RTVSPost2010PropOp44
 70
     1
102
RTVSPost2010Prop45
280
     0
102
RTVSPost2010PropOp45
 70
     1
102
RTVSPost2010Prop46
 90
       50
102
RTVSPost2010PropOp46
 70
     1
102
RTVSPost2010Prop47
 90
       50
102
RTVSPost2010PropOp47
 70
     1
102
RTVSPost2010Prop48
 90
       50
102
RTVSPost2010PropOp48
 70
     1
102
RTVSPost2010Prop49
280
     0
102
RTVSPost2010PropOp49
 70
     1
102
RTVSPost2010Prop50
 90
       50
102
RTVSPost2010PropOp50
 70
     1
102
RTVSPost2010Prop51ColorIndex
 90
      256
102
RTVSPost2010Prop51ColorRGB
 90
-16777216
102
RTVSPost2010PropOp51
 70
     0
102
RTVSPost2010Prop52
140
1.0
102
RTVSPost2010PropOp52
 70
     0
102
RTVSPost2010Prop53
 90
        2
102
RTVSPost2010PropOp53
 70
     1
102
RTVSPost2010Prop54
  1
strokes_ogs.tif
102
RTVSPost2010PropOp54
 70
     1
102
RTVSPost2010Prop55
280
     0
102
RTVSPost2010PropOp55
 70
     1
102
RTVSPost2010Prop56
140
1.0
102
RTVSPost2010PropOp56
 70
     1
102
RTVSPost2010Prop57
140
1.0
102
RTVSPost2010PropOp57
 70
     1
  0
XRECORD
  5
48D
102
{ACAD_REACTORS
330
48C
102
}
330
48C
100
AcDbXrecord
280
     1
102
RTVSPropertyOp0
 70
     1
102
RTVSPropertyOp1
 70
     1
102
RTVSPropertyOp2
 70
     1
102
RTVSPropertyOp3
 70
     1
102
RTVSPropertyOp4
 70
     1
102
RTVSPropertyOp5
 70
     1
102
RTVSPropertyOp6
 70
     1
102
RTVSPropertyOp7
 70
     1
102
RTVSPropertyOp8
 70
     1
102
RTVSPropertyOp9
 70
     1
102
RTVSPropertyOp10
 70
     1
102
RTVSPropertyOp11
 70
     1
102
RTVSPropertyOp12
 70
     1
102
RTVSPropertyOp13
 70
     1
102
RTVSPropertyOp14
 70
     1
102
RTVSPropertyOp15
 70
     1
102
RTVSPropertyOp16
 70
     1
102
RTVSPropertyOp17
 70
     1
102
RTVSPropertyOp18
 70
     1
102
RTVSPropertyOp19
 70
     1
102
RTVSPropertyOp20
 70
     1
102
RTVSPropertyOp21
 70
     1
102
RTVSPropertyOp22
 70
     1
102
RTVSPropertyOp23
 70
     1
102
RTVSPropertyOp24
 70
     1
102
RTVSPropertyOp25
 70
     1
102
RTVSPropertyOp26
 70
     1
102
RTVSPropertyOp27
 70
     1
102
RTVSPropertyOp28
 70
     1
102
RTVSPropertyOp29
 70
     1
102
RTVSPropertyOp30
 70
     1
102
RTVSPropertyOp31
 70
     1
102
RTVSPropertyOp32
 70
     1
102
RTVSPropertyOp33
 70
     1
102
RTVSPropertyOp34
 70
     1
102
RTVSPropertyOp35
 70
     1
102
RTVSPropertyOp36
 70
     1
102
RTVSPropertyOp37
 70
     1
102
RTVSPropertyOp38
 70
     1
102
RTVSPropertyOp39
 70
     1
102
RTVSPropertyOp40
 70
     1
102
RTVSPropertyOp41
 70
     1
102
RTVSPropertyOp42
 70
     1
102
RTVSPropertyOp43
 70
     1
102
RTVSPropertyOp44
 70
     1
102
RTVSPropertyOp45
 70
     1
102
RTVSPropertyOp46
 70
     1
102
RTVSPropertyOp47
 70
     1
102
RTVSPropertyOp48
 70
     1
102
RTVSPropertyOp49
 70
     1
102
RTVSPropertyOp50
 70
     1
102
RTVSPropertyOp51
 70
     0
102
RTVSPropertyOp52
 70
     0
102
RTVSPropertyOp53
 70
     1
102
RTVSPropertyOp54
 70
     1
102
RTVSPropertyOp55
 70
     1
102
RTVSPropertyOp56
 70
     1
102
RTVSPropertyOp57
 70
     1
102
RTVSPost2010Prop28
280
     0
102
RTVSPost2010PropOp28
 70
     1
102
RTVSPost2010Prop29
280
     1
102
RTVSPost2010PropOp29
 70
     1
102
RTVSPost2010Prop30
280
     1
102
RTVSPost2010PropOp30
 70
     1
102
RTVSPost2010Prop31
280
     0
102
RTVSPost2010PropOp31
 70
     1
102
RTVSPost2010Prop32
280
     0
102
RTVSPost2010PropOp32
 70
     1
102
RTVSPost2010Prop33
280
     0
102
RTVSPost2010PropOp33
 70
     1
102
RTVSPost2010Prop34
280
     0
102
RTVSPost2010PropOp34
 70
     1
102
RTVSPost2010Prop35
280
     0
102
RTVSPost2010PropOp35
 70
     1
102
RTVSPost2010Prop36
280
     0
102
RTVSPost2010PropOp36
 70
     1
102
RTVSPost2010Prop37
 90
       50
102
RTVSPost2010PropOp37
 70
     1
102
RTVSPost2010Prop38
140
0.0
102
RTVSPost2010PropOp38
 70
     1
102
RTVSPost2010Prop39
140
1.0
102
RTVSPost2010PropOp39
 70
     1
102
RTVSPost2010Prop40
 90
        0
102
RTVSPost2010PropOp40
 70
     1
102
RTVSPost2010Prop41ColorIndex
 90
       18
102
RTVSPost2010Prop41ColorRGB
 90
        0
102
RTVSPost2010PropOp41
 70
     1
102
RTVSPost2010Prop42
 90
       50
102
RTVSPost2010PropOp42
 70
     1
102
RTVSPost2010Prop43
 90
        3
102
RTVSPost2010PropOp43
 70
     1
102
RTVSPost2010Prop44ColorIndex
 90
        5
102
RTVSPost2010Prop44ColorRGB
 90
      255
102
RTVSPost2010PropOp44
 70
     1
102
RTVSPost2010Prop45
280
     0
102
RTVSPost2010PropOp45
 70
     1
102
RTVSPost2010Prop46
 90
       50
102
RTVSPost2010PropOp46
 70
     1
102
RTVSPost2010Prop47
 90
       50
102
RTVSPost2010PropOp47
 70
     1
102
RTVSPost2010Prop48
 90
       50
102
RTVSPost2010PropOp48
 70
     1
102
RTVSPost2010Prop49
280
     0
102
RTVSPost2010PropOp49
 70
     1
102
RTVSPost2010Prop50
 90
       50
102
RTVSPost2010PropOp50
 70
     1
102
RTVSPost2010Prop51ColorIndex
 90
      256
102
RTVSPost2010Prop51ColorRGB
 90
-16777216
102
RTVSPost2010PropOp51
 70
     0
102
RTVSPost2010Prop52
140
1.0
102
RTVSPost2010PropOp52
 70
     0
102
RTVSPost2010Prop53
 90
        2
102
RTVSPost2010PropOp53
 70
     1
102
RTVSPost2010Prop54
  1
strokes_ogs.tif
102
RTVSPost2010PropOp54
 70
     1
102
RTVSPost2010Prop55
280
     0
102
RTVSPost2010PropOp55
 70
     1
102
RTVSPost2010Prop56
140
1.0
102
RTVSPost2010PropOp56
 70
     1
102
RTVSPost2010Prop57
140
1.0
102
RTVSPost2010PropOp57
 70
     1
  0
XRECORD
  5
48F
102
{ACAD_REACTORS
330
48E
102
}
330
48E
100
AcDbXrecord
280
     1
102
RTVSPropertyOp0
 70
     1
102
RTVSPropertyOp1
 70
     1
102
RTVSPropertyOp2
 70
     1
102
RTVSPropertyOp3
 70
     1
102
RTVSPropertyOp4
 70
     1
102
RTVSPropertyOp5
 70
     1
102
RTVSPropertyOp6
 70
     1
102
RTVSPropertyOp7
 70
     1
102
RTVSPropertyOp8
 70
     1
102
RTVSPropertyOp9
 70
     1
102
RTVSPropertyOp10
 70
     1
102
RTVSPropertyOp11
 70
     1
102
RTVSPropertyOp12
 70
     1
102
RTVSPropertyOp13
 70
     1
102
RTVSPropertyOp14
 70
     1
102
RTVSPropertyOp15
 70
     1
102
RTVSPropertyOp16
 70
     1
102
RTVSPropertyOp17
 70
     1
102
RTVSPropertyOp18
 70
     1
102
RTVSPropertyOp19
 70
     1
102
RTVSPropertyOp20
 70
     1
102
RTVSPropertyOp21
 70
     1
102
RTVSPropertyOp22
 70
     1
102
RTVSPropertyOp23
 70
     1
102
RTVSPropertyOp24
 70
     1
102
RTVSPropertyOp25
 70
     1
102
RTVSPropertyOp26
 70
     1
102
RTVSPropertyOp27
 70
     1
102
RTVSPropertyOp28
 70
     1
102
RTVSPropertyOp29
 70
     1
102
RTVSPropertyOp30
 70
     1
102
RTVSPropertyOp31
 70
     1
102
RTVSPropertyOp32
 70
     1
102
RTVSPropertyOp33
 70
     1
102
RTVSPropertyOp34
 70
     1
102
RTVSPropertyOp35
 70
     1
102
RTVSPropertyOp36
 70
     1
102
RTVSPropertyOp37
 70
     1
102
RTVSPropertyOp38
 70
     1
102
RTVSPropertyOp39
 70
     1
102
RTVSPropertyOp40
 70
     1
102
RTVSPropertyOp41
 70
     1
102
RTVSPropertyOp42
 70
     1
102
RTVSPropertyOp43
 70
     1
102
RTVSPropertyOp44
 70
     1
102
RTVSPropertyOp45
 70
     1
102
RTVSPropertyOp46
 70
     1
102
RTVSPropertyOp47
 70
     1
102
RTVSPropertyOp48
 70
     1
102
RTVSPropertyOp49
 70
     1
102
RTVSPropertyOp50
 70
     1
102
RTVSPropertyOp51
 70
     0
102
RTVSPropertyOp52
 70
     0
102
RTVSPropertyOp53
 70
     1
102
RTVSPropertyOp54
 70
     1
102
RTVSPropertyOp55
 70
     1
102
RTVSPropertyOp56
 70
     1
102
RTVSPropertyOp57
 70
     1
102
RTVSPost2010Prop28
280
     0
102
RTVSPost2010PropOp28
 70
     1
102
RTVSPost2010Prop29
280
     1
102
RTVSPost2010PropOp29
 70
     1
102
RTVSPost2010Prop30
280
     1
102
RTVSPost2010PropOp30
 70
     1
102
RTVSPost2010Prop31
280
     0
102
RTVSPost2010PropOp31
 70
     1
102
RTVSPost2010Prop32
280
     0
102
RTVSPost2010PropOp32
 70
     1
102
RTVSPost2010Prop33
280
     0
102
RTVSPost2010PropOp33
 70
     1
102
RTVSPost2010Prop34
280
     0
102
RTVSPost2010PropOp34
 70
     1
102
RTVSPost2010Prop35
280
     0
102
RTVSPost2010PropOp35
 70
     1
102
RTVSPost2010Prop36
280
     0
102
RTVSPost2010PropOp36
 70
     1
102
RTVSPost2010Prop37
 90
       50
102
RTVSPost2010PropOp37
 70
     1
102
RTVSPost2010Prop38
140
0.0
102
RTVSPost2010PropOp38
 70
     1
102
RTVSPost2010Prop39
140
1.0
102
RTVSPost2010PropOp39
 70
     1
102
RTVSPost2010Prop40
 90
        0
102
RTVSPost2010PropOp40
 70
     1
102
RTVSPost2010Prop41ColorIndex
 90
       18
102
RTVSPost2010Prop41ColorRGB
 90
        0
102
RTVSPost2010PropOp41
 70
     1
102
RTVSPost2010Prop42
 90
       50
102
RTVSPost2010PropOp42
 70
     1
102
RTVSPost2010Prop43
 90
        3
102
RTVSPost2010PropOp43
 70
     1
102
RTVSPost2010Prop44ColorIndex
 90
        5
102
RTVSPost2010Prop44ColorRGB
 90
      255
102
RTVSPost2010PropOp44
 70
     1
102
RTVSPost2010Prop45
280
     0
102
RTVSPost2010PropOp45
 70
     1
102
RTVSPost2010Prop46
 90
       50
102
RTVSPost2010PropOp46
 70
     1
102
RTVSPost2010Prop47
 90
       50
102
RTVSPost2010PropOp47
 70
     1
102
RTVSPost2010Prop48
 90
       50
102
RTVSPost2010PropOp48
 70
     1
102
RTVSPost2010Prop49
280
     0
102
RTVSPost2010PropOp49
 70
     1
102
RTVSPost2010Prop50
 90
       50
102
RTVSPost2010PropOp50
 70
     1
102
RTVSPost2010Prop51ColorIndex
 90
      256
102
RTVSPost2010Prop51ColorRGB
 90
-16777216
102
RTVSPost2010PropOp51
 70
     0
102
RTVSPost2010Prop52
140
1.0
102
RTVSPost2010PropOp52
 70
     0
102
RTVSPost2010Prop53
 90
        2
102
RTVSPost2010PropOp53
 70
     1
102
RTVSPost2010Prop54
  1
strokes_ogs.tif
102
RTVSPost2010PropOp54
 70
     1
102
RTVSPost2010Prop55
280
     0
102
RTVSPost2010PropOp55
 70
     1
102
RTVSPost2010Prop56
140
1.0
102
RTVSPost2010PropOp56
 70
     1
102
RTVSPost2010Prop57
140
1.0
102
RTVSPost2010PropOp57
 70
     1
  0
XRECORD
  5
491
102
{ACAD_REACTORS
330
490
102
}
330
490
100
AcDbXrecord
280
     1
102
RTVSPropertyOp0
 70
     1
102
RTVSPropertyOp1
 70
     1
102
RTVSPropertyOp2
 70
     1
102
RTVSPropertyOp3
 70
     1
102
RTVSPropertyOp4
 70
     1
102
RTVSPropertyOp5
 70
     1
102
RTVSPropertyOp6
 70
     1
102
RTVSPropertyOp7
 70
     1
102
RTVSPropertyOp8
 70
     1
102
RTVSPropertyOp9
 70
     1
102
RTVSPropertyOp10
 70
     1
102
RTVSPropertyOp11
 70
     1
102
RTVSPropertyOp12
 70
     1
102
RTVSPropertyOp13
 70
     1
102
RTVSPropertyOp14
 70
     1
102
RTVSPropertyOp15
 70
     1
102
RTVSPropertyOp16
 70
     1
102
RTVSPropertyOp17
 70
     1
102
RTVSPropertyOp18
 70
     1
102
RTVSPropertyOp19
 70
     1
102
RTVSPropertyOp20
 70
     1
102
RTVSPropertyOp21
 70
     1
102
RTVSPropertyOp22
 70
     1
102
RTVSPropertyOp23
 70
     1
102
RTVSPropertyOp24
 70
     1
102
RTVSPropertyOp25
 70
     1
102
RTVSPropertyOp26
 70
     1
102
RTVSPropertyOp27
 70
     1
102
RTVSPropertyOp28
 70
     1
102
RTVSPropertyOp29
 70
     1
102
RTVSPropertyOp30
 70
     1
102
RTVSPropertyOp31
 70
     1
102
RTVSPropertyOp32
 70
     1
102
RTVSPropertyOp33
 70
     1
102
RTVSPropertyOp34
 70
     1
102
RTVSPropertyOp35
 70
     1
102
RTVSPropertyOp36
 70
     1
102
RTVSPropertyOp37
 70
     1
102
RTVSPropertyOp38
 70
     1
102
RTVSPropertyOp39
 70
     1
102
RTVSPropertyOp40
 70
     1
102
RTVSPropertyOp41
 70
     1
102
RTVSPropertyOp42
 70
     1
102
RTVSPropertyOp43
 70
     1
102
RTVSPropertyOp44
 70
     1
102
RTVSPropertyOp45
 70
     1
102
RTVSPropertyOp46
 70
     1
102
RTVSPropertyOp47
 70
     1
102
RTVSPropertyOp48
 70
     1
102
RTVSPropertyOp49
 70
     1
102
RTVSPropertyOp50
 70
     1
102
RTVSPropertyOp51
 70
     0
102
RTVSPropertyOp52
 70
     0
102
RTVSPropertyOp53
 70
     1
102
RTVSPropertyOp54
 70
     1
102
RTVSPropertyOp55
 70
     1
102
RTVSPropertyOp56
 70
     1
102
RTVSPropertyOp57
 70
     1
102
RTVSPost2010Prop28
280
     0
102
RTVSPost2010PropOp28
 70
     1
102
RTVSPost2010Prop29
280
     1
102
RTVSPost2010PropOp29
 70
     1
102
RTVSPost2010Prop30
280
     1
102
RTVSPost2010PropOp30
 70
     1
102
RTVSPost2010Prop31
280
     0
102
RTVSPost2010PropOp31
 70
     1
102
RTVSPost2010Prop32
280
     0
102
RTVSPost2010PropOp32
 70
     1
102
RTVSPost2010Prop33
280
     0
102
RTVSPost2010PropOp33
 70
     1
102
RTVSPost2010Prop34
280
     0
102
RTVSPost2010PropOp34
 70
     1
102
RTVSPost2010Prop35
280
     0
102
RTVSPost2010PropOp35
 70
     1
102
RTVSPost2010Prop36
280
     0
102
RTVSPost2010PropOp36
 70
     1
102
RTVSPost2010Prop37
 90
       50
102
RTVSPost2010PropOp37
 70
     1
102
RTVSPost2010Prop38
140
0.0
102
RTVSPost2010PropOp38
 70
     1
102
RTVSPost2010Prop39
140
1.0
102
RTVSPost2010PropOp39
 70
     1
102
RTVSPost2010Prop40
 90
        0
102
RTVSPost2010PropOp40
 70
     1
102
RTVSPost2010Prop41ColorIndex
 90
       18
102
RTVSPost2010Prop41ColorRGB
 90
        0
102
RTVSPost2010PropOp41
 70
     1
102
RTVSPost2010Prop42
 90
       50
102
RTVSPost2010PropOp42
 70
     1
102
RTVSPost2010Prop43
 90
        3
102
RTVSPost2010PropOp43
 70
     1
102
RTVSPost2010Prop44ColorIndex
 90
        5
102
RTVSPost2010Prop44ColorRGB
 90
      255
102
RTVSPost2010PropOp44
 70
     1
102
RTVSPost2010Prop45
280
     0
102
RTVSPost2010PropOp45
 70
     1
102
RTVSPost2010Prop46
 90
       50
102
RTVSPost2010PropOp46
 70
     1
102
RTVSPost2010Prop47
 90
       50
102
RTVSPost2010PropOp47
 70
     1
102
RTVSPost2010Prop48
 90
       50
102
RTVSPost2010PropOp48
 70
     1
102
RTVSPost2010Prop49
280
     0
102
RTVSPost2010PropOp49
 70
     1
102
RTVSPost2010Prop50
 90
       50
102
RTVSPost2010PropOp50
 70
     1
102
RTVSPost2010Prop51ColorIndex
 90
      256
102
RTVSPost2010Prop51ColorRGB
 90
-16777216
102
RTVSPost2010PropOp51
 70
     0
102
RTVSPost2010Prop52
140
1.0
102
RTVSPost2010PropOp52
 70
     0
102
RTVSPost2010Prop53
 90
        2
102
RTVSPost2010PropOp53
 70
     1
102
RTVSPost2010Prop54
  1
strokes_ogs.tif
102
RTVSPost2010PropOp54
 70
     1
102
RTVSPost2010Prop55
280
     0
102
RTVSPost2010PropOp55
 70
     1
102
RTVSPost2010Prop56
140
1.0
102
RTVSPost2010PropOp56
 70
     1
102
RTVSPost2010Prop57
140
1.0
102
RTVSPost2010PropOp57
 70
     1
  0
XRECORD
  5
493
102
{ACAD_REACTORS
330
492
102
}
330
492
100
AcDbXrecord
280
     1
102
RTVSPropertyOp0
 70
     1
102
RTVSPropertyOp1
 70
     1
102
RTVSPropertyOp2
 70
     1
102
RTVSPropertyOp3
 70
     1
102
RTVSPropertyOp4
 70
     1
102
RTVSPropertyOp5
 70
     1
102
RTVSPropertyOp6
 70
     1
102
RTVSPropertyOp7
 70
     1
102
RTVSPropertyOp8
 70
     1
102
RTVSPropertyOp9
 70
     1
102
RTVSPropertyOp10
 70
     1
102
RTVSPropertyOp11
 70
     1
102
RTVSPropertyOp12
 70
     1
102
RTVSPropertyOp13
 70
     1
102
RTVSPropertyOp14
 70
     1
102
RTVSPropertyOp15
 70
     1
102
RTVSPropertyOp16
 70
     1
102
RTVSPropertyOp17
 70
     1
102
RTVSPropertyOp18
 70
     1
102
RTVSPropertyOp19
 70
     1
102
RTVSPropertyOp20
 70
     1
102
RTVSPropertyOp21
 70
     1
102
RTVSPropertyOp22
 70
     1
102
RTVSPropertyOp23
 70
     1
102
RTVSPropertyOp24
 70
     1
102
RTVSPropertyOp25
 70
     1
102
RTVSPropertyOp26
 70
     1
102
RTVSPropertyOp27
 70
     1
102
RTVSPropertyOp28
 70
     1
102
RTVSPropertyOp29
 70
     1
102
RTVSPropertyOp30
 70
     1
102
RTVSPropertyOp31
 70
     1
102
RTVSPropertyOp32
 70
     1
102
RTVSPropertyOp33
 70
     1
102
RTVSPropertyOp34
 70
     1
102
RTVSPropertyOp35
 70
     1
102
RTVSPropertyOp36
 70
     1
102
RTVSPropertyOp37
 70
     1
102
RTVSPropertyOp38
 70
     1
102
RTVSPropertyOp39
 70
     1
102
RTVSPropertyOp40
 70
     1
102
RTVSPropertyOp41
 70
     1
102
RTVSPropertyOp42
 70
     1
102
RTVSPropertyOp43
 70
     1
102
RTVSPropertyOp44
 70
     1
102
RTVSPropertyOp45
 70
     1
102
RTVSPropertyOp46
 70
     1
102
RTVSPropertyOp47
 70
     1
102
RTVSPropertyOp48
 70
     1
102
RTVSPropertyOp49
 70
     1
102
RTVSPropertyOp50
 70
     1
102
RTVSPropertyOp51
 70
     0
102
RTVSPropertyOp52
 70
     0
102
RTVSPropertyOp53
 70
     1
102
RTVSPropertyOp54
 70
     1
102
RTVSPropertyOp55
 70
     1
102
RTVSPropertyOp56
 70
     1
102
RTVSPropertyOp57
 70
     1
102
RTVSPost2010Prop28
280
     0
102
RTVSPost2010PropOp28
 70
     1
102
RTVSPost2010Prop29
280
     1
102
RTVSPost2010PropOp29
 70
     1
102
RTVSPost2010Prop30
280
     1
102
RTVSPost2010PropOp30
 70
     1
102
RTVSPost2010Prop31
280
     0
102
RTVSPost2010PropOp31
 70
     1
102
RTVSPost2010Prop32
280
     0
102
RTVSPost2010PropOp32
 70
     1
102
RTVSPost2010Prop33
280
     0
102
RTVSPost2010PropOp33
 70
     1
102
RTVSPost2010Prop34
280
     0
102
RTVSPost2010PropOp34
 70
     1
102
RTVSPost2010Prop35
280
     0
102
RTVSPost2010PropOp35
 70
     1
102
RTVSPost2010Prop36
280
     0
102
RTVSPost2010PropOp36
 70
     1
102
RTVSPost2010Prop37
 90
       50
102
RTVSPost2010PropOp37
 70
     1
102
RTVSPost2010Prop38
140
0.0
102
RTVSPost2010PropOp38
 70
     1
102
RTVSPost2010Prop39
140
1.0
102
RTVSPost2010PropOp39
 70
     1
102
RTVSPost2010Prop40
 90
        0
102
RTVSPost2010PropOp40
 70
     1
102
RTVSPost2010Prop41ColorIndex
 90
       18
102
RTVSPost2010Prop41ColorRGB
 90
        0
102
RTVSPost2010PropOp41
 70
     1
102
RTVSPost2010Prop42
 90
       50
102
RTVSPost2010PropOp42
 70
     1
102
RTVSPost2010Prop43
 90
        3
102
RTVSPost2010PropOp43
 70
     1
102
RTVSPost2010Prop44ColorIndex
 90
        5
102
RTVSPost2010Prop44ColorRGB
 90
      255
102
RTVSPost2010PropOp44
 70
     1
102
RTVSPost2010Prop45
280
     0
102
RTVSPost2010PropOp45
 70
     1
102
RTVSPost2010Prop46
 90
       50
102
RTVSPost2010PropOp46
 70
     1
102
RTVSPost2010Prop47
 90
       50
102
RTVSPost2010PropOp47
 70
     1
102
RTVSPost2010Prop48
 90
       50
102
RTVSPost2010PropOp48
 70
     1
102
RTVSPost2010Prop49
280
     0
102
RTVSPost2010PropOp49
 70
     1
102
RTVSPost2010Prop50
 90
       50
102
RTVSPost2010PropOp50
 70
     1
102
RTVSPost2010Prop51ColorIndex
 90
      256
102
RTVSPost2010Prop51ColorRGB
 90
-16777216
102
RTVSPost2010PropOp51
 70
     0
102
RTVSPost2010Prop52
140
1.0
102
RTVSPost2010PropOp52
 70
     0
102
RTVSPost2010Prop53
 90
        2
102
RTVSPost2010PropOp53
 70
     1
102
RTVSPost2010Prop54
  1
strokes_ogs.tif
102
RTVSPost2010PropOp54
 70
     1
102
RTVSPost2010Prop55
280
     0
102
RTVSPost2010PropOp55
 70
     1
102
RTVSPost2010Prop56
140
1.0
102
RTVSPost2010PropOp56
 70
     1
102
RTVSPost2010Prop57
140
1.0
102
RTVSPost2010PropOp57
 70
     1
  0
XRECORD
  5
495
102
{ACAD_REACTORS
330
494
102
}
330
494
100
AcDbXrecord
280
     1
102
RTVSPropertyOp0
 70
     1
102
RTVSPropertyOp1
 70
     1
102
RTVSPropertyOp2
 70
     1
102
RTVSPropertyOp3
 70
     1
102
RTVSPropertyOp4
 70
     1
102
RTVSPropertyOp5
 70
     1
102
RTVSPropertyOp6
 70
     1
102
RTVSPropertyOp7
 70
     1
102
RTVSPropertyOp8
 70
     1
102
RTVSPropertyOp9
 70
     1
102
RTVSPropertyOp10
 70
     1
102
RTVSPropertyOp11
 70
     1
102
RTVSPropertyOp12
 70
     1
102
RTVSPropertyOp13
 70
     1
102
RTVSPropertyOp14
 70
     1
102
RTVSPropertyOp15
 70
     1
102
RTVSPropertyOp16
 70
     1
102
RTVSPropertyOp17
 70
     1
102
RTVSPropertyOp18
 70
     1
102
RTVSPropertyOp19
 70
     1
102
RTVSPropertyOp20
 70
     1
102
RTVSPropertyOp21
 70
     1
102
RTVSPropertyOp22
 70
     1
102
RTVSPropertyOp23
 70
     1
102
RTVSPropertyOp24
 70
     1
102
RTVSPropertyOp25
 70
     1
102
RTVSPropertyOp26
 70
     1
102
RTVSPropertyOp27
 70
     1
102
RTVSPropertyOp28
 70
     1
102
RTVSPropertyOp29
 70
     1
102
RTVSPropertyOp30
 70
     1
102
RTVSPropertyOp31
 70
     1
102
RTVSPropertyOp32
 70
     1
102
RTVSPropertyOp33
 70
     1
102
RTVSPropertyOp34
 70
     1
102
RTVSPropertyOp35
 70
     1
102
RTVSPropertyOp36
 70
     1
102
RTVSPropertyOp37
 70
     1
102
RTVSPropertyOp38
 70
     1
102
RTVSPropertyOp39
 70
     1
102
RTVSPropertyOp40
 70
     1
102
RTVSPropertyOp41
 70
     1
102
RTVSPropertyOp42
 70
     1
102
RTVSPropertyOp43
 70
     1
102
RTVSPropertyOp44
 70
     1
102
RTVSPropertyOp45
 70
     1
102
RTVSPropertyOp46
 70
     1
102
RTVSPropertyOp47
 70
     1
102
RTVSPropertyOp48
 70
     1
102
RTVSPropertyOp49
 70
     1
102
RTVSPropertyOp50
 70
     1
102
RTVSPropertyOp51
 70
     0
102
RTVSPropertyOp52
 70
     0
102
RTVSPropertyOp53
 70
     1
102
RTVSPropertyOp54
 70
     1
102
RTVSPropertyOp55
 70
     1
102
RTVSPropertyOp56
 70
     1
102
RTVSPropertyOp57
 70
     1
102
RTVSPost2010Prop28
280
     0
102
RTVSPost2010PropOp28
 70
     1
102
RTVSPost2010Prop29
280
     1
102
RTVSPost2010PropOp29
 70
     1
102
RTVSPost2010Prop30
280
     1
102
RTVSPost2010PropOp30
 70
     1
102
RTVSPost2010Prop31
280
     0
102
RTVSPost2010PropOp31
 70
     1
102
RTVSPost2010Prop32
280
     0
102
RTVSPost2010PropOp32
 70
     1
102
RTVSPost2010Prop33
280
     0
102
RTVSPost2010PropOp33
 70
     1
102
RTVSPost2010Prop34
280
     0
102
RTVSPost2010PropOp34
 70
     1
102
RTVSPost2010Prop35
280
     0
102
RTVSPost2010PropOp35
 70
     1
102
RTVSPost2010Prop36
280
     0
102
RTVSPost2010PropOp36
 70
     1
102
RTVSPost2010Prop37
 90
       50
102
RTVSPost2010PropOp37
 70
     1
102
RTVSPost2010Prop38
140
0.0
102
RTVSPost2010PropOp38
 70
     1
102
RTVSPost2010Prop39
140
1.0
102
RTVSPost2010PropOp39
 70
     1
102
RTVSPost2010Prop40
 90
        0
102
RTVSPost2010PropOp40
 70
     1
102
RTVSPost2010Prop41ColorIndex
 90
       18
102
RTVSPost2010Prop41ColorRGB
 90
        0
102
RTVSPost2010PropOp41
 70
     1
102
RTVSPost2010Prop42
 90
       50
102
RTVSPost2010PropOp42
 70
     1
102
RTVSPost2010Prop43
 90
        3
102
RTVSPost2010PropOp43
 70
     1
102
RTVSPost2010Prop44ColorIndex
 90
        5
102
RTVSPost2010Prop44ColorRGB
 90
      255
102
RTVSPost2010PropOp44
 70
     1
102
RTVSPost2010Prop45
280
     0
102
RTVSPost2010PropOp45
 70
     1
102
RTVSPost2010Prop46
 90
       50
102
RTVSPost2010PropOp46
 70
     1
102
RTVSPost2010Prop47
 90
       50
102
RTVSPost2010PropOp47
 70
     1
102
RTVSPost2010Prop48
 90
       50
102
RTVSPost2010PropOp48
 70
     1
102
RTVSPost2010Prop49
280
     0
102
RTVSPost2010PropOp49
 70
     1
102
RTVSPost2010Prop50
 90
       50
102
RTVSPost2010PropOp50
 70
     1
102
RTVSPost2010Prop51ColorIndex
 90
      256
102
RTVSPost2010Prop51ColorRGB
 90
-16777216
102
RTVSPost2010PropOp51
 70
     0
102
RTVSPost2010Prop52
140
1.0
102
RTVSPost2010PropOp52
 70
     0
102
RTVSPost2010Prop53
 90
        2
102
RTVSPost2010PropOp53
 70
     1
102
RTVSPost2010Prop54
  1
strokes_ogs.tif
102
RTVSPost2010PropOp54
 70
     1
102
RTVSPost2010Prop55
280
     0
102
RTVSPost2010PropOp55
 70
     1
102
RTVSPost2010Prop56
140
1.0
102
RTVSPost2010PropOp56
 70
     1
102
RTVSPost2010Prop57
140
1.0
102
RTVSPost2010PropOp57
 70
     1
  0
XRECORD
  5
4AF
102
{ACAD_REACTORS
330
4AE
102
}
330
4AE
100
AcDbXrecord
280
     1
102
RTVSPropertyOp0
 70
     0
102
RTVSPropertyOp1
 70
     0
102
RTVSPropertyOp2
 70
     0
102
RTVSPropertyOp3
 70
     0
102
RTVSPropertyOp4
 70
     0
102
RTVSPropertyOp5
 70
     0
102
RTVSPropertyOp6
 70
     0
102
RTVSPropertyOp7
 70
     0
102
RTVSPropertyOp8
 70
     0
102
RTVSPropertyOp9
 70
     0
102
RTVSPropertyOp10
 70
     0
102
RTVSPropertyOp11
 70
     0
102
RTVSPropertyOp12
 70
     0
102
RTVSPropertyOp13
 70
     0
102
RTVSPropertyOp14
 70
     2
102
RTVSPropertyOp15
 70
     0
102
RTVSPropertyOp16
 70
     0
102
RTVSPropertyOp17
 70
     0
102
RTVSPropertyOp18
 70
     0
102
RTVSPropertyOp19
 70
     0
102
RTVSPropertyOp20
 70
     0
102
RTVSPropertyOp21
 70
     0
102
RTVSPropertyOp22
 70
     0
102
RTVSPropertyOp23
 70
     0
102
RTVSPropertyOp24
 70
     0
102
RTVSPropertyOp25
 70
     0
102
RTVSPropertyOp26
 70
     0
102
RTVSPropertyOp27
 70
     0
102
RTVSPropertyOp28
 70
     0
102
RTVSPropertyOp29
 70
     0
102
RTVSPropertyOp30
 70
     0
102
RTVSPropertyOp31
 70
     0
102
RTVSPropertyOp32
 70
     0
102
RTVSPropertyOp33
 70
     0
102
RTVSPropertyOp34
 70
     0
102
RTVSPropertyOp35
 70
     0
102
RTVSPropertyOp36
 70
     0
102
RTVSPropertyOp37
 70
     0
102
RTVSPropertyOp38
 70
     0
102
RTVSPropertyOp39
 70
     0
102
RTVSPropertyOp40
 70
     0
102
RTVSPropertyOp41
 70
     0
102
RTVSPropertyOp42
 70
     0
102
RTVSPropertyOp43
 70
     0
102
RTVSPropertyOp44
 70
     0
102
RTVSPropertyOp45
 70
     0
102
RTVSPropertyOp46
 70
     0
102
RTVSPropertyOp47
 70
     0
102
RTVSPropertyOp48
 70
     0
102
RTVSPropertyOp49
 70
     0
102
RTVSPropertyOp50
 70
     0
102
RTVSPropertyOp51
 70
     0
102
RTVSPropertyOp52
 70
     0
102
RTVSPropertyOp53
 70
     0
102
RTVSPropertyOp54
 70
     0
102
RTVSPropertyOp55
 70
     0
102
RTVSPropertyOp56
 70
     0
102
RTVSPropertyOp57
 70
     0
102
RTVSPost2010Prop28
280
     0
102
RTVSPost2010PropOp28
 70
     0
102
RTVSPost2010Prop29
280
     1
102
RTVSPost2010PropOp29
 70
     0
102
RTVSPost2010Prop30
280
     1
102
RTVSPost2010PropOp30
 70
     0
102
RTVSPost2010Prop31
280
     0
102
RTVSPost2010PropOp31
 70
     0
102
RTVSPost2010Prop32
280
     0
102
RTVSPost2010PropOp32
 70
     0
102
RTVSPost2010Prop33
280
     0
102
RTVSPost2010PropOp33
 70
     0
102
RTVSPost2010Prop34
280
     0
102
RTVSPost2010PropOp34
 70
     0
102
RTVSPost2010Prop35
280
     0
102
RTVSPost2010PropOp35
 70
     0
102
RTVSPost2010Prop36
280
     0
102
RTVSPost2010PropOp36
 70
     0
102
RTVSPost2010Prop37
 90
       50
102
RTVSPost2010PropOp37
 70
     0
102
RTVSPost2010Prop38
140
0.0
102
RTVSPost2010PropOp38
 70
     0
102
RTVSPost2010Prop39
140
1.0
102
RTVSPost2010PropOp39
 70
     0
102
RTVSPost2010Prop40
 90
        0
102
RTVSPost2010PropOp40
 70
     0
102
RTVSPost2010Prop41ColorIndex
 90
       18
102
RTVSPost2010Prop41ColorRGB
 90
        0
102
RTVSPost2010PropOp41
 70
     0
102
RTVSPost2010Prop42
 90
       50
102
RTVSPost2010PropOp42
 70
     0
102
RTVSPost2010Prop43
 90
        3
102
RTVSPost2010PropOp43
 70
     0
102
RTVSPost2010Prop44ColorIndex
 90
        5
102
RTVSPost2010Prop44ColorRGB
 90
      255
102
RTVSPost2010PropOp44
 70
     0
102
RTVSPost2010Prop45
280
     0
102
RTVSPost2010PropOp45
 70
     0
102
RTVSPost2010Prop46
 90
       50
102
RTVSPost2010PropOp46
 70
     0
102
RTVSPost2010Prop47
 90
       50
102
RTVSPost2010PropOp47
 70
     0
102
RTVSPost2010Prop48
 90
       50
102
RTVSPost2010PropOp48
 70
     0
102
RTVSPost2010Prop49
280
     0
102
RTVSPost2010PropOp49
 70
     0
102
RTVSPost2010Prop50
 90
       50
102
RTVSPost2010PropOp50
 70
     0
102
RTVSPost2010Prop51ColorIndex
 90
      256
102
RTVSPost2010Prop51ColorRGB
 90
-16777216
102
RTVSPost2010PropOp51
 70
     0
102
RTVSPost2010Prop52
140
1.0
102
RTVSPost2010PropOp52
 70
     0
102
RTVSPost2010Prop53
 90
        2
102
RTVSPost2010PropOp53
 70
     0
102
RTVSPost2010Prop54
  1
strokes_ogs.tif
102
RTVSPost2010PropOp54
 70
     0
102
RTVSPost2010Prop55
280
     0
102
RTVSPost2010PropOp55
 70
     0
102
RTVSPost2010Prop56
140
1.0
102
RTVSPost2010PropOp56
 70
     0
102
RTVSPost2010Prop57
140
1.0
102
RTVSPost2010PropOp57
 70
     0
  0
XRECORD
  5
497
102
{ACAD_REACTORS
330
496
102
}
330
496
100
AcDbXrecord
280
     1
102
RTVSPropertyOp0
 70
     1
102
RTVSPropertyOp1
 70
     1
102
RTVSPropertyOp2
 70
     1
102
RTVSPropertyOp3
 70
     1
102
RTVSPropertyOp4
 70
     1
102
RTVSPropertyOp5
 70
     1
102
RTVSPropertyOp6
 70
     1
102
RTVSPropertyOp7
 70
     1
102
RTVSPropertyOp8
 70
     1
102
RTVSPropertyOp9
 70
     1
102
RTVSPropertyOp10
 70
     1
102
RTVSPropertyOp11
 70
     1
102
RTVSPropertyOp12
 70
     1
102
RTVSPropertyOp13
 70
     1
102
RTVSPropertyOp14
 70
     1
102
RTVSPropertyOp15
 70
     1
102
RTVSPropertyOp16
 70
     1
102
RTVSPropertyOp17
 70
     1
102
RTVSPropertyOp18
 70
     1
102
RTVSPropertyOp19
 70
     1
102
RTVSPropertyOp20
 70
     1
102
RTVSPropertyOp21
 70
     1
102
RTVSPropertyOp22
 70
     1
102
RTVSPropertyOp23
 70
     1
102
RTVSPropertyOp24
 70
     1
102
RTVSPropertyOp25
 70
     1
102
RTVSPropertyOp26
 70
     1
102
RTVSPropertyOp27
 70
     1
102
RTVSPropertyOp28
 70
     1
102
RTVSPropertyOp29
 70
     1
102
RTVSPropertyOp30
 70
     1
102
RTVSPropertyOp31
 70
     1
102
RTVSPropertyOp32
 70
     1
102
RTVSPropertyOp33
 70
     1
102
RTVSPropertyOp34
 70
     1
102
RTVSPropertyOp35
 70
     1
102
RTVSPropertyOp36
 70
     1
102
RTVSPropertyOp37
 70
     1
102
RTVSPropertyOp38
 70
     1
102
RTVSPropertyOp39
 70
     1
102
RTVSPropertyOp40
 70
     1
102
RTVSPropertyOp41
 70
     1
102
RTVSPropertyOp42
 70
     1
102
RTVSPropertyOp43
 70
     1
102
RTVSPropertyOp44
 70
     1
102
RTVSPropertyOp45
 70
     1
102
RTVSPropertyOp46
 70
     1
102
RTVSPropertyOp47
 70
     1
102
RTVSPropertyOp48
 70
     1
102
RTVSPropertyOp49
 70
     1
102
RTVSPropertyOp50
 70
     1
102
RTVSPropertyOp51
 70
     0
102
RTVSPropertyOp52
 70
     0
102
RTVSPropertyOp53
 70
     1
102
RTVSPropertyOp54
 70
     1
102
RTVSPropertyOp55
 70
     1
102
RTVSPropertyOp56
 70
     1
102
RTVSPropertyOp57
 70
     1
102
RTVSPost2010Prop28
280
     0
102
RTVSPost2010PropOp28
 70
     1
102
RTVSPost2010Prop29
280
     1
102
RTVSPost2010PropOp29
 70
     1
102
RTVSPost2010Prop30
280
     1
102
RTVSPost2010PropOp30
 70
     1
102
RTVSPost2010Prop31
280
     0
102
RTVSPost2010PropOp31
 70
     1
102
RTVSPost2010Prop32
280
     0
102
RTVSPost2010PropOp32
 70
     1
102
RTVSPost2010Prop33
280
     0
102
RTVSPost2010PropOp33
 70
     1
102
RTVSPost2010Prop34
280
     0
102
RTVSPost2010PropOp34
 70
     1
102
RTVSPost2010Prop35
280
     0
102
RTVSPost2010PropOp35
 70
     1
102
RTVSPost2010Prop36
280
     0
102
RTVSPost2010PropOp36
 70
     1
102
RTVSPost2010Prop37
 90
       50
102
RTVSPost2010PropOp37
 70
     1
102
RTVSPost2010Prop38
140
0.0
102
RTVSPost2010PropOp38
 70
     1
102
RTVSPost2010Prop39
140
1.0
102
RTVSPost2010PropOp39
 70
     1
102
RTVSPost2010Prop40
 90
        0
102
RTVSPost2010PropOp40
 70
     1
102
RTVSPost2010Prop41ColorIndex
 90
       18
102
RTVSPost2010Prop41ColorRGB
 90
        0
102
RTVSPost2010PropOp41
 70
     1
102
RTVSPost2010Prop42
 90
       50
102
RTVSPost2010PropOp42
 70
     1
102
RTVSPost2010Prop43
 90
        3
102
RTVSPost2010PropOp43
 70
     1
102
RTVSPost2010Prop44ColorIndex
 90
        5
102
RTVSPost2010Prop44ColorRGB
 90
      255
102
RTVSPost2010PropOp44
 70
     1
102
RTVSPost2010Prop45
280
     0
102
RTVSPost2010PropOp45
 70
     1
102
RTVSPost2010Prop46
 90
       50
102
RTVSPost2010PropOp46
 70
     1
102
RTVSPost2010Prop47
 90
       50
102
RTVSPost2010PropOp47
 70
     1
102
RTVSPost2010Prop48
 90
       50
102
RTVSPost2010PropOp48
 70
     1
102
RTVSPost2010Prop49
280
     0
102
RTVSPost2010PropOp49
 70
     1
102
RTVSPost2010Prop50
 90
       50
102
RTVSPost2010PropOp50
 70
     1
102
RTVSPost2010Prop51ColorIndex
 90
      256
102
RTVSPost2010Prop51ColorRGB
 90
-16777216
102
RTVSPost2010PropOp51
 70
     0
102
RTVSPost2010Prop52
140
1.0
102
RTVSPost2010PropOp52
 70
     0
102
RTVSPost2010Prop53
 90
        2
102
RTVSPost2010PropOp53
 70
     1
102
RTVSPost2010Prop54
  1
strokes_ogs.tif
102
RTVSPost2010PropOp54
 70
     1
102
RTVSPost2010Prop55
280
     0
102
RTVSPost2010PropOp55
 70
     1
102
RTVSPost2010Prop56
140
1.0
102
RTVSPost2010PropOp56
 70
     1
102
RTVSPost2010Prop57
140
1.0
102
RTVSPost2010PropOp57
 70
     1
  0
XRECORD
  5
499
102
{ACAD_REACTORS
330
498
102
}
330
498
100
AcDbXrecord
280
     1
102
RTVSPropertyOp0
 70
     1
102
RTVSPropertyOp1
 70
     1
102
RTVSPropertyOp2
 70
     1
102
RTVSPropertyOp3
 70
     1
102
RTVSPropertyOp4
 70
     1
102
RTVSPropertyOp5
 70
     1
102
RTVSPropertyOp6
 70
     1
102
RTVSPropertyOp7
 70
     1
102
RTVSPropertyOp8
 70
     1
102
RTVSPropertyOp9
 70
     1
102
RTVSPropertyOp10
 70
     1
102
RTVSPropertyOp11
 70
     1
102
RTVSPropertyOp12
 70
     1
102
RTVSPropertyOp13
 70
     1
102
RTVSPropertyOp14
 70
     1
102
RTVSPropertyOp15
 70
     1
102
RTVSPropertyOp16
 70
     1
102
RTVSPropertyOp17
 70
     1
102
RTVSPropertyOp18
 70
     1
102
RTVSPropertyOp19
 70
     1
102
RTVSPropertyOp20
 70
     1
102
RTVSPropertyOp21
 70
     1
102
RTVSPropertyOp22
 70
     1
102
RTVSPropertyOp23
 70
     1
102
RTVSPropertyOp24
 70
     1
102
RTVSPropertyOp25
 70
     1
102
RTVSPropertyOp26
 70
     1
102
RTVSPropertyOp27
 70
     1
102
RTVSPropertyOp28
 70
     1
102
RTVSPropertyOp29
 70
     1
102
RTVSPropertyOp30
 70
     1
102
RTVSPropertyOp31
 70
     1
102
RTVSPropertyOp32
 70
     1
102
RTVSPropertyOp33
 70
     1
102
RTVSPropertyOp34
 70
     1
102
RTVSPropertyOp35
 70
     1
102
RTVSPropertyOp36
 70
     1
102
RTVSPropertyOp37
 70
     1
102
RTVSPropertyOp38
 70
     1
102
RTVSPropertyOp39
 70
     1
102
RTVSPropertyOp40
 70
     1
102
RTVSPropertyOp41
 70
     1
102
RTVSPropertyOp42
 70
     1
102
RTVSPropertyOp43
 70
     1
102
RTVSPropertyOp44
 70
     1
102
RTVSPropertyOp45
 70
     1
102
RTVSPropertyOp46
 70
     1
102
RTVSPropertyOp47
 70
     1
102
RTVSPropertyOp48
 70
     1
102
RTVSPropertyOp49
 70
     1
102
RTVSPropertyOp50
 70
     1
102
RTVSPropertyOp51
 70
     0
102
RTVSPropertyOp52
 70
     0
102
RTVSPropertyOp53
 70
     1
102
RTVSPropertyOp54
 70
     1
102
RTVSPropertyOp55
 70
     1
102
RTVSPropertyOp56
 70
     1
102
RTVSPropertyOp57
 70
     1
102
RTVSPost2010Prop28
280
     0
102
RTVSPost2010PropOp28
 70
     1
102
RTVSPost2010Prop29
280
     1
102
RTVSPost2010PropOp29
 70
     1
102
RTVSPost2010Prop30
280
     1
102
RTVSPost2010PropOp30
 70
     1
102
RTVSPost2010Prop31
280
     0
102
RTVSPost2010PropOp31
 70
     1
102
RTVSPost2010Prop32
280
     0
102
RTVSPost2010PropOp32
 70
     1
102
RTVSPost2010Prop33
280
     0
102
RTVSPost2010PropOp33
 70
     1
102
RTVSPost2010Prop34
280
     0
102
RTVSPost2010PropOp34
 70
     1
102
RTVSPost2010Prop35
280
     0
102
RTVSPost2010PropOp35
 70
     1
102
RTVSPost2010Prop36
280
     0
102
RTVSPost2010PropOp36
 70
     1
102
RTVSPost2010Prop37
 90
       50
102
RTVSPost2010PropOp37
 70
     1
102
RTVSPost2010Prop38
140
0.0
102
RTVSPost2010PropOp38
 70
     1
102
RTVSPost2010Prop39
140
1.0
102
RTVSPost2010PropOp39
 70
     1
102
RTVSPost2010Prop40
 90
        0
102
RTVSPost2010PropOp40
 70
     1
102
RTVSPost2010Prop41ColorIndex
 90
       18
102
RTVSPost2010Prop41ColorRGB
 90
        0
102
RTVSPost2010PropOp41
 70
     1
102
RTVSPost2010Prop42
 90
       50
102
RTVSPost2010PropOp42
 70
     1
102
RTVSPost2010Prop43
 90
        3
102
RTVSPost2010PropOp43
 70
     1
102
RTVSPost2010Prop44ColorIndex
 90
        5
102
RTVSPost2010Prop44ColorRGB
 90
      255
102
RTVSPost2010PropOp44
 70
     1
102
RTVSPost2010Prop45
280
     0
102
RTVSPost2010PropOp45
 70
     1
102
RTVSPost2010Prop46
 90
       50
102
RTVSPost2010PropOp46
 70
     1
102
RTVSPost2010Prop47
 90
       50
102
RTVSPost2010PropOp47
 70
     1
102
RTVSPost2010Prop48
 90
       50
102
RTVSPost2010PropOp48
 70
     1
102
RTVSPost2010Prop49
280
     0
102
RTVSPost2010PropOp49
 70
     1
102
RTVSPost2010Prop50
 90
       50
102
RTVSPost2010PropOp50
 70
     1
102
RTVSPost2010Prop51ColorIndex
 90
      256
102
RTVSPost2010Prop51ColorRGB
 90
-16777216
102
RTVSPost2010PropOp51
 70
     0
102
RTVSPost2010Prop52
140
1.0
102
RTVSPost2010PropOp52
 70
     0
102
RTVSPost2010Prop53
 90
        2
102
RTVSPost2010PropOp53
 70
     1
102
RTVSPost2010Prop54
  1
strokes_ogs.tif
102
RTVSPost2010PropOp54
 70
     1
102
RTVSPost2010Prop55
280
     0
102
RTVSPost2010PropOp55
 70
     1
102
RTVSPost2010Prop56
140
1.0
102
RTVSPost2010PropOp56
 70
     1
102
RTVSPost2010Prop57
140
1.0
102
RTVSPost2010PropOp57
 70
     1
  0
XRECORD
  5
49B
102
{ACAD_REACTORS
330
49A
102
}
330
49A
100
AcDbXrecord
280
     1
102
RTVSPropertyOp0
 70
     1
102
RTVSPropertyOp1
 70
     1
102
RTVSPropertyOp2
 70
     1
102
RTVSPropertyOp3
 70
     1
102
RTVSPropertyOp4
 70
     1
102
RTVSPropertyOp5
 70
     1
102
RTVSPropertyOp6
 70
     1
102
RTVSPropertyOp7
 70
     1
102
RTVSPropertyOp8
 70
     1
102
RTVSPropertyOp9
 70
     1
102
RTVSPropertyOp10
 70
     1
102
RTVSPropertyOp11
 70
     1
102
RTVSPropertyOp12
 70
     1
102
RTVSPropertyOp13
 70
     1
102
RTVSPropertyOp14
 70
     1
102
RTVSPropertyOp15
 70
     1
102
RTVSPropertyOp16
 70
     1
102
RTVSPropertyOp17
 70
     1
102
RTVSPropertyOp18
 70
     1
102
RTVSPropertyOp19
 70
     1
102
RTVSPropertyOp20
 70
     1
102
RTVSPropertyOp21
 70
     1
102
RTVSPropertyOp22
 70
     1
102
RTVSPropertyOp23
 70
     1
102
RTVSPropertyOp24
 70
     1
102
RTVSPropertyOp25
 70
     1
102
RTVSPropertyOp26
 70
     1
102
RTVSPropertyOp27
 70
     1
102
RTVSPropertyOp28
 70
     1
102
RTVSPropertyOp29
 70
     1
102
RTVSPropertyOp30
 70
     1
102
RTVSPropertyOp31
 70
     1
102
RTVSPropertyOp32
 70
     1
102
RTVSPropertyOp33
 70
     1
102
RTVSPropertyOp34
 70
     1
102
RTVSPropertyOp35
 70
     1
102
RTVSPropertyOp36
 70
     1
102
RTVSPropertyOp37
 70
     1
102
RTVSPropertyOp38
 70
     1
102
RTVSPropertyOp39
 70
     1
102
RTVSPropertyOp40
 70
     1
102
RTVSPropertyOp41
 70
     1
102
RTVSPropertyOp42
 70
     1
102
RTVSPropertyOp43
 70
     1
102
RTVSPropertyOp44
 70
     1
102
RTVSPropertyOp45
 70
     1
102
RTVSPropertyOp46
 70
     1
102
RTVSPropertyOp47
 70
     1
102
RTVSPropertyOp48
 70
     1
102
RTVSPropertyOp49
 70
     1
102
RTVSPropertyOp50
 70
     1
102
RTVSPropertyOp51
 70
     0
102
RTVSPropertyOp52
 70
     0
102
RTVSPropertyOp53
 70
     1
102
RTVSPropertyOp54
 70
     1
102
RTVSPropertyOp55
 70
     1
102
RTVSPropertyOp56
 70
     1
102
RTVSPropertyOp57
 70
     1
102
RTVSPost2010Prop28
280
     0
102
RTVSPost2010PropOp28
 70
     1
102
RTVSPost2010Prop29
280
     1
102
RTVSPost2010PropOp29
 70
     1
102
RTVSPost2010Prop30
280
     1
102
RTVSPost2010PropOp30
 70
     1
102
RTVSPost2010Prop31
280
     0
102
RTVSPost2010PropOp31
 70
     1
102
RTVSPost2010Prop32
280
     0
102
RTVSPost2010PropOp32
 70
     1
102
RTVSPost2010Prop33
280
     0
102
RTVSPost2010PropOp33
 70
     1
102
RTVSPost2010Prop34
280
     0
102
RTVSPost2010PropOp34
 70
     1
102
RTVSPost2010Prop35
280
     0
102
RTVSPost2010PropOp35
 70
     1
102
RTVSPost2010Prop36
280
     0
102
RTVSPost2010PropOp36
 70
     1
102
RTVSPost2010Prop37
 90
       50
102
RTVSPost2010PropOp37
 70
     1
102
RTVSPost2010Prop38
140
0.0
102
RTVSPost2010PropOp38
 70
     1
102
RTVSPost2010Prop39
140
1.0
102
RTVSPost2010PropOp39
 70
     1
102
RTVSPost2010Prop40
 90
        0
102
RTVSPost2010PropOp40
 70
     1
102
RTVSPost2010Prop41ColorIndex
 90
       18
102
RTVSPost2010Prop41ColorRGB
 90
        0
102
RTVSPost2010PropOp41
 70
     1
102
RTVSPost2010Prop42
 90
       50
102
RTVSPost2010PropOp42
 70
     1
102
RTVSPost2010Prop43
 90
        3
102
RTVSPost2010PropOp43
 70
     1
102
RTVSPost2010Prop44ColorIndex
 90
        5
102
RTVSPost2010Prop44ColorRGB
 90
      255
102
RTVSPost2010PropOp44
 70
     1
102
RTVSPost2010Prop45
280
     0
102
RTVSPost2010PropOp45
 70
     1
102
RTVSPost2010Prop46
 90
       50
102
RTVSPost2010PropOp46
 70
     1
102
RTVSPost2010Prop47
 90
       50
102
RTVSPost2010PropOp47
 70
     1
102
RTVSPost2010Prop48
 90
       50
102
RTVSPost2010PropOp48
 70
     1
102
RTVSPost2010Prop49
280
     0
102
RTVSPost2010PropOp49
 70
     1
102
RTVSPost2010Prop50
 90
       50
102
RTVSPost2010PropOp50
 70
     1
102
RTVSPost2010Prop51ColorIndex
 90
      256
102
RTVSPost2010Prop51ColorRGB
 90
-16777216
102
RTVSPost2010PropOp51
 70
     0
102
RTVSPost2010Prop52
140
1.0
102
RTVSPost2010PropOp52
 70
     0
102
RTVSPost2010Prop53
 90
        2
102
RTVSPost2010PropOp53
 70
     1
102
RTVSPost2010Prop54
  1
strokes_ogs.tif
102
RTVSPost2010PropOp54
 70
     1
102
RTVSPost2010Prop55
280
     0
102
RTVSPost2010PropOp55
 70
     1
102
RTVSPost2010Prop56
140
1.0
102
RTVSPost2010PropOp56
 70
     1
102
RTVSPost2010Prop57
140
1.0
102
RTVSPost2010PropOp57
 70
     1
  0
XRECORD
  5
49D
102
{ACAD_REACTORS
330
49C
102
}
330
49C
100
AcDbXrecord
280
     1
102
RTVSPropertyOp0
 70
     1
102
RTVSPropertyOp1
 70
     1
102
RTVSPropertyOp2
 70
     1
102
RTVSPropertyOp3
 70
     1
102
RTVSPropertyOp4
 70
     1
102
RTVSPropertyOp5
 70
     1
102
RTVSPropertyOp6
 70
     1
102
RTVSPropertyOp7
 70
     1
102
RTVSPropertyOp8
 70
     1
102
RTVSPropertyOp9
 70
     1
102
RTVSPropertyOp10
 70
     1
102
RTVSPropertyOp11
 70
     1
102
RTVSPropertyOp12
 70
     1
102
RTVSPropertyOp13
 70
     1
102
RTVSPropertyOp14
 70
     1
102
RTVSPropertyOp15
 70
     1
102
RTVSPropertyOp16
 70
     1
102
RTVSPropertyOp17
 70
     1
102
RTVSPropertyOp18
 70
     1
102
RTVSPropertyOp19
 70
     1
102
RTVSPropertyOp20
 70
     1
102
RTVSPropertyOp21
 70
     1
102
RTVSPropertyOp22
 70
     1
102
RTVSPropertyOp23
 70
     1
102
RTVSPropertyOp24
 70
     1
102
RTVSPropertyOp25
 70
     1
102
RTVSPropertyOp26
 70
     1
102
RTVSPropertyOp27
 70
     1
102
RTVSPropertyOp28
 70
     1
102
RTVSPropertyOp29
 70
     1
102
RTVSPropertyOp30
 70
     1
102
RTVSPropertyOp31
 70
     1
102
RTVSPropertyOp32
 70
     1
102
RTVSPropertyOp33
 70
     1
102
RTVSPropertyOp34
 70
     1
102
RTVSPropertyOp35
 70
     1
102
RTVSPropertyOp36
 70
     1
102
RTVSPropertyOp37
 70
     1
102
RTVSPropertyOp38
 70
     1
102
RTVSPropertyOp39
 70
     1
102
RTVSPropertyOp40
 70
     1
102
RTVSPropertyOp41
 70
     1
102
RTVSPropertyOp42
 70
     1
102
RTVSPropertyOp43
 70
     1
102
RTVSPropertyOp44
 70
     1
102
RTVSPropertyOp45
 70
     1
102
RTVSPropertyOp46
 70
     1
102
RTVSPropertyOp47
 70
     1
102
RTVSPropertyOp48
 70
     1
102
RTVSPropertyOp49
 70
     1
102
RTVSPropertyOp50
 70
     1
102
RTVSPropertyOp51
 70
     0
102
RTVSPropertyOp52
 70
     0
102
RTVSPropertyOp53
 70
     1
102
RTVSPropertyOp54
 70
     1
102
RTVSPropertyOp55
 70
     1
102
RTVSPropertyOp56
 70
     1
102
RTVSPropertyOp57
 70
     1
102
RTVSPost2010Prop28
280
     0
102
RTVSPost2010PropOp28
 70
     1
102
RTVSPost2010Prop29
280
     1
102
RTVSPost2010PropOp29
 70
     1
102
RTVSPost2010Prop30
280
     1
102
RTVSPost2010PropOp30
 70
     1
102
RTVSPost2010Prop31
280
     0
102
RTVSPost2010PropOp31
 70
     1
102
RTVSPost2010Prop32
280
     0
102
RTVSPost2010PropOp32
 70
     1
102
RTVSPost2010Prop33
280
     0
102
RTVSPost2010PropOp33
 70
     1
102
RTVSPost2010Prop34
280
     0
102
RTVSPost2010PropOp34
 70
     1
102
RTVSPost2010Prop35
280
     0
102
RTVSPost2010PropOp35
 70
     1
102
RTVSPost2010Prop36
280
     0
102
RTVSPost2010PropOp36
 70
     1
102
RTVSPost2010Prop37
 90
       50
102
RTVSPost2010PropOp37
 70
     1
102
RTVSPost2010Prop38
140
0.0
102
RTVSPost2010PropOp38
 70
     1
102
RTVSPost2010Prop39
140
1.0
102
RTVSPost2010PropOp39
 70
     1
102
RTVSPost2010Prop40
 90
        0
102
RTVSPost2010PropOp40
 70
     1
102
RTVSPost2010Prop41ColorIndex
 90
       18
102
RTVSPost2010Prop41ColorRGB
 90
        0
102
RTVSPost2010PropOp41
 70
     1
102
RTVSPost2010Prop42
 90
       50
102
RTVSPost2010PropOp42
 70
     1
102
RTVSPost2010Prop43
 90
        3
102
RTVSPost2010PropOp43
 70
     1
102
RTVSPost2010Prop44ColorIndex
 90
        5
102
RTVSPost2010Prop44ColorRGB
 90
      255
102
RTVSPost2010PropOp44
 70
     1
102
RTVSPost2010Prop45
280
     0
102
RTVSPost2010PropOp45
 70
     1
102
RTVSPost2010Prop46
 90
       50
102
RTVSPost2010PropOp46
 70
     1
102
RTVSPost2010Prop47
 90
       50
102
RTVSPost2010PropOp47
 70
     1
102
RTVSPost2010Prop48
 90
       50
102
RTVSPost2010PropOp48
 70
     1
102
RTVSPost2010Prop49
280
     0
102
RTVSPost2010PropOp49
 70
     1
102
RTVSPost2010Prop50
 90
       50
102
RTVSPost2010PropOp50
 70
     1
102
RTVSPost2010Prop51ColorIndex
 90
      256
102
RTVSPost2010Prop51ColorRGB
 90
-16777216
102
RTVSPost2010PropOp51
 70
     0
102
RTVSPost2010Prop52
140
1.0
102
RTVSPost2010PropOp52
 70
     0
102
RTVSPost2010Prop53
 90
        2
102
RTVSPost2010PropOp53
 70
     1
102
RTVSPost2010Prop54
  1
strokes_ogs.tif
102
RTVSPost2010PropOp54
 70
     1
102
RTVSPost2010Prop55
280
     0
102
RTVSPost2010PropOp55
 70
     1
102
RTVSPost2010Prop56
140
1.0
102
RTVSPost2010PropOp56
 70
     1
102
RTVSPost2010Prop57
140
1.0
102
RTVSPost2010PropOp57
 70
     1
  0
XRECORD
  5
49F
102
{ACAD_REACTORS
330
49E
102
}
330
49E
100
AcDbXrecord
280
     1
102
RTVSPropertyOp0
 70
     1
102
RTVSPropertyOp1
 70
     1
102
RTVSPropertyOp2
 70
     1
102
RTVSPropertyOp3
 70
     1
102
RTVSPropertyOp4
 70
     1
102
RTVSPropertyOp5
 70
     1
102
RTVSPropertyOp6
 70
     1
102
RTVSPropertyOp7
 70
     1
102
RTVSPropertyOp8
 70
     1
102
RTVSPropertyOp9
 70
     1
102
RTVSPropertyOp10
 70
     1
102
RTVSPropertyOp11
 70
     1
102
RTVSPropertyOp12
 70
     1
102
RTVSPropertyOp13
 70
     1
102
RTVSPropertyOp14
 70
     1
102
RTVSPropertyOp15
 70
     1
102
RTVSPropertyOp16
 70
     1
102
RTVSPropertyOp17
 70
     1
102
RTVSPropertyOp18
 70
     1
102
RTVSPropertyOp19
 70
     1
102
RTVSPropertyOp20
 70
     1
102
RTVSPropertyOp21
 70
     1
102
RTVSPropertyOp22
 70
     1
102
RTVSPropertyOp23
 70
     1
102
RTVSPropertyOp24
 70
     1
102
RTVSPropertyOp25
 70
     1
102
RTVSPropertyOp26
 70
     1
102
RTVSPropertyOp27
 70
     1
102
RTVSPropertyOp28
 70
     1
102
RTVSPropertyOp29
 70
     1
102
RTVSPropertyOp30
 70
     1
102
RTVSPropertyOp31
 70
     1
102
RTVSPropertyOp32
 70
     1
102
RTVSPropertyOp33
 70
     1
102
RTVSPropertyOp34
 70
     1
102
RTVSPropertyOp35
 70
     1
102
RTVSPropertyOp36
 70
     1
102
RTVSPropertyOp37
 70
     1
102
RTVSPropertyOp38
 70
     1
102
RTVSPropertyOp39
 70
     1
102
RTVSPropertyOp40
 70
     1
102
RTVSPropertyOp41
 70
     1
102
RTVSPropertyOp42
 70
     1
102
RTVSPropertyOp43
 70
     1
102
RTVSPropertyOp44
 70
     1
102
RTVSPropertyOp45
 70
     1
102
RTVSPropertyOp46
 70
     1
102
RTVSPropertyOp47
 70
     1
102
RTVSPropertyOp48
 70
     1
102
RTVSPropertyOp49
 70
     1
102
RTVSPropertyOp50
 70
     1
102
RTVSPropertyOp51
 70
     0
102
RTVSPropertyOp52
 70
     0
102
RTVSPropertyOp53
 70
     1
102
RTVSPropertyOp54
 70
     1
102
RTVSPropertyOp55
 70
     1
102
RTVSPropertyOp56
 70
     1
102
RTVSPropertyOp57
 70
     1
102
RTVSPost2010Prop28
280
     0
102
RTVSPost2010PropOp28
 70
     1
102
RTVSPost2010Prop29
280
     1
102
RTVSPost2010PropOp29
 70
     1
102
RTVSPost2010Prop30
280
     1
102
RTVSPost2010PropOp30
 70
     1
102
RTVSPost2010Prop31
280
     0
102
RTVSPost2010PropOp31
 70
     1
102
RTVSPost2010Prop32
280
     0
102
RTVSPost2010PropOp32
 70
     1
102
RTVSPost2010Prop33
280
     0
102
RTVSPost2010PropOp33
 70
     1
102
RTVSPost2010Prop34
280
     0
102
RTVSPost2010PropOp34
 70
     1
102
RTVSPost2010Prop35
280
     0
102
RTVSPost2010PropOp35
 70
     1
102
RTVSPost2010Prop36
280
     0
102
RTVSPost2010PropOp36
 70
     1
102
RTVSPost2010Prop37
 90
       50
102
RTVSPost2010PropOp37
 70
     1
102
RTVSPost2010Prop38
140
0.0
102
RTVSPost2010PropOp38
 70
     1
102
RTVSPost2010Prop39
140
1.0
102
RTVSPost2010PropOp39
 70
     1
102
RTVSPost2010Prop40
 90
        0
102
RTVSPost2010PropOp40
 70
     1
102
RTVSPost2010Prop41ColorIndex
 90
       18
102
RTVSPost2010Prop41ColorRGB
 90
        0
102
RTVSPost2010PropOp41
 70
     1
102
RTVSPost2010Prop42
 90
       50
102
RTVSPost2010PropOp42
 70
     1
102
RTVSPost2010Prop43
 90
        3
102
RTVSPost2010PropOp43
 70
     1
102
RTVSPost2010Prop44ColorIndex
 90
        5
102
RTVSPost2010Prop44ColorRGB
 90
      255
102
RTVSPost2010PropOp44
 70
     1
102
RTVSPost2010Prop45
280
     0
102
RTVSPost2010PropOp45
 70
     1
102
RTVSPost2010Prop46
 90
       50
102
RTVSPost2010PropOp46
 70
     1
102
RTVSPost2010Prop47
 90
       50
102
RTVSPost2010PropOp47
 70
     1
102
RTVSPost2010Prop48
 90
       50
102
RTVSPost2010PropOp48
 70
     1
102
RTVSPost2010Prop49
280
     0
102
RTVSPost2010PropOp49
 70
     1
102
RTVSPost2010Prop50
 90
       50
102
RTVSPost2010PropOp50
 70
     1
102
RTVSPost2010Prop51ColorIndex
 90
      256
102
RTVSPost2010Prop51ColorRGB
 90
-16777216
102
RTVSPost2010PropOp51
 70
     0
102
RTVSPost2010Prop52
140
1.0
102
RTVSPost2010PropOp52
 70
     0
102
RTVSPost2010Prop53
 90
        2
102
RTVSPost2010PropOp53
 70
     1
102
RTVSPost2010Prop54
  1
strokes_ogs.tif
102
RTVSPost2010PropOp54
 70
     1
102
RTVSPost2010Prop55
280
     0
102
RTVSPost2010PropOp55
 70
     1
102
RTVSPost2010Prop56
140
1.0
102
RTVSPost2010PropOp56
 70
     1
102
RTVSPost2010Prop57
140
1.0
102
RTVSPost2010PropOp57
 70
     1
  0
XRECORD
  5
4A9
102
{ACAD_REACTORS
330
4A8
102
}
330
4A8
100
AcDbXrecord
280
     1
102
RTVSPropertyOp0
 70
     1
102
RTVSPropertyOp1
 70
     1
102
RTVSPropertyOp2
 70
     1
102
RTVSPropertyOp3
 70
     1
102
RTVSPropertyOp4
 70
     1
102
RTVSPropertyOp5
 70
     1
102
RTVSPropertyOp6
 70
     1
102
RTVSPropertyOp7
 70
     1
102
RTVSPropertyOp8
 70
     1
102
RTVSPropertyOp9
 70
     1
102
RTVSPropertyOp10
 70
     1
102
RTVSPropertyOp11
 70
     1
102
RTVSPropertyOp12
 70
     1
102
RTVSPropertyOp13
 70
     1
102
RTVSPropertyOp14
 70
     1
102
RTVSPropertyOp15
 70
     1
102
RTVSPropertyOp16
 70
     1
102
RTVSPropertyOp17
 70
     1
102
RTVSPropertyOp18
 70
     1
102
RTVSPropertyOp19
 70
     1
102
RTVSPropertyOp20
 70
     1
102
RTVSPropertyOp21
 70
     1
102
RTVSPropertyOp22
 70
     1
102
RTVSPropertyOp23
 70
     1
102
RTVSPropertyOp24
 70
     1
102
RTVSPropertyOp25
 70
     1
102
RTVSPropertyOp26
 70
     1
102
RTVSPropertyOp27
 70
     1
102
RTVSPropertyOp28
 70
     1
102
RTVSPropertyOp29
 70
     1
102
RTVSPropertyOp30
 70
     1
102
RTVSPropertyOp31
 70
     1
102
RTVSPropertyOp32
 70
     1
102
RTVSPropertyOp33
 70
     1
102
RTVSPropertyOp34
 70
     1
102
RTVSPropertyOp35
 70
     1
102
RTVSPropertyOp36
 70
     1
102
RTVSPropertyOp37
 70
     1
102
RTVSPropertyOp38
 70
     1
102
RTVSPropertyOp39
 70
     1
102
RTVSPropertyOp40
 70
     1
102
RTVSPropertyOp41
 70
     1
102
RTVSPropertyOp42
 70
     1
102
RTVSPropertyOp43
 70
     1
102
RTVSPropertyOp44
 70
     1
102
RTVSPropertyOp45
 70
     1
102
RTVSPropertyOp46
 70
     1
102
RTVSPropertyOp47
 70
     1
102
RTVSPropertyOp48
 70
     1
102
RTVSPropertyOp49
 70
     1
102
RTVSPropertyOp50
 70
     1
102
RTVSPropertyOp51
 70
     0
102
RTVSPropertyOp52
 70
     0
102
RTVSPropertyOp53
 70
     1
102
RTVSPropertyOp54
 70
     1
102
RTVSPropertyOp55
 70
     1
102
RTVSPropertyOp56
 70
     1
102
RTVSPropertyOp57
 70
     1
102
RTVSPost2010Prop28
280
     0
102
RTVSPost2010PropOp28
 70
     1
102
RTVSPost2010Prop29
280
     1
102
RTVSPost2010PropOp29
 70
     1
102
RTVSPost2010Prop30
280
     1
102
RTVSPost2010PropOp30
 70
     1
102
RTVSPost2010Prop31
280
     0
102
RTVSPost2010PropOp31
 70
     1
102
RTVSPost2010Prop32
280
     0
102
RTVSPost2010PropOp32
 70
     1
102
RTVSPost2010Prop33
280
     0
102
RTVSPost2010PropOp33
 70
     1
102
RTVSPost2010Prop34
280
     0
102
RTVSPost2010PropOp34
 70
     1
102
RTVSPost2010Prop35
280
     0
102
RTVSPost2010PropOp35
 70
     1
102
RTVSPost2010Prop36
280
     0
102
RTVSPost2010PropOp36
 70
     1
102
RTVSPost2010Prop37
 90
       50
102
RTVSPost2010PropOp37
 70
     1
102
RTVSPost2010Prop38
140
0.0
102
RTVSPost2010PropOp38
 70
     1
102
RTVSPost2010Prop39
140
1.0
102
RTVSPost2010PropOp39
 70
     1
102
RTVSPost2010Prop40
 90
        0
102
RTVSPost2010PropOp40
 70
     1
102
RTVSPost2010Prop41ColorIndex
 90
       18
102
RTVSPost2010Prop41ColorRGB
 90
        0
102
RTVSPost2010PropOp41
 70
     1
102
RTVSPost2010Prop42
 90
       50
102
RTVSPost2010PropOp42
 70
     1
102
RTVSPost2010Prop43
 90
        3
102
RTVSPost2010PropOp43
 70
     1
102
RTVSPost2010Prop44ColorIndex
 90
        5
102
RTVSPost2010Prop44ColorRGB
 90
      255
102
RTVSPost2010PropOp44
 70
     1
102
RTVSPost2010Prop45
280
     0
102
RTVSPost2010PropOp45
 70
     1
102
RTVSPost2010Prop46
 90
       50
102
RTVSPost2010PropOp46
 70
     1
102
RTVSPost2010Prop47
 90
       50
102
RTVSPost2010PropOp47
 70
     1
102
RTVSPost2010Prop48
 90
       50
102
RTVSPost2010PropOp48
 70
     1
102
RTVSPost2010Prop49
280
     0
102
RTVSPost2010PropOp49
 70
     1
102
RTVSPost2010Prop50
 90
       50
102
RTVSPost2010PropOp50
 70
     1
102
RTVSPost2010Prop51ColorIndex
 90
      256
102
RTVSPost2010Prop51ColorRGB
 90
-16777216
102
RTVSPost2010PropOp51
 70
     0
102
RTVSPost2010Prop52
140
1.0
102
RTVSPost2010PropOp52
 70
     0
102
RTVSPost2010Prop53
 90
        2
102
RTVSPost2010PropOp53
 70
     1
102
RTVSPost2010Prop54
  1
strokes_ogs.tif
102
RTVSPost2010PropOp54
 70
     1
102
RTVSPost2010Prop55
280
     0
102
RTVSPost2010PropOp55
 70
     1
102
RTVSPost2010Prop56
140
1.0
102
RTVSPost2010PropOp56
 70
     1
102
RTVSPost2010Prop57
140
1.0
102
RTVSPost2010PropOp57
 70
     1
  0
XRECORD
  5
4AB
102
{ACAD_REACTORS
330
4AA
102
}
330
4AA
100
AcDbXrecord
280
     1
102
RTVSPropertyOp0
 70
     0
102
RTVSPropertyOp1
 70
     0
102
RTVSPropertyOp2
 70
     0
102
RTVSPropertyOp3
 70
     0
102
RTVSPropertyOp4
 70
     0
102
RTVSPropertyOp5
 70
     0
102
RTVSPropertyOp6
 70
     0
102
RTVSPropertyOp7
 70
     0
102
RTVSPropertyOp8
 70
     0
102
RTVSPropertyOp9
 70
     0
102
RTVSPropertyOp10
 70
     0
102
RTVSPropertyOp11
 70
     0
102
RTVSPropertyOp12
 70
     0
102
RTVSPropertyOp13
 70
     0
102
RTVSPropertyOp14
 70
     2
102
RTVSPropertyOp15
 70
     0
102
RTVSPropertyOp16
 70
     0
102
RTVSPropertyOp17
 70
     0
102
RTVSPropertyOp18
 70
     0
102
RTVSPropertyOp19
 70
     0
102
RTVSPropertyOp20
 70
     0
102
RTVSPropertyOp21
 70
     0
102
RTVSPropertyOp22
 70
     0
102
RTVSPropertyOp23
 70
     0
102
RTVSPropertyOp24
 70
     0
102
RTVSPropertyOp25
 70
     0
102
RTVSPropertyOp26
 70
     0
102
RTVSPropertyOp27
 70
     0
102
RTVSPropertyOp28
 70
     0
102
RTVSPropertyOp29
 70
     0
102
RTVSPropertyOp30
 70
     0
102
RTVSPropertyOp31
 70
     0
102
RTVSPropertyOp32
 70
     0
102
RTVSPropertyOp33
 70
     0
102
RTVSPropertyOp34
 70
     0
102
RTVSPropertyOp35
 70
     0
102
RTVSPropertyOp36
 70
     0
102
RTVSPropertyOp37
 70
     0
102
RTVSPropertyOp38
 70
     0
102
RTVSPropertyOp39
 70
     0
102
RTVSPropertyOp40
 70
     0
102
RTVSPropertyOp41
 70
     0
102
RTVSPropertyOp42
 70
     0
102
RTVSPropertyOp43
 70
     0
102
RTVSPropertyOp44
 70
     0
102
RTVSPropertyOp45
 70
     0
102
RTVSPropertyOp46
 70
     0
102
RTVSPropertyOp47
 70
     0
102
RTVSPropertyOp48
 70
     0
102
RTVSPropertyOp49
 70
     0
102
RTVSPropertyOp50
 70
     0
102
RTVSPropertyOp51
 70
     0
102
RTVSPropertyOp52
 70
     0
102
RTVSPropertyOp53
 70
     0
102
RTVSPropertyOp54
 70
     0
102
RTVSPropertyOp55
 70
     0
102
RTVSPropertyOp56
 70
     0
102
RTVSPropertyOp57
 70
     0
102
RTVSPost2010Prop28
280
     0
102
RTVSPost2010PropOp28
 70
     0
102
RTVSPost2010Prop29
280
     1
102
RTVSPost2010PropOp29
 70
     0
102
RTVSPost2010Prop30
280
     1
102
RTVSPost2010PropOp30
 70
     0
102
RTVSPost2010Prop31
280
     0
102
RTVSPost2010PropOp31
 70
     0
102
RTVSPost2010Prop32
280
     0
102
RTVSPost2010PropOp32
 70
     0
102
RTVSPost2010Prop33
280
     0
102
RTVSPost2010PropOp33
 70
     0
102
RTVSPost2010Prop34
280
     0
102
RTVSPost2010PropOp34
 70
     0
102
RTVSPost2010Prop35
280
     0
102
RTVSPost2010PropOp35
 70
     0
102
RTVSPost2010Prop36
280
     0
102
RTVSPost2010PropOp36
 70
     0
102
RTVSPost2010Prop37
 90
       50
102
RTVSPost2010PropOp37
 70
     0
102
RTVSPost2010Prop38
140
0.0
102
RTVSPost2010PropOp38
 70
     0
102
RTVSPost2010Prop39
140
1.0
102
RTVSPost2010PropOp39
 70
     0
102
RTVSPost2010Prop40
 90
        0
102
RTVSPost2010PropOp40
 70
     0
102
RTVSPost2010Prop41ColorIndex
 90
       18
102
RTVSPost2010Prop41ColorRGB
 90
        0
102
RTVSPost2010PropOp41
 70
     0
102
RTVSPost2010Prop42
 90
       50
102
RTVSPost2010PropOp42
 70
     0
102
RTVSPost2010Prop43
 90
        3
102
RTVSPost2010PropOp43
 70
     0
102
RTVSPost2010Prop44ColorIndex
 90
        5
102
RTVSPost2010Prop44ColorRGB
 90
      255
102
RTVSPost2010PropOp44
 70
     0
102
RTVSPost2010Prop45
280
     0
102
RTVSPost2010PropOp45
 70
     0
102
RTVSPost2010Prop46
 90
       50
102
RTVSPost2010PropOp46
 70
     0
102
RTVSPost2010Prop47
 90
       50
102
RTVSPost2010PropOp47
 70
     0
102
RTVSPost2010Prop48
 90
       50
102
RTVSPost2010PropOp48
 70
     0
102
RTVSPost2010Prop49
280
     0
102
RTVSPost2010PropOp49
 70
     0
102
RTVSPost2010Prop50
 90
       50
102
RTVSPost2010PropOp50
 70
     0
102
RTVSPost2010Prop51ColorIndex
 90
      256
102
RTVSPost2010Prop51ColorRGB
 90
-16777216
102
RTVSPost2010PropOp51
 70
     0
102
RTVSPost2010Prop52
140
1.0
102
RTVSPost2010PropOp52
 70
     0
102
RTVSPost2010Prop53
 90
        2
102
RTVSPost2010PropOp53
 70
     0
102
RTVSPost2010Prop54
  1
strokes_ogs.tif
102
RTVSPost2010PropOp54
 70
     0
102
RTVSPost2010Prop55
280
     0
102
RTVSPost2010PropOp55
 70
     0
102
RTVSPost2010Prop56
140
1.0
102
RTVSPost2010PropOp56
 70
     0
102
RTVSPost2010Prop57
140
1.0
102
RTVSPost2010PropOp57
 70
     0
  0
XRECORD
  5
4A1
102
{ACAD_REACTORS
330
4A0
102
}
330
4A0
100
AcDbXrecord
280
     1
102
RTVSPropertyOp0
 70
     1
102
RTVSPropertyOp1
 70
     1
102
RTVSPropertyOp2
 70
     1
102
RTVSPropertyOp3
 70
     1
102
RTVSPropertyOp4
 70
     1
102
RTVSPropertyOp5
 70
     1
102
RTVSPropertyOp6
 70
     1
102
RTVSPropertyOp7
 70
     1
102
RTVSPropertyOp8
 70
     1
102
RTVSPropertyOp9
 70
     1
102
RTVSPropertyOp10
 70
     1
102
RTVSPropertyOp11
 70
     1
102
RTVSPropertyOp12
 70
     1
102
RTVSPropertyOp13
 70
     1
102
RTVSPropertyOp14
 70
     1
102
RTVSPropertyOp15
 70
     1
102
RTVSPropertyOp16
 70
     1
102
RTVSPropertyOp17
 70
     1
102
RTVSPropertyOp18
 70
     1
102
RTVSPropertyOp19
 70
     1
102
RTVSPropertyOp20
 70
     1
102
RTVSPropertyOp21
 70
     1
102
RTVSPropertyOp22
 70
     1
102
RTVSPropertyOp23
 70
     1
102
RTVSPropertyOp24
 70
     1
102
RTVSPropertyOp25
 70
     1
102
RTVSPropertyOp26
 70
     1
102
RTVSPropertyOp27
 70
     1
102
RTVSPropertyOp28
 70
     1
102
RTVSPropertyOp29
 70
     1
102
RTVSPropertyOp30
 70
     1
102
RTVSPropertyOp31
 70
     1
102
RTVSPropertyOp32
 70
     1
102
RTVSPropertyOp33
 70
     1
102
RTVSPropertyOp34
 70
     1
102
RTVSPropertyOp35
 70
     1
102
RTVSPropertyOp36
 70
     1
102
RTVSPropertyOp37
 70
     1
102
RTVSPropertyOp38
 70
     1
102
RTVSPropertyOp39
 70
     1
102
RTVSPropertyOp40
 70
     1
102
RTVSPropertyOp41
 70
     1
102
RTVSPropertyOp42
 70
     1
102
RTVSPropertyOp43
 70
     1
102
RTVSPropertyOp44
 70
     1
102
RTVSPropertyOp45
 70
     1
102
RTVSPropertyOp46
 70
     1
102
RTVSPropertyOp47
 70
     1
102
RTVSPropertyOp48
 70
     1
102
RTVSPropertyOp49
 70
     1
102
RTVSPropertyOp50
 70
     1
102
RTVSPropertyOp51
 70
     0
102
RTVSPropertyOp52
 70
     0
102
RTVSPropertyOp53
 70
     1
102
RTVSPropertyOp54
 70
     1
102
RTVSPropertyOp55
 70
     1
102
RTVSPropertyOp56
 70
     1
102
RTVSPropertyOp57
 70
     1
102
RTVSPost2010Prop28
280
     0
102
RTVSPost2010PropOp28
 70
     1
102
RTVSPost2010Prop29
280
     1
102
RTVSPost2010PropOp29
 70
     1
102
RTVSPost2010Prop30
280
     1
102
RTVSPost2010PropOp30
 70
     1
102
RTVSPost2010Prop31
280
     0
102
RTVSPost2010PropOp31
 70
     1
102
RTVSPost2010Prop32
280
     0
102
RTVSPost2010PropOp32
 70
     1
102
RTVSPost2010Prop33
280
     0
102
RTVSPost2010PropOp33
 70
     1
102
RTVSPost2010Prop34
280
     0
102
RTVSPost2010PropOp34
 70
     1
102
RTVSPost2010Prop35
280
     0
102
RTVSPost2010PropOp35
 70
     1
102
RTVSPost2010Prop36
280
     0
102
RTVSPost2010PropOp36
 70
     1
102
RTVSPost2010Prop37
 90
       50
102
RTVSPost2010PropOp37
 70
     1
102
RTVSPost2010Prop38
140
0.0
102
RTVSPost2010PropOp38
 70
     1
102
RTVSPost2010Prop39
140
1.0
102
RTVSPost2010PropOp39
 70
     1
102
RTVSPost2010Prop40
 90
        0
102
RTVSPost2010PropOp40
 70
     1
102
RTVSPost2010Prop41ColorIndex
 90
       18
102
RTVSPost2010Prop41ColorRGB
 90
        0
102
RTVSPost2010PropOp41
 70
     1
102
RTVSPost2010Prop42
 90
       50
102
RTVSPost2010PropOp42
 70
     1
102
RTVSPost2010Prop43
 90
        3
102
RTVSPost2010PropOp43
 70
     1
102
RTVSPost2010Prop44ColorIndex
 90
        5
102
RTVSPost2010Prop44ColorRGB
 90
      255
102
RTVSPost2010PropOp44
 70
     1
102
RTVSPost2010Prop45
280
     0
102
RTVSPost2010PropOp45
 70
     1
102
RTVSPost2010Prop46
 90
       50
102
RTVSPost2010PropOp46
 70
     1
102
RTVSPost2010Prop47
 90
       50
102
RTVSPost2010PropOp47
 70
     1
102
RTVSPost2010Prop48
 90
       50
102
RTVSPost2010PropOp48
 70
     1
102
RTVSPost2010Prop49
280
     0
102
RTVSPost2010PropOp49
 70
     1
102
RTVSPost2010Prop50
 90
       50
102
RTVSPost2010PropOp50
 70
     1
102
RTVSPost2010Prop51ColorIndex
 90
      256
102
RTVSPost2010Prop51ColorRGB
 90
-16777216
102
RTVSPost2010PropOp51
 70
     0
102
RTVSPost2010Prop52
140
1.0
102
RTVSPost2010PropOp52
 70
     0
102
RTVSPost2010Prop53
 90
        2
102
RTVSPost2010PropOp53
 70
     1
102
RTVSPost2010Prop54
  1
strokes_ogs.tif
102
RTVSPost2010PropOp54
 70
     1
102
RTVSPost2010Prop55
280
     0
102
RTVSPost2010PropOp55
 70
     1
102
RTVSPost2010Prop56
140
1.0
102
RTVSPost2010PropOp56
 70
     1
102
RTVSPost2010Prop57
140
1.0
102
RTVSPost2010PropOp57
 70
     1
  0
XRECORD
  5
4BB
102
{ACAD_REACTORS
330
4BA
102
}
330
4BA
100
AcDbXrecord
280
     1
102
RTVSPropertyOp0
 70
     1
102
RTVSPropertyOp1
 70
     1
102
RTVSPropertyOp2
 70
     1
102
RTVSPropertyOp3
 70
     1
102
RTVSPropertyOp4
 70
     1
102
RTVSPropertyOp5
 70
     1
102
RTVSPropertyOp6
 70
     1
102
RTVSPropertyOp7
 70
     1
102
RTVSPropertyOp8
 70
     1
102
RTVSPropertyOp9
 70
     1
102
RTVSPropertyOp10
 70
     1
102
RTVSPropertyOp11
 70
     1
102
RTVSPropertyOp12
 70
     1
102
RTVSPropertyOp13
 70
     1
102
RTVSPropertyOp14
 70
     1
102
RTVSPropertyOp15
 70
     1
102
RTVSPropertyOp16
 70
     1
102
RTVSPropertyOp17
 70
     1
102
RTVSPropertyOp18
 70
     1
102
RTVSPropertyOp19
 70
     1
102
RTVSPropertyOp20
 70
     1
102
RTVSPropertyOp21
 70
     1
102
RTVSPropertyOp22
 70
     1
102
RTVSPropertyOp23
 70
     1
102
RTVSPropertyOp24
 70
     1
102
RTVSPropertyOp25
 70
     1
102
RTVSPropertyOp26
 70
     1
102
RTVSPropertyOp27
 70
     1
102
RTVSPropertyOp28
 70
     1
102
RTVSPropertyOp29
 70
     1
102
RTVSPropertyOp30
 70
     1
102
RTVSPropertyOp31
 70
     1
102
RTVSPropertyOp32
 70
     1
102
RTVSPropertyOp33
 70
     1
102
RTVSPropertyOp34
 70
     1
102
RTVSPropertyOp35
 70
     1
102
RTVSPropertyOp36
 70
     1
102
RTVSPropertyOp37
 70
     1
102
RTVSPropertyOp38
 70
     1
102
RTVSPropertyOp39
 70
     1
102
RTVSPropertyOp40
 70
     1
102
RTVSPropertyOp41
 70
     1
102
RTVSPropertyOp42
 70
     1
102
RTVSPropertyOp43
 70
     1
102
RTVSPropertyOp44
 70
     1
102
RTVSPropertyOp45
 70
     1
102
RTVSPropertyOp46
 70
     1
102
RTVSPropertyOp47
 70
     1
102
RTVSPropertyOp48
 70
     1
102
RTVSPropertyOp49
 70
     1
102
RTVSPropertyOp50
 70
     1
102
RTVSPropertyOp51
 70
     0
102
RTVSPropertyOp52
 70
     0
102
RTVSPropertyOp53
 70
     1
102
RTVSPropertyOp54
 70
     1
102
RTVSPropertyOp55
 70
     1
102
RTVSPropertyOp56
 70
     1
102
RTVSPropertyOp57
 70
     1
102
RTVSPost2010Prop28
280
     0
102
RTVSPost2010PropOp28
 70
     1
102
RTVSPost2010Prop29
280
     1
102
RTVSPost2010PropOp29
 70
     1
102
RTVSPost2010Prop30
280
     1
102
RTVSPost2010PropOp30
 70
     1
102
RTVSPost2010Prop31
280
     0
102
RTVSPost2010PropOp31
 70
     1
102
RTVSPost2010Prop32
280
     0
102
RTVSPost2010PropOp32
 70
     1
102
RTVSPost2010Prop33
280
     0
102
RTVSPost2010PropOp33
 70
     1
102
RTVSPost2010Prop34
280
     0
102
RTVSPost2010PropOp34
 70
     1
102
RTVSPost2010Prop35
280
     0
102
RTVSPost2010PropOp35
 70
     1
102
RTVSPost2010Prop36
280
     0
102
RTVSPost2010PropOp36
 70
     1
102
RTVSPost2010Prop37
 90
       50
102
RTVSPost2010PropOp37
 70
     1
102
RTVSPost2010Prop38
140
0.0
102
RTVSPost2010PropOp38
 70
     1
102
RTVSPost2010Prop39
140
1.0
102
RTVSPost2010PropOp39
 70
     1
102
RTVSPost2010Prop40
 90
        0
102
RTVSPost2010PropOp40
 70
     1
102
RTVSPost2010Prop41ColorIndex
 90
       18
102
RTVSPost2010Prop41ColorRGB
 90
        0
102
RTVSPost2010PropOp41
 70
     1
102
RTVSPost2010Prop42
 90
       50
102
RTVSPost2010PropOp42
 70
     1
102
RTVSPost2010Prop43
 90
        3
102
RTVSPost2010PropOp43
 70
     1
102
RTVSPost2010Prop44ColorIndex
 90
        5
102
RTVSPost2010Prop44ColorRGB
 90
      255
102
RTVSPost2010PropOp44
 70
     1
102
RTVSPost2010Prop45
280
     0
102
RTVSPost2010PropOp45
 70
     1
102
RTVSPost2010Prop46
 90
       50
102
RTVSPost2010PropOp46
 70
     1
102
RTVSPost2010Prop47
 90
       50
102
RTVSPost2010PropOp47
 70
     1
102
RTVSPost2010Prop48
 90
       50
102
RTVSPost2010PropOp48
 70
     1
102
RTVSPost2010Prop49
280
     0
102
RTVSPost2010PropOp49
 70
     1
102
RTVSPost2010Prop50
 90
       50
102
RTVSPost2010PropOp50
 70
     1
102
RTVSPost2010Prop51ColorIndex
 90
      256
102
RTVSPost2010Prop51ColorRGB
 90
-16777216
102
RTVSPost2010PropOp51
 70
     0
102
RTVSPost2010Prop52
140
1.0
102
RTVSPost2010PropOp52
 70
     0
102
RTVSPost2010Prop53
 90
        2
102
RTVSPost2010PropOp53
 70
     1
102
RTVSPost2010Prop54
  1
strokes_ogs.tif
102
RTVSPost2010PropOp54
 70
     1
102
RTVSPost2010Prop55
280
     0
102
RTVSPost2010PropOp55
 70
     1
102
RTVSPost2010Prop56
140
1.0
102
RTVSPost2010PropOp56
 70
     1
102
RTVSPost2010Prop57
140
1.0
102
RTVSPost2010PropOp57
 70
     1
  0
XRECORD
  5
4AD
102
{ACAD_REACTORS
330
4AC
102
}
330
4AC
100
AcDbXrecord
280
     1
102
RTVSPropertyOp0
 70
     0
102
RTVSPropertyOp1
 70
     0
102
RTVSPropertyOp2
 70
     0
102
RTVSPropertyOp3
 70
     0
102
RTVSPropertyOp4
 70
     0
102
RTVSPropertyOp5
 70
     0
102
RTVSPropertyOp6
 70
     0
102
RTVSPropertyOp7
 70
     0
102
RTVSPropertyOp8
 70
     0
102
RTVSPropertyOp9
 70
     0
102
RTVSPropertyOp10
 70
     0
102
RTVSPropertyOp11
 70
     0
102
RTVSPropertyOp12
 70
     0
102
RTVSPropertyOp13
 70
     0
102
RTVSPropertyOp14
 70
     2
102
RTVSPropertyOp15
 70
     0
102
RTVSPropertyOp16
 70
     0
102
RTVSPropertyOp17
 70
     0
102
RTVSPropertyOp18
 70
     0
102
RTVSPropertyOp19
 70
     0
102
RTVSPropertyOp20
 70
     0
102
RTVSPropertyOp21
 70
     0
102
RTVSPropertyOp22
 70
     0
102
RTVSPropertyOp23
 70
     0
102
RTVSPropertyOp24
 70
     0
102
RTVSPropertyOp25
 70
     0
102
RTVSPropertyOp26
 70
     0
102
RTVSPropertyOp27
 70
     0
102
RTVSPropertyOp28
 70
     0
102
RTVSPropertyOp29
 70
     0
102
RTVSPropertyOp30
 70
     0
102
RTVSPropertyOp31
 70
     0
102
RTVSPropertyOp32
 70
     0
102
RTVSPropertyOp33
 70
     0
102
RTVSPropertyOp34
 70
     0
102
RTVSPropertyOp35
 70
     0
102
RTVSPropertyOp36
 70
     0
102
RTVSPropertyOp37
 70
     0
102
RTVSPropertyOp38
 70
     0
102
RTVSPropertyOp39
 70
     0
102
RTVSPropertyOp40
 70
     0
102
RTVSPropertyOp41
 70
     0
102
RTVSPropertyOp42
 70
     0
102
RTVSPropertyOp43
 70
     0
102
RTVSPropertyOp44
 70
     0
102
RTVSPropertyOp45
 70
     0
102
RTVSPropertyOp46
 70
     0
102
RTVSPropertyOp47
 70
     0
102
RTVSPropertyOp48
 70
     0
102
RTVSPropertyOp49
 70
     0
102
RTVSPropertyOp50
 70
     0
102
RTVSPropertyOp51
 70
     0
102
RTVSPropertyOp52
 70
     0
102
RTVSPropertyOp53
 70
     0
102
RTVSPropertyOp54
 70
     0
102
RTVSPropertyOp55
 70
     0
102
RTVSPropertyOp56
 70
     0
102
RTVSPropertyOp57
 70
     0
102
RTVSPost2010Prop28
280
     0
102
RTVSPost2010PropOp28
 70
     0
102
RTVSPost2010Prop29
280
     1
102
RTVSPost2010PropOp29
 70
     0
102
RTVSPost2010Prop30
280
     1
102
RTVSPost2010PropOp30
 70
     0
102
RTVSPost2010Prop31
280
     0
102
RTVSPost2010PropOp31
 70
     0
102
RTVSPost2010Prop32
280
     0
102
RTVSPost2010PropOp32
 70
     0
102
RTVSPost2010Prop33
280
     0
102
RTVSPost2010PropOp33
 70
     0
102
RTVSPost2010Prop34
280
     0
102
RTVSPost2010PropOp34
 70
     0
102
RTVSPost2010Prop35
280
     0
102
RTVSPost2010PropOp35
 70
     0
102
RTVSPost2010Prop36
280
     0
102
RTVSPost2010PropOp36
 70
     0
102
RTVSPost2010Prop37
 90
       50
102
RTVSPost2010PropOp37
 70
     0
102
RTVSPost2010Prop38
140
0.0
102
RTVSPost2010PropOp38
 70
     0
102
RTVSPost2010Prop39
140
1.0
102
RTVSPost2010PropOp39
 70
     0
102
RTVSPost2010Prop40
 90
        0
102
RTVSPost2010PropOp40
 70
     0
102
RTVSPost2010Prop41ColorIndex
 90
       18
102
RTVSPost2010Prop41ColorRGB
 90
        0
102
RTVSPost2010PropOp41
 70
     0
102
RTVSPost2010Prop42
 90
       50
102
RTVSPost2010PropOp42
 70
     0
102
RTVSPost2010Prop43
 90
        3
102
RTVSPost2010PropOp43
 70
     0
102
RTVSPost2010Prop44ColorIndex
 90
        5
102
RTVSPost2010Prop44ColorRGB
 90
      255
102
RTVSPost2010PropOp44
 70
     0
102
RTVSPost2010Prop45
280
     0
102
RTVSPost2010PropOp45
 70
     0
102
RTVSPost2010Prop46
 90
       50
102
RTVSPost2010PropOp46
 70
     0
102
RTVSPost2010Prop47
 90
       50
102
RTVSPost2010PropOp47
 70
     0
102
RTVSPost2010Prop48
 90
       50
102
RTVSPost2010PropOp48
 70
     0
102
RTVSPost2010Prop49
280
     0
102
RTVSPost2010PropOp49
 70
     0
102
RTVSPost2010Prop50
 90
       50
102
RTVSPost2010PropOp50
 70
     0
102
RTVSPost2010Prop51ColorIndex
 90
      256
102
RTVSPost2010Prop51ColorRGB
 90
-16777216
102
RTVSPost2010PropOp51
 70
     0
102
RTVSPost2010Prop52
140
1.0
102
RTVSPost2010PropOp52
 70
     0
102
RTVSPost2010Prop53
 90
        2
102
RTVSPost2010PropOp53
 70
     0
102
RTVSPost2010Prop54
  1
strokes_ogs.tif
102
RTVSPost2010PropOp54
 70
     0
102
RTVSPost2010Prop55
280
     0
102
RTVSPost2010PropOp55
 70
     0
102
RTVSPost2010Prop56
140
1.0
102
RTVSPost2010PropOp56
 70
     0
102
RTVSPost2010Prop57
140
1.0
102
RTVSPost2010PropOp57
 70
     0
  0
XRECORD
  5
4A3
102
{ACAD_REACTORS
330
4A2
102
}
330
4A2
100
AcDbXrecord
280
     1
102
RTVSPropertyOp0
 70
     1
102
RTVSPropertyOp1
 70
     1
102
RTVSPropertyOp2
 70
     1
102
RTVSPropertyOp3
 70
     1
102
RTVSPropertyOp4
 70
     1
102
RTVSPropertyOp5
 70
     1
102
RTVSPropertyOp6
 70
     1
102
RTVSPropertyOp7
 70
     1
102
RTVSPropertyOp8
 70
     1
102
RTVSPropertyOp9
 70
     1
102
RTVSPropertyOp10
 70
     1
102
RTVSPropertyOp11
 70
     1
102
RTVSPropertyOp12
 70
     1
102
RTVSPropertyOp13
 70
     1
102
RTVSPropertyOp14
 70
     1
102
RTVSPropertyOp15
 70
     1
102
RTVSPropertyOp16
 70
     1
102
RTVSPropertyOp17
 70
     1
102
RTVSPropertyOp18
 70
     1
102
RTVSPropertyOp19
 70
     1
102
RTVSPropertyOp20
 70
     1
102
RTVSPropertyOp21
 70
     1
102
RTVSPropertyOp22
 70
     1
102
RTVSPropertyOp23
 70
     1
102
RTVSPropertyOp24
 70
     1
102
RTVSPropertyOp25
 70
     1
102
RTVSPropertyOp26
 70
     1
102
RTVSPropertyOp27
 70
     1
102
RTVSPropertyOp28
 70
     1
102
RTVSPropertyOp29
 70
     1
102
RTVSPropertyOp30
 70
     1
102
RTVSPropertyOp31
 70
     1
102
RTVSPropertyOp32
 70
     1
102
RTVSPropertyOp33
 70
     1
102
RTVSPropertyOp34
 70
     1
102
RTVSPropertyOp35
 70
     1
102
RTVSPropertyOp36
 70
     1
102
RTVSPropertyOp37
 70
     1
102
RTVSPropertyOp38
 70
     1
102
RTVSPropertyOp39
 70
     1
102
RTVSPropertyOp40
 70
     1
102
RTVSPropertyOp41
 70
     1
102
RTVSPropertyOp42
 70
     1
102
RTVSPropertyOp43
 70
     1
102
RTVSPropertyOp44
 70
     1
102
RTVSPropertyOp45
 70
     1
102
RTVSPropertyOp46
 70
     1
102
RTVSPropertyOp47
 70
     1
102
RTVSPropertyOp48
 70
     1
102
RTVSPropertyOp49
 70
     1
102
RTVSPropertyOp50
 70
     1
102
RTVSPropertyOp51
 70
     0
102
RTVSPropertyOp52
 70
     0
102
RTVSPropertyOp53
 70
     1
102
RTVSPropertyOp54
 70
     1
102
RTVSPropertyOp55
 70
     1
102
RTVSPropertyOp56
 70
     1
102
RTVSPropertyOp57
 70
     1
102
RTVSPost2010Prop28
280
     0
102
RTVSPost2010PropOp28
 70
     1
102
RTVSPost2010Prop29
280
     1
102
RTVSPost2010PropOp29
 70
     1
102
RTVSPost2010Prop30
280
     1
102
RTVSPost2010PropOp30
 70
     1
102
RTVSPost2010Prop31
280
     0
102
RTVSPost2010PropOp31
 70
     1
102
RTVSPost2010Prop32
280
     0
102
RTVSPost2010PropOp32
 70
     1
102
RTVSPost2010Prop33
280
     0
102
RTVSPost2010PropOp33
 70
     1
102
RTVSPost2010Prop34
280
     0
102
RTVSPost2010PropOp34
 70
     1
102
RTVSPost2010Prop35
280
     0
102
RTVSPost2010PropOp35
 70
     1
102
RTVSPost2010Prop36
280
     0
102
RTVSPost2010PropOp36
 70
     1
102
RTVSPost2010Prop37
 90
       50
102
RTVSPost2010PropOp37
 70
     1
102
RTVSPost2010Prop38
140
0.0
102
RTVSPost2010PropOp38
 70
     1
102
RTVSPost2010Prop39
140
1.0
102
RTVSPost2010PropOp39
 70
     1
102
RTVSPost2010Prop40
 90
        0
102
RTVSPost2010PropOp40
 70
     1
102
RTVSPost2010Prop41ColorIndex
 90
       18
102
RTVSPost2010Prop41ColorRGB
 90
        0
102
RTVSPost2010PropOp41
 70
     1
102
RTVSPost2010Prop42
 90
       50
102
RTVSPost2010PropOp42
 70
     1
102
RTVSPost2010Prop43
 90
        3
102
RTVSPost2010PropOp43
 70
     1
102
RTVSPost2010Prop44ColorIndex
 90
        5
102
RTVSPost2010Prop44ColorRGB
 90
      255
102
RTVSPost2010PropOp44
 70
     1
102
RTVSPost2010Prop45
280
     0
102
RTVSPost2010PropOp45
 70
     1
102
RTVSPost2010Prop46
 90
       50
102
RTVSPost2010PropOp46
 70
     1
102
RTVSPost2010Prop47
 90
       50
102
RTVSPost2010PropOp47
 70
     1
102
RTVSPost2010Prop48
 90
       50
102
RTVSPost2010PropOp48
 70
     1
102
RTVSPost2010Prop49
280
     0
102
RTVSPost2010PropOp49
 70
     1
102
RTVSPost2010Prop50
 90
       50
102
RTVSPost2010PropOp50
 70
     1
102
RTVSPost2010Prop51ColorIndex
 90
      256
102
RTVSPost2010Prop51ColorRGB
 90
-16777216
102
RTVSPost2010PropOp51
 70
     0
102
RTVSPost2010Prop52
140
1.0
102
RTVSPost2010PropOp52
 70
     0
102
RTVSPost2010Prop53
 90
        2
102
RTVSPost2010PropOp53
 70
     1
102
RTVSPost2010Prop54
  1
strokes_ogs.tif
102
RTVSPost2010PropOp54
 70
     1
102
RTVSPost2010Prop55
280
     0
102
RTVSPost2010PropOp55
 70
     1
102
RTVSPost2010Prop56
140
1.0
102
RTVSPost2010PropOp56
 70
     1
102
RTVSPost2010Prop57
140
1.0
102
RTVSPost2010PropOp57
 70
     1
  0
XRECORD
  5
4B9
102
{ACAD_REACTORS
330
4B8
102
}
330
4B8
100
AcDbXrecord
280
     1
102
RTVSPropertyOp0
 70
     1
102
RTVSPropertyOp1
 70
     1
102
RTVSPropertyOp2
 70
     1
102
RTVSPropertyOp3
 70
     1
102
RTVSPropertyOp4
 70
     1
102
RTVSPropertyOp5
 70
     1
102
RTVSPropertyOp6
 70
     1
102
RTVSPropertyOp7
 70
     1
102
RTVSPropertyOp8
 70
     1
102
RTVSPropertyOp9
 70
     1
102
RTVSPropertyOp10
 70
     1
102
RTVSPropertyOp11
 70
     1
102
RTVSPropertyOp12
 70
     1
102
RTVSPropertyOp13
 70
     1
102
RTVSPropertyOp14
 70
     1
102
RTVSPropertyOp15
 70
     1
102
RTVSPropertyOp16
 70
     1
102
RTVSPropertyOp17
 70
     1
102
RTVSPropertyOp18
 70
     1
102
RTVSPropertyOp19
 70
     1
102
RTVSPropertyOp20
 70
     1
102
RTVSPropertyOp21
 70
     1
102
RTVSPropertyOp22
 70
     1
102
RTVSPropertyOp23
 70
     1
102
RTVSPropertyOp24
 70
     1
102
RTVSPropertyOp25
 70
     1
102
RTVSPropertyOp26
 70
     1
102
RTVSPropertyOp27
 70
     1
102
RTVSPropertyOp28
 70
     1
102
RTVSPropertyOp29
 70
     1
102
RTVSPropertyOp30
 70
     1
102
RTVSPropertyOp31
 70
     1
102
RTVSPropertyOp32
 70
     1
102
RTVSPropertyOp33
 70
     1
102
RTVSPropertyOp34
 70
     1
102
RTVSPropertyOp35
 70
     1
102
RTVSPropertyOp36
 70
     1
102
RTVSPropertyOp37
 70
     1
102
RTVSPropertyOp38
 70
     1
102
RTVSPropertyOp39
 70
     1
102
RTVSPropertyOp40
 70
     1
102
RTVSPropertyOp41
 70
     1
102
RTVSPropertyOp42
 70
     1
102
RTVSPropertyOp43
 70
     1
102
RTVSPropertyOp44
 70
     1
102
RTVSPropertyOp45
 70
     1
102
RTVSPropertyOp46
 70
     1
102
RTVSPropertyOp47
 70
     1
102
RTVSPropertyOp48
 70
     1
102
RTVSPropertyOp49
 70
     1
102
RTVSPropertyOp50
 70
     1
102
RTVSPropertyOp51
 70
     0
102
RTVSPropertyOp52
 70
     0
102
RTVSPropertyOp53
 70
     1
102
RTVSPropertyOp54
 70
     1
102
RTVSPropertyOp55
 70
     1
102
RTVSPropertyOp56
 70
     1
102
RTVSPropertyOp57
 70
     1
102
RTVSPost2010Prop28
280
     0
102
RTVSPost2010PropOp28
 70
     1
102
RTVSPost2010Prop29
280
     1
102
RTVSPost2010PropOp29
 70
     1
102
RTVSPost2010Prop30
280
     1
102
RTVSPost2010PropOp30
 70
     1
102
RTVSPost2010Prop31
280
     0
102
RTVSPost2010PropOp31
 70
     1
102
RTVSPost2010Prop32
280
     0
102
RTVSPost2010PropOp32
 70
     1
102
RTVSPost2010Prop33
280
     0
102
RTVSPost2010PropOp33
 70
     1
102
RTVSPost2010Prop34
280
     0
102
RTVSPost2010PropOp34
 70
     1
102
RTVSPost2010Prop35
280
     0
102
RTVSPost2010PropOp35
 70
     1
102
RTVSPost2010Prop36
280
     0
102
RTVSPost2010PropOp36
 70
     1
102
RTVSPost2010Prop37
 90
       50
102
RTVSPost2010PropOp37
 70
     1
102
RTVSPost2010Prop38
140
0.0
102
RTVSPost2010PropOp38
 70
     1
102
RTVSPost2010Prop39
140
1.0
102
RTVSPost2010PropOp39
 70
     1
102
RTVSPost2010Prop40
 90
        0
102
RTVSPost2010PropOp40
 70
     1
102
RTVSPost2010Prop41ColorIndex
 90
       18
102
RTVSPost2010Prop41ColorRGB
 90
        0
102
RTVSPost2010PropOp41
 70
     1
102
RTVSPost2010Prop42
 90
       50
102
RTVSPost2010PropOp42
 70
     1
102
RTVSPost2010Prop43
 90
        3
102
RTVSPost2010PropOp43
 70
     1
102
RTVSPost2010Prop44ColorIndex
 90
        5
102
RTVSPost2010Prop44ColorRGB
 90
      255
102
RTVSPost2010PropOp44
 70
     1
102
RTVSPost2010Prop45
280
     0
102
RTVSPost2010PropOp45
 70
     1
102
RTVSPost2010Prop46
 90
       50
102
RTVSPost2010PropOp46
 70
     1
102
RTVSPost2010Prop47
 90
       50
102
RTVSPost2010PropOp47
 70
     1
102
RTVSPost2010Prop48
 90
       50
102
RTVSPost2010PropOp48
 70
     1
102
RTVSPost2010Prop49
280
     0
102
RTVSPost2010PropOp49
 70
     1
102
RTVSPost2010Prop50
 90
       50
102
RTVSPost2010PropOp50
 70
     1
102
RTVSPost2010Prop51ColorIndex
 90
      256
102
RTVSPost2010Prop51ColorRGB
 90
-16777216
102
RTVSPost2010PropOp51
 70
     0
102
RTVSPost2010Prop52
140
1.0
102
RTVSPost2010PropOp52
 70
     0
102
RTVSPost2010Prop53
 90
        2
102
RTVSPost2010PropOp53
 70
     1
102
RTVSPost2010Prop54
  1
strokes_ogs.tif
102
RTVSPost2010PropOp54
 70
     1
102
RTVSPost2010Prop55
280
     0
102
RTVSPost2010PropOp55
 70
     1
102
RTVSPost2010Prop56
140
1.0
102
RTVSPost2010PropOp56
 70
     1
102
RTVSPost2010Prop57
140
1.0
102
RTVSPost2010PropOp57
 70
     1
  0
XRECORD
  5
4B7
102
{ACAD_REACTORS
330
4B6
102
}
330
4B6
100
AcDbXrecord
280
     1
102
RTVSPropertyOp0
 70
     1
102
RTVSPropertyOp1
 70
     1
102
RTVSPropertyOp2
 70
     1
102
RTVSPropertyOp3
 70
     1
102
RTVSPropertyOp4
 70
     1
102
RTVSPropertyOp5
 70
     1
102
RTVSPropertyOp6
 70
     1
102
RTVSPropertyOp7
 70
     1
102
RTVSPropertyOp8
 70
     1
102
RTVSPropertyOp9
 70
     1
102
RTVSPropertyOp10
 70
     1
102
RTVSPropertyOp11
 70
     1
102
RTVSPropertyOp12
 70
     1
102
RTVSPropertyOp13
 70
     1
102
RTVSPropertyOp14
 70
     1
102
RTVSPropertyOp15
 70
     1
102
RTVSPropertyOp16
 70
     1
102
RTVSPropertyOp17
 70
     1
102
RTVSPropertyOp18
 70
     1
102
RTVSPropertyOp19
 70
     1
102
RTVSPropertyOp20
 70
     1
102
RTVSPropertyOp21
 70
     1
102
RTVSPropertyOp22
 70
     1
102
RTVSPropertyOp23
 70
     1
102
RTVSPropertyOp24
 70
     1
102
RTVSPropertyOp25
 70
     1
102
RTVSPropertyOp26
 70
     1
102
RTVSPropertyOp27
 70
     1
102
RTVSPropertyOp28
 70
     1
102
RTVSPropertyOp29
 70
     1
102
RTVSPropertyOp30
 70
     1
102
RTVSPropertyOp31
 70
     1
102
RTVSPropertyOp32
 70
     1
102
RTVSPropertyOp33
 70
     1
102
RTVSPropertyOp34
 70
     1
102
RTVSPropertyOp35
 70
     1
102
RTVSPropertyOp36
 70
     1
102
RTVSPropertyOp37
 70
     1
102
RTVSPropertyOp38
 70
     1
102
RTVSPropertyOp39
 70
     1
102
RTVSPropertyOp40
 70
     1
102
RTVSPropertyOp41
 70
     1
102
RTVSPropertyOp42
 70
     1
102
RTVSPropertyOp43
 70
     1
102
RTVSPropertyOp44
 70
     1
102
RTVSPropertyOp45
 70
     1
102
RTVSPropertyOp46
 70
     1
102
RTVSPropertyOp47
 70
     1
102
RTVSPropertyOp48
 70
     1
102
RTVSPropertyOp49
 70
     1
102
RTVSPropertyOp50
 70
     1
102
RTVSPropertyOp51
 70
     0
102
RTVSPropertyOp52
 70
     0
102
RTVSPropertyOp53
 70
     1
102
RTVSPropertyOp54
 70
     1
102
RTVSPropertyOp55
 70
     1
102
RTVSPropertyOp56
 70
     1
102
RTVSPropertyOp57
 70
     1
102
RTVSPost2010Prop28
280
     0
102
RTVSPost2010PropOp28
 70
     1
102
RTVSPost2010Prop29
280
     1
102
RTVSPost2010PropOp29
 70
     1
102
RTVSPost2010Prop30
280
     1
102
RTVSPost2010PropOp30
 70
     1
102
RTVSPost2010Prop31
280
     0
102
RTVSPost2010PropOp31
 70
     1
102
RTVSPost2010Prop32
280
     0
102
RTVSPost2010PropOp32
 70
     1
102
RTVSPost2010Prop33
280
     0
102
RTVSPost2010PropOp33
 70
     1
102
RTVSPost2010Prop34
280
     0
102
RTVSPost2010PropOp34
 70
     1
102
RTVSPost2010Prop35
280
     0
102
RTVSPost2010PropOp35
 70
     1
102
RTVSPost2010Prop36
280
     0
102
RTVSPost2010PropOp36
 70
     1
102
RTVSPost2010Prop37
 90
       50
102
RTVSPost2010PropOp37
 70
     1
102
RTVSPost2010Prop38
140
0.0
102
RTVSPost2010PropOp38
 70
     1
102
RTVSPost2010Prop39
140
1.0
102
RTVSPost2010PropOp39
 70
     1
102
RTVSPost2010Prop40
 90
        0
102
RTVSPost2010PropOp40
 70
     1
102
RTVSPost2010Prop41ColorIndex
 90
       18
102
RTVSPost2010Prop41ColorRGB
 90
        0
102
RTVSPost2010PropOp41
 70
     1
102
RTVSPost2010Prop42
 90
       50
102
RTVSPost2010PropOp42
 70
     1
102
RTVSPost2010Prop43
 90
        3
102
RTVSPost2010PropOp43
 70
     1
102
RTVSPost2010Prop44ColorIndex
 90
        5
102
RTVSPost2010Prop44ColorRGB
 90
      255
102
RTVSPost2010PropOp44
 70
     1
102
RTVSPost2010Prop45
280
     0
102
RTVSPost2010PropOp45
 70
     1
102
RTVSPost2010Prop46
 90
       50
102
RTVSPost2010PropOp46
 70
     1
102
RTVSPost2010Prop47
 90
       50
102
RTVSPost2010PropOp47
 70
     1
102
RTVSPost2010Prop48
 90
       50
102
RTVSPost2010PropOp48
 70
     1
102
RTVSPost2010Prop49
280
     0
102
RTVSPost2010PropOp49
 70
     1
102
RTVSPost2010Prop50
 90
       50
102
RTVSPost2010PropOp50
 70
     1
102
RTVSPost2010Prop51ColorIndex
 90
      256
102
RTVSPost2010Prop51ColorRGB
 90
-16777216
102
RTVSPost2010PropOp51
 70
     0
102
RTVSPost2010Prop52
140
1.0
102
RTVSPost2010PropOp52
 70
     0
102
RTVSPost2010Prop53
 90
        2
102
RTVSPost2010PropOp53
 70
     1
102
RTVSPost2010Prop54
  1
strokes_ogs.tif
102
RTVSPost2010PropOp54
 70
     1
102
RTVSPost2010Prop55
280
     0
102
RTVSPost2010PropOp55
 70
     1
102
RTVSPost2010Prop56
140
1.0
102
RTVSPost2010PropOp56
 70
     1
102
RTVSPost2010Prop57
140
1.0
102
RTVSPost2010PropOp57
 70
     1
  0
XRECORD
  5
4B1
102
{ACAD_REACTORS
330
4B0
102
}
330
4B0
100
AcDbXrecord
280
     1
102
RTVSPropertyOp0
 70
     1
102
RTVSPropertyOp1
 70
     1
102
RTVSPropertyOp2
 70
     1
102
RTVSPropertyOp3
 70
     1
102
RTVSPropertyOp4
 70
     1
102
RTVSPropertyOp5
 70
     1
102
RTVSPropertyOp6
 70
     1
102
RTVSPropertyOp7
 70
     1
102
RTVSPropertyOp8
 70
     1
102
RTVSPropertyOp9
 70
     1
102
RTVSPropertyOp10
 70
     1
102
RTVSPropertyOp11
 70
     1
102
RTVSPropertyOp12
 70
     1
102
RTVSPropertyOp13
 70
     1
102
RTVSPropertyOp14
 70
     1
102
RTVSPropertyOp15
 70
     1
102
RTVSPropertyOp16
 70
     1
102
RTVSPropertyOp17
 70
     1
102
RTVSPropertyOp18
 70
     1
102
RTVSPropertyOp19
 70
     1
102
RTVSPropertyOp20
 70
     1
102
RTVSPropertyOp21
 70
     1
102
RTVSPropertyOp22
 70
     1
102
RTVSPropertyOp23
 70
     1
102
RTVSPropertyOp24
 70
     1
102
RTVSPropertyOp25
 70
     1
102
RTVSPropertyOp26
 70
     1
102
RTVSPropertyOp27
 70
     1
102
RTVSPropertyOp28
 70
     1
102
RTVSPropertyOp29
 70
     1
102
RTVSPropertyOp30
 70
     1
102
RTVSPropertyOp31
 70
     1
102
RTVSPropertyOp32
 70
     1
102
RTVSPropertyOp33
 70
     1
102
RTVSPropertyOp34
 70
     1
102
RTVSPropertyOp35
 70
     1
102
RTVSPropertyOp36
 70
     1
102
RTVSPropertyOp37
 70
     1
102
RTVSPropertyOp38
 70
     1
102
RTVSPropertyOp39
 70
     1
102
RTVSPropertyOp40
 70
     1
102
RTVSPropertyOp41
 70
     1
102
RTVSPropertyOp42
 70
     1
102
RTVSPropertyOp43
 70
     1
102
RTVSPropertyOp44
 70
     1
102
RTVSPropertyOp45
 70
     1
102
RTVSPropertyOp46
 70
     1
102
RTVSPropertyOp47
 70
     1
102
RTVSPropertyOp48
 70
     1
102
RTVSPropertyOp49
 70
     1
102
RTVSPropertyOp50
 70
     1
102
RTVSPropertyOp51
 70
     0
102
RTVSPropertyOp52
 70
     0
102
RTVSPropertyOp53
 70
     1
102
RTVSPropertyOp54
 70
     1
102
RTVSPropertyOp55
 70
     1
102
RTVSPropertyOp56
 70
     1
102
RTVSPropertyOp57
 70
     1
102
RTVSPost2010Prop28
280
     0
102
RTVSPost2010PropOp28
 70
     1
102
RTVSPost2010Prop29
280
     1
102
RTVSPost2010PropOp29
 70
     1
102
RTVSPost2010Prop30
280
     1
102
RTVSPost2010PropOp30
 70
     1
102
RTVSPost2010Prop31
280
     0
102
RTVSPost2010PropOp31
 70
     1
102
RTVSPost2010Prop32
280
     0
102
RTVSPost2010PropOp32
 70
     1
102
RTVSPost2010Prop33
280
     0
102
RTVSPost2010PropOp33
 70
     1
102
RTVSPost2010Prop34
280
     0
102
RTVSPost2010PropOp34
 70
     1
102
RTVSPost2010Prop35
280
     0
102
RTVSPost2010PropOp35
 70
     1
102
RTVSPost2010Prop36
280
     0
102
RTVSPost2010PropOp36
 70
     1
102
RTVSPost2010Prop37
 90
       50
102
RTVSPost2010PropOp37
 70
     1
102
RTVSPost2010Prop38
140
0.0
102
RTVSPost2010PropOp38
 70
     1
102
RTVSPost2010Prop39
140
1.0
102
RTVSPost2010PropOp39
 70
     1
102
RTVSPost2010Prop40
 90
        0
102
RTVSPost2010PropOp40
 70
     1
102
RTVSPost2010Prop41ColorIndex
 90
       18
102
RTVSPost2010Prop41ColorRGB
 90
        0
102
RTVSPost2010PropOp41
 70
     1
102
RTVSPost2010Prop42
 90
       50
102
RTVSPost2010PropOp42
 70
     1
102
RTVSPost2010Prop43
 90
        3
102
RTVSPost2010PropOp43
 70
     1
102
RTVSPost2010Prop44ColorIndex
 90
        5
102
RTVSPost2010Prop44ColorRGB
 90
      255
102
RTVSPost2010PropOp44
 70
     1
102
RTVSPost2010Prop45
280
     0
102
RTVSPost2010PropOp45
 70
     1
102
RTVSPost2010Prop46
 90
       50
102
RTVSPost2010PropOp46
 70
     1
102
RTVSPost2010Prop47
 90
       50
102
RTVSPost2010PropOp47
 70
     1
102
RTVSPost2010Prop48
 90
       50
102
RTVSPost2010PropOp48
 70
     1
102
RTVSPost2010Prop49
280
     0
102
RTVSPost2010PropOp49
 70
     1
102
RTVSPost2010Prop50
 90
       50
102
RTVSPost2010PropOp50
 70
     1
102
RTVSPost2010Prop51ColorIndex
 90
      256
102
RTVSPost2010Prop51ColorRGB
 90
-16777216
102
RTVSPost2010PropOp51
 70
     0
102
RTVSPost2010Prop52
140
1.0
102
RTVSPost2010PropOp52
 70
     0
102
RTVSPost2010Prop53
 90
        2
102
RTVSPost2010PropOp53
 70
     1
102
RTVSPost2010Prop54
  1
strokes_ogs.tif
102
RTVSPost2010PropOp54
 70
     1
102
RTVSPost2010Prop55
280
     0
102
RTVSPost2010PropOp55
 70
     1
102
RTVSPost2010Prop56
140
1.0
102
RTVSPost2010PropOp56
 70
     1
102
RTVSPost2010Prop57
140
1.0
102
RTVSPost2010PropOp57
 70
     1
  0
XRECORD
  5
4B3
102
{ACAD_REACTORS
330
4B2
102
}
330
4B2
100
AcDbXrecord
280
     1
102
RTVSPropertyOp0
 70
     1
102
RTVSPropertyOp1
 70
     1
102
RTVSPropertyOp2
 70
     1
102
RTVSPropertyOp3
 70
     1
102
RTVSPropertyOp4
 70
     1
102
RTVSPropertyOp5
 70
     1
102
RTVSPropertyOp6
 70
     1
102
RTVSPropertyOp7
 70
     1
102
RTVSPropertyOp8
 70
     1
102
RTVSPropertyOp9
 70
     1
102
RTVSPropertyOp10
 70
     1
102
RTVSPropertyOp11
 70
     1
102
RTVSPropertyOp12
 70
     1
102
RTVSPropertyOp13
 70
     1
102
RTVSPropertyOp14
 70
     1
102
RTVSPropertyOp15
 70
     1
102
RTVSPropertyOp16
 70
     1
102
RTVSPropertyOp17
 70
     1
102
RTVSPropertyOp18
 70
     1
102
RTVSPropertyOp19
 70
     1
102
RTVSPropertyOp20
 70
     1
102
RTVSPropertyOp21
 70
     1
102
RTVSPropertyOp22
 70
     1
102
RTVSPropertyOp23
 70
     1
102
RTVSPropertyOp24
 70
     1
102
RTVSPropertyOp25
 70
     1
102
RTVSPropertyOp26
 70
     1
102
RTVSPropertyOp27
 70
     1
102
RTVSPropertyOp28
 70
     1
102
RTVSPropertyOp29
 70
     1
102
RTVSPropertyOp30
 70
     1
102
RTVSPropertyOp31
 70
     1
102
RTVSPropertyOp32
 70
     1
102
RTVSPropertyOp33
 70
     1
102
RTVSPropertyOp34
 70
     1
102
RTVSPropertyOp35
 70
     1
102
RTVSPropertyOp36
 70
     1
102
RTVSPropertyOp37
 70
     1
102
RTVSPropertyOp38
 70
     1
102
RTVSPropertyOp39
 70
     1
102
RTVSPropertyOp40
 70
     1
102
RTVSPropertyOp41
 70
     1
102
RTVSPropertyOp42
 70
     1
102
RTVSPropertyOp43
 70
     1
102
RTVSPropertyOp44
 70
     1
102
RTVSPropertyOp45
 70
     1
102
RTVSPropertyOp46
 70
     1
102
RTVSPropertyOp47
 70
     1
102
RTVSPropertyOp48
 70
     1
102
RTVSPropertyOp49
 70
     1
102
RTVSPropertyOp50
 70
     1
102
RTVSPropertyOp51
 70
     0
102
RTVSPropertyOp52
 70
     0
102
RTVSPropertyOp53
 70
     1
102
RTVSPropertyOp54
 70
     1
102
RTVSPropertyOp55
 70
     1
102
RTVSPropertyOp56
 70
     1
102
RTVSPropertyOp57
 70
     1
102
RTVSPost2010Prop28
280
     0
102
RTVSPost2010PropOp28
 70
     1
102
RTVSPost2010Prop29
280
     1
102
RTVSPost2010PropOp29
 70
     1
102
RTVSPost2010Prop30
280
     1
102
RTVSPost2010PropOp30
 70
     1
102
RTVSPost2010Prop31
280
     0
102
RTVSPost2010PropOp31
 70
     1
102
RTVSPost2010Prop32
280
     0
102
RTVSPost2010PropOp32
 70
     1
102
RTVSPost2010Prop33
280
     0
102
RTVSPost2010PropOp33
 70
     1
102
RTVSPost2010Prop34
280
     0
102
RTVSPost2010PropOp34
 70
     1
102
RTVSPost2010Prop35
280
     0
102
RTVSPost2010PropOp35
 70
     1
102
RTVSPost2010Prop36
280
     0
102
RTVSPost2010PropOp36
 70
     1
102
RTVSPost2010Prop37
 90
       50
102
RTVSPost2010PropOp37
 70
     1
102
RTVSPost2010Prop38
140
0.0
102
RTVSPost2010PropOp38
 70
     1
102
RTVSPost2010Prop39
140
1.0
102
RTVSPost2010PropOp39
 70
     1
102
RTVSPost2010Prop40
 90
        0
102
RTVSPost2010PropOp40
 70
     1
102
RTVSPost2010Prop41ColorIndex
 90
       18
102
RTVSPost2010Prop41ColorRGB
 90
        0
102
RTVSPost2010PropOp41
 70
     1
102
RTVSPost2010Prop42
 90
       50
102
RTVSPost2010PropOp42
 70
     1
102
RTVSPost2010Prop43
 90
        3
102
RTVSPost2010PropOp43
 70
     1
102
RTVSPost2010Prop44ColorIndex
 90
        5
102
RTVSPost2010Prop44ColorRGB
 90
      255
102
RTVSPost2010PropOp44
 70
     1
102
RTVSPost2010Prop45
280
     0
102
RTVSPost2010PropOp45
 70
     1
102
RTVSPost2010Prop46
 90
       50
102
RTVSPost2010PropOp46
 70
     1
102
RTVSPost2010Prop47
 90
       50
102
RTVSPost2010PropOp47
 70
     1
102
RTVSPost2010Prop48
 90
       50
102
RTVSPost2010PropOp48
 70
     1
102
RTVSPost2010Prop49
280
     0
102
RTVSPost2010PropOp49
 70
     1
102
RTVSPost2010Prop50
 90
       50
102
RTVSPost2010PropOp50
 70
     1
102
RTVSPost2010Prop51ColorIndex
 90
      256
102
RTVSPost2010Prop51ColorRGB
 90
-16777216
102
RTVSPost2010PropOp51
 70
     0
102
RTVSPost2010Prop52
140
1.0
102
RTVSPost2010PropOp52
 70
     0
102
RTVSPost2010Prop53
 90
        2
102
RTVSPost2010PropOp53
 70
     1
102
RTVSPost2010Prop54
  1
strokes_ogs.tif
102
RTVSPost2010PropOp54
 70
     1
102
RTVSPost2010Prop55
280
     0
102
RTVSPost2010PropOp55
 70
     1
102
RTVSPost2010Prop56
140
1.0
102
RTVSPost2010PropOp56
 70
     1
102
RTVSPost2010Prop57
140
1.0
102
RTVSPost2010PropOp57
 70
     1
  0
XRECORD
  5
4A5
102
{ACAD_REACTORS
330
4A4
102
}
330
4A4
100
AcDbXrecord
280
     1
102
RTVSPropertyOp0
 70
     1
102
RTVSPropertyOp1
 70
     1
102
RTVSPropertyOp2
 70
     1
102
RTVSPropertyOp3
 70
     1
102
RTVSPropertyOp4
 70
     1
102
RTVSPropertyOp5
 70
     1
102
RTVSPropertyOp6
 70
     1
102
RTVSPropertyOp7
 70
     1
102
RTVSPropertyOp8
 70
     1
102
RTVSPropertyOp9
 70
     1
102
RTVSPropertyOp10
 70
     1
102
RTVSPropertyOp11
 70
     1
102
RTVSPropertyOp12
 70
     1
102
RTVSPropertyOp13
 70
     1
102
RTVSPropertyOp14
 70
     1
102
RTVSPropertyOp15
 70
     1
102
RTVSPropertyOp16
 70
     1
102
RTVSPropertyOp17
 70
     1
102
RTVSPropertyOp18
 70
     1
102
RTVSPropertyOp19
 70
     1
102
RTVSPropertyOp20
 70
     1
102
RTVSPropertyOp21
 70
     1
102
RTVSPropertyOp22
 70
     1
102
RTVSPropertyOp23
 70
     1
102
RTVSPropertyOp24
 70
     1
102
RTVSPropertyOp25
 70
     1
102
RTVSPropertyOp26
 70
     1
102
RTVSPropertyOp27
 70
     1
102
RTVSPropertyOp28
 70
     1
102
RTVSPropertyOp29
 70
     1
102
RTVSPropertyOp30
 70
     1
102
RTVSPropertyOp31
 70
     1
102
RTVSPropertyOp32
 70
     1
102
RTVSPropertyOp33
 70
     1
102
RTVSPropertyOp34
 70
     1
102
RTVSPropertyOp35
 70
     1
102
RTVSPropertyOp36
 70
     1
102
RTVSPropertyOp37
 70
     1
102
RTVSPropertyOp38
 70
     1
102
RTVSPropertyOp39
 70
     1
102
RTVSPropertyOp40
 70
     1
102
RTVSPropertyOp41
 70
     1
102
RTVSPropertyOp42
 70
     1
102
RTVSPropertyOp43
 70
     1
102
RTVSPropertyOp44
 70
     1
102
RTVSPropertyOp45
 70
     1
102
RTVSPropertyOp46
 70
     1
102
RTVSPropertyOp47
 70
     1
102
RTVSPropertyOp48
 70
     1
102
RTVSPropertyOp49
 70
     1
102
RTVSPropertyOp50
 70
     1
102
RTVSPropertyOp51
 70
     0
102
RTVSPropertyOp52
 70
     0
102
RTVSPropertyOp53
 70
     1
102
RTVSPropertyOp54
 70
     1
102
RTVSPropertyOp55
 70
     1
102
RTVSPropertyOp56
 70
     1
102
RTVSPropertyOp57
 70
     1
102
RTVSPost2010Prop28
280
     0
102
RTVSPost2010PropOp28
 70
     1
102
RTVSPost2010Prop29
280
     1
102
RTVSPost2010PropOp29
 70
     1
102
RTVSPost2010Prop30
280
     1
102
RTVSPost2010PropOp30
 70
     1
102
RTVSPost2010Prop31
280
     0
102
RTVSPost2010PropOp31
 70
     1
102
RTVSPost2010Prop32
280
     0
102
RTVSPost2010PropOp32
 70
     1
102
RTVSPost2010Prop33
280
     0
102
RTVSPost2010PropOp33
 70
     1
102
RTVSPost2010Prop34
280
     0
102
RTVSPost2010PropOp34
 70
     1
102
RTVSPost2010Prop35
280
     0
102
RTVSPost2010PropOp35
 70
     1
102
RTVSPost2010Prop36
280
     0
102
RTVSPost2010PropOp36
 70
     1
102
RTVSPost2010Prop37
 90
       50
102
RTVSPost2010PropOp37
 70
     1
102
RTVSPost2010Prop38
140
0.0
102
RTVSPost2010PropOp38
 70
     1
102
RTVSPost2010Prop39
140
1.0
102
RTVSPost2010PropOp39
 70
     1
102
RTVSPost2010Prop40
 90
        0
102
RTVSPost2010PropOp40
 70
     1
102
RTVSPost2010Prop41ColorIndex
 90
       18
102
RTVSPost2010Prop41ColorRGB
 90
        0
102
RTVSPost2010PropOp41
 70
     1
102
RTVSPost2010Prop42
 90
       50
102
RTVSPost2010PropOp42
 70
     1
102
RTVSPost2010Prop43
 90
        3
102
RTVSPost2010PropOp43
 70
     1
102
RTVSPost2010Prop44ColorIndex
 90
        5
102
RTVSPost2010Prop44ColorRGB
 90
      255
102
RTVSPost2010PropOp44
 70
     1
102
RTVSPost2010Prop45
280
     0
102
RTVSPost2010PropOp45
 70
     1
102
RTVSPost2010Prop46
 90
       50
102
RTVSPost2010PropOp46
 70
     1
102
RTVSPost2010Prop47
 90
       50
102
RTVSPost2010PropOp47
 70
     1
102
RTVSPost2010Prop48
 90
       50
102
RTVSPost2010PropOp48
 70
     1
102
RTVSPost2010Prop49
280
     0
102
RTVSPost2010PropOp49
 70
     1
102
RTVSPost2010Prop50
 90
       50
102
RTVSPost2010PropOp50
 70
     1
102
RTVSPost2010Prop51ColorIndex
 90
      256
102
RTVSPost2010Prop51ColorRGB
 90
-16777216
102
RTVSPost2010PropOp51
 70
     0
102
RTVSPost2010Prop52
140
1.0
102
RTVSPost2010PropOp52
 70
     0
102
RTVSPost2010Prop53
 90
        2
102
RTVSPost2010PropOp53
 70
     1
102
RTVSPost2010Prop54
  1
strokes_ogs.tif
102
RTVSPost2010PropOp54
 70
     1
102
RTVSPost2010Prop55
280
     0
102
RTVSPost2010PropOp55
 70
     1
102
RTVSPost2010Prop56
140
1.0
102
RTVSPost2010PropOp56
 70
     1
102
RTVSPost2010Prop57
140
1.0
102
RTVSPost2010PropOp57
 70
     1
  0
XRECORD
  5
4A7
102
{ACAD_REACTORS
330
4A6
102
}
330
4A6
100
AcDbXrecord
280
     1
102
RTVSPropertyOp0
 70
     1
102
RTVSPropertyOp1
 70
     1
102
RTVSPropertyOp2
 70
     1
102
RTVSPropertyOp3
 70
     1
102
RTVSPropertyOp4
 70
     1
102
RTVSPropertyOp5
 70
     1
102
RTVSPropertyOp6
 70
     1
102
RTVSPropertyOp7
 70
     1
102
RTVSPropertyOp8
 70
     1
102
RTVSPropertyOp9
 70
     1
102
RTVSPropertyOp10
 70
     1
102
RTVSPropertyOp11
 70
     1
102
RTVSPropertyOp12
 70
     1
102
RTVSPropertyOp13
 70
     1
102
RTVSPropertyOp14
 70
     1
102
RTVSPropertyOp15
 70
     1
102
RTVSPropertyOp16
 70
     1
102
RTVSPropertyOp17
 70
     1
102
RTVSPropertyOp18
 70
     1
102
RTVSPropertyOp19
 70
     1
102
RTVSPropertyOp20
 70
     1
102
RTVSPropertyOp21
 70
     1
102
RTVSPropertyOp22
 70
     1
102
RTVSPropertyOp23
 70
     1
102
RTVSPropertyOp24
 70
     1
102
RTVSPropertyOp25
 70
     1
102
RTVSPropertyOp26
 70
     1
102
RTVSPropertyOp27
 70
     1
102
RTVSPropertyOp28
 70
     1
102
RTVSPropertyOp29
 70
     1
102
RTVSPropertyOp30
 70
     1
102
RTVSPropertyOp31
 70
     1
102
RTVSPropertyOp32
 70
     1
102
RTVSPropertyOp33
 70
     1
102
RTVSPropertyOp34
 70
     1
102
RTVSPropertyOp35
 70
     1
102
RTVSPropertyOp36
 70
     1
102
RTVSPropertyOp37
 70
     1
102
RTVSPropertyOp38
 70
     1
102
RTVSPropertyOp39
 70
     1
102
RTVSPropertyOp40
 70
     1
102
RTVSPropertyOp41
 70
     1
102
RTVSPropertyOp42
 70
     1
102
RTVSPropertyOp43
 70
     1
102
RTVSPropertyOp44
 70
     1
102
RTVSPropertyOp45
 70
     1
102
RTVSPropertyOp46
 70
     1
102
RTVSPropertyOp47
 70
     1
102
RTVSPropertyOp48
 70
     1
102
RTVSPropertyOp49
 70
     1
102
RTVSPropertyOp50
 70
     1
102
RTVSPropertyOp51
 70
     0
102
RTVSPropertyOp52
 70
     0
102
RTVSPropertyOp53
 70
     1
102
RTVSPropertyOp54
 70
     1
102
RTVSPropertyOp55
 70
     1
102
RTVSPropertyOp56
 70
     1
102
RTVSPropertyOp57
 70
     1
102
RTVSPost2010Prop28
280
     0
102
RTVSPost2010PropOp28
 70
     1
102
RTVSPost2010Prop29
280
     1
102
RTVSPost2010PropOp29
 70
     1
102
RTVSPost2010Prop30
280
     1
102
RTVSPost2010PropOp30
 70
     1
102
RTVSPost2010Prop31
280
     0
102
RTVSPost2010PropOp31
 70
     1
102
RTVSPost2010Prop32
280
     0
102
RTVSPost2010PropOp32
 70
     1
102
RTVSPost2010Prop33
280
     0
102
RTVSPost2010PropOp33
 70
     1
102
RTVSPost2010Prop34
280
     0
102
RTVSPost2010PropOp34
 70
     1
102
RTVSPost2010Prop35
280
     0
102
RTVSPost2010PropOp35
 70
     1
102
RTVSPost2010Prop36
280
     0
102
RTVSPost2010PropOp36
 70
     1
102
RTVSPost2010Prop37
 90
       50
102
RTVSPost2010PropOp37
 70
     1
102
RTVSPost2010Prop38
140
0.0
102
RTVSPost2010PropOp38
 70
     1
102
RTVSPost2010Prop39
140
1.0
102
RTVSPost2010PropOp39
 70
     1
102
RTVSPost2010Prop40
 90
        0
102
RTVSPost2010PropOp40
 70
     1
102
RTVSPost2010Prop41ColorIndex
 90
       18
102
RTVSPost2010Prop41ColorRGB
 90
        0
102
RTVSPost2010PropOp41
 70
     1
102
RTVSPost2010Prop42
 90
       50
102
RTVSPost2010PropOp42
 70
     1
102
RTVSPost2010Prop43
 90
        3
102
RTVSPost2010PropOp43
 70
     1
102
RTVSPost2010Prop44ColorIndex
 90
        5
102
RTVSPost2010Prop44ColorRGB
 90
      255
102
RTVSPost2010PropOp44
 70
     1
102
RTVSPost2010Prop45
280
     0
102
RTVSPost2010PropOp45
 70
     1
102
RTVSPost2010Prop46
 90
       50
102
RTVSPost2010PropOp46
 70
     1
102
RTVSPost2010Prop47
 90
       50
102
RTVSPost2010PropOp47
 70
     1
102
RTVSPost2010Prop48
 90
       50
102
RTVSPost2010PropOp48
 70
     1
102
RTVSPost2010Prop49
280
     0
102
RTVSPost2010PropOp49
 70
     1
102
RTVSPost2010Prop50
 90
       50
102
RTVSPost2010PropOp50
 70
     1
102
RTVSPost2010Prop51ColorIndex
 90
      256
102
RTVSPost2010Prop51ColorRGB
 90
-16777216
102
RTVSPost2010PropOp51
 70
     0
102
RTVSPost2010Prop52
140
1.0
102
RTVSPost2010PropOp52
 70
     0
102
RTVSPost2010Prop53
 90
        2
102
RTVSPost2010PropOp53
 70
     1
102
RTVSPost2010Prop54
  1
strokes_ogs.tif
102
RTVSPost2010PropOp54
 70
     1
102
RTVSPost2010Prop55
280
     0
102
RTVSPost2010PropOp55
 70
     1
102
RTVSPost2010Prop56
140
1.0
102
RTVSPost2010PropOp56
 70
     1
102
RTVSPost2010Prop57
140
1.0
102
RTVSPost2010PropOp57
 70
     1
  0
XRECORD
  5
4B5
102
{ACAD_REACTORS
330
4B4
102
}
330
4B4
100
AcDbXrecord
280
     1
102
RTVSPropertyOp0
 70
     1
102
RTVSPropertyOp1
 70
     1
102
RTVSPropertyOp2
 70
     1
102
RTVSPropertyOp3
 70
     1
102
RTVSPropertyOp4
 70
     1
102
RTVSPropertyOp5
 70
     1
102
RTVSPropertyOp6
 70
     1
102
RTVSPropertyOp7
 70
     1
102
RTVSPropertyOp8
 70
     1
102
RTVSPropertyOp9
 70
     1
102
RTVSPropertyOp10
 70
     1
102
RTVSPropertyOp11
 70
     1
102
RTVSPropertyOp12
 70
     1
102
RTVSPropertyOp13
 70
     1
102
RTVSPropertyOp14
 70
     1
102
RTVSPropertyOp15
 70
     1
102
RTVSPropertyOp16
 70
     1
102
RTVSPropertyOp17
 70
     1
102
RTVSPropertyOp18
 70
     1
102
RTVSPropertyOp19
 70
     1
102
RTVSPropertyOp20
 70
     1
102
RTVSPropertyOp21
 70
     1
102
RTVSPropertyOp22
 70
     1
102
RTVSPropertyOp23
 70
     1
102
RTVSPropertyOp24
 70
     1
102
RTVSPropertyOp25
 70
     1
102
RTVSPropertyOp26
 70
     1
102
RTVSPropertyOp27
 70
     1
102
RTVSPropertyOp28
 70
     1
102
RTVSPropertyOp29
 70
     1
102
RTVSPropertyOp30
 70
     1
102
RTVSPropertyOp31
 70
     1
102
RTVSPropertyOp32
 70
     1
102
RTVSPropertyOp33
 70
     1
102
RTVSPropertyOp34
 70
     1
102
RTVSPropertyOp35
 70
     1
102
RTVSPropertyOp36
 70
     1
102
RTVSPropertyOp37
 70
     1
102
RTVSPropertyOp38
 70
     1
102
RTVSPropertyOp39
 70
     1
102
RTVSPropertyOp40
 70
     1
102
RTVSPropertyOp41
 70
     1
102
RTVSPropertyOp42
 70
     1
102
RTVSPropertyOp43
 70
     1
102
RTVSPropertyOp44
 70
     1
102
RTVSPropertyOp45
 70
     1
102
RTVSPropertyOp46
 70
     1
102
RTVSPropertyOp47
 70
     1
102
RTVSPropertyOp48
 70
     1
102
RTVSPropertyOp49
 70
     1
102
RTVSPropertyOp50
 70
     1
102
RTVSPropertyOp51
 70
     0
102
RTVSPropertyOp52
 70
     0
102
RTVSPropertyOp53
 70
     1
102
RTVSPropertyOp54
 70
     1
102
RTVSPropertyOp55
 70
     1
102
RTVSPropertyOp56
 70
     1
102
RTVSPropertyOp57
 70
     1
102
RTVSPost2010Prop28
280
     0
102
RTVSPost2010PropOp28
 70
     1
102
RTVSPost2010Prop29
280
     1
102
RTVSPost2010PropOp29
 70
     1
102
RTVSPost2010Prop30
280
     1
102
RTVSPost2010PropOp30
 70
     1
102
RTVSPost2010Prop31
280
     0
102
RTVSPost2010PropOp31
 70
     1
102
RTVSPost2010Prop32
280
     0
102
RTVSPost2010PropOp32
 70
     1
102
RTVSPost2010Prop33
280
     0
102
RTVSPost2010PropOp33
 70
     1
102
RTVSPost2010Prop34
280
     0
102
RTVSPost2010PropOp34
 70
     1
102
RTVSPost2010Prop35
280
     0
102
RTVSPost2010PropOp35
 70
     1
102
RTVSPost2010Prop36
280
     0
102
RTVSPost2010PropOp36
 70
     1
102
RTVSPost2010Prop37
 90
       50
102
RTVSPost2010PropOp37
 70
     1
102
RTVSPost2010Prop38
140
0.0
102
RTVSPost2010PropOp38
 70
     1
102
RTVSPost2010Prop39
140
1.0
102
RTVSPost2010PropOp39
 70
     1
102
RTVSPost2010Prop40
 90
        0
102
RTVSPost2010PropOp40
 70
     1
102
RTVSPost2010Prop41ColorIndex
 90
       18
102
RTVSPost2010Prop41ColorRGB
 90
        0
102
RTVSPost2010PropOp41
 70
     1
102
RTVSPost2010Prop42
 90
       50
102
RTVSPost2010PropOp42
 70
     1
102
RTVSPost2010Prop43
 90
        3
102
RTVSPost2010PropOp43
 70
     1
102
RTVSPost2010Prop44ColorIndex
 90
        5
102
RTVSPost2010Prop44ColorRGB
 90
      255
102
RTVSPost2010PropOp44
 70
     1
102
RTVSPost2010Prop45
280
     0
102
RTVSPost2010PropOp45
 70
     1
102
RTVSPost2010Prop46
 90
       50
102
RTVSPost2010PropOp46
 70
     1
102
RTVSPost2010Prop47
 90
       50
102
RTVSPost2010PropOp47
 70
     1
102
RTVSPost2010Prop48
 90
       50
102
RTVSPost2010PropOp48
 70
     1
102
RTVSPost2010Prop49
280
     0
102
RTVSPost2010PropOp49
 70
     1
102
RTVSPost2010Prop50
 90
       50
102
RTVSPost2010PropOp50
 70
     1
102
RTVSPost2010Prop51ColorIndex
 90
      256
102
RTVSPost2010Prop51ColorRGB
 90
-16777216
102
RTVSPost2010PropOp51
 70
     0
102
RTVSPost2010Prop52
140
1.0
102
RTVSPost2010PropOp52
 70
     0
102
RTVSPost2010Prop53
 90
        2
102
RTVSPost2010PropOp53
 70
     1
102
RTVSPost2010Prop54
  1
strokes_ogs.tif
102
RTVSPost2010PropOp54
 70
     1
102
RTVSPost2010Prop55
280
     0
102
RTVSPost2010PropOp55
 70
     1
102
RTVSPost2010Prop56
140
1.0
102
RTVSPost2010PropOp56
 70
     1
102
RTVSPost2010Prop57
140
1.0
102
RTVSPost2010PropOp57
 70
     1
  0
ENDSEC
  0
SECTION
  2
THUMBNAILIMAGE
 90
    17448
310
28000000800000008000000001000800000000000000000000000000000000000000000000000000FFFFFF000000FF0000FFFF0000FF0000FFFF0000FF000000FF00FF000000000080808000C0C0C0000000FF007F7FFF000000A5005252A50000007F003F3F7F0000004C0026264C000000260013132600003FFF007F9FFF
310
000029A5005267A500001F7F003F4F7F0000134C00262F4C000009260013172600007FFF007FBFFF000052A500527CA500003F7F003F5F7F0000264C0026394C0000132600131C260000BFFF007FDFFF00007CA5005291A500005F7F003F6F7F0000394C0026424C00001C26001321260000FFFF007FFFFF0000A5A50052A5
310
A500007F7F003F7F7F00004C4C00264C4C00002626001326260000FFBF007FFFDF0000A57C0052A59100007F5F003F7F6F00004C3900264C420000261C001326210000FF7F007FFFBF0000A5520052A57C00007F3F003F7F5F00004C2600264C39000026130013261C0000FF3F007FFF9F0000A5290052A56700007F1F003F
310
7F4F00004C1300264C2F00002609001326170000FF00007FFF7F0000A5000052A55200007F00003F7F3F00004C0000264C260000260000132613003FFF00009FFF7F0029A5000067A552001F7F00004F7F3F00134C00002F4C260009260000172613007FFF0000BFFF7F0052A500007CA552003F7F00005F7F3F00264C0000
310
394C2600132600001C261300BFFF0000DFFF7F007CA5000091A552005F7F00006F7F3F00394C0000424C26001C26000021261300FFFF0000FFFF7F00A5A50000A5A552007F7F00007F7F3F004C4C00004C4C26002626000026261300FFBF0000FFDF7F00A57C0000A59152007F5F00007F6F3F004C3900004C422600261C00
310
0026211300FF7F0000FFBF7F00A5520000A57C52007F3F00007F5F3F004C2600004C39260026130000261C1300FF3F0000FF9F7F00A5290000A56752007F1F00007F4F3F004C1300004C2F26002609000026171300FF000000FF7F7F00A5000000A55252007F0000007F3F3F004C0000004C2626002600000026131300FF00
310
3F00FF7F9F00A5002900A55267007F001F007F3F4F004C0013004C262F002600090026131700FF007F00FF7FBF00A5005200A5527C007F003F007F3F5F004C0026004C2639002600130026131C00FF00BF00FF7FDF00A5007C00A55291007F005F007F3F6F004C0039004C26420026001C0026132100FF00FF00FF7FFF00A5
310
00A500A552A5007F007F007F3F7F004C004C004C264C002600260026132600BF00FF00DF7FFF007C00A5009152A5005F007F006F3F7F0039004C0042264C001C002600211326007F00FF00BF7FFF005200A5007C52A5003F007F005F3F7F0026004C0039264C00130026001C1326003F00FF009F7FFF002900A5006752A500
310
1F007F004F3F7F0013004C002F264C000900260017132600000000002D2D2D005B5B5B0089898900B7B7B700B3B3B30000000000000000000000000000000000000000000000000000000000000000000000000000000000000000000000000000000000000000000000000000000000000000000000000000000000000000
310
00000000000000000000000000000000000000000000000000000000000000000000000000000000000000000000000000000000000000000000000000000000000000000000000000000000000000000000000000000000000000000000000000000000000000000000000000000000000000000000000000000000000000
310
00000000000000000000000000000000000000000000000000000000000000000000000000000000000000000000000000000000000000000000000000000000000000000000000000000000000000000000000000000000000000000000000000000000000000000000000000000000000000000000000000000000000000
310
00000000000000000000000000000000000000000000000000000000000000000000000000000000000000000000000000000000000000000000000000000000000000000000000000000000000000000000000000000000000000000000000000000000000000000000000000000000000000000000000000000000000000
310
00000000000000000000000000000000000000000000000000000000000000000000000000000000000000000000000000000000000000000000000000000000000000000000000000000000000000000000000000000000000000000000000000000000000000000000000000000000000000000000000000000000000000
310
00000000000000000000000000000000000000000000000000000000000000000000000000000000000000000000000000000000000000000000000000000000000000000000000000000000000000000000000000000000000000000000000000000000000000000000000000000000000000000000000000000000000000
310
00000000000000000000000000000000000000000000000000000000000000000000000000000000000000000000000000000000000000000000000000000000000000000000000000000000000000000000000000000000000000000000000000000000000000000000000000000000000000000000000000000000000000
310
00000000000000000000000000000000000000000000000000000000000000000000000000000000000000000000000000000000000000000000000000000000000000000000000000000000000000000000000000000000000000000000000000000000000000000000000000000000000000000000000000000000000000
310
00000000000000000000000000000000000000000000000000000000000000000000000000000000000000000000000000000000000000000000000000000000000000000000000000000000000000000000000000000000000000000000000000000000000000000000000000000000000000000000000000000000000000
310
00000000000000000000000000000000000000000000000000000000000000000000000000000000000000000000000000000000000000000000000000000000000000000000000000000000000000000000000000000000000000000000000000000000000000000000000000000000000000000000000000000000000000
310
00000000000000000000000000000000000000000000000000000000000000000000000000000000000000000000000000000000000000000000000000000000000000000000000000000000000000000000000000000000000000000000000000000000000000000000000000000000000000000000000000000000000000
310
00000000000000000000000000000000000000000000000000000000000000000000000000000000000000000000000000000000000000000000000000000000000000000000000000000000000000000000000000000000000000000000000000000000000000000000000000000000000000000000000000000000000000
310
00000000000000000000000000000000000000000000000000000000000000000000000000000000000000000000000000000000000000000000000000000000000000000000000000000000000000000000000000000000000000000000000000000000000000000000000000000000000000000000000000000000000000
310
00000000000000000000000000000000000000000000000000000000000000000000000000000000000000000000000000000000000000000000000000000000000000000000000000000000000000000000000000000000000000000000000000000000000000000000000000000000000000000000000000000000000000
310
00000000000000000000000000000000000000000000000000000000000000000000000000000000000000000000000000000000000000000000000000000000000000000000000000000000000000000000000000000000000000000000000000000000000000000000000000000000000000000000000000000000000000
310
00000000000000000000000000000000000000000000000000000000000000000000000000000000000000000000000000000000000000000000000000000000000000000000000000000000000000000000000000000000000000000000000000000000000000000000000000000000000000000000000000000000000000
310
00000000000000000000000000000000000000000000000000000000000000000000000000000000000000000000000000000000000000000000000000000000000000000000000000000000000000000000000000000000000000000000000000000000000000000000000000000000000000000000000000000000000000
310
00000000000000000000000000000000000000000000000000000000000000000000000000000000000000000000000000000000000000000000000000000000000000000000000000000000000000000000000000000000000000000000000000000000000000000000000000000000000000000000000000000000000000
310
00000000000000000000000000000000000000000000000000000000000000000000000000000000000000000000000000000000000000000000000000000000000000000000000000000000000000000000000000000000000000000000000000000000000000000000000000000000000000000000000000000000000000
310
00000000000000000000000000000000000000000000000000000000000000000000000000000000000000000000000000000000000000000000000000000000000000000000000000000000000000000000000000000000000000000000000000000000000000000000000000000000000000000000000000000000000000
310
00000000000000000000000000000000000000000000000000000000000000000000000000000000000000000000000000000000000000000000000000000000000000000000000000000000000000000000000000000000000000000000000000000000000000000000000000000000000000000000000000000000000000
310
00000000000000000000000000000000000000000000000000000000000000000000000000000000000000000000000000000000000000000000000000000000000000000000000000000000000000000000000000000000000000000000000000000000000000000000000000000000000000000000000000000000000000
310
00000000000000000000000000000000000000000000000000000000000000000000000000000000000000000000000000000000000000000000000000000000000000000000000000000000000000000000000000000000000000000000000000000000000000000000000000000000000000000000000000000000000000
310
00000000000000000000000000000000000000000000000000000000000000000000000000000000000000000000000000000000000000000000000000000000000000000000000000000000000000000000000000000000000000000000000000000000000000000000000000000000000000000000000000000000000000
310
00000000000000000000000000000000000000000000000000000000000000000000000000000000000000000000000000000000000000000000000000000000000000000000000000000000000000000000000000000000000000000000000000000000000000000000000000000000000000000000000000000000000000
310
00000000000000000000000000000000000000000000000000000000000000000000000000000000000000000000000000000000000000000000000000000000000000000000000000000000000000000000000000000000000000000000000000000000000000000000000000000000000000000000000000000000000000
310
00000000000000000000000000000000000000000000000000000000000000000000000000000000000000000000000000000000000000000000000000000000000000000000000000000000000000000000000000000000000000000000000000000000000000000000000000000000000000000000000000000000000000
310
00000000000000000000000000000000000000000000000000000000000000000000000000000000000000000000000000000000000000000000000000000000000000000000000000000000000000000000000000000000000000000000000000000000000000000000000000000000000000000000000000000000000000
310
00000000000000000000000000000000000000000000000000000000000000000000000000000000000000000000000000000000000000000000000000000000000000000000000000000000000000000000000000000000000000000000000000000000000000000000000000000000000000000000000000000000000000
310
00000000000000000000000000000000000000000000000000000000000000000000000000000000000000000000000000000000000000000000000000000000000000000000000000000000000000000000000000000000000000000000000000000000000000000000000000000000000000000000000000000000000000
310
00000000000000000000000000000000000000000000000000000000000000000000000000000000000000000000000000000000000000000000000000000000000000000000000000000000000000000000000000000000000000000000000000000000000000000000000000000000000000000000000000000000000000
310
00000000000000000000000000000000000000000000000000000000000000000000000000000000000000000000000000000000000000000000000000000000000000000000000000000000000000000000000000000000000000000000000000000000000000000000000000000000000000000000000000000000000000
310
00000000000000000000000000000000000000000000000000000000000000000000000000000000000000000000000000000000000000000000000000000000000000000000000000000000000000000000000000000000000000000000000000000000000000000000000000000000000000000000000000000000000000
310
00000000000000000000000000000000000000000000000000000000000000000000000000000000000000000000000000000000000000000000000000000000000000000000000000000000000000000000000000000000000000000000000000000000000000000000000000000000000000000000000000000000000000
310
00000000000000000000000000000000000000000000000000000000000000000000000000000000000000000000000000000000000000000000000000000000000000000000000000000000000000000000000000000000000000000000000000000000000000000000000000000000000000000000000000000000000000
310
00000000000000000000000000000000000000000000000000000000000000000000000000000000000000000000000000000000000000000000000000000000000000000000000000000000000000000000000000000000000000000000000000000000000000000000000000000000000000000000000000000000000000
310
00000000000000000000000000000000000000000000000000000000000000000000000000000000000000000000000000000000000000000000000000000000000000000000000000000000000000000000000000000000000000000000000000000000000000000000000000000000000000000000000000000000000000
310
00000000000000000000000000000000000000000000000000000000000000070707000707000007000707000707070707070707000000000000000000000000000000000000000000000000000000000000000000000000000000000000000000000000000000000000000000000000000000000000000000000000000000
310
00000000000000000000000000000000000000000000000000000000000000000707000700070707000707000707070707070707000000000000000000000000000000000000000000000000000000000000000000000000000000000000000000000000000000000000000000000000000000000000000000000000000000
310
00000000000000000000000000000000000000000000000000000000000000000007000007000700000007000700000707070007000700000000000000000000000000000000000000000000000000000000000000000000000000000000000000000000000000000000000000000000000000000000000000000000000000
310
00000000000000000000000000000000000000000000000000000000000000000000070700070700000700070700000000000000000000000000000000000000000000000000000000000000000000000000000000000000000000000000000000000000000000000000000000000000000000000000000000000000000000
310
00000000000000000000000000000000000000000000000000000000000000000000000707070707070707070707000000000000000000000000000000000000000000000000000000000000000000000000000000000000000000000000000000000000000000000000000000000000000000000000000000000000000000
310
00000000000000000000000000000000000000000000000000000000000000000000000000000700000000070000000000000000000000000000000000000000000000000000000000000000000000000000000000000000000000000000000000000000000000000000000000000000000000000000000000000000000000
310
00000000000000000000000000000000000000000000000000000000000000000000000000000000000000000000000000000000000000000000000000000000000000000000000000000000000000000000000000000000000000000000000000000000000000000000000000000000000000000000000000000000000000
310
00000000000000000000000000000000000000000000000000000000000000000000000000000000000000000000000000000000000000000000000000000000000000000000000000000000000000000000000000000000000000000000000000000000000000000000000000000000000000000000000000000000000000
310
00000000000000000000000000000000000000000000000000000000000000000000000000000000000000000000000000000000000000000000000000000000000000000000000000000000000000000000000000000000000000000000000000000000000000000000000000000000000000000000000000000000000000
310
00000000000000000000000000000000000000000000000000000000000000000000000000000000000000000000000000000000000000000000000000000000000000000000000000000000000000000000000000000000000000000000000000000000000000000000000000000000000000000000000000000000000000
310
00000000000000000000000000000000000000000000000000000000000000000000000000000000000000000000000000000000000000000000000000000000000000000000000000000000000000000000000000000000000000000000000000000000000000000000000000000000000000000000000000000000000000
310
00000000000000000000000000000000000000000000000000000000000000000000000000000000000000000000000000000000000000000000000000000000000000000000000000000000000000000000000000000000000000000000000000000000000000000000000000000000000000000000000000000000000000
310
00000000000000000000000000000000000000000000000000000000000000000000000000000000000000000000000000000000000000000000000000000000000000000000000000000000000000000000000000000000000000000000000000000000000000000000000000000000000000000000000000000000000000
310
00000000000000000000000000000000000000000000000000000000000000000000000000000000000000000000000000000000000000000000000000000000000000000000000000000000000000000000000000000000000000000000000000000000000000000000000000000000000000000000000000000000000000
310
00000000000000000000000000000000000000000000000000000000000000000000000000000000000000000303030303030404040004040000000000000000000000000000000000000000000000000000000000000000000000000000000000000000000000000000000000000000000000000000000000000000000000
310
00000000000000000000000000000000000000000000000000000000000000000000000000000000000000000003000300000004040404040404040000000000000000000000000000000000000000000000000000000000000000000000000000000000000000000000000000000000000000000000000000000000000000
310
00000000000000000000000000000000000000000000000000000000000000000000000000000000000000000000030003000000040404040404000404040000000000000000000000000000000000000000000000000000000000000000000000000000000000000000000000000000000000000000000000000000000000
310
00000000000000000000000000000000000000000000000000000000000000000000000000000000000000000000000303030000000404040404040004000004040000000000000000000000000000000000000000000000000000000000000000000000000000000000000000000000000000000000000000000000000000
310
00000000000000000000000000000000000000000000000000000000000000000000000000000000000000000000000003030303030004040404040400040000000400000000000000000000000000000000000000000000000000000000000000000000000000000000000000000000000000000000000000000000000000
310
00000000000000000000000000000000000000000000000000000000000000000000000000000000000000000000000000030006000300040404040404000400000000040000000000000000000000000000000000000000000000000000000000000000000000000000000000000000000000000000000000000000000000
310
00000000000000000000000003000000000000070000000000000300000000000000000000000000000000000000000000030300040403000404040404040004000000000400000000000000000000000000000000000000000000000000000000000000000000000000000000000000000000000000000000000000000000
310
00000000000000000000000000030000000003030703030000000003000000000000000000000000000000000000000000070307070707070707070707070707070707070707070000000000000000000000000000000000000000000000000000000000000000000000000000000000000000000000000000000000000000
310
00000000000000000000000000000300000000030007000300000000030000000000000000000000000000000000000000000003030004040300040404040404000400000000040000000000000000000000000000000000000000000000000000000000000000000000000000000000000000000000000000000000000000
310
00000000000000000000000000000003030303030300070003030303030300000000000000000000000000000000000000000000000303030303000404040404040004000000000400000000000000000000000000000000000000000000000000000000000000000000000000000000000000000000000000000000000000
310
00000000000000000000000000000000030000030003000700030003000003000000000000000000000000000000000000000000000003000300000004040404040400040000000400000000000000000000000000000000000000000000000000000000000000000000000000000000000000000000000000000000000000
310
00000000000000000000000000000000000303030303030307030303030303030000000000000000000000000000000000000000000000030303000000040404040404000400040400000000000000000000000000000000000000000000000000000000000000000000000000000000000000000000000000000000000000
310
00000000000000000000000000000000000000000000000003030300000000000000000000000000000000000000000000000000000000000300030000000404040404040004040000000000000000000000000000000000000000000000000000000000000000000000000000000000000000000000000000000000000000
310
00000000000000000000000000000000000000000000000000000700000000000000000000000000000000000000000000000000000000000003000300000004040404040404000000000000000000000000000000000000000000000000000000000000000000000000000000000000000000000000000000000000000000
310
00000000000000000000000000000000000000000000000000000000000000000000000000000000000000000000000000000000000000000000030303030303040404000000000000000000000000000000000000000000000000000000000000000000000000000000000000000000000000000000000000000000000000
310
00000000000000000000000000000000000000000000000000000000000000000000000000000000000000000000000000000000000000000000000000000000000000000000000000000000000000000000000000000000000000000000000000000000000000000000000000000000000000000000000000000000000000
310
00000000000000000000000000000000000000000000000000000000000000000000000000000000000000000000000000000000000000000000000000000000000000000000000000000000000000000000000000000000000000000000000000000000000000000000000000000000000000000000000000000000000000
310
00000000000000000000000000000000000000000000000000000000000000000000000000000000000000000000000000000000000000000000000000000000000000000000000000000000000000000000000000000000000000000000000000000000000000000000000000000000000000000000000000000000000000
310
00000000000000000000000000000000000000000000000000000000000000000000000000000000000000000000000000000000000000000000000000000000000000000000000000000000000000000000000000000000000000000000000000000000000000000000000000000000000000000000000000000000000000
310
00000000000000000000000000000000000000000000000000000000000000000000000000000000000000000000000000000000000000000000000000000000000000000000000000000000000000000000000000000000000000000000000000000000000000000000000000000000000000000000000000000000000000
310
00000000000000000000000000000000000000000000000000000000000000000000000000000000000000000000000000000000000000000000000000000000000000000000000000000000000000000000000000000000000000000000000000000000000000000000000000000000000000000000000000000000000000
310
00000000000000000000000000000000000000000000000000000000000000000000070000000000000000000000000000000000000000000000000000000000000000000000000000000000000000000000000000000000000000000000000000000000000000000000000000000000000000000000000000000000000000
310
00000000000000000000000000000000000000000000000000000000000000000003030303030000000000000000000000000000000303030303000000000000000003030304030000000000000000000000000000000000000000000000000000000000000000000000000000000000000000000000000000000000000000
310
00000000000000000000000000000000000000000000000000000000000000000000030303030300000000000000000000000000000003000303000000000000000003030404040404040404000000000000000000000000000000000000000000000000000000000000000000000000000000000000000000000000000000
310
00000000000000000000000000000000000000000000000000000000000000000000000303070307000000000000000000000000000000030003000000000000000000030304040000000404040404040400000000000000000000000000000000000000000000000000000000000000000000000000000000000000000000
310
00000000000000000000000000000000000000000000000000000000000000000000000003030303030000000000000000000000000000000300030000000000000000000303040400000004040404040400040000000000000000000000000000000000000000000000000000000000000000000000000000000000000000
310
00000000000000000000000000000000000000000000000000000000000000000000000000030003000300000000000000000000000000000003030300000000000000000000030304000000040404040404000404040400000000000000000000000000000000000000000000000000000000000000000000000000000000
310
00000000000000000000000000000000000000000000000000000000000000000000000000030707070707030000000000000000000000000000030000030000000000000000000300040000000404040404040004000000040000000000000000000000000000000000000000000000000000000000000000000000000000
310
00000000000000000000000000000000000000000000000000000000000000000000030303030003070307000003030303000000000000000000000303030303030000000000000003030403030004040404040400040000000004000000000000000000000000000000000000000000000000000000000000000000000000
310
00000000000000000000000000000000000000000000000000000000000000000000000300000000000307000300000000030000000000000000000003030303030300000000000000030304030303040404040404000400000000040000000000000000000000000000000000000000000000000000000000000000000000
310
00000000000000000000000000000000000000000000000000000000000000000000000703070707070703070703070707070307000000000000000007070703070703070700000007070307040707070404040404040704070707070407000000000000000000000000000000000000000000000000000000000000000000
310
00000000000000000000000000000000000000000000000000000000000000000000000000030000000000030700030000000003000000000000000000000303030303030000000000000003030403030304040404040400040000000004000000000000000000000000000000000000000000000000000000000000000000
310
00000000000000000000000000000000000000000000000000000000000000000000000000000303030000000303030300000303030000000000000000000003030303030300000000000000030304030303040404040404000400000000040000000000000000000000000000000000000000000000000000000000000000
310
00000000000000000000000000000000000000000000000000000000000000000000000000000003000003000003070000000300000000000000000000000000030000030000000000000000000300040000000404040404040004000000040000000000000000000000000000000000000000000000000000000000000000
310
00000000000000000000000000000000000000000000000000000000000000000000000000000000000000000300000700000300000000000000000000000000000303030000000000000000000003030400000004040404040400040000040400000000000000000000000000000000000000000000000000000000000000
310
00000000000000000000000000000000000000000000000000000000000000000000000000000000000000000000030303030300000000000000000000000000000003000300000000000000000003030404000000040404040404000404040000000000000000000000000000000000000000000000000000000000000000
310
00000000000000000000000000000000000000000000000000000000000000000000000000000000000000000000000307070307000000000000000000000000000000030003000000000000000000030304040000000404040404040404000000000000000000000000000000000000000000000000000000000000000000
310
00000000000000000000000000000000000000000000000000000000000000000000000000000000000000000000000003030303030000000000000000000000000000000300030000000000000000000303040400000004040400040400000000000000000000000000000000000000000000000000000000000000000000
310
00000000000000000000000000000000000000000000000000000000000000000000000000000000000000000000000000030003000300000000000000000000000000000003000303030000000000000000030004040404040404000000000000000000000000000000000000000000000000000000000000000000000000
310
00000000000000000000000000000000000000000000000000000000000000000000000000000000000000000000000000000303030303000000000000000000000000000000000303030300000000000000000003030303000000000000000000000000000000000000000000000000000000000000000000000000000000
310
00000000000000000000000000000000000000000000000000000000000000000000000000000000000000000000000000000000000700000000000000000000000000000000000000000000000000000000000000000000000000000000000000000000000000000000000000000000000000000000000000000000000000
310
00000000000000000000000000000000000000000000000000000000000000000000000000000000000000000000000000000000000000000000000000000000000000000000000000000000000000000000000000000000000000000000000000000000000000000000000000000000000000000000000000000000000000
310
00000000000000000000000000000000000000000000000000000000000000000000000000000000000000000000000000000000000000000000000000000000000000000000000000000000000000000000000000000000000000000000000000000000000000000000000000000000000000000000000000000000000000
310
00000000000000000000000000000000000000000000000000000000000000000000000000000000000000000000000000000000000000000000000000000000000000000000000000000000000000000000000000000000000000000000000000000000000000000000000000000000000000000000000000000000000000
310
00000000000000000000000000000000000000000000000000000000000000000000000000000000000000000000000000000000000000000000000000000000000000000000000000000000000000000000000000000000000000000000000000000000000000000000000000000000000000000000000000000000000000
310
00000000000000000000000000000000000000000000000000000000000000000000000000000000000000000000000000000000000000000000000000000000000000000000000000000000000000000000000000000000000000000000000000000000000000000000000000000000000000000000000000000000000000
310
00000000000000000000000000000000000000000000000000000000000000000000000000000000000000000000000000000000000000000000000000000000000000000000000000000000000000000000000000000000000000000000000000000000000000000000000000000000000000000000000000000000000000
310
00000000000000000000000000000000000000000000000000000000000000000000000000000000000000000000000000000000000000000000000000000000000000000000000000000000000000000000000000000000000000000000000000000000000000000000000000000000000000000000000000000000000000
310
00000000000000000000000000000000000000000000000000000000000000000000000000000000000000000000000000000000000000000000000000000000000000000000000000000000000000000000000000000000000000000000000000000000000000000000000000000000000000000000000000000000000000
310
00000000000000000000000000000000000000000000000000000000000000000000000000000000000000000000000000000000000000000000000000000000000000000000000000000000000000000000000000000000000000000000000000000000000000000000000000000000000000000000000000000000000000
310
00000000000000000000000000000000000000000000000000000000000000000000000000000000000000000000000000000000000000000000000000000000000000000000000000000000000000000000000000000000000000000000000000000000000000000000000000000000000000000000000000000000000000
310
00000000000000000000000000000000000000000000000000000000000000000000000000000000000000000000000000000000000000000000000000000000000000000000000000000000000000000000000000000000000000000000000000000000000000000000000000000000000000000000000000000000000000
310
00000000000000000000000000000000000000000000000000000000000000000000000000000000000000000000000000000000000000000000000000000000000000000000000000000000000000000000000000000000000000000000000000000000000000000000000000000000000000000000000000000000000000
310
00000000000000000000000000000000000000000000000000000000000000000000000000000000000000000000000000000000000000000000000000000000000000000000000000000000000000000000000000000000000000000000000000000000000000000000000000000000000000000000000000000000000000
310
00000000000000000000000000000000000000000000000000000000000000000000000000000000000000000000000000000000000000000000000000000000000000000000000000000000000000000000000000000000000000000000000000000000000000000000000000000000000000000000000000000000000000
310
00000000000000000000000000000000000000000000000000000000000000000000000000000000000000000000000000000000000000000000000000000000000000000000000000000000000000000000000000000000000000000000000000000000000000000000000000000000000000000000000000000000000000
310
00000000000000000000000000000000000000000000000000000000000000000000000000000000000000000000000000000000000000000000000000000000000000000000000000000000000000000000000000000000000000000000000000000000000000000000000000000000000000000000000000000000000000
310
00000000000000000000000000000000000000000000000000000000000000000000000000000000000000000000000000000000000000000000000000000000000000000000000000000000000000000000000000000000000000000000000000000000000000000000000000000000000000000000000000000000000000
310
00000000000000000000000000000000000000000000000000000000000000000000000000000000000000000000000000000000000000000000000000000000000000000000000000000000000000000000000000000000000000000000000000000000000000000000000000000000000000000000000000000000000000
310
00000000000000000000000000000000000000000000000000000000000000000000000000000000000000000000000000000000000000000000000000000000000000000000000000000000000000000000000000000000000000000000000000000000000000000000000000000000000000000000000000000000000000
310
00000000000000000000000000000000000000000000000000000000000000000000000000000000000000000000000000000000000000000000000000000000000000000000000000000000000000000000000000000000000000000000000000000000000000000000000000000000000000000000000000000000000000
310
00000000000000000000000000000000000000000000000000000000000000000000000000000000000000000000000000000000000000000000000000000000000000000000000000000000000000000000000000000000000000000000000000000000000000000000000000000000000000000000000000000000000000
310
00000000000000000000000000000000000000000000000000000000000000000000000000000000000000000000000000000000000000000000000000000000000000000000000000000000000000000000000000000000000000000000000000000000000000000000000000000000000000000000000000000000000000
310
00000000000000000000000000000000000000000000000000000000000000000000000000000000000000000000000000000000000000000000000000000000000000000000000000000000000000000000000000000000000000000000000000000000000000000000000000000000000000000000000000000000000000
310
00000000000000000000000000000000000000000000000000000000000000000000000000000000000000000000000000000000000000000000000000000000000000000000000000000000000000000000000000000000000000000000000000000000000000000000000000000000000000000000000000000000000000
310
00000000000000000000000000000000000000000000000000000000000000000000000000000000000000000000000000000000000000000000000000000000000000000000000000000000000000000000000000000000000000000000000000000000000000000000000000000000000000000000000000000000000000
310
00000000000000000000000000000000000000000000000000000000000000000000000000000000000000000000000000000000000000000000000000000000000000000000000000000000000000000000000000000000000000000000000000000000000000000000000000000000000000000000000000000000000000
310
00000000000000000000000000000000000000000000000000000000000000000000000000000000000000000000000000000000000000000000000000000000000000000000000000000000000000000000000000000000000000000000000000000000000000000000000000000000000000000000000000000000000000
310
00000000000000000000000000000000000000000000000000000000000000000000000000000000000000000000000000000000000000000000000000000000000000000000000000000000000000000000000000000000000000000000000000000000000000000000000000000000000000000000000000000000000000
310
00000000000000000000000000000000000000000000000000000000000000000000000000000000000000000000000000000000000000000000000000000000000000000000000000000000000000000000000000000000000000000000000000000000000000000000000000000000000000000000000000000000000000
310
00000000000000000000000000000000000000000000000000000000000000000000000000000000000000000000000000000000000000000000000000000000000000000000000000000000000000000000000000000000000000000000000000000000000000000000000000000000000000000000000000000000000000
310
00000000000000000000000000000000000000000000000000000000000000000000000000000000000000000000000000000000000000000000000000000000000000000000000000000000000000000000000000000000000000000000000000000000000000000000000000000000000000000000000000000000000000
310
00000000000000000000000000000000000000000000000000000000000000000000000000000000000000000000000000000000000000000000000000000000000000000000000000000000000000000000000000000000000000000000000000000000000000000000000000000000000000000000000000000000000000
310
00000000000000000000000000000000000000000000000000000000000000000000000000000000000000000000000000000000000000000000000000000000000000000000000000000000000000000000000000000000000000000000000000000000000000000000000000000000000000000000000000000000000000
310
00000000000000000000000000000000000000000000000000000000000000000000000000000000000000000000000000000000000000000000000000000000000000000000000000000000000000000000000000000000000000000000000000000000000000000000000000000000000000000000000000000000000000
310
00000000000000000000000000000000000000000000000000000000000000000000000000000000000000000000000000000000000000000000000000000000000000000000000000000000000000000000000000000000000000000000000000000000000000000000000000000000000000000000000000000000000000
310
00000000000000000000000000000000000000000000000000000000000000000000000000000000000000000000000000000000000000000000000000000000000000000000000000000000000000000000000000000000000000000000000000000000000000000000000000000000000000000000000000000000000000
310
00000000000000000000000000000000000000000000000000000000000000000000000000000000000000000000000000000000000000000000000000000000000000000000000000000000000000000000000000000000000000000000000000000000000000000000000000000000000000000000000000000000000000
310
00000000000000000000000000000000000000000000000000000000000000000000000000000000000000000000000000
  0
ENDSEC
  0
EOF
