  0
SECTION
  2
HEADER
  9
$ACADVER
  1
AC1004
  9
$ANGBASE
 50
0.0000000000
  9
$ANGDIR
 70
     0
  9
$ATTDIA
 70
     0
  9
$ATTMODE
 70
     1
  9
$ATTREQ
 70
     1
  9
$AUNITS
 70
     0
  9
$AUPREC
 70
     0
  9
$AXISMODE
 70
     0
  9
$AXISUNIT
 10
0.0000000000
 20
0.0000000000
  9
$BLIPMODE
 70
     1
  9
$CECOLOR
 62
   256
  9
$CELTYPE
  6
BYLAYER
  9
$CHAMFERA
 40
0.0000000000
  9
$CHAMFERB
 40
0.0000000000
  9
$CLAYER
  8
0
  9
$COORDS
 70
     0
  9
$DIMALT
 70
     0
  9
$DIMALTD
 70
     2
  9
$DIMALTF
 40
25.4000000000
  9
$DIMAPOST
  1

  9
$DIMASO
 70
     1
  9
$DIMASZ
 40
1.9727878465
  9
$DIMBLK
  1

  9
$DIMBLK1
  1

  9
$DIMBLK2
  1

  9
$DIMCEN
 40
9.0000000000E-02
  9
$DIMDLE
 40
0.0000000000
  9
$DIMDLI
 40
0.3800000000
  9
$DIMEXE
 40
3.8099999428
  9
$DIMEXO
 40
2.5399999619
  9
$DIMLFAC
 40
1.0000000000
  9
$DIMLIM
 70
     0
  9
$DIMPOST
  1

  9
$DIMRND
 40
0.0000000000
  9
$DIMSCALE
 40
1.0000000000
  9
$DIMSE1
 70
     0
  9
$DIMSE2
 70
     0
  9
$DIMSHO
 70
     0
  9
$DIMTAD
 70
     0
  9
$DIMTIH
 70
     0
  9
$DIMTM
 40
0.0000000000
  9
$DIMTOH
 70
     1
  9
$DIMTOL
 70
     0
  9
$DIMTP
 40
0.0000000000
  9
$DIMTSZ
 40
0.0000000000
  9
$DIMTXT
 40
2.9999940395
  9
$DIMZIN
 70
     0
  9
$DRAGMODE
 70
     1
  9
$ELEVATION
 40
0.0000000000
  9
$EXTMAX
 10
3.1750000000
 20
283.2585876465
 30
0.0000000000
  9
$EXTMIN
 10
-175.1234100342
 20
-3.1750000000
 30
0.0000000000
  9
$FASTZOOM
 70
     1
  9
$FILLETRAD
 40
6.2500000000E-02
  9
$FILLMODE
 70
     1
  9
$GRIDMODE
 70
     0
  9
$GRIDUNIT
 10
0.0000000000
 20
0.0000000000
  9
$INSBASE
 10
0.0000000000
 20
0.0000000000
 30
0.0000000000
  9
$LIMCHECK
 70
     0
  9
$LIMMAX
 10
3.1750000000
 20
283.2585876465
  9
$LIMMIN
 10
-175.1234100342
 20
-3.1750000000
  9
$LTSCALE
 40
1.0000000000
  9
$LUNITS
 70
     2
  9
$LUPREC
 70
     3
  9
$MEASUREMENT
 70
     0
  9
$MENU
  1
ACAD
  9
$MIRRTEXT
 70
     0
  9
$ORTHOMODE
 70
     0
  9
$OSMODE
 70
     0
  9
$PDMODE
 70
     0
  9
$PDSIZE
 40
0.0000000000
  9
$PLINEWID
 40
0.0000000000
  9
$PROXYGRAPHICS
 70
     0
  9
$QTEXTMODE
 70
     0
  9
$REGENMODE
 70
     1
  9
$SKETCHINC
 40
0.1000000000
  9
$SKPOLY
 70
     0
  9
$SNAPANG
 50
0.0000000000
  9
$SNAPBASE
 10
0.0000000000
 20
0.0000000000
  9
$SNAPISOPAIR
 70
     0
  9
$SNAPMODE
 70
     0
  9
$SNAPSTYLE
 70
     0
  9
$SNAPUNIT
 10
1.0000000000
 20
1.0000000000
  9
$SPLFRAME
 70
     0
  9
$SPLINESEGS
 70
     8
  9
$TDCREATE
 40
2455938.6135763938
  9
$TDINDWG
 40
0.0000000000
  9
$TDUPDATE
 40
2455938.6135763938
  9
$TDUSRTIMER
 40
0.0000000000
  9
$TEXTSIZE
 40
2.9999940395
  9
$TEXTSTYLE
  7
STANDARD
  9
$THICKNESS
 40
0.0000000000
  9
$TRACEWID
 40
5.0000000000E-02
  9
$USERI1
 70
     0
  9
$USERI2
 70
     0
  9
$USERI3
 70
     0
  9
$USERI4
 70
     0
  9
$USERI5
 70
     0
  9
$USERR1
 40
0.0000000000
  9
$USERR2
 40
0.0000000000
  9
$USERR3
 40
0.0000000000
  9
$USERR4
 40
0.0000000000
  9
$USERR5
 40
0.0000000000
  9
$USRTIMER
 70
     1
  9
$VIEWCTR
 10
-85.9742050171
 20
140.0417938232
  9
$VIEWDIR
 10
0.0000000000
 20
0.0000000000
 30
1.0000000000
  9
$VIEWSIZE
 40
286.4335876465
  0
ENDSEC
  0
SECTION
  2
TABLES
  0
TABLE
  2
LTYPE
 70
     3
  0
LTYPE
  2
SOLID
  3
Solid
 70
    64
 72
    65
 73
     0
 40
0.0000000000
  0
LTYPE
  2
CENTER
  3
Center
 70
    64
 72
    65
 73
     4
 40
9.1000067592
 49
6.5000119209
 49
-0.7999984026
 49
0.9999980330
 49
-0.7999984026
  0
LTYPE
  2
PHANTOM
  3
Phantom
 70
    64
 72
    65
 73
     6
 40
9.4999814630
 49
4.7999906540
 49
-0.8999982476
 49
0.9999980330
 49
-0.8999982476
 49
0.9999980330
 49
-0.8999982476
  0
ENDTAB
  0
TABLE
  2
LAYER
 70
     3
  0
LAYER
  2
Layer0$C$L0
 70
     0
  6
SOLID
 62
     3
  0
LAYER
  2
Layer1$C$L1
 70
     0
  6
SOLID
 62
     3
  0
LAYER
  2
Layer8$C$L8
 70
     0
  6
SOLID
 62
     7
  0
ENDTAB
  0
TABLE
  2
STYLE
 70
     1
  0
STYLE
  2
STANDARD
  3
txt
  4

 40
0.0000000000
 41
1.0000000000
 42
2.9999940395
 50
0.0000000000
 70
     0
 71
     0
  0
ENDTAB
  0
ENDSEC
  0
SECTION
  2
BLOCKS
  0
BLOCK
  8
Layer8$C$L8
  2
Cadra_attr_0
 70
     2
 10
0.0000000000
 20
0.0000000000
  0
TEXT
  8
Layer8$C$L8
 10
-99.3229102188
 20
275.9164142609
 40
4.1671714783
  1
AP6MS5*M*
 41
0.8683820931
 72
     5
 11
-70.3733334951
 21
275.9164142609
  0
ATTDEF
  8
Layer8$C$L8
 10
-84.848122
 20
278.000000
 40
0.156000
  1
ìL>ÄK
  3

  2
10
 70
    11
  0
ENDBLK
  8
Layer8$C$L8
  0
BLOCK
  8
Layer8$C$L8
  2
Cadra_attr_1
 70
     2
 10
0.000000
 20
0.000000
  0
TEXT
  8
Layer8$C$L8
 10
-66.0872999535
 20
16.0000000000
 40
5.0000000000
  1
MA4-S00164G
 41
0.8525090542
 72
     5
 11
-23.4618472432
 21
16.0000000000
  0
ATTDEF
  8
Layer8$C$L8
 10
-44.774575
 20
18.500000
 40
0.156000
  1
  
  3

  2
20
 70
    11
  0
ENDBLK
  8
Layer8$C$L8
  0
ENDSEC
  0
SECTION
  2
ENTITIES
  0
LINE
  8
Layer1$C$L1
 62
     3
 10
-121.0744723926
 20
140.4826599487
 11
-121.3744667683
 21
140.1825587137
  0
LINE
  8
Layer1$C$L1
 62
     3
 10
-121.0744222369
 20
122.6826184949
 11
-121.3744591136
 21
122.9826556498
  0
LINE
  8
Layer1$C$L1
 62
     3
 10
-121.0744299456
 20
140.4827534268
 11
-115.3748449847
 21
140.4827534268
  0
LINE
  8
Layer1$C$L1
 62
     3
 10
-121.0744299456
 20
122.6827503750
 11
-115.3747229144
 21
122.6827503750
  0
LINE
  8
Layer1$C$L1
 62
     3
 10
-121.0745520159
 20
140.4827534268
 11
-121.0745520159
 21
122.6827503750
  0
LINE
  8
Layer1$C$L1
 62
     3
 10
-121.3744787737
 20
140.1826435635
 11
-121.3744787737
 21
122.9827534268
  0
LINE
  8
Layer1$C$L1
 62
     3
 10
-121.0739214107
 20
87.4826577875
 11
-121.3739157864
 21
87.1825565525
  0
LINE
  8
Layer1$C$L1
 62
     3
 10
-121.0738404319
 20
69.6826370224
 11
-121.3738773085
 21
69.9826741772
  0
LINE
  8
Layer1$C$L1
 62
     3
 10
-121.0739416644
 20
87.4827686856
 11
-115.3743567034
 21
87.4827686856
  0
LINE
  8
Layer1$C$L1
 62
     3
 10
-121.0739416644
 20
69.6828724453
 11
-115.3742346331
 21
69.6828724453
  0
LINE
  8
Layer1$C$L1
 62
     3
 10
-124.0743783759
 20
123.8828348270
 11
-124.3744152019
 21
124.1828720072
  0
LINE
  8
Layer1$C$L1
 62
     3
 10
-122.8742319455
 20
80.0827175394
 11
-122.5742380363
 21
79.8327251444
  0
LINE
  8
Layer1$C$L1
 62
     3
 10
-122.8742568072
 20
77.0827071011
 11
-122.5742511526
 21
77.3327092413
  0
LINE
  8
Layer1$C$L1
 62
     3
 10
-122.8743567034
 20
80.0828358242
 11
-121.3739904925
 21
80.0828358242
  0
LINE
  8
Layer1$C$L1
 62
     3
 10
-122.5743078753
 20
79.8328358242
 11
-121.3739904925
 21
79.8328358242
  0
LINE
  8
Layer1$C$L1
 62
     3
 10
-122.8743567034
 20
77.0828358242
 11
-121.3739904925
 21
77.0828358242
  0
LINE
  8
Layer1$C$L1
 62
     3
 10
-122.5743078753
 20
77.3328358242
 11
-121.3739904925
 21
77.3328358242
  0
LINE
  8
Layer1$C$L1
 62
     3
 10
-122.5743078753
 20
77.3328358242
 11
-122.5743078753
 21
79.8328358242
  0
LINE
  8
Layer1$C$L1
 62
     3
 10
-124.0743078753
 20
70.8828388760
 11
-124.0743078753
 21
86.2826801846
  0
LINE
  8
Layer1$C$L1
 62
     3
 10
-122.8743567034
 20
77.0828358242
 11
-122.8743567034
 21
80.0828358242
  0
LINE
  8
Layer1$C$L1
 62
     3
 10
-124.0742028302
 20
86.2826956317
 11
-124.3741968773
 21
85.9827019893
  0
LINE
  8
Layer1$C$L1
 62
     3
 10
-121.3739904925
 20
86.2826801846
 11
-124.0743078753
 21
86.2826801846
  0
LINE
  8
Layer1$C$L1
 62
     3
 10
-124.3742675880
 20
71.1827645597
 11
-124.0742304078
 21
70.8827277336
  0
LINE
  8
Layer1$C$L1
 62
     3
 10
-124.0743078753
 20
70.8828388760
 11
-121.3739904925
 21
70.8828388760
  0
LINE
  8
Layer1$C$L1
 62
     3
 10
-104.3743567034
 20
71.1828419277
 11
-104.3743567034
 21
85.9826313565
  0
LINE
  8
Layer1$C$L1
 62
     3
 10
-124.0745520159
 20
139.2827412197
 11
-124.0745520159
 21
123.8827473233
  0
LINE
  8
Layer1$C$L1
 62
     3
 10
-124.3744430216
 20
138.9826352781
 11
-124.0744493539
 21
139.2826292998
  0
LINE
  8
Layer1$C$L1
 62
     3
 10
-121.3744787737
 20
139.2827412197
 11
-124.0745520159
 21
139.2827412197
  0
LINE
  8
Layer1$C$L1
 62
     3
 10
-124.0745520159
 20
123.8827473233
 11
-121.3744787737
 21
123.8827473233
  0
LINE
  8
Layer1$C$L1
 62
     3
 10
-124.3746008440
 20
138.9827381680
 11
-124.3746008440
 21
124.1827503750
  0
LINE
  8
Layer1$C$L1
 62
     3
 10
-121.0740637347
 20
87.4827686856
 11
-121.0740637347
 21
69.6828724453
  0
LINE
  8
Layer1$C$L1
 62
     3
 10
-121.3739904925
 20
87.1827198574
 11
-121.3739904925
 21
69.9828602383
  0
INSERT
  8
Layer8$C$L8
 66
     1
  2
Cadra_attr_0
 10
0.000000
 20
0.000000
  0
ATTRIB
  8
Layer8$C$L8
 10
-84.848122
 20
278.000000
 40
0.156000
  1
ìL>ÄK
  2
10
 70
    11
  0
SEQEND
  8
Layer8$C$L8
  0
INSERT
  8
Layer8$C$L8
 66
     1
  2
Cadra_attr_1
 10
0.000000
 20
0.000000
  0
ATTRIB
  8
Layer8$C$L8
 10
-44.774575
 20
18.500000
 40
0.156000
  1
  
  2
20
 70
    11
  0
SEQEND
  8
Layer8$C$L8
  0
CIRCLE
  8
Layer1$C$L1
 62
     3
 10
-159.3743567034
 20
131.5827747891
 40
8.5997719149
  0
CIRCLE
  8
Layer1$C$L1
 62
     3
 10
-159.3743567034
 20
131.5827747891
 40
8.8999786377
  0
LINE
  8
Layer1$C$L1
 62
     3
 10
-43.8077016600
 20
129.0827900479
 11
-42.8747153903
 21
129.0827900479
  0
LINE
  8
Layer1$C$L1
 62
     3
 10
-43.8077545180
 20
134.0827900479
 11
-42.8747153903
 21
134.0827900479
  0
LINE
  8
Layer1$C$L1
 62
     3
 10
-43.8748210403
 20
133.1832202092
 11
-43.8748210403
 21
133.8327709217
  0
LINE
  8
Layer1$C$L1
 62
     3
 10
-43.8748210403
 20
129.3332141057
 11
-43.8748210403
 21
129.9832156315
  0
LINE
  8
Layer1$C$L1
 62
     3
 10
-43.8748210403
 20
129.9832156315
 11
-44.7748301956
 21
129.9832156315
  0
LINE
  8
Layer1$C$L1
 62
     3
 10
-43.8748210403
 20
133.1832202092
 11
-44.7748301956
 21
133.1832202092
  0
LINE
  8
Layer1$C$L1
 62
     3
 10
-44.7748301956
 20
128.9092944279
 11
-44.7748301956
 21
129.9832156315
  0
LINE
  8
Layer1$C$L1
 62
     3
 10
-44.7748301956
 20
133.1832202092
 11
-44.7748301956
 21
134.2563039862
  0
CIRCLE
  8
Layer1$C$L1
 62
     3
 10
-48.2746635104
 20
131.5827900479
 40
2.7500000000
  0
LINE
  8
Layer1$C$L1
  6
CENTER
 62
     3
 10
-53.0246635098
 20
131.5828510830
 11
-25.6247153903
 21
131.5828510830
  0
LINE
  8
Layer1$C$L1
 62
     3
 10
-87.1750769183
 20
128.8327595303
 11
-75.8748449847
 21
128.8327595303
  0
LINE
  8
Layer1$C$L1
 62
     3
 10
-87.1750769183
 20
134.3327595303
 11
-75.8748449847
 21
134.3327595303
  0
LINE
  8
Layer1$C$L1
 62
     3
 10
-84.6743170306
 20
128.9827595303
 11
-83.6743170306
 21
128.9827595303
  0
LINE
  8
Layer1$C$L1
 62
     3
 10
-87.1750769183
 20
132.8827778408
 11
-87.1750769183
 21
138.9826771328
  0
LINE
  8
Layer1$C$L1
 62
     3
 10
-87.1750769183
 20
124.1827045986
 11
-87.1750769183
 21
130.2828175137
  0
LINE
  8
Layer1$C$L1
 62
     3
 10
-88.4743353411
 20
130.2828175137
 11
-85.6743475481
 21
130.2828175137
  0
LINE
  8
Layer1$C$L1
 62
     3
 10
-82.7743841692
 20
129.0827595303
 11
-82.7743841692
 21
134.0827595303
  0
LINE
  8
Layer1$C$L1
 62
     3
 10
-82.7742256557
 20
134.0828866165
 11
-81.6744043161
 21
133.8329251799
  0
LINE
  8
Layer1$C$L1
 62
     3
 10
-81.6743674405
 20
129.3327801538
 11
-82.7743673322
 21
129.0827781368
  0
LINE
  8
Layer1$C$L1
 62
     3
 10
-88.6743322894
 20
130.4827686856
 11
-85.6743170306
 21
130.4827686856
  0
LINE
  8
Layer1$C$L1
 62
     3
 10
-88.6743124544
 20
132.6827154092
 11
-88.6743253653
 21
130.4827642373
  0
LINE
  8
Layer1$C$L1
 62
     3
 10
-88.4743353411
 20
132.8828083584
 11
-88.4743353411
 21
130.2828327725
  0
LINE
  8
Layer1$C$L1
 62
     3
 10
-82.7743841692
 20
133.9327351162
 11
-83.3743750140
 21
133.9327351162
  0
LINE
  8
Layer1$C$L1
 62
     3
 10
-82.7743841692
 20
129.2327839443
 11
-83.3743750140
 21
129.2327839443
  0
LINE
  8
Layer1$C$L1
 62
     3
 10
-83.3743750140
 20
128.8327595303
 11
-83.3743750140
 21
134.3327595303
  0
LINE
  8
Layer1$C$L1
 62
     3
 10
-84.6743170306
 20
134.1827595303
 11
-83.6743170306
 21
134.1827595303
  0
LINE
  8
Layer1$C$L1
 62
     3
 10
-84.6743170306
 20
134.1827595303
 11
-84.6743170306
 21
129.9576374600
  0
LINE
  8
Layer1$C$L1
 62
     3
 10
-85.6743322894
 20
129.9577442715
 11
-84.6743322894
 21
129.9577442715
  0
LINE
  8
Layer1$C$L1
 62
     3
 10
-85.6743322894
 20
133.2077442715
 11
-85.6743322894
 21
129.9577442715
  0
LINE
  8
Layer1$C$L1
 62
     3
 10
-84.6743322894
 20
133.2077442715
 11
-85.6743322894
 21
133.2077442715
  0
LINE
  8
Layer1$C$L1
 62
     3
 10
-84.6743322894
 20
129.9576222012
 11
-84.6743322894
 21
128.9827595303
  0
LINE
  8
Layer1$C$L1
 62
     3
 10
-88.4742393422
 20
130.2828425553
 11
-88.6742466855
 21
130.4828270050
  0
LINE
  8
Layer1$C$L1
 62
     3
 10
-88.6742289804
 20
132.6828002496
 11
-88.4742302180
 21
132.8827932970
  0
LINE
  8
Layer1$C$L1
 62
     3
 10
-88.4743963763
 20
132.8827778408
 11
-85.6743933245
 21
132.8827778408
  0
LINE
  8
Layer1$C$L1
 62
     3
 10
-88.6743933245
 20
132.6827045986
 11
-85.6743780657
 21
132.6827045986
  0
LINE
  8
Layer1$C$L1
 62
     3
 10
-83.6743322894
 20
134.3323780606
 11
-83.6743322894
 21
128.8327595303
  0
LINE
  8
Layer1$C$L1
 62
     3
 10
-81.6743780657
 20
133.8327595303
 11
-81.6743780657
 21
129.3327595303
  0
ARC
  8
Layer1$C$L1
 62
     3
 10
-84.4384619280
 20
131.5827595303
 40
3.5640773773
 50
320.8538909231
 51
399.1461090769
  0
LINE
  8
Layer1$C$L1
  6
CENTER
 62
     3
 10
-159.3743567034
 20
117.8327949815
 11
-159.3743567034
 21
145.3327683403
  0
LINE
  8
Layer1$C$L1
  6
CENTER
 62
     3
 10
-37.8747001315
 20
117.8328185872
 11
-37.8747001315
 21
145.3328551607
  0
ARC
  8
Layer1$C$L1
 62
     3
 10
-78.6744055315
 20
73.7986917562
 40
0.2999998331
 50
288.4351356881
 51
360.0005104429
  0
ARC
  8
Layer1$C$L1
 62
     3
 10
-76.3744635149
 20
85.4823923177
 40
0.4999999404
 50
9.0613658866E-05
 51
89.9991623912
  0
ARC
  8
Layer1$C$L1
 62
     3
 10
-76.1744818255
 20
80.3824625082
 40
0.2999998331
 50
270.0000726276
 51
360.0000000000
  0
ARC
  8
Layer1$C$L1
 62
     3
 10
-76.1748175189
 20
126.1409260342
 40
0.2999998331
 50
278.5556222235
 51
360.0000000000
  0
ARC
  8
Layer1$C$L1
 62
     3
 10
-76.1747870013
 20
137.0244404385
 40
0.2999998331
 50
359.9999093863
 51
441.4443777765
  0
ARC
  8
Layer1$C$L1
 62
     3
 10
-135.9081701800
 20
84.2536427090
 40
26.0349578857
 50
347.4190306055
 51
371.2496801479
  0
ARC
  8
Layer1$C$L1
 62
     3
 10
-86.3391241595
 20
84.2536427090
 40
26.0349578857
 50
168.7501506912
 51
192.5809539129
  0
ARC
  8
Layer1$C$L1
 62
     3
 10
-135.9082922503
 20
72.9119526455
 40
26.0349578857
 50
348.7501695879
 51
372.5809693945
  0
ARC
  8
Layer1$C$L1
 62
     3
 10
-86.3391394183
 20
72.9119526455
 40
26.0349578857
 50
167.4190287842
 51
191.2498320060
  0
ARC
  8
Layer1$C$L1
 62
     3
 10
-84.4384619280
 20
88.6325489590
 40
3.5640773773
 50
320.8538909231
 51
399.1461090769
  0
ARC
  8
Layer1$C$L1
 62
     3
 10
-37.8746848727
 20
131.5827900479
 40
8.0000000000
 50
198.2099536858
 51
521.7900426717
  0
ARC
  8
Layer1$C$L1
 62
     3
 10
-43.8211570407
 20
128.0828358242
 40
0.5000000000
 50
210.4801528882
 51
269.9991623912
  0
ARC
  8
Layer1$C$L1
 62
     3
 10
-43.8211570407
 20
135.0828358242
 40
0.5000000000
 50
90.0008376088
 51
149.5198471118
  0
ARC
  8
Layer1$C$L1
 62
     3
 10
-43.3747153903
 20
129.3328358242
 40
0.5000000000
 50
180.0000000000
 51
269.9999820139
  0
ARC
  8
Layer1$C$L1
 62
     3
 10
-43.3747153903
 20
133.8328358242
 40
0.5000000000
 50
90.0000179861
 51
180.0000000000
  0
ARC
  8
Layer1$C$L1
 62
     3
 10
-37.8747153903
 20
131.5828358242
 40
5.6999998093
 50
224.5679303155
 51
254.7424322384
  0
ARC
  8
Layer1$C$L1
 62
     3
 10
-37.8747153903
 20
131.5828358242
 40
5.6999998093
 50
105.2575677616
 51
135.4320696845
  0
ARC
  8
Layer1$C$L1
 62
     3
 10
-37.8747153903
 20
131.5828358242
 40
4.0000000000
 50
112.0243181346
 51
247.9756818654
  0
ARC
  8
Layer1$C$L1
 62
     3
 10
-37.8747153903
 20
131.5828358242
 40
5.0000000000
 50
252.5423463444
 51
467.4565435225
  0
ARC
  8
Layer1$C$L1
 62
     3
 10
-37.8747153903
 20
131.5828358242
 40
7.3999996185
 50
201.1803140669
 51
518.8196859331
  0
ARC
  8
Layer1$C$L1
 62
     3
 10
-115.6567053362
 20
123.3334919522
 40
5.8443355560
 50
334.6663605005
 51
388.0613848276
  0
ARC
  8
Layer1$C$L1
 62
     3
 10
-106.5922979876
 20
123.3334919522
 40
5.8443355560
 50
151.9385962757
 51
205.3336274330
  0
ARC
  8
Layer1$C$L1
 62
     3
 10
-115.6568274065
 20
139.8320423672
 40
5.8443355560
 50
331.9386151724
 51
385.3336429146
  0
ARC
  8
Layer1$C$L1
 62
     3
 10
-106.5922979876
 20
139.8320423672
 40
5.8443355560
 50
154.6663552641
 51
208.0613864215
  0
ARC
  8
Layer1$C$L1
 62
     3
 10
-134.3846106097
 20
131.5830341885
 40
24.5100555420
 50
347.0319672003
 51
372.9668477619
  0
ARC
  8
Layer1$C$L1
 62
     3
 10
-87.8645300433
 20
131.5830341885
 40
24.5100555420
 50
167.0331504169
 51
192.9680343936
  0
CIRCLE
  8
Layer1$C$L1
 62
     3
 10
-37.8747153903
 20
131.5828205654
 40
2.3750000000
  0
CIRCLE
  8
Layer1$C$L1
 62
     3
 10
-37.8747459079
 20
131.5827595303
 40
2.7500000000
  0
CIRCLE
  8
Layer1$C$L1
 62
     3
 10
-48.2746329929
 20
131.5828510830
 40
2.3750000000
  0
ARC
  8
Layer1$C$L1
 62
     3
 10
-37.8747153903
 20
131.5828205654
 40
3.7500000000
 50
126.8702875410
 51
233.1301017798
  0
ARC
  8
Layer1$C$L1
 62
     3
 10
-37.8747153903
 20
131.5828205654
 40
3.7500000000
 50
306.8698895688
 51
413.1297106378
  0
ARC
  8
Layer1$C$L1
 62
     3
 10
-78.8664679095
 20
131.5607868740
 40
3.5914897919
 50
326.4056158721
 51
369.5420269875
  0
ARC
  8
Layer1$C$L1
 62
     3
 10
-78.8664679095
 20
131.5607868740
 40
3.5914897919
 50
9.7433809642
 51
33.5943841279
  0
ARC
  8
Layer1$C$L1
 62
     3
 10
-79.0659796282
 20
78.5608936856
 40
3.5914897919
 50
321.0131538591
 51
388.2156463622
  0
ARC
  8
Layer1$C$L1
 62
     3
 10
-37.8746696140
 20
131.5827747891
 40
4.0000000000
 50
112.0243727761
 51
247.9756818654
  0
ARC
  8
Layer1$C$L1
 62
     3
 10
-109.9765295550
 20
78.5828663418
 40
6.6020603180
 50
335.3839265143
 51
384.6161452027
  0
ARC
  8
Layer1$C$L1
 62
     3
 10
-107.7724279925
 20
78.5828663418
 40
6.6020507813
 50
155.3838529761
 51
204.6161297211
  0
ARC
  8
Layer1$C$L1
 62
     3
 10
-148.9744696185
 20
131.5827290127
 40
2.5000000000
 50
269.9999820139
 51
449.9999460417
  0
ARC
  8
Layer1$C$L1
 62
     3
 10
-148.9744696185
 20
131.5827290127
 40
1.2999992371
 50
207.8049761111
 51
512.1949929257
  0
ARC
  8
Layer1$C$L1
 62
     3
 10
-148.9744696185
 20
131.5827290127
 40
2.7500000000
 50
245.3803739053
 51
474.6203191315
  0
LINE
  8
Layer1$C$L1
 62
     3
 10
-87.1745886370
 20
85.9825296468
 11
-76.3744635149
 21
85.9825296468
  0
LINE
  8
Layer1$C$L1
 62
     3
 10
-78.5960005097
 20
73.5091946328
 11
-87.1746080264
 21
71.1824931867
  0
LINE
  8
Layer1$C$L1
 62
     3
 10
-78.3745703265
 20
77.1325693197
 11
-78.3745703265
 21
75.0825815267
  0
LINE
  8
Layer1$C$L1
 62
     3
 10
-75.8745855853
 20
83.6368053972
 11
-87.1746275494
 21
85.9825173637
  0
LINE
  8
Layer1$C$L1
 62
     3
 10
-87.1745886370
 20
85.9824533529
 11
-87.1745886370
 21
71.1825418539
  0
LINE
  8
Layer1$C$L1
 62
     3
 10
-78.3745092913
 20
73.7987985677
 11
-78.3745092913
 21
80.0826273031
  0
LINE
  8
Layer1$C$L1
 62
     3
 10
-87.1745581194
 20
80.0826120443
 11
-76.1744818255
 21
80.0826120443
  0
LINE
  8
Layer1$C$L1
 62
     3
 10
-75.8745855853
 20
80.3824625082
 11
-75.8745855853
 21
85.4823618002
  0
LINE
  8
Layer1$C$L1
 62
     3
 10
-75.8748449847
 20
126.1410175869
 11
-75.8748449847
 21
137.0245014736
  0
LINE
  8
Layer1$C$L1
 62
     3
 10
-87.1748175189
 20
129.1826588223
 11
-87.1748175189
 21
126.8326527188
  0
LINE
  8
Layer1$C$L1
 62
     3
 10
-87.1748175189
 20
136.3326679776
 11
-87.1748175189
 21
133.9826618740
  0
LINE
  8
Layer1$C$L1
 62
     3
 10
-76.1302651972
 20
137.3211663623
 11
-87.1750437705
 21
138.9827695940
  0
LINE
  8
Layer1$C$L1
 62
     3
 10
-87.1752078865
 20
124.1827994878
 11
-76.1302935124
 21
125.8444231497
  0
LINE
  8
Layer1$C$L1
 62
     3
 10
-47.1247048838
 20
136.9233147015
 11
-37.8747069058
 21
142.3328511990
  0
LINE
  8
Layer1$C$L1
 62
     3
 10
-37.8746855744
 20
142.3328728621
 11
-28.6247049766
 21
136.9233385393
  0
LINE
  8
Layer1$C$L1
 62
     3
 10
-37.8746626808
 20
120.8328406429
 11
-47.1246471108
 21
126.2423692173
  0
LINE
  8
Layer1$C$L1
 62
     3
 10
-28.6246950006
 20
126.2423672573
 11
-37.8746890788
 21
120.8328250510
  0
LINE
  8
Layer1$C$L1
 62
     3
 10
-47.1247153903
 20
134.0808369229
 11
-47.1247153903
 21
136.9233357022
  0
LINE
  8
Layer1$C$L1
 62
     3
 10
-28.6247153903
 20
136.9233204434
 11
-28.6247153903
 21
131.5828510830
  0
LINE
  8
Layer1$C$L1
 62
     3
 10
-47.1247153903
 20
126.2423359463
 11
-47.1247153903
 21
129.0827900479
  0
LINE
  8
Layer1$C$L1
 62
     3
 10
-28.6247153903
 20
131.5828205654
 11
-28.6247153903
 21
126.2423512051
  0
LINE
  8
Layer1$C$L1
 62
     3
 10
-168.6243673323
 20
136.9232244444
 11
-159.3744092457
 21
142.3327376128
  0
LINE
  8
Layer1$C$L1
 62
     3
 10
-159.3744240725
 20
142.3328078025
 11
-150.1245093332
 21
136.9233119948
  0
LINE
  8
Layer1$C$L1
 62
     3
 10
-159.3743904507
 20
120.8328037996
 11
-168.6244143958
 21
126.2423554831
  0
LINE
  8
Layer1$C$L1
 62
     3
 10
-150.1244155791
 20
126.2423062196
 11
-159.3743961769
 21
120.8327718968
  0
LINE
  8
Layer1$C$L1
 62
     3
 10
-114.7743811175
 20
87.2826954434
 11
-115.3744787737
 21
87.2826954434
  0
LINE
  8
Layer1$C$L1
 62
     3
 10
-114.7743811175
 20
69.8828541348
 11
-114.7743811175
 21
87.2826954434
  0
LINE
  8
Layer1$C$L1
 62
     3
 10
-115.3744787737
 20
69.8828541348
 11
-114.7743811175
 21
69.8828541348
  0
LINE
  8
Layer1$C$L1
 62
     3
 10
-114.7746252581
 20
140.2827564785
 11
-115.3747229144
 21
140.2827564785
  0
LINE
  8
Layer1$C$L1
 62
     3
 10
-114.7746252581
 20
122.8827473233
 11
-114.7746252581
 21
140.2827564785
  0
LINE
  8
Layer1$C$L1
 62
     3
 10
-115.3747229144
 20
122.8827473233
 11
-114.7746252581
 21
122.8827473233
  0
LINE
  8
Layer1$C$L1
 62
     3
 10
-93.3747992083
 20
133.5327259610
 11
-92.7747931048
 21
133.5327259610
  0
LINE
  8
Layer1$C$L1
 62
     3
 10
-92.7747931048
 20
129.6327473233
 11
-93.3747992083
 21
129.6327473233
  0
LINE
  8
Layer1$C$L1
 62
     3
 10
-92.7747931048
 20
133.5327259610
 11
-92.7747931048
 21
129.6327473233
  0
LINE
  8
Layer1$C$L1
 62
     3
 10
-110.4986242815
 20
78.5828663418
 11
-111.7488684222
 21
78.5828663418
  0
LINE
  8
Layer1$C$L1
 62
     3
 10
-103.3745092913
 20
71.1828266690
 11
-87.1539923235
 21
71.1828266690
  0
LINE
  8
Layer1$C$L1
 62
     3
 10
-103.3745092913
 20
85.9825092861
 11
-87.1539923235
 21
85.9825092861
  0
LINE
  8
Layer1$C$L1
  6
CENTER
 62
     3
 10
-74.4975287005
 20
78.5828358242
 11
-127.8161779925
 21
78.5828358242
  0
LINE
  8
Layer1$C$L1
 62
     3
 10
-87.1750769183
 20
138.9827229092
 11
-109.8744787737
 21
138.9827229092
  0
LINE
  8
Layer1$C$L1
 62
     3
 10
-93.3747992083
 20
138.9827381680
 11
-87.1748022601
 21
138.9827381680
  0
LINE
  8
Layer1$C$L1
 62
     3
 10
-109.8744024798
 20
124.1827656338
 11
-87.1750769183
 21
124.1827656338
  0
LINE
  8
Layer1$C$L1
  6
CENTER
 62
     3
 10
-73.2649664446
 20
131.5827595303
 11
-126.6912512347
 21
131.5827595303
  0
LINE
  8
Layer1$C$L1
 62
     3
 10
-40.6587272311
 20
139.0828053067
 11
-35.0907035495
 21
139.0828053067
  0
LINE
  8
Layer1$C$L1
 62
     3
 10
-35.0907188083
 20
124.0828816006
 11
-40.6587272311
 21
124.0828816006
  0
LINE
  8
Layer1$C$L1
 62
     3
 10
-43.3747027937
 20
134.3328617403
 11
-42.8746875349
 21
134.3328467013
  0
LINE
  8
Layer1$C$L1
 62
     3
 10
-41.9355064059
 20
127.5828358242
 11
-43.8211570407
 21
127.5828358242
  0
LINE
  8
Layer1$C$L1
 62
     3
 10
-41.9355064059
 20
135.5828358242
 11
-43.8211570407
 21
135.5828358242
  0
LINE
  8
Layer1$C$L1
 62
     3
 10
-42.8747153903
 20
128.8328358242
 11
-43.3747153903
 21
128.8328358242
  0
LINE
  8
Layer1$C$L1
 62
     3
 10
-42.8747153903
 20
128.8460346768
 11
-42.8747153903
 21
134.3196217129
  0
LINE
  8
Layer1$C$L1
 62
     3
 10
-39.3747153903
 20
127.0828358242
 11
-36.3747153903
 21
127.0828358242
  0
LINE
  8
Layer1$C$L1
 62
     3
 10
-36.3747153903
 20
127.0828358242
 11
-36.3747153903
 21
128.5828358242
  0
LINE
  8
Layer1$C$L1
 62
     3
 10
-39.3747153903
 20
138.8292194912
 11
-39.3747153903
 21
134.5828205654
  0
LINE
  8
Layer1$C$L1
 62
     3
 10
-168.6243719622
 20
131.5827747891
 11
-168.6243719622
 21
136.9232288906
  0
LINE
  8
Layer1$C$L1
 62
     3
 10
-150.1243872210
 20
136.9232136318
 11
-150.1243872210
 21
131.5827442715
  0
LINE
  8
Layer1$C$L1
 62
     3
 10
-168.6243719622
 20
126.2422596524
 11
-168.6243719622
 21
131.5827595303
  0
LINE
  8
Layer1$C$L1
 62
     3
 10
-150.1243719622
 20
131.5827442715
 11
-150.1243719622
 21
126.2422749111
  0
LINE
  8
Layer1$C$L1
 62
     3
 10
-109.8744940325
 20
124.1832691738
 11
-109.8744940325
 21
138.9827076504
  0
LINE
  8
Layer1$C$L1
 62
     3
 10
-110.4994940325
 20
126.0827900479
 11
-111.7494940325
 21
126.0827900479
  0
LINE
  8
Layer1$C$L1
 62
     3
 10
-111.7496008440
 20
137.0827595303
 11
-110.4996008440
 21
137.0827595303
  0
LINE
  8
Layer1$C$L1
 62
     3
 10
-110.3745592367
 20
142.3327348192
 11
-111.8745592367
 21
142.3327424486
  0
LINE
  8
Layer1$C$L1
 62
     3
 10
-110.3745465210
 20
120.8327500773
 11
-111.8745465210
 21
120.8327577067
  0
LINE
  8
Layer1$C$L1
 62
     3
 10
-112.3747229144
 20
138.9835926602
 11
-112.3747229144
 21
124.1818653652
  0
LINE
  8
Layer1$C$L1
 62
     3
 10
-109.8738684222
 20
73.0786854336
 11
-109.8738684222
 21
84.0687061856
  0
LINE
  8
Layer1$C$L1
 62
     3
 10
-110.3739132826
 20
89.3326280081
 11
-111.8739132826
 21
89.3326356375
  0
LINE
  8
Layer1$C$L1
 62
     3
 10
-110.3739005660
 20
67.8328111130
 11
-111.8739005660
 21
67.8328187423
  0
LINE
  8
Layer1$C$L1
 62
     3
 10
-112.8747229144
 20
132.5827595303
 11
-112.8747229144
 21
130.5827595303
  0
LINE
  8
Layer1$C$L1
 62
     3
 10
-38.8746458807
 20
130.5828596115
 11
-36.8746437575
 21
132.5828617347
  0
LINE
  8
Layer1$C$L1
 62
     3
 10
-38.8746458807
 20
132.5828617347
 11
-36.8746437575
 21
130.5828596115
  0
LINE
  8
Layer1$C$L1
 62
     3
 10
-81.6743780657
 20
90.8825489590
 11
-81.6743780657
 21
86.3825489590
  0
LINE
  8
Layer1$C$L1
 62
     3
 10
-83.6743322894
 20
91.3821674893
 11
-83.6743322894
 21
85.9823872158
  0
LINE
  8
Layer1$C$L1
 62
     3
 10
-88.6743933245
 20
89.7324940274
 11
-85.6743780657
 21
89.7324940274
  0
LINE
  8
Layer1$C$L1
 62
     3
 10
-88.4743963763
 20
89.9325672695
 11
-85.6743933245
 21
89.9325672695
  0
LINE
  8
Layer1$C$L1
 62
     3
 10
-88.6742289804
 20
89.7325896783
 11
-88.4742302180
 21
89.9325827257
  0
LINE
  8
Layer1$C$L1
 62
     3
 10
-88.4742393422
 20
87.3326319840
 11
-88.6742466855
 21
87.5326164337
  0
LINE
  8
Layer1$C$L1
 62
     3
 10
-84.6743322894
 20
87.0074116299
 11
-84.6743322894
 21
85.9828602383
  0
LINE
  8
Layer1$C$L1
 62
     3
 10
-84.6743322894
 20
90.2575337002
 11
-85.6743322894
 21
90.2575337002
  0
LINE
  8
Layer1$C$L1
 62
     3
 10
-85.6743322894
 20
90.2575337002
 11
-85.6743322894
 21
87.0075337002
  0
LINE
  8
Layer1$C$L1
 62
     3
 10
-85.6743322894
 20
87.0075337002
 11
-84.6743322894
 21
87.0075337002
  0
LINE
  8
Layer1$C$L1
 62
     3
 10
-84.6743170306
 20
91.0826222012
 11
-84.6743170306
 21
87.0074268887
  0
LINE
  8
Layer1$C$L1
 62
     3
 10
-84.6743322894
 20
91.0826069424
 11
-83.6743322894
 21
91.0826069424
  0
LINE
  8
Layer1$C$L1
 62
     3
 10
-83.3743750140
 20
85.9825245449
 11
-83.3743750140
 21
91.3825489590
  0
LINE
  8
Layer1$C$L1
 62
     3
 10
-83.3743750140
 20
91.3825489590
 11
-83.6743322894
 21
91.3825489590
  0
LINE
  8
Layer1$C$L1
 62
     3
 10
-82.7743841692
 20
86.2825733731
 11
-83.3743750140
 21
86.2825733731
  0
LINE
  8
Layer1$C$L1
 62
     3
 10
-82.7743841692
 20
90.9825245449
 11
-83.3743750140
 21
90.9825245449
  0
LINE
  8
Layer1$C$L1
 62
     3
 10
-88.4743353411
 20
89.9325977871
 11
-88.4743353411
 21
87.3326222012
  0
LINE
  8
Layer1$C$L1
 62
     3
 10
-88.6743124544
 20
89.7325048379
 11
-88.6743253653
 21
87.5325536660
  0
LINE
  8
Layer1$C$L1
 62
     3
 10
-88.6743322894
 20
87.5325581143
 11
-85.6743170306
 21
87.5325581143
  0
LINE
  8
Layer1$C$L1
 62
     3
 10
-81.6743674405
 20
86.3825695825
 11
-82.7743673322
 21
86.1325675655
  0
LINE
  8
Layer1$C$L1
 62
     3
 10
-82.7742256557
 20
91.1326760452
 11
-81.6744043161
 21
90.8827146086
  0
LINE
  8
Layer1$C$L1
 62
     3
 10
-82.7743841692
 20
86.1325489590
 11
-82.7743841692
 21
91.1325489590
  0
LINE
  8
Layer1$C$L1
 62
     3
 10
-88.4743353411
 20
87.3326069424
 11
-85.6743475481
 21
87.3326069424
  0
LINE
  8
Layer1$C$L1
 62
     3
 10
-36.3746390964
 20
134.5828358242
 11
-35.6247153903
 21
134.5828358242
  0
LINE
  8
Layer1$C$L1
 62
     3
 10
-39.3746390964
 20
128.5828205654
 11
-40.1247153903
 21
128.5828205654
  0
LINE
  8
Layer1$C$L1
 62
     3
 10
-36.3746039522
 20
127.8328685245
 11
-39.3746039522
 21
127.8328761539
  0
LINE
  8
Layer1$C$L1
 62
     3
 10
-36.3746001375
 20
135.3328532657
 11
-39.3746001375
 21
135.3328608951
  0
LINE
  8
Layer1$C$L1
 62
     3
 10
-40.1247306491
 20
134.5828358242
 11
-39.3746390964
 21
134.5828358242
  0
LINE
  8
Layer1$C$L1
 62
     3
 10
-35.6247153903
 20
128.5828205654
 11
-36.3746390964
 21
128.5828205654
  0
LINE
  8
Layer1$C$L1
 62
     3
 10
-49.2745727624
 20
130.5828919803
 11
-47.2745706392
 21
132.5828941035
  0
LINE
  8
Layer1$C$L1
 62
     3
 10
-49.2745727624
 20
132.5828941035
 11
-47.2745706392
 21
130.5828919803
  0
LINE
  8
Layer1$C$L1
 62
     3
 10
-78.0743414446
 20
74.8328663418
 11
-78.0743414446
 21
80.0828663418
  0
LINE
  8
Layer1$C$L1
 62
     3
 10
-78.0743414446
 20
77.1328693936
 11
-78.3539129778
 21
77.1328693936
  0
LINE
  8
Layer1$C$L1
 62
     3
 10
-78.0743414446
 20
74.8328663418
 11
-78.3539282366
 21
74.8328663418
  0
LINE
  8
Layer1$C$L1
 62
     3
 10
-104.3463926361
 20
130.5827462474
 11
-104.7764988450
 21
124.2171637074
  0
LINE
  8
Layer1$C$L1
 62
     3
 10
-104.7112973267
 20
132.5827361047
 11
-104.2788663639
 21
138.9827250593
  0
LINE
  8
Layer1$C$L1
 62
     3
 10
-105.2065645365
 20
132.5827376948
 11
-104.7741078574
 21
138.9831072514
  0
LINE
  8
Layer1$C$L1
 62
     3
 10
-109.8744787737
 20
130.5827595303
 11
-103.8453497454
 21
130.5827595303
  0
LINE
  8
Layer1$C$L1
 62
     3
 10
-109.8744787737
 20
132.5827595303
 11
-103.3747992083
 21
132.5827595303
  0
LINE
  8
Layer1$C$L1
 62
     3
 10
-114.7744779621
 20
130.5827537507
 11
-112.3747129474
 21
130.5827406733
  0
LINE
  8
Layer1$C$L1
 62
     3
 10
-114.7745545403
 20
132.5827348519
 11
-112.3745453850
 21
132.5827479296
  0
LINE
  8
Layer1$C$L1
 62
     3
 10
-112.3741125628
 20
84.2535053799
 11
-112.3741125628
 21
72.9119221279
  0
LINE
  8
Layer1$C$L1
 62
     3
 10
-44.7748301956
 20
134.0827900479
 11
-47.1290183688
 21
134.0827900479
  0
LINE
  8
Layer1$C$L1
 62
     3
 10
-44.7748301956
 20
129.0827900479
 11
-47.1290183688
 21
129.0827900479
  0
LINE
  8
Layer1$C$L1
  6
CENTER
 62
     3
 10
-90.8704077288
 20
88.6325489590
 11
-80.2013708636
 21
88.6325489590
  0
LINE
  8
Layer1$C$L1
 62
     3
 10
-76.2743854570
 20
80.0826738183
 11
-76.2743894471
 21
76.3011796776
  0
LINE
  8
Layer1$C$L1
 62
     3
 10
-77.0743283570
 20
76.2074067967
 11
-76.2743338865
 21
76.3008663196
  0
LINE
  8
Layer1$C$L1
 62
     3
 10
-77.0743414446
 20
76.5828663418
 11
-77.6743475481
 21
76.5828663418
  0
LINE
  8
Layer1$C$L1
 62
     3
 10
-77.6743475481
 20
80.0828663418
 11
-77.6743475481
 21
75.8328968594
  0
LINE
  8
Layer1$C$L1
 62
     3
 10
-77.0743414446
 20
80.0828663418
 11
-77.0743414446
 21
76.2078968594
  0
LINE
  8
Layer1$C$L1
 62
     3
 10
-77.6743475481
 20
75.8328968594
 11
-78.0743414446
 21
75.8328968594
  0
LINE
  8
Layer1$C$L1
 62
     3
 10
-36.3746238376
 20
128.5827900479
 11
-36.3746238376
 21
127.0827900479
  0
LINE
  8
Layer1$C$L1
 62
     3
 10
-36.3746238376
 20
127.0827900479
 11
-39.3746238376
 21
127.0827900479
  0
LINE
  8
Layer1$C$L1
 62
     3
 10
-39.3746238376
 20
124.3364521572
 11
-39.3746238376
 21
128.5827900479
  0
LINE
  8
Layer1$C$L1
 62
     3
 10
-39.3746238376
 20
136.0827747891
 11
-36.3746238376
 21
136.0827747891
  0
LINE
  8
Layer1$C$L1
 62
     3
 10
-36.3746238376
 20
136.0827747891
 11
-36.3746238376
 21
134.5827747891
  0
LINE
  8
Layer1$C$L1
 62
     3
 10
-103.9744848772
 20
86.5827290127
 11
-109.9775976702
 21
86.5827290127
  0
LINE
  8
Layer1$C$L1
 62
     3
 10
-103.3745092913
 20
85.9824787686
 11
-109.8738226458
 21
85.9824787686
  0
LINE
  8
Layer1$C$L1
 62
     3
 10
-113.7743811175
 20
81.3327290127
 11
-112.3741125628
 21
81.3327290127
  0
LINE
  8
Layer1$C$L1
 62
     3
 10
-114.7743811175
 20
70.5828663418
 11
-112.2696203753
 21
70.5828663418
  0
LINE
  8
Layer1$C$L1
 62
     3
 10
-103.3745245501
 20
71.1828266690
 11
-109.8738836810
 21
71.1828266690
  0
LINE
  8
Layer1$C$L1
 62
     3
 10
-103.9744848772
 20
75.8328663418
 11
-109.8738684222
 21
75.8328663418
  0
LINE
  8
Layer1$C$L1
 62
     3
 10
-113.7747473284
 20
138.9827229092
 11
-112.3747381731
 21
138.9827229092
  0
LINE
  8
Layer1$C$L1
 62
     3
 10
-105.2788571792
 20
124.1828362371
 11
-104.8464313597
 21
130.5827490714
  0
LINE
  8
Layer1$C$L1
 62
     3
 10
-103.4414758000
 20
129.1368695051
 11
-103.9798027605
 21
128.5861226162
  0
LINE
  8
Layer1$C$L1
 62
     3
 10
-103.9796261631
 20
128.5863916627
 11
-104.4389952736
 21
129.2046845947
  0
LINE
  8
Layer1$C$L1
 62
     3
 10
-103.4414782987
 20
129.1368135094
 11
-103.8450059403
 21
130.5816427953
  0
LINE
  8
Layer1$C$L1
 62
     3
 10
-103.8453967091
 20
130.5821613886
 11
-104.4395819124
 21
129.2048654773
  0
LINE
  8
Layer1$C$L1
 62
     3
 10
-103.4418341782
 20
129.1380478766
 11
-103.7766450233
 21
124.1828390806
  0
LINE
  8
Layer1$C$L1
 62
     3
 10
-103.7787988380
 20
138.9831485095
 11
-104.2112586031
 21
132.5827332807
  0
LINE
  8
Layer1$C$L1
 62
     3
 10
-105.7740780996
 20
124.1835229107
 11
-105.3416985694
 21
130.5827506615
  0
LINE
  8
Layer1$C$L1
 62
     3
 10
-103.9802712540
 20
128.5858246590
 11
-104.2777265962
 21
124.1834782297
  0
LINE
  8
Layer1$C$L1
 62
     3
 10
-103.9745001360
 20
70.5828663418
 11
-103.9745001360
 21
75.8328663418
  0
LINE
  8
Layer1$C$L1
 62
     3
 10
-112.3741125628
 20
75.8328663418
 11
-113.7743811175
 21
75.8328663418
  0
LINE
  8
Layer1$C$L1
 62
     3
 10
-109.8738684222
 20
81.3327290127
 11
-103.9744848772
 21
81.3327290127
  0
LINE
  8
Layer1$C$L1
 62
     3
 10
-112.3740057513
 20
71.1828266690
 11
-113.7742590472
 21
71.1828266690
  0
LINE
  8
Layer1$C$L1
 62
     3
 10
-112.3741125628
 20
85.9824787686
 11
-113.7743658587
 21
85.9824787686
  0
LINE
  8
Layer1$C$L1
 62
     3
 10
-103.9745001360
 20
81.3327290127
 11
-103.9745001360
 21
86.5827290127
  0
LINE
  8
Layer1$C$L1
 62
     3
 10
-103.9742465022
 20
86.5824932503
 11
-103.3742587622
 21
85.9825055609
  0
LINE
  8
Layer1$C$L1
 62
     3
 10
-103.9742000667
 20
70.5825078227
 11
-103.3742014359
 21
71.1825061500
  0
LINE
  8
Layer1$C$L1
 62
     3
 10
-93.3745550677
 20
71.1828419277
 11
-93.3745550677
 21
85.9826313565
  0
LINE
  8
Layer1$C$L1
 62
     3
 10
-109.9777197405
 20
70.5828663418
 11
-103.9745001360
 21
70.5828663418
  0
LINE
  8
Layer1$C$L1
 62
     3
 10
-103.3745092913
 20
71.1828419277
 11
-103.3745092913
 21
85.9826313565
  0
LINE
  8
Layer1$C$L1
 62
     3
 10
-112.2696203753
 20
86.5827290127
 11
-114.7743811175
 21
86.5827290127
  0
LINE
  8
Layer1$C$L1
 62
     3
 10
-95.3748144671
 20
133.5827290127
 11
-95.3748144671
 21
129.5827747891
  0
LINE
  8
Layer1$C$L1
 62
     3
 10
-95.3748144671
 20
129.5827747891
 11
-97.3748144671
 21
129.5827747891
  0
LINE
  8
Layer1$C$L1
 62
     3
 10
-97.3748144671
 20
129.5827747891
 11
-97.3748144671
 21
133.5827290127
  0
LINE
  8
Layer1$C$L1
 62
     3
 10
-97.3748144671
 20
133.5827290127
 11
-95.3748144671
 21
133.5827290127
  0
LINE
  8
Layer1$C$L1
 62
     3
 10
-103.3748175284
 20
124.1828587755
 11
-103.3748022697
 21
138.9827397570
  0
LINE
  8
Layer1$C$L1
 62
     3
 10
-93.3748144671
 20
138.9827229092
 11
-93.3748144671
 21
124.1827961514
  0
LINE
  8
Layer1$C$L1
 62
     3
 10
-112.3746161028
 20
124.1827808926
 11
-113.7746252581
 21
124.1827808926
  0
LINE
  8
Layer1$C$L1
 62
     3
 10
-114.3747229144
 20
130.5827442715
 11
-114.3747229144
 21
123.5828053067
  0
LINE
  8
Layer1$C$L1
 62
     3
 10
-113.7747473284
 20
130.5827442715
 11
-113.7747473284
 21
124.1827808926
  0
LINE
  8
Layer1$C$L1
 62
     3
 10
-113.7743811175
 20
85.9826313565
 11
-113.7743811175
 21
81.3327290127
  0
LINE
  8
Layer1$C$L1
 62
     3
 10
-113.7743811175
 20
75.8328663418
 11
-113.7743811175
 21
71.1828419277
  0
LINE
  8
Layer1$C$L1
 62
     3
 10
-114.3744787737
 20
70.5828663418
 11
-114.3744787737
 21
86.5827290127
  0
LINE
  8
Layer1$C$L1
 62
     3
 10
-114.3742055167
 20
86.5824934863
 11
-113.7742177766
 21
85.9825057969
  0
LINE
  8
Layer1$C$L1
 62
     3
 10
-114.3741485276
 20
70.5825212422
 11
-113.7741498968
 21
71.1825195695
  0
LINE
  8
Layer1$C$L1
 62
     3
 10
-113.7743705690
 20
124.1825672075
 11
-114.3744431083
 21
123.5824916838
  0
LINE
  8
Layer1$C$L1
 62
     3
 10
-113.7744580545
 20
138.9824965920
 11
-114.3744448336
 21
139.5824851918
  0
LINE
  8
Layer1$C$L1
 62
     3
 10
-113.7747473284
 20
138.9827381680
 11
-113.7747473284
 21
132.5827290127
  0
LINE
  8
Layer1$C$L1
 62
     3
 10
-114.3747076556
 20
123.5826374600
 11
-114.7746099993
 21
123.5826374600
  0
LINE
  8
Layer1$C$L1
 62
     3
 10
-114.3747229144
 20
139.5827290127
 11
-114.7745031878
 21
139.5827290127
  0
LINE
  8
Layer1$C$L1
 62
     3
 10
-114.3747229144
 20
139.5827442715
 11
-114.3747229144
 21
132.5827290127
  0
LINE
  8
Layer1$C$L1
 62
     3
 10
-115.3747229144
 20
140.4827381680
 11
-115.3747229144
 21
122.6827503750
  0
LINE
  8
Layer1$C$L1
 62
     3
 10
-148.9746069476
 20
134.0827137539
 11
-150.1245092913
 21
134.0827137539
  0
LINE
  8
Layer1$C$L1
 62
     3
 10
-148.9746069476
 20
129.0827290127
 11
-150.1245092913
 21
129.0827290127
  0
LINE
  8
Layer1$C$L1
 62
     3
 10
-115.3740820452
 20
87.4827686856
 11
-115.3740820452
 21
69.6828571865
  0
LINE
  8
Layer1$C$L1
  6
CENTER
 62
     3
 10
-171.9484059369
 20
131.5827747891
 11
-145.8274969622
 21
131.5827747891
  0
ARC
  8
Layer0$C$L0
 62
     3
 10
-159.3743567034
 20
131.5827747891
 40
8.0000000000
 50
102.6356250930
 51
462.6177508776
  0
LINE
  8
Layer0$C$L0
 62
     3
 10
-161.1243567575
 20
123.7765272232
 11
-161.1077864334
 21
123.8124776715
  0
ARC
  8
Layer0$C$L0
 62
     3
 10
-159.3743567034
 20
131.5827747891
 40
7.9612996949
 50
257.4241421178
 51
282.5758578822
  0
LINE
  8
Layer0$C$L0
 62
     3
 10
-157.6409269735
 20
123.8124776715
 11
-157.6243566494
 21
123.7765272232
  0
LINE
  8
Layer0$C$L0
 62
     3
 10
-157.6243566494
 20
139.3890223550
 11
-157.6409269735
 21
139.3530719066
  0
ARC
  8
Layer0$C$L0
 62
     3
 10
-159.3743567034
 20
131.5827747891
 40
7.9612996949
 50
77.4241421178
 51
102.5758578822
  0
LINE
  8
Layer0$C$L0
 62
     3
 10
-161.1077864334
 20
139.3530719066
 11
-161.1243567575
 21
139.3890223550
  0
CIRCLE
  8
Layer0$C$L0
 62
     3
 10
-159.3743567034
 20
131.5827747891
 40
7.7177419355
  0
LINE
  8
Layer0$C$L0
  6
PHANTOM
 62
     3
 10
-69.1745854512
 20
128.1136799610
 11
-69.1745854512
 21
128.1329525805
  0
LINE
  8
Layer0$C$L0
  6
PHANTOM
 62
     3
 10
-69.1745854512
 20
128.1329525805
 11
-69.3745854512
 21
128.1329525805
  0
LINE
  8
Layer0$C$L0
  6
PHANTOM
 62
     3
 10
-69.1745854512
 20
126.1175085650
 11
-69.1745854512
 21
128.0982035457
  0
LINE
  8
Layer0$C$L0
  6
PHANTOM
 62
     3
 10
-69.1745854512
 20
128.0982035457
 11
-69.3745854512
 21
128.0982035457
  0
LINE
  8
Layer0$C$L0
  6
PHANTOM
 62
     3
 10
-69.1745854512
 20
126.1175085650
 11
-69.3745854512
 21
126.1175085650
  0
LINE
  8
Layer0$C$L0
  6
PHANTOM
 62
     3
 10
-69.1745854512
 20
127.1483965959
 11
-69.3745854512
 21
127.1483965959
  0
LINE
  8
Layer0$C$L0
  6
PHANTOM
 62
     3
 10
-80.3745854512
 20
128.8327595302
 11
-81.3745854512
 21
129.4101097995
  0
LINE
  8
Layer0$C$L0
  6
PHANTOM
 62
     3
 10
-81.3745854512
 20
133.7554092611
 11
-80.3745854511
 21
134.3327595302
  0
LINE
  8
Layer0$C$L0
  6
PHANTOM
 62
     3
 10
-81.3745854512
 20
129.4101097995
 11
-81.3745854512
 21
133.7554092611
  0
LINE
  8
Layer0$C$L0
  6
PHANTOM
 62
     3
 10
-69.3745854512
 20
140.0827595303
 11
-69.3745854512
 21
123.0827595303
  0
LINE
  8
Layer0$C$L0
  6
PHANTOM
 62
     3
 10
-77.4745854512
 20
128.8327595303
 11
-80.3745854512
 21
128.8327595303
  0
LINE
  8
Layer0$C$L0
  6
PHANTOM
 62
     3
 10
-77.4745854512
 20
134.3327595303
 11
-80.3745854512
 21
134.3327595303
  0
LINE
  8
Layer0$C$L0
  6
PHANTOM
 62
     3
 10
-81.1745854512
 20
133.8708793149
 11
-81.1745854512
 21
129.2946397456
  0
LINE
  8
Layer0$C$L0
  6
PHANTOM
 62
     3
 10
-79.8745854512
 20
133.0827595303
 11
-80.6745854512
 21
133.0827595303
  0
LINE
  8
Layer0$C$L0
  6
PHANTOM
 62
     3
 10
-80.6745854512
 20
134.1595544495
 11
-80.6745854512
 21
133.0827595303
  0
LINE
  8
Layer0$C$L0
  6
PHANTOM
 62
     3
 10
-79.8745854512
 20
133.0827595303
 11
-79.8745854512
 21
134.3327595303
  0
LINE
  8
Layer0$C$L0
  6
PHANTOM
 62
     3
 10
-80.0745854512
 20
133.0827595303
 11
-80.0745854512
 21
134.3327595303
  0
LINE
  8
Layer0$C$L0
  6
PHANTOM
 62
     3
 10
-80.3281752896
 20
134.3327595303
 11
-80.3281752896
 21
133.0827595303
  0
LINE
  8
Layer0$C$L0
  6
PHANTOM
 62
     3
 10
-80.6745854512
 20
130.0827595303
 11
-80.6745854512
 21
129.0059646110
  0
LINE
  8
Layer0$C$L0
  6
PHANTOM
 62
     3
 10
-80.6745854512
 20
130.0827595303
 11
-79.8745854512
 21
130.0827595303
  0
LINE
  8
Layer0$C$L0
  6
PHANTOM
 62
     3
 10
-79.8745854512
 20
128.8327595303
 11
-79.8745854512
 21
130.0827595303
  0
LINE
  8
Layer0$C$L0
  6
PHANTOM
 62
     3
 10
-80.3281752896
 20
130.0827595303
 11
-80.3281752896
 21
128.8327595303
  0
LINE
  8
Layer0$C$L0
  6
PHANTOM
 62
     3
 10
-80.0745854512
 20
128.8327595303
 11
-80.0745854512
 21
130.0827595303
  0
LINE
  8
Layer0$C$L0
  6
PHANTOM
 62
     3
 10
-69.3745854512
 20
130.3827595303
 11
-74.9745854512
 21
130.3827595303
  0
LINE
  8
Layer0$C$L0
  6
PHANTOM
 62
     3
 10
-69.3745854512
 20
132.7827595303
 11
-74.9745854512
 21
132.7827595303
  0
LINE
  8
Layer0$C$L0
  6
PHANTOM
 62
     3
 10
-69.8745854512
 20
130.3827595303
 11
-69.8745854512
 21
132.7827595303
  0
LINE
  8
Layer0$C$L0
  6
PHANTOM
 62
     3
 10
-75.4745854509
 20
140.5827595303
 11
-69.8745854512
 21
140.5827595303
  0
ARC
  8
Layer0$C$L0
  6
PHANTOM
 62
     3
 10
-69.8745854512
 20
140.0827595303
 40
0.5000000000
 50
0.0000000000
 51
90.0000000000
  0
LINE
  8
Layer0$C$L0
  6
PHANTOM
 62
     3
 10
-69.8745854512
 20
134.5327595303
 11
-69.8745854512
 21
140.5827595303
  0
LINE
  8
Layer0$C$L0
  6
PHANTOM
 62
     3
 10
-69.3745854512
 20
134.5327595303
 11
-74.9745854512
 21
134.5327595303
  0
LINE
  8
Layer0$C$L0
  6
PHANTOM
 62
     3
 10
-74.9745854512
 20
136.5827595303
 11
-69.3745854512
 21
136.5827595303
  0
LINE
  8
Layer0$C$L0
  6
PHANTOM
 62
     3
 10
-69.3745854512
 20
126.5827595303
 11
-74.9745854512
 21
126.5827595303
  0
LINE
  8
Layer0$C$L0
  6
PHANTOM
 62
     3
 10
-74.9745854512
 20
128.6327595303
 11
-69.3745854512
 21
128.6327595303
  0
LINE
  8
Layer0$C$L0
  6
PHANTOM
 62
     3
 10
-69.8745854512
 20
122.5827595303
 11
-69.8745854512
 21
128.6327595303
  0
ARC
  8
Layer0$C$L0
  6
PHANTOM
 62
     3
 10
-69.8745854512
 20
123.0827595303
 40
0.5000000000
 50
270.0000000000
 51
360.0000000000
  0
LINE
  8
Layer0$C$L0
  6
PHANTOM
 62
     3
 10
-69.8745854512
 20
122.5827595303
 11
-75.4745854509
 21
122.5827595303
  0
LINE
  8
Layer0$C$L0
  6
PHANTOM
 62
     3
 10
-80.8745854512
 20
135.0327595303
 11
-80.8745854512
 21
136.6827595303
  0
LINE
  8
Layer0$C$L0
  6
PHANTOM
 62
     3
 10
-80.8745854512
 20
136.6827595303
 11
-77.4745854512
 21
136.6827595303
  0
LINE
  8
Layer0$C$L0
  6
PHANTOM
 62
     3
 10
-80.3745854512
 20
134.5327595303
 11
-77.4745854512
 21
134.5327595303
  0
LINE
  8
Layer0$C$L0
  6
PHANTOM
 62
     3
 10
-80.8745854512
 20
135.0327595303
 11
-80.3745854512
 21
134.5327595303
  0
LINE
  8
Layer0$C$L0
  6
PHANTOM
 62
     3
 10
-80.8745854512
 20
135.2922069285
 11
-77.4745854512
 21
135.2922069285
  0
LINE
  8
Layer0$C$L0
  6
PHANTOM
 62
     3
 10
-80.3745854512
 20
128.6327595303
 11
-77.4745854512
 21
128.6327595303
  0
LINE
  8
Layer0$C$L0
  6
PHANTOM
 62
     3
 10
-80.8745854512
 20
126.4827595303
 11
-80.8745854512
 21
128.1327595303
  0
LINE
  8
Layer0$C$L0
  6
PHANTOM
 62
     3
 10
-80.3745854512
 20
128.6327595303
 11
-80.8745854512
 21
128.1327595303
  0
LINE
  8
Layer0$C$L0
  6
PHANTOM
 62
     3
 10
-80.8745854512
 20
127.8733121321
 11
-77.4745854512
 21
127.8733121321
  0
LINE
  8
Layer0$C$L0
  6
PHANTOM
 62
     3
 10
-80.8745854512
 20
126.4827595303
 11
-77.4745854512
 21
126.4827595303
  0
LINE
  8
Layer0$C$L0
  6
PHANTOM
 62
     3
 10
-74.7745854512
 20
128.1136799610
 11
-74.7745854512
 21
128.1213695689
  0
LINE
  8
Layer0$C$L0
  6
PHANTOM
 62
     3
 10
-74.7745854512
 20
128.1213695689
 11
-74.9745854512
 21
128.1213695689
  0
LINE
  8
Layer0$C$L0
  6
PHANTOM
 62
     3
 10
-74.7745854512
 20
125.8028367504
 11
-74.9745854512
 21
125.8028367504
  0
LINE
  8
Layer0$C$L0
  6
PHANTOM
 62
     3
 10
-74.7745854512
 20
123.9090143565
 11
-74.9745854512
 21
123.9090143565
  0
LINE
  8
Layer0$C$L0
  6
PHANTOM
 62
     3
 10
-74.7745854512
 20
124.8559255535
 11
-74.9745854512
 21
124.8559255535
  0
LINE
  8
Layer0$C$L0
  6
PHANTOM
 62
     3
 10
-74.7745854512
 20
126.1175085650
 11
-74.7745854512
 21
128.0982035457
  0
LINE
  8
Layer0$C$L0
  6
PHANTOM
 62
     3
 10
-74.7745854512
 20
128.0982035457
 11
-74.9745854512
 21
128.0982035457
  0
LINE
  8
Layer0$C$L0
  6
PHANTOM
 62
     3
 10
-74.7745854512
 20
126.1175085650
 11
-74.9745854512
 21
126.1175085650
  0
LINE
  8
Layer0$C$L0
  6
PHANTOM
 62
     3
 10
-74.7745854512
 20
127.1483965959
 11
-74.9745854512
 21
127.1483965959
  0
LINE
  8
Layer0$C$L0
  6
PHANTOM
 62
     3
 10
-77.4745854512
 20
122.5827595303
 11
-77.4745854512
 21
140.5827595303
  0
LINE
  8
Layer0$C$L0
  6
PHANTOM
 62
     3
 10
-77.4745854512
 20
140.5827595303
 11
-75.4745854512
 21
140.5827595303
  0
LINE
  8
Layer0$C$L0
  6
PHANTOM
 62
     3
 10
-74.9745854512
 20
140.0827595303
 11
-74.9745854512
 21
123.0827595303
  0
ARC
  8
Layer0$C$L0
  6
PHANTOM
 62
     3
 10
-75.4745854512
 20
140.0827595303
 40
0.5000000000
 50
0.0000000000
 51
90.0000000000
  0
LINE
  8
Layer0$C$L0
  6
PHANTOM
 62
     3
 10
-75.4745854512
 20
122.5827595303
 11
-75.4745854512
 21
140.5827595303
  0
LINE
  8
Layer0$C$L0
  6
PHANTOM
 62
     3
 10
-77.4745854512
 20
135.5827595303
 11
-74.9745854512
 21
135.5827595303
  0
ARC
  8
Layer0$C$L0
  6
PHANTOM
 62
     3
 10
-75.4745854512
 20
123.0827595303
 40
0.5000000000
 50
270.0000000000
 51
360.0000000000
  0
LINE
  8
Layer0$C$L0
  6
PHANTOM
 62
     3
 10
-77.4745854512
 20
127.5827595303
 11
-74.9745854512
 21
127.5827595303
  0
LINE
  8
Layer0$C$L0
  6
PHANTOM
 62
     3
 10
-75.4745854512
 20
122.5827595303
 11
-77.4745854512
 21
122.5827595303
  0
LINE
  8
Layer0$C$L0
  6
PHANTOM
 62
     3
 10
-43.9746544092
 20
134.3328510830
 11
-43.7746544092
 21
134.3328510830
  0
LINE
  8
Layer0$C$L0
  6
PHANTOM
 62
     3
 10
-43.7746544092
 20
133.0828510830
 11
-43.9746544092
 21
133.0828510830
  0
LINE
  8
Layer0$C$L0
  6
PHANTOM
 62
     3
 10
-43.9746544092
 20
133.0828510830
 11
-43.9746544092
 21
134.3328510830
  0
LINE
  8
Layer0$C$L0
  6
PHANTOM
 62
     3
 10
-43.7746544092
 20
128.8328510830
 11
-43.9746544092
 21
128.8328510830
  0
LINE
  8
Layer0$C$L0
  6
PHANTOM
 62
     3
 10
-43.9746544092
 20
130.0828510830
 11
-43.7746544092
 21
130.0828510830
  0
LINE
  8
Layer0$C$L0
  6
PHANTOM
 62
     3
 10
-43.9746544092
 20
128.8328510830
 11
-43.9746544092
 21
130.0828510830
  0
LINE
  8
Layer0$C$L0
  6
PHANTOM
 62
     3
 10
-48.8746544092
 20
140.5828510830
 11
-36.8746544092
 21
140.5828510830
  0
ARC
  8
Layer0$C$L0
  6
PHANTOM
 62
     3
 10
-48.8746544092
 20
135.5828510830
 40
5.0000000000
 50
90.0000000000
 51
180.0000000000
  0
LINE
  8
Layer0$C$L0
  6
PHANTOM
 62
     3
 10
-53.8746544092
 20
127.5828510830
 11
-53.8746544092
 21
135.5828510830
  0
LINE
  8
Layer0$C$L0
  6
PHANTOM
 62
     3
 10
-43.7746544092
 20
128.6328510830
 11
-47.8746544092
 21
128.6328510830
  0
LINE
  8
Layer0$C$L0
  6
PHANTOM
 62
     3
 10
-43.7746544092
 20
134.5328510830
 11
-47.8746544092
 21
134.5328510830
  0
ARC
  8
Layer0$C$L0
  6
PHANTOM
 62
     3
 10
-47.8746544092
 20
131.5828510830
 40
2.9500000000
 50
90.0000000000
 51
270.0000000000
  0
ARC
  8
Layer0$C$L0
  6
PHANTOM
 62
     3
 10
-48.8746544092
 20
127.5828510830
 40
5.0000000000
 50
180.0000000000
 51
270.0000000000
  0
LINE
  8
Layer0$C$L0
  6
PHANTOM
 62
     3
 10
-36.8746544092
 20
122.5828510830
 11
-48.8746544092
 21
122.5828510830
  0
ARC
  8
Layer0$C$L0
  6
PHANTOM
 62
     3
 10
-40.7746544092
 20
136.5828510830
 40
4.0000000000
 50
90.0000000000
 51
180.0000000000
  0
ARC
  8
Layer0$C$L0
  6
PHANTOM
 62
     3
 10
-36.8746544092
 20
135.5828510830
 40
5.0000000000
 50
0.0000000000
 51
90.0000000000
  0
LINE
  8
Layer0$C$L0
  6
PHANTOM
 62
     3
 10
-44.7746544092
 20
134.5328510830
 11
-44.7746544092
 21
136.5828510830
  0
LINE
  8
Layer0$C$L0
  6
PHANTOM
 62
     3
 10
-43.7746544092
 20
130.3828510830
 11
-44.4746544092
 21
130.3828510830
  0
LINE
  8
Layer0$C$L0
  6
PHANTOM
 62
     3
 10
-44.4746544092
 20
132.7828510830
 11
-43.7746544092
 21
132.7828510830
  0
LINE
  8
Layer0$C$L0
  6
PHANTOM
 62
     3
 10
-44.4746544092
 20
130.3828510830
 11
-44.4746544092
 21
132.7828510830
  0
LINE
  8
Layer0$C$L0
  6
PHANTOM
 62
     3
 10
-31.8746544092
 20
135.5828510830
 11
-31.8746544092
 21
127.5828510830
  0
LINE
  8
Layer0$C$L0
  6
PHANTOM
 62
     3
 10
-44.7746544092
 20
126.5828510830
 11
-44.7746544092
 21
128.6328510830
  0
LINE
  8
Layer0$C$L0
  6
PHANTOM
 62
     3
 10
-43.9746544092
 20
132.7828510830
 11
-43.9746544092
 21
130.3828510830
  0
LINE
  8
Layer0$C$L0
  6
PHANTOM
 62
     3
 10
-43.7746544092
 20
130.3828510830
 11
-43.7746544092
 21
128.6328510830
  0
LINE
  8
Layer0$C$L0
  6
PHANTOM
 62
     3
 10
-43.7746544092
 20
132.7828510830
 11
-43.7746544092
 21
134.5328510830
  0
CIRCLE
  8
Layer0$C$L0
  6
PHANTOM
 62
     3
 10
-37.8746544092
 20
131.5828510830
 40
2.9500000000
  0
ARC
  8
Layer0$C$L0
  6
PHANTOM
 62
     3
 10
-40.7746544092
 20
126.5828510830
 40
4.0000000000
 50
180.0000000000
 51
270.0000000000
  0
ARC
  8
Layer0$C$L0
  6
PHANTOM
 62
     3
 10
-36.8746544092
 20
127.5828510830
 40
5.0000000000
 50
270.0000000000
 51
360.0000000000
  0
LINE
  8
Layer0$C$L0
  6
PHANTOM
 62
     3
 10
-69.1745855853
 20
78.1641718392
 11
-69.1745855853
 21
78.0599247349
  0
LINE
  8
Layer0$C$L0
  6
PHANTOM
 62
     3
 10
-69.1745855853
 20
78.1641718392
 11
-69.3745855853
 21
78.1641718392
  0
LINE
  8
Layer0$C$L0
  6
PHANTOM
 62
     3
 10
-69.1745855853
 20
78.0599247349
 11
-69.3745855853
 21
78.0599247349
  0
LINE
  8
Layer0$C$L0
  6
PHANTOM
 62
     3
 10
-69.1745855853
 20
77.8050984801
 11
-69.3745855853
 21
77.8050984801
  0
LINE
  8
Layer0$C$L0
  6
PHANTOM
 62
     3
 10
-69.1745855853
 20
77.6892683643
 11
-69.1745855853
 21
77.5502722253
  0
LINE
  8
Layer0$C$L0
  6
PHANTOM
 62
     3
 10
-69.1745855853
 20
77.5502722253
 11
-69.3745855853
 21
77.5502722253
  0
LINE
  8
Layer0$C$L0
  6
PHANTOM
 62
     3
 10
-69.1745855853
 20
77.6892683643
 11
-69.3745855853
 21
77.6892683643
  0
LINE
  8
Layer0$C$L0
  6
PHANTOM
 62
     3
 10
-69.1745855853
 20
78.5472692223
 11
-69.3745855853
 21
78.5472692223
  0
LINE
  8
Layer0$C$L0
  6
PHANTOM
 62
     3
 10
-69.1745855853
 20
80.1920568671
 11
-69.1745855853
 21
79.8329835080
  0
LINE
  8
Layer0$C$L0
  6
PHANTOM
 62
     3
 10
-69.1745855853
 20
80.1920568671
 11
-69.3745855853
 21
80.1920568671
  0
LINE
  8
Layer0$C$L0
  6
PHANTOM
 62
     3
 10
-69.1745855853
 20
78.6051842802
 11
-69.3745855853
 21
78.6051842802
  0
LINE
  8
Layer0$C$L0
  6
PHANTOM
 62
     3
 10
-69.1745855853
 20
79.8329835080
 11
-69.1745855853
 21
78.5472692223
  0
LINE
  8
Layer0$C$L0
  6
PHANTOM
 62
     3
 10
-69.1745855853
 20
78.9063425813
 11
-69.3745855853
 21
78.9063425813
  0
LINE
  8
Layer0$C$L0
  6
PHANTOM
 62
     3
 10
-69.1745855853
 20
79.3696630447
 11
-69.3745855853
 21
79.3696630447
  0
LINE
  8
Layer0$C$L0
  6
PHANTOM
 62
     3
 10
-69.1745855853
 20
80.1341418091
 11
-69.3745855853
 21
80.1341418091
  0
LINE
  8
Layer0$C$L0
  6
PHANTOM
 62
     3
 10
-69.1745855853
 20
79.8329835080
 11
-69.3745855853
 21
79.8329835080
  0
LINE
  8
Layer0$C$L0
  6
PHANTOM
 62
     3
 10
-74.7745855853
 20
88.5802061313
 11
-74.7745855853
 21
88.2831849155
  0
LINE
  8
Layer0$C$L0
  6
PHANTOM
 62
     3
 10
-74.7745855853
 20
87.1391612905
 11
-74.7745855853
 21
87.1198886710
  0
LINE
  8
Layer0$C$L0
  6
PHANTOM
 62
     3
 10
-74.7745855853
 20
87.1198886710
 11
-74.9745855853
 21
87.1198886710
  0
LINE
  8
Layer0$C$L0
  6
PHANTOM
 62
     3
 10
-74.7745855853
 20
88.3013558525
 11
-74.9745855853
 21
88.3013558525
  0
LINE
  8
Layer0$C$L0
  6
PHANTOM
 62
     3
 10
-74.7745855853
 20
88.5222910734
 11
-74.9745855853
 21
88.5222910734
  0
LINE
  8
Layer0$C$L0
  6
PHANTOM
 62
     3
 10
-74.7745855853
 20
90.1670787182
 11
-74.9745855853
 21
90.1670787182
  0
LINE
  8
Layer0$C$L0
  6
PHANTOM
 62
     3
 10
-74.7745855853
 20
88.2550238062
 11
-74.9745855853
 21
88.2550238062
  0
LINE
  8
Layer0$C$L0
  6
PHANTOM
 62
     3
 10
-74.7745855853
 20
87.1546377058
 11
-74.9745855853
 21
87.1546377058
  0
LINE
  8
Layer0$C$L0
  6
PHANTOM
 62
     3
 10
-74.7745855853
 20
90.1670787182
 11
-74.7745855853
 21
88.5802061313
  0
LINE
  8
Layer0$C$L0
  6
PHANTOM
 62
     3
 10
-74.7745855853
 20
88.5802061313
 11
-74.9745855853
 21
88.5802061313
  0
LINE
  8
Layer0$C$L0
  6
PHANTOM
 62
     3
 10
-74.7745855853
 20
90.1091636603
 11
-74.9745855853
 21
90.1091636603
  0
LINE
  8
Layer0$C$L0
  6
PHANTOM
 62
     3
 10
-74.7745855853
 20
89.8080053591
 11
-74.9745855853
 21
89.8080053591
  0
LINE
  8
Layer0$C$L0
  6
PHANTOM
 62
     3
 10
-74.7745855853
 20
89.3446848958
 11
-74.9745855853
 21
89.3446848958
  0
LINE
  8
Layer0$C$L0
  6
PHANTOM
 62
     3
 10
-74.7745855853
 20
88.8813644325
 11
-74.9745855853
 21
88.8813644325
  0
LINE
  8
Layer0$C$L0
  6
PHANTOM
 62
     3
 10
-74.7745855853
 20
88.0696956208
 11
-74.9745855853
 21
88.0696956208
  0
LINE
  8
Layer0$C$L0
  6
PHANTOM
 62
     3
 10
-74.7745855853
 20
87.7106222618
 11
-74.9745855853
 21
87.7106222618
  0
LINE
  8
Layer0$C$L0
  6
PHANTOM
 62
     3
 10
-74.7745855853
 20
87.3052168563
 11
-74.9745855853
 21
87.3052168563
  0
LINE
  8
Layer0$C$L0
  6
PHANTOM
 62
     3
 10
-80.8745855853
 20
86.7828358242
 11
-80.8745855853
 21
83.9644707278
  0
LINE
  8
Layer0$C$L0
  6
PHANTOM
 62
     3
 10
-80.8745855853
 20
86.7828358242
 11
-77.4745855853
 21
86.7828358242
  0
LINE
  8
Layer0$C$L0
  6
PHANTOM
 62
     3
 10
-75.8745855853
 20
80.0828358242
 11
-75.8745855853
 21
81.4828358242
  0
LINE
  8
Layer0$C$L0
  6
PHANTOM
 62
     3
 10
-77.4745855853
 20
83.3649589934
 11
-80.8745855853
 21
83.9644707278
  0
LINE
  8
Layer0$C$L0
  6
PHANTOM
 62
     3
 10
-80.8745855853
 20
85.9983600808
 11
-77.4745855853
 21
85.9983600808
  0
LINE
  8
Layer0$C$L0
  6
PHANTOM
 62
     3
 10
-72.3368700772
 20
80.0828358242
 11
-75.8745855853
 21
80.0828358242
  0
LINE
  8
Layer0$C$L0
  6
PHANTOM
 62
     3
 10
-74.9745855853
 20
83.4193274973
 11
-74.9745855853
 21
94.0828358242
  0
LINE
  8
Layer0$C$L0
  6
PHANTOM
 62
     3
 10
-77.4745855853
 20
81.4828358242
 11
-69.3745855853
 21
81.4828358242
  0
LINE
  8
Layer0$C$L0
  6
PHANTOM
 62
     3
 10
-77.4745855853
 20
94.5828358242
 11
-77.4745855853
 21
81.4828358242
  0
LINE
  8
Layer0$C$L0
  6
PHANTOM
 62
     3
 10
-75.4745855854
 20
94.5828358242
 11
-75.4745855850
 21
81.4828358242
  0
LINE
  8
Layer0$C$L0
  6
PHANTOM
 62
     3
 10
-75.4745855853
 20
94.5828358242
 11
-77.4745855853
 21
94.5828358242
  0
LINE
  8
Layer0$C$L0
  6
PHANTOM
 62
     3
 10
-77.4745855853
 20
89.5828358242
 11
-74.9745855853
 21
89.5828358242
  0
ARC
  8
Layer0$C$L0
  6
PHANTOM
 62
     3
 10
-75.4745855853
 20
94.0828358242
 40
0.5000000000
 50
0.0000000000
 51
90.0000000000
  0
LINE
  8
Layer0$C$L0
  6
PHANTOM
 62
     3
 10
-69.8745855853
 20
85.4828358242
 11
-74.9745855853
 21
85.4828358242
  0
LINE
  8
Layer0$C$L0
  6
PHANTOM
 62
     3
 10
-71.8745855853
 20
78.4828358242
 11
-71.8745855853
 21
72.5828358242
  0
LINE
  8
Layer0$C$L0
  6
PHANTOM
 62
     3
 10
-71.8745855853
 20
72.5828358242
 11
-69.8745855853
 21
72.5828358242
  0
LINE
  8
Layer0$C$L0
  6
PHANTOM
 62
     3
 10
-69.3745855853
 20
73.0828358242
 11
-69.3745855853
 21
81.4828358242
  0
ARC
  8
Layer0$C$L0
  6
PHANTOM
 62
     3
 10
-69.8745855853
 20
73.0828358242
 40
0.5000000000
 50
270.0000000000
 51
360.0000000000
  0
LINE
  8
Layer0$C$L0
  6
PHANTOM
 62
     3
 10
-69.8745855853
 20
85.4828358242
 11
-69.8745855853
 21
72.5828358242
  0
LINE
  8
Layer0$C$L0
  6
PHANTOM
 62
     3
 10
-69.3745855853
 20
77.5828358242
 11
-71.8745855853
 21
77.5828358242
  0
ARC
  8
Layer0$C$L0
  6
PHANTOM
 62
     3
 10
-74.8745855853
 20
78.4828358242
 40
3.0000000000
 50
0.0000000000
 51
89.9999999983
  0
ARC
  8
Layer0$C$L0
  6
PHANTOM
 62
     3
 10
-69.8745855853
 20
84.9828358242
 40
0.5000000000
 50
0.0000000000
 51
90.0000000000
  0
LINE
  8
Layer0$C$L0
  6
PHANTOM
 62
     3
 10
-69.3745855853
 20
81.4828358242
 11
-69.3745855853
 21
84.9828358242
  0
LINE
  8
Layer1$C$L1
 62
     3
 10
-79.8748449847
 20
133.1827595303
 11
-79.8748449847
 21
134.3327595303
  0
LINE
  8
Layer1$C$L1
 62
     3
 10
-79.8745854512
 20
129.9827595303
 11
-79.8745854512
 21
128.8327595303
  0
LINE
  8
Layer1$C$L1
 62
     3
 10
-79.8745854512
 20
133.1827595303
 11
-75.8748449847
 21
133.1827595303
  0
LINE
  8
Layer1$C$L1
 62
     3
 10
-75.8748449847
 20
129.9827595303
 11
-79.8745854512
 21
129.9827595303
  0
LINE
  8
Layer1$C$L1
 62
     3
 10
-124.3743078753
 20
71.1828048469
 11
-124.3743078753
 21
85.9825909914
  0
ENDSEC
  0
EOF
