  0
SECTION
  2
HEADER
  9
$ACADVER
  1
AC1015
  9
$ACADMAINTVER
 70
    20
  9
$DWGCODEPAGE
  3
ANSI_932
  9
$INSBASE
 10
0.0
 20
0.0
 30
0.0
  9
$EXTMIN
 10
0.0
 20
0.0
 30
0.0
  9
$EXTMAX
 10
210.0
 20
297.0
 30
0.0
  9
$LIMMIN
 10
-176.2891052245999
 20
-3.174999999999998
  9
$LIMMAX
 10
3.174999999999998
 20
291.2585876465
  9
$ORTHOMODE
 70
     0
  9
$REGENMODE
 70
     1
  9
$FILLMODE
 70
     1
  9
$QTEXTMODE
 70
     0
  9
$MIRRTEXT
 70
     0
  9
$LTSCALE
 40
1.0
  9
$ATTMODE
 70
     1
  9
$TEXTSIZE
 40
2.999994039499997
  9
$TRACEWID
 40
0.05
  9
$TEXTSTYLE
  7
STANDARD
  9
$CLAYER
  8
0
  9
$CELTYPE
  6
ByLayer
  9
$CECOLOR
 62
   256
  9
$CELTSCALE
 40
1.0
  9
$DISPSILH
 70
     0
  9
$DIMSCALE
 40
1.0
  9
$DIMASZ
 40
1.9727878465
  9
$DIMEXO
 40
2.539999961899999
  9
$DIMDLI
 40
0.38
  9
$DIMRND
 40
0.0
  9
$DIMDLE
 40
0.0
  9
$DIMEXE
 40
3.809999942799997
  9
$DIMTP
 40
0.0
  9
$DIMTM
 40
0.0
  9
$DIMTXT
 40
2.999994039499997
  9
$DIMCEN
 40
0.09
  9
$DIMTSZ
 40
0.0
  9
$DIMTOL
 70
     0
  9
$DIMLIM
 70
     0
  9
$DIMTIH
 70
     0
  9
$DIMTOH
 70
     1
  9
$DIMSE1
 70
     0
  9
$DIMSE2
 70
     0
  9
$DIMTAD
 70
     0
  9
$DIMZIN
 70
     0
  9
$DIMBLK
  1

  9
$DIMASO
 70
     1
  9
$DIMSHO
 70
     0
  9
$DIMPOST
  1

  9
$DIMAPOST
  1

  9
$DIMALT
 70
     0
  9
$DIMALTD
 70
     2
  9
$DIMALTF
 40
25.4
  9
$DIMLFAC
 40
1.0
  9
$DIMTOFL
 70
     0
  9
$DIMTVP
 40
0.0
  9
$DIMTIX
 70
     0
  9
$DIMSOXD
 70
     0
  9
$DIMSAH
 70
     0
  9
$DIMBLK1
  1

  9
$DIMBLK2
  1

  9
$DIMSTYLE
  2
Standard
  9
$DIMCLRD
 70
     0
  9
$DIMCLRE
 70
     0
  9
$DIMCLRT
 70
     0
  9
$DIMTFAC
 40
1.0
  9
$DIMGAP
 40
0.09
  9
$DIMJUST
 70
     0
  9
$DIMSD1
 70
     0
  9
$DIMSD2
 70
     0
  9
$DIMTOLJ
 70
     1
  9
$DIMTZIN
 70
     0
  9
$DIMALTZ
 70
     0
  9
$DIMALTTZ
 70
     0
  9
$DIMUPT
 70
     0
  9
$DIMDEC
 70
     4
  9
$DIMTDEC
 70
     4
  9
$DIMALTU
 70
     2
  9
$DIMALTTD
 70
     2
  9
$DIMTXSTY
  7
STANDARD
  9
$DIMAUNIT
 70
     0
  9
$DIMADEC
 70
     0
  9
$DIMALTRND
 40
0.0
  9
$DIMAZIN
 70
     0
  9
$DIMDSEP
 70
    46
  9
$DIMATFIT
 70
     3
  9
$DIMFRAC
 70
     0
  9
$DIMLDRBLK
  1

  9
$DIMLUNIT
 70
     2
  9
$DIMLWD
 70
    -2
  9
$DIMLWE
 70
    -2
  9
$DIMTMOVE
 70
     0
  9
$LUNITS
 70
     2
  9
$LUPREC
 70
     3
  9
$SKETCHINC
 40
0.1
  9
$FILLETRAD
 40
0.0625
  9
$AUNITS
 70
     0
  9
$AUPREC
 70
     0
  9
$MENU
  1
ACAD
  9
$ELEVATION
 40
0.0
  9
$PELEVATION
 40
0.0
  9
$THICKNESS
 40
0.0
  9
$LIMCHECK
 70
     0
  9
$CHAMFERA
 40
0.0
  9
$CHAMFERB
 40
0.0
  9
$CHAMFERC
 40
0.0
  9
$CHAMFERD
 40
0.0
  9
$SKPOLY
 70
     0
  9
$TDCREATE
 40
2452360.619513889
  9
$TDUCREATE
 40
2452360.244513889
  9
$TDUPDATE
 40
2453397.812379595
  9
$TDUUPDATE
 40
2453397.437379595
  9
$TDINDWG
 40
0.0021819676
  9
$TDUSRTIMER
 40
0.0021814236
  9
$USRTIMER
 70
     1
  9
$ANGBASE
 50
0.0
  9
$ANGDIR
 70
     0
  9
$PDMODE
 70
     0
  9
$PDSIZE
 40
0.0
  9
$PLINEWID
 40
0.0
  9
$SPLFRAME
 70
     0
  9
$SPLINETYPE
 70
     6
  9
$SPLINESEGS
 70
     8
  9
$HANDSEED
  5
1F4
  9
$SURFTAB1
 70
     6
  9
$SURFTAB2
 70
     6
  9
$SURFTYPE
 70
     6
  9
$SURFU
 70
     6
  9
$SURFV
 70
     6
  9
$UCSBASE
  2

  9
$UCSNAME
  2

  9
$UCSORG
 10
0.0
 20
0.0
 30
0.0
  9
$UCSXDIR
 10
1.0
 20
0.0
 30
0.0
  9
$UCSYDIR
 10
0.0
 20
1.0
 30
0.0
  9
$UCSORTHOREF
  2

  9
$UCSORTHOVIEW
 70
     0
  9
$UCSORGTOP
 10
0.0
 20
0.0
 30
0.0
  9
$UCSORGBOTTOM
 10
0.0
 20
0.0
 30
0.0
  9
$UCSORGLEFT
 10
0.0
 20
0.0
 30
0.0
  9
$UCSORGRIGHT
 10
0.0
 20
0.0
 30
0.0
  9
$UCSORGFRONT
 10
0.0
 20
0.0
 30
0.0
  9
$UCSORGBACK
 10
0.0
 20
0.0
 30
0.0
  9
$PUCSBASE
  2

  9
$PUCSNAME
  2

  9
$PUCSORG
 10
0.0
 20
0.0
 30
0.0
  9
$PUCSXDIR
 10
1.0
 20
0.0
 30
0.0
  9
$PUCSYDIR
 10
0.0
 20
1.0
 30
0.0
  9
$PUCSORTHOREF
  2

  9
$PUCSORTHOVIEW
 70
     0
  9
$PUCSORGTOP
 10
0.0
 20
0.0
 30
0.0
  9
$PUCSORGBOTTOM
 10
0.0
 20
0.0
 30
0.0
  9
$PUCSORGLEFT
 10
0.0
 20
0.0
 30
0.0
  9
$PUCSORGRIGHT
 10
0.0
 20
0.0
 30
0.0
  9
$PUCSORGFRONT
 10
0.0
 20
0.0
 30
0.0
  9
$PUCSORGBACK
 10
0.0
 20
0.0
 30
0.0
  9
$USERI1
 70
     9
  9
$USERI2
 70
     0
  9
$USERI3
 70
     0
  9
$USERI4
 70
     0
  9
$USERI5
 70
     0
  9
$USERR1
 40
0.0
  9
$USERR2
 40
0.0
  9
$USERR3
 40
0.0
  9
$USERR4
 40
0.0
  9
$USERR5
 40
0.0
  9
$WORLDVIEW
 70
     1
  9
$SHADEDGE
 70
     3
  9
$SHADEDIF
 70
    70
  9
$TILEMODE
 70
     1
  9
$MAXACTVP
 70
    64
  9
$PINSBASE
 10
0.0
 20
0.0
 30
0.0
  9
$PLIMCHECK
 70
     0
  9
$PEXTMIN
 10
1.000000000000000E+20
 20
1.000000000000000E+20
 30
1.000000000000000E+20
  9
$PEXTMAX
 10
-1.000000000000000E+20
 20
-1.000000000000000E+20
 30
-1.000000000000000E+20
  9
$PLIMMIN
 10
0.0
 20
0.0
  9
$PLIMMAX
 10
12.0
 20
9.0
  9
$UNITMODE
 70
     0
  9
$VISRETAIN
 70
     1
  9
$PLINEGEN
 70
     0
  9
$PSLTSCALE
 70
     1
  9
$TREEDEPTH
 70
  3020
  9
$CMLSTYLE
  2
Standard
  9
$CMLJUST
 70
     0
  9
$CMLSCALE
 40
1.0
  9
$PROXYGRAPHICS
 70
     1
  9
$MEASUREMENT
 70
     0
  9
$CELWEIGHT
370
    -1
  9
$ENDCAPS
280
     0
  9
$JOINSTYLE
280
     0
  9
$LWDISPLAY
290
     0
  9
$INSUNITS
 70
     0
  9
$HYPERLINKBASE
  1

  9
$STYLESHEET
  1

  9
$XEDIT
290
     1
  9
$CEPSNTYPE
380
     0
  9
$PSTYLEMODE
290
     1
  9
$FINGERPRINTGUID
  2
{023CC77D-AECC-4684-92EC-330336BDA5F4}
  9
$VERSIONGUID
  2
{1AC4A691-9D5A-444E-8459-8D99B9139046}
  9
$EXTNAMES
290
     1
  9
$PSVPSCALE
 40
0.0
  9
$OLESTARTUP
290
     0
  0
ENDSEC
  0
SECTION
  2
CLASSES
  0
CLASS
  1
ACDBDICTIONARYWDFLT
  2
AcDbDictionaryWithDefault
  3
ObjectDBX Classes
 90
        0
280
     0
281
     0
  0
CLASS
  1
ACDBPLACEHOLDER
  2
AcDbPlaceHolder
  3
ObjectDBX Classes
 90
        0
280
     0
281
     0
  0
CLASS
  1
LAYOUT
  2
AcDbLayout
  3
ObjectDBX Classes
 90
        0
280
     0
281
     0
  0
CLASS
  1
DICTIONARYVAR
  2
AcDbDictionaryVar
  3
ObjectDBX Classes
 90
        0
280
     0
281
     0
  0
CLASS
  1
TABLESTYLE
  2
AcDbTableStyle
  3
ObjectDBX Classes
 90
     2047
280
     0
281
     0
  0
ENDSEC
  0
SECTION
  2
TABLES
  0
TABLE
  2
VPORT
  5
19
330
0
100
AcDbSymbolTable
 70
     2
  0
VPORT
  5
1EE
330
19
100
AcDbSymbolTableRecord
100
AcDbViewportTableRecord
  2
*Active
 70
     0
 10
0.0
 20
0.0
 11
1.0
 21
1.0
 12
104.9986131702625
 22
237.0458203410603
 13
0.0
 23
0.0
 14
1.0
 24
1.0
 15
0.0
 25
0.0
 16
0.0
 26
0.0
 36
1.0
 17
0.0
 27
0.0
 37
0.0
 40
478.5851355307895
 41
1.087939698492462
 42
50.0
 43
0.0
 44
0.0
 50
0.0
 51
0.0
 71
     0
 72
   100
 73
     1
 74
     1
 75
     0
 76
     0
 77
     0
 78
     0
281
     0
 65
     1
110
0.0
120
0.0
130
0.0
111
1.0
121
0.0
131
0.0
112
0.0
122
1.0
132
0.0
 79
     0
146
0.0
  0
ENDTAB
  0
TABLE
  2
LTYPE
  5
14
330
0
100
AcDbSymbolTable
 70
     2
  0
LTYPE
  5
15
330
14
100
AcDbSymbolTableRecord
100
AcDbLinetypeTableRecord
  2
ByBlock
 70
     0
  3

 72
    65
 73
     0
 40
0.0
  0
LTYPE
  5
16
330
14
100
AcDbSymbolTableRecord
100
AcDbLinetypeTableRecord
  2
ByLayer
 70
     0
  3

 72
    65
 73
     0
 40
0.0
  0
LTYPE
  5
8
330
14
100
AcDbSymbolTableRecord
100
AcDbLinetypeTableRecord
  2
Continuous
 70
     0
  3
Solid line
 72
    65
 73
     0
 40
0.0
  0
LTYPE
  5
2E
330
14
100
AcDbSymbolTableRecord
100
AcDbLinetypeTableRecord
  2
CENTER
 70
     0
  3
Center
 72
    65
 73
     4
 40
9.100006759199999
 49
6.5000119209
 74
     0
 49
-0.7999984026000001
 74
     0
 49
0.9999980329999999
 74
     0
 49
-0.7999984026000001
 74
     0
  0
ENDTAB
  0
TABLE
  2
LAYER
  5
10
330
0
100
AcDbSymbolTable
 70
     1
  0
LAYER
  5
4
330
10
100
AcDbSymbolTableRecord
100
AcDbLayerTableRecord
  2
0
 70
     0
 62
     7
  6
Continuous
370
    -3
390
5
  0
ENDTAB
  0
TABLE
  2
STYLE
  5
11
330
0
100
AcDbSymbolTable
 70
     1
  0
STYLE
  5
12
330
11
100
AcDbSymbolTableRecord
100
AcDbTextStyleTableRecord
  2
STANDARD
 70
     0
 40
0.0
 41
1.0
 50
0.0
 71
     0
 42
2.999994039499997
  3
romans.shx
  4
bigfont.shx
  0
ENDTAB
  0
TABLE
  2
VIEW
  5
17
330
0
100
AcDbSymbolTable
 70
     0
  0
ENDTAB
  0
TABLE
  2
UCS
  5
18
330
0
100
AcDbSymbolTable
 70
     0
  0
ENDTAB
  0
TABLE
  2
APPID
  5
1B
330
0
100
AcDbSymbolTable
 70
     1
  0
APPID
  5
1C
330
1B
100
AcDbSymbolTableRecord
100
AcDbRegAppTableRecord
  2
ACAD
 70
     0
  0
ENDTAB
  0
TABLE
  2
DIMSTYLE
  5
1D
330
0
100
AcDbSymbolTable
 70
     1
100
AcDbDimStyleTable
 71
     0
  0
DIMSTYLE
105
23
330
1D
100
AcDbSymbolTableRecord
100
AcDbDimStyleTableRecord
  2
Standard
 70
     0
340
12
  0
ENDTAB
  0
TABLE
  2
BLOCK_RECORD
  5
1
330
0
100
AcDbSymbolTable
 70
     0
  0
BLOCK_RECORD
  5
2
330
1
100
AcDbSymbolTableRecord
100
AcDbBlockTableRecord
  2
*Model_Space
340
A
  0
BLOCK_RECORD
  5
C
330
1
100
AcDbSymbolTableRecord
100
AcDbBlockTableRecord
  2
*Paper_Space
340
F
  0
ENDTAB
  0
ENDSEC
  0
SECTION
  2
BLOCKS
  0
BLOCK
  5
3
330
2
100
AcDbEntity
  8
0
100
AcDbBlockBegin
  2
*Model_Space
 70
     2
 10
0.0
 20
0.0
 30
0.0
  3
*Model_Space
  1

  0
ENDBLK
  5
9
330
2
100
AcDbEntity
  8
0
100
AcDbBlockEnd
  0
BLOCK
  5
D
330
C
100
AcDbEntity
 67
     1
  8
0
100
AcDbBlockBegin
  2
*Paper_Space
 70
     0
 10
0.0
 20
0.0
 30
0.0
  3
*Paper_Space
  1

  0
ENDBLK
  5
E
330
C
100
AcDbEntity
 67
     1
  8
0
100
AcDbBlockEnd
  0
ENDSEC
  0
SECTION
  2
ENTITIES
  0
LINE
  5
24
330
2
100
AcDbEntity
  8
0
100
AcDbLine
 10
210.0
 20
0.0
 30
0.0
 11
210.0
 21
297.0
 31
0.0
  0
LINE
  5
25
330
2
100
AcDbEntity
  8
0
100
AcDbLine
 10
0.0
 20
297.0
 30
0.0
 11
0.0
 21
0.0
 31
0.0
  0
LINE
  5
26
330
2
100
AcDbEntity
  8
0
100
AcDbLine
 10
0.0
 20
0.0
 30
0.0
 11
210.0
 21
0.0
 31
0.0
  0
LINE
  5
27
330
2
100
AcDbEntity
  8
0
 62
     3
100
AcDbLine
 10
74.01362721069999
 20
177.5001525879
 30
0.0
 11
50.51390186889998
 21
177.5001525879
 31
0.0
  0
LINE
  5
28
330
2
100
AcDbEntity
  8
0
 62
     3
100
AcDbLine
 10
73.71357838259995
 20
177.2001037596998
 30
0.0
 11
50.81395069699997
 21
177.2001037596998
 31
0.0
  0
LINE
  5
29
330
2
100
AcDbEntity
  8
0
 62
     3
100
AcDbLine
 10
73.11360279659999
 20
176.2998352049999
 30
0.0
 11
51.41356007199997
 21
176.2998352049999
 31
0.0
  0
LINE
  5
2A
330
2
100
AcDbEntity
  8
0
 62
     3
100
AcDbLine
 10
73.11360279659999
 20
160.7001800536999
 30
0.0
 11
51.41356007199997
 21
160.7001800536999
 31
0.0
  0
LINE
  5
2B
330
2
100
AcDbEntity
  8
0
 62
     3
100
AcDbLine
 10
73.71357838259995
 20
159.8000488280999
 30
0.0
 11
50.81419483759995
 21
159.8000488280999
 31
0.0
  0
LINE
  5
2C
330
2
100
AcDbEntity
  8
0
 62
     3
100
AcDbLine
 10
74.01362721069999
 20
159.5001220702999
 30
0.0
 11
50.5142680798
 21
159.5001220702999
 31
0.0
  0
LINE
  5
2D
330
2
100
AcDbEntity
  8
0
  6
CENTER
 62
     3
100
AcDbLine
 10
77.31355396849996
 20
168.5001068114999
 30
0.0
 11
47.21385304079999
 21
168.5001068114999
 31
0.0
  0
LINE
  5
2F
330
2
100
AcDbEntity
  8
0
 62
     3
100
AcDbLine
 10
72.46370045289999
 20
176.0000610350999
 30
0.0
 11
52.06358448609996
 21
176.0000610350999
 31
0.0
  0
LINE
  5
30
330
2
100
AcDbEntity
  8
0
 62
     3
100
AcDbLine
 10
72.46370045289999
 20
161.0001525878999
 30
0.0
 11
52.06358448609996
 21
161.0001525878999
 31
0.0
  0
LINE
  5
31
330
2
100
AcDbEntity
  8
0
 62
     3
100
AcDbLine
 10
50.21385304079998
 20
177.2002258299999
 30
0.0
 11
50.21385304079998
 21
159.7996978759
 31
0.0
  0
LINE
  5
32
330
2
100
AcDbEntity
  8
0
 62
     3
100
AcDbLine
 10
50.51365772829999
 20
176.9002990721999
 30
0.0
 11
50.51365772829999
 21
160.0991363525
 31
0.0
  0
LINE
  5
33
330
2
100
AcDbEntity
  8
0
 62
     3
100
AcDbLine
 10
51.76341358759995
 20
175.7000427246
 30
0.0
 11
51.76341358759995
 21
161.3001403807999
 31
0.0
  0
LINE
  5
34
330
2
100
AcDbEntity
  8
0
 62
     3
100
AcDbLine
 10
51.4135753308
 20
159.8001861571999
 30
0.0
 11
51.4135753308
 21
177.2000274657999
 31
0.0
  0
LINE
  5
35
330
2
100
AcDbEntity
  8
0
 62
     3
100
AcDbLine
 10
52.06346289139996
 20
161.0001254793999
 30
0.0
 11
51.76350621269996
 21
161.3000701987999
 31
0.0
  0
LINE
  5
36
330
2
100
AcDbEntity
  8
0
 62
     3
100
AcDbLine
 10
50.21405938310002
 20
159.7997562727999
 30
0.0
 11
50.51400974079999
 21
159.4998052576999
 31
0.0
  0
LINE
  5
37
330
2
100
AcDbEntity
  8
0
 62
     3
100
AcDbLine
 10
50.51431927029998
 20
160.099621128
 30
0.0
 11
50.81418358939996
 21
159.7997566825
 31
0.0
  0
LINE
  5
38
330
2
100
AcDbEntity
  8
0
 62
     3
100
AcDbLine
 10
50.21411299909999
 20
159.7997459347999
 30
0.0
 11
50.51432924109994
 21
160.0996035977999
 31
0.0
  0
LINE
  5
39
330
2
100
AcDbEntity
  8
0
 62
     3
100
AcDbLine
 10
50.81419527049999
 20
159.7996638276999
 30
0.0
 11
50.51406289419997
 21
159.4997221977999
 31
0.0
  0
LINE
  5
3A
330
2
100
AcDbEntity
  8
0
 62
     3
100
AcDbLine
 10
52.86352650269996
 20
159.8001861571999
 30
0.0
 11
52.86352650269996
 21
160.7002105712999
 31
0.0
  0
LINE
  5
3B
330
2
100
AcDbEntity
  8
0
 62
     3
100
AcDbLine
 10
51.76350450159998
 20
175.6999831736
 30
0.0
 11
52.06351163059998
 21
176.0000069176999
 31
0.0
  0
LINE
  5
3C
330
2
100
AcDbEntity
  8
0
 62
     3
100
AcDbLine
 10
50.51426707449997
 20
177.4998795851
 30
0.0
 11
50.21431653979999
 21
177.1999287469999
 31
0.0
  0
LINE
  5
3D
330
2
100
AcDbEntity
  8
0
 62
     3
100
AcDbLine
 10
50.81405489609998
 20
177.2000593222999
 30
0.0
 11
50.51401764009997
 21
176.9000225721
 31
0.0
  0
LINE
  5
3E
330
2
100
AcDbEntity
  8
0
 62
     3
100
AcDbLine
 10
50.81409368580001
 20
177.2000678720999
 30
0.0
 11
50.51419499039997
 21
177.499897916
 31
0.0
  0
LINE
  5
3F
330
2
100
AcDbEntity
  8
0
 62
     3
100
AcDbLine
 10
50.51405593209998
 20
176.8999039971999
 30
0.0
 11
50.2142602392
 21
177.1998370434999
 31
0.0
  0
LINE
  5
40
330
2
100
AcDbEntity
  8
0
 62
     3
100
AcDbLine
 10
52.86352650269996
 20
176.3000030516999
 30
0.0
 11
52.86352650269996
 21
177.2000274657999
 31
0.0
  0
LINE
  5
41
330
2
100
AcDbEntity
  8
0
  6
CENTER
 62
     3
100
AcDbLine
 10
62.26353565789998
 20
180.5001525878999
 30
0.0
 11
62.26353565789998
 21
156.5001220702999
 31
0.0
  0
LINE
  5
42
330
2
100
AcDbEntity
  8
0
 62
     3
100
AcDbLine
 10
74.31355396849999
 20
177.1992492674999
 30
0.0
 11
74.31355396849999
 21
159.8001251219999
 31
0.0
  0
LINE
  5
43
330
2
100
AcDbEntity
  8
0
 62
     3
100
AcDbLine
 10
74.01362721069999
 20
176.9002990721999
 30
0.0
 11
74.01362721069999
 21
160.1000213622999
 31
0.0
  0
LINE
  5
44
330
2
100
AcDbEntity
  8
0
 62
     3
100
AcDbLine
 10
72.76362721069999
 20
175.7000579834
 30
0.0
 11
72.76362721069999
 21
161.3001403807999
 31
0.0
  0
LINE
  5
45
330
2
100
AcDbEntity
  8
0
 62
     3
100
AcDbLine
 10
73.11361805539998
 20
159.8001861571999
 30
0.0
 11
73.11361805539998
 21
177.2000274657999
 31
0.0
  0
LINE
  5
46
330
2
100
AcDbEntity
  8
0
 62
     3
100
AcDbLine
 10
72.46370323239999
 20
161.0000280913999
 30
0.0
 11
72.76370819549999
 21
161.3000324222999
 31
0.0
  0
LINE
  5
47
330
2
100
AcDbEntity
  8
0
 62
     3
100
AcDbLine
 10
71.66366688349999
 20
159.8002014159999
 30
0.0
 11
71.66366688349999
 21
160.7002258299999
 31
0.0
  0
LINE
  5
48
330
2
100
AcDbEntity
  8
0
 62
     3
100
AcDbLine
 10
74.0141636216
 20
160.0995135283999
 30
0.0
 11
73.7142130364
 21
159.7995627155999
 31
0.0
  0
LINE
  5
49
330
2
100
AcDbEntity
  8
0
 62
     3
100
AcDbLine
 10
74.01408598059998
 20
159.4997244201999
 30
0.0
 11
73.71421018589998
 21
159.7995773647999
 31
0.0
  0
LINE
  5
4A
330
2
100
AcDbEntity
  8
0
 62
     3
100
AcDbLine
 10
74.31410165329999
 20
159.7996328803
 30
0.0
 11
74.01415134619998
 21
159.4996818145999
 31
0.0
  0
LINE
  5
4B
330
2
100
AcDbEntity
  8
0
 62
     3
100
AcDbLine
 10
74.31402523859998
 20
159.7996865348999
 30
0.0
 11
74.01414944389998
 21
160.0995394794999
 31
0.0
  0
LINE
  5
4C
330
2
100
AcDbEntity
  8
0
 62
     3
100
AcDbLine
 10
72.76372165529997
 20
175.7000068846999
 30
0.0
 11
72.46377091829998
 21
175.9999575205
 31
0.0
  0
LINE
  5
4D
330
2
100
AcDbEntity
  8
0
 62
     3
100
AcDbLine
 10
71.66366688349999
 20
176.2999877928999
 30
0.0
 11
71.66366688349999
 21
177.200012207
 31
0.0
  0
LINE
  5
4E
330
2
100
AcDbEntity
  8
0
 62
     3
100
AcDbLine
 10
73.71422189269998
 20
177.1997630977999
 30
0.0
 11
74.01417288249998
 21
176.8998127149
 31
0.0
  0
LINE
  5
4F
330
2
100
AcDbEntity
  8
0
 62
     3
100
AcDbLine
 10
74.01422559529999
 20
177.4998891670999
 30
0.0
 11
73.71416711549997
 21
177.1997010071999
 31
0.0
  0
LINE
  5
50
330
2
100
AcDbEntity
  8
0
 62
     3
100
AcDbLine
 10
74.014268614
 20
177.4998993860999
 30
0.0
 11
74.31421919919998
 21
177.1999485985999
 31
0.0
  0
LINE
  5
51
330
2
100
AcDbEntity
  8
0
 62
     3
100
AcDbLine
 10
74.31415478629998
 20
177.1999169481
 30
0.0
 11
74.01409630649999
 21
176.8997287881999
 31
0.0
  0
LINE
  5
52
330
2
100
AcDbEntity
  8
0
 62
     3
100
AcDbLine
 10
106.2638713512999
 20
226.4001464843
 30
0.0
 11
110.0638591442999
 21
226.4001464843
 31
0.0
  0
LINE
  5
53
330
2
100
AcDbEntity
  8
0
 62
     3
100
AcDbLine
 10
110.0638591442999
 20
208.6001434326
 30
0.0
 11
106.2638713512999
 21
208.6001434326
 31
0.0
  0
LINE
  5
54
330
2
100
AcDbEntity
  8
0
 62
     3
100
AcDbLine
 10
106.2635203991999
 20
177.4001922607
 30
0.0
 11
110.0635081921
 21
177.4001922607
 31
0.0
  0
LINE
  5
55
330
2
100
AcDbEntity
  8
0
 62
     3
100
AcDbLine
 10
110.0635081921
 20
159.600189209
 30
0.0
 11
106.2635203991999
 21
159.600189209
 31
0.0
  0
LINE
  5
56
330
2
100
AcDbEntity
  8
0
  6
CENTER
 62
     3
100
AcDbLine
 10
137.2633067760999
 20
168.5001068114999
 30
0.0
 11
91.2634898816
 21
168.5001068114999
 31
0.0
  0
LINE
  5
57
330
2
100
AcDbEntity
  8
0
  6
CENTER
 62
     3
100
AcDbLine
 10
137.2633067760999
 20
217.5000457763
 30
0.0
 11
91.26411549190001
 21
217.5000457763
 31
0.0
  0
LINE
  5
58
330
2
100
AcDbEntity
  8
0
 62
     3
100
AcDbLine
 10
94.57074158209998
 20
177.3067816890999
 30
0.0
 11
103.2637801364999
 21
177.4497273942
 31
0.0
  0
LINE
  5
59
330
2
100
AcDbEntity
  8
0
 62
     3
100
AcDbLine
 10
103.2637384593999
 20
177.1497314038999
 30
0.0
 11
94.26388613299998
 21
176.9999499366999
 31
0.0
  0
LINE
  5
5A
330
2
100
AcDbEntity
  8
0
 62
     3
100
AcDbLine
 10
94.26390221209995
 20
160.0070518599999
 30
0.0
 11
103.2637523923999
 21
159.8571416645999
 31
0.0
  0
LINE
  5
5B
330
2
100
AcDbEntity
  8
0
 62
     3
100
AcDbLine
 10
103.2636679229999
 20
159.5503000045999
 30
0.0
 11
94.563812205
 21
159.6935325949999
 31
0.0
  0
LINE
  5
5C
330
2
100
AcDbEntity
  8
0
 62
     3
100
AcDbLine
 10
94.26348988159999
 20
177.0000762938999
 30
0.0
 11
94.26348988159999
 21
160.0071258545
 31
0.0
  0
LINE
  5
5D
330
2
100
AcDbEntity
  8
0
 62
     3
100
AcDbLine
 10
94.56341663939999
 20
177.3069610594999
 30
0.0
 11
94.56341663939999
 21
159.6935272216999
 31
0.0
  0
LINE
  5
5E
330
2
100
AcDbEntity
  8
0
 62
     3
100
AcDbLine
 10
94.26381274009996
 20
160.0069397977999
 30
0.0
 11
94.56369168629999
 21
159.6934307286999
 31
0.0
  0
LINE
  5
5F
330
2
100
AcDbEntity
  8
0
 62
     3
100
AcDbLine
 10
94.57076344139998
 20
177.3066898505999
 30
0.0
 11
94.26400415979998
 21
176.9999312671999
 31
0.0
  0
LINE
  5
60
330
2
100
AcDbEntity
  8
0
 62
     3
100
AcDbLine
 10
109.2635051403999
 20
174.3346710204999
 30
0.0
 11
109.2635051403999
 21
173.4596710205
 31
0.0
  0
LINE
  5
61
330
2
100
AcDbEntity
  8
0
 62
     3
100
AcDbLine
 10
104.2634898815999
 20
176.5000915526999
 30
0.0
 11
104.2634898815999
 21
169.5000762939
 31
0.0
  0
LINE
  5
62
330
2
100
AcDbEntity
  8
0
 62
     3
100
AcDbLine
 10
104.8634654674999
 20
175.9000854491999
 30
0.0
 11
104.8634654674999
 21
169.5000762939
 31
0.0
  0
LINE
  5
63
330
2
100
AcDbEntity
  8
0
 62
     3
100
AcDbLine
 10
103.2634898815999
 20
177.4496612548999
 30
0.0
 11
103.2634898815999
 21
159.5503082275
 31
0.0
  0
LINE
  5
64
330
2
100
AcDbEntity
  8
0
 62
     3
100
AcDbLine
 10
106.2634441051999
 20
159.600112915
 30
0.0
 11
106.2634441051999
 21
177.400100708
 31
0.0
  0
LINE
  5
65
330
2
100
AcDbEntity
  8
0
 62
     3
100
AcDbLine
 10
103.7634898816
 20
160.0001220702999
 30
0.0
 11
103.7634898816
 21
177.0001220703
 31
0.0
  0
LINE
  5
66
330
2
100
AcDbEntity
  8
0
 62
     3
100
AcDbLine
 10
104.8634654674999
 20
167.5001068114999
 30
0.0
 11
104.8634654674999
 21
161.1001434325999
 31
0.0
  0
LINE
  5
67
330
2
100
AcDbEntity
  8
0
 62
     3
100
AcDbLine
 10
104.2634898815999
 20
167.5001068114999
 30
0.0
 11
104.2634898815999
 21
160.5001678466999
 31
0.0
  0
LINE
  5
68
330
2
100
AcDbEntity
  8
0
 62
     3
100
AcDbLine
 10
106.2636272106999
 20
161.1001281737999
 30
0.0
 11
104.8636027965997
 21
161.1001281737999
 31
0.0
  0
LINE
  5
69
330
2
100
AcDbEntity
  8
0
 62
     3
100
AcDbLine
 10
104.8637491550999
 20
161.1000031981999
 30
0.0
 11
104.2636766158
 21
160.4999276744999
 31
0.0
  0
LINE
  5
6A
330
2
100
AcDbEntity
  8
0
 62
     3
100
AcDbLine
 10
103.7634898816
 20
160.0001220702999
 30
0.0
 11
103.2634898815999
 21
160.0001220702999
 31
0.0
  0
LINE
  5
6B
330
2
100
AcDbEntity
  8
0
 62
     3
100
AcDbLine
 10
104.2635356578999
 20
160.4999847411999
 30
0.0
 11
103.7635356578999
 21
160.4999847411999
 31
0.0
  0
LINE
  5
6C
330
2
100
AcDbEntity
  8
0
 62
     3
100
AcDbLine
 10
109.2634593639999
 20
160.4753417968
 30
0.0
 11
106.2634746227999
 21
160.4753417968
 31
0.0
  0
LINE
  5
6D
330
2
100
AcDbEntity
  8
0
 62
     3
100
AcDbLine
 10
109.2634898815999
 20
161.1329956053999
 30
0.0
 11
106.2634898815999
 21
161.1329956053999
 31
0.0
  0
LINE
  5
6E
330
2
100
AcDbEntity
  8
0
 62
     3
100
AcDbLine
 10
109.2634898815999
 20
162.008026123
 30
0.0
 11
106.2634898815999
 21
162.008026123
 31
0.0
  0
LINE
  5
6F
330
2
100
AcDbEntity
  8
0
 62
     3
100
AcDbLine
 10
109.2634593639999
 20
160.4753417968
 30
0.0
 11
109.2634593639999
 21
159.6003265380999
 31
0.0
  0
LINE
  5
70
330
2
100
AcDbEntity
  8
0
 62
     3
100
AcDbLine
 10
109.2634898815999
 20
162.008026123
 30
0.0
 11
109.2634898815999
 21
161.1329956053999
 31
0.0
  0
LINE
  5
71
330
2
100
AcDbEntity
  8
0
 62
     3
100
AcDbLine
 10
103.7635914457996
 20
169.5000598980999
 30
0.0
 11
106.2636982572997
 21
169.5000735212
 31
0.0
  0
LINE
  5
72
330
2
100
AcDbEntity
  8
0
 62
     3
100
AcDbLine
 10
103.7635452965999
 20
167.5001080054
 30
0.0
 11
106.2635300377999
 21
167.5000943817999
 31
0.0
  0
LINE
  5
73
330
2
100
AcDbEntity
  8
0
 62
     3
100
AcDbLine
 10
104.7634898816
 20
169.5001068114999
 30
0.0
 11
104.7634898816
 21
167.5001220703
 31
0.0
  0
LINE
  5
74
330
2
100
AcDbEntity
  8
0
 62
     3
100
AcDbLine
 10
105.7634898816
 20
169.5001220703
 30
0.0
 11
105.7634898816
 21
167.5001220703
 31
0.0
  0
LINE
  5
75
330
2
100
AcDbEntity
  8
0
 62
     3
100
AcDbLine
 10
109.2635051403999
 20
167.9001922607
 30
0.0
 11
106.2635203991999
 21
167.9001922607
 31
0.0
  0
LINE
  5
76
330
2
100
AcDbEntity
  8
0
 62
     3
100
AcDbLine
 10
109.2635051403999
 20
164.5799255370999
 30
0.0
 11
106.2635203991999
 21
164.5799255370999
 31
0.0
  0
LINE
  5
77
330
2
100
AcDbEntity
  8
0
 62
     3
100
AcDbLine
 10
109.2635051403999
 20
165.6223754883
 30
0.0
 11
106.2635203991999
 21
165.6223754883
 31
0.0
  0
LINE
  5
78
330
2
100
AcDbEntity
  8
0
 62
     3
100
AcDbLine
 10
109.2635051403999
 20
166.8077239989999
 30
0.0
 11
106.2635203991999
 21
166.8077239989999
 31
0.0
  0
LINE
  5
79
330
2
100
AcDbEntity
  8
0
 62
     3
100
AcDbLine
 10
109.2635051403999
 20
162.6656799315999
 30
0.0
 11
106.2635203991999
 21
162.6656799315999
 31
0.0
  0
LINE
  5
7A
330
2
100
AcDbEntity
  8
0
 62
     3
100
AcDbLine
 10
109.2635051403999
 20
163.5407104491999
 30
0.0
 11
106.2635203991999
 21
163.5407104491999
 31
0.0
  0
LINE
  5
7B
330
2
100
AcDbEntity
  8
0
 62
     3
100
AcDbLine
 10
109.2635051403999
 20
164.5799255370999
 30
0.0
 11
109.2635051403999
 21
165.6223754883
 31
0.0
  0
LINE
  5
7C
330
2
100
AcDbEntity
  8
0
 62
     3
100
AcDbLine
 10
109.2635051403999
 20
163.5407104491999
 30
0.0
 11
109.2635051403999
 21
162.6656799315999
 31
0.0
  0
LINE
  5
7D
330
2
100
AcDbEntity
  8
0
 62
     3
100
AcDbLine
 10
109.2635051403999
 20
166.8077239989999
 30
0.0
 11
109.2635051403999
 21
167.9001922607
 31
0.0
  0
LINE
  5
7E
330
2
100
AcDbEntity
  8
0
 62
     3
100
AcDbLine
 10
106.2635203991999
 20
172.4204559326
 30
0.0
 11
109.2635051403999
 21
172.4204559326
 31
0.0
  0
LINE
  5
7F
330
2
100
AcDbEntity
  8
0
 62
     3
100
AcDbLine
 10
106.2635203991999
 20
171.3780212401999
 30
0.0
 11
109.2635051403999
 21
171.3780212401999
 31
0.0
  0
LINE
  5
80
330
2
100
AcDbEntity
  8
0
 62
     3
100
AcDbLine
 10
106.2635203991999
 20
169.100189209
 30
0.0
 11
109.2635051403999
 21
169.100189209
 31
0.0
  0
LINE
  5
81
330
2
100
AcDbEntity
  8
0
 62
     3
100
AcDbLine
 10
106.2635203991999
 20
170.1926574707
 30
0.0
 11
109.2635051403999
 21
170.1926574707
 31
0.0
  0
LINE
  5
82
330
2
100
AcDbEntity
  8
0
 62
     3
100
AcDbLine
 10
106.2635203991999
 20
173.4596862792999
 30
0.0
 11
109.2635051403999
 21
173.4596862792999
 31
0.0
  0
LINE
  5
83
330
2
100
AcDbEntity
  8
0
 62
     3
100
AcDbLine
 10
109.2635051403999
 20
171.3780059814
 30
0.0
 11
109.2635051403999
 21
172.4204559326
 31
0.0
  0
LINE
  5
84
330
2
100
AcDbEntity
  8
0
 62
     3
100
AcDbLine
 10
109.2635051403999
 20
169.100189209
 30
0.0
 11
109.2635051403999
 21
170.1926269531
 31
0.0
  0
LINE
  5
85
330
2
100
AcDbEntity
  8
0
 62
     3
100
AcDbLine
 10
104.8634654674999
 20
175.9000701904
 30
0.0
 11
106.2634898815999
 21
175.9000701904
 31
0.0
  0
LINE
  5
86
330
2
100
AcDbEntity
  8
0
 62
     3
100
AcDbLine
 10
104.8636543806999
 20
175.8999185101
 30
0.0
 11
104.2636676015999
 21
176.4999071099
 31
0.0
  0
LINE
  5
87
330
2
100
AcDbEntity
  8
0
 62
     3
100
AcDbLine
 10
103.7634898816
 20
177.0001220703
 30
0.0
 11
103.2634898815999
 21
177.0001220703
 31
0.0
  0
LINE
  5
88
330
2
100
AcDbEntity
  8
0
 62
     3
100
AcDbLine
 10
104.2634898815999
 20
176.5000762939
 30
0.0
 11
103.7636119518999
 21
176.5000762939
 31
0.0
  0
LINE
  5
89
330
2
100
AcDbEntity
  8
0
 62
     3
100
AcDbLine
 10
106.2635203991999
 20
176.5253143309999
 30
0.0
 11
109.2635051403999
 21
176.5253143309999
 31
0.0
  0
LINE
  5
8A
330
2
100
AcDbEntity
  8
0
 62
     3
100
AcDbLine
 10
106.2635203991999
 20
174.3347015380999
 30
0.0
 11
109.2635051403999
 21
174.3347015380999
 31
0.0
  0
LINE
  5
8B
330
2
100
AcDbEntity
  8
0
 62
     3
100
AcDbLine
 10
106.2635203991999
 20
175.8675079345
 30
0.0
 11
109.2635051403999
 21
175.8675079345
 31
0.0
  0
LINE
  5
8C
330
2
100
AcDbEntity
  8
0
 62
     3
100
AcDbLine
 10
106.2635203991999
 20
174.9925079345
 30
0.0
 11
109.2635051403999
 21
174.9925079345
 31
0.0
  0
LINE
  5
8D
330
2
100
AcDbEntity
  8
0
 62
     3
100
AcDbLine
 10
109.2635051403999
 20
177.4002990721999
 30
0.0
 11
109.2635051403999
 21
176.5252838133999
 31
0.0
  0
LINE
  5
8E
330
2
100
AcDbEntity
  8
0
 62
     3
100
AcDbLine
 10
109.2635051403999
 20
175.8674774169999
 30
0.0
 11
109.2635051403999
 21
174.9924774169999
 31
0.0
  0
LINE
  5
8F
330
2
100
AcDbEntity
  8
0
 62
     3
100
AcDbLine
 10
96.0635387097
 20
228.3500366211
 30
0.0
 11
94.26361195189995
 21
228.3500366211
 31
0.0
  0
LINE
  5
90
330
2
100
AcDbEntity
  8
0
 62
     3
100
AcDbLine
 10
96.18803516969999
 20
228.6501922607
 30
0.0
 11
94.57060352899999
 21
228.6501922607
 31
0.0
  0
LINE
  5
91
330
2
100
AcDbEntity
  8
0
 62
     3
100
AcDbLine
 10
96.21415821649998
 20
228.2001190184999
 30
0.0
 11
94.56376759149998
 21
228.2001190184999
 31
0.0
  0
LINE
  5
92
330
2
100
AcDbEntity
  8
0
 62
     3
100
AcDbLine
 10
96.18803516969999
 20
206.3501739502
 30
0.0
 11
94.56169239620001
 21
206.3501739502
 31
0.0
  0
LINE
  5
93
330
2
100
AcDbEntity
  8
0
 62
     3
100
AcDbLine
 10
96.0635387097
 20
206.6499786377
 30
0.0
 11
94.26361195189995
 21
206.6499786377
 31
0.0
  0
LINE
  5
94
330
2
100
AcDbEntity
  8
0
 62
     3
100
AcDbLine
 10
94.56376759149998
 20
206.8001098632998
 30
0.0
 11
96.21452442749999
 21
206.8001098632998
 31
0.0
  0
LINE
  5
95
330
2
100
AcDbEntity
  8
0
 62
     3
100
AcDbLine
 10
94.5744851204
 20
229.2060635403
 30
0.0
 11
103.2635849601999
 21
229.4493440063998
 31
0.0
  0
LINE
  5
96
330
2
100
AcDbEntity
  8
0
 62
     3
100
AcDbLine
 10
103.2636392874999
 20
229.1490847613
 30
0.0
 11
94.70302550099994
 21
228.9100758895999
 31
0.0
  0
LINE
  5
97
330
2
100
AcDbEntity
  8
0
 62
     3
100
AcDbLine
 10
103.2637610654999
 20
205.5497813939998
 30
0.0
 11
94.56342633689995
 21
205.7930658419999
 31
0.0
  0
LINE
  5
98
330
2
100
AcDbEntity
  8
0
 62
     3
100
AcDbLine
 10
94.69815095489996
 20
206.0886154044998
 30
0.0
 11
103.2636746949999
 21
205.8499723412999
 31
0.0
  0
LINE
  5
99
330
2
100
AcDbEntity
  8
0
 62
     3
100
AcDbLine
 10
94.5642711316
 20
206.7999572753998
 30
0.0
 11
94.5642711316
 21
228.1999969482
 31
0.0
  0
LINE
  5
9A
330
2
100
AcDbEntity
  8
0
 62
     3
100
AcDbLine
 10
94.26410023309998
 20
207.100112915
 30
0.0
 11
94.26410023309998
 21
227.9000701903997
 31
0.0
  0
LINE
  5
9B
330
2
100
AcDbEntity
  8
0
 62
     3
100
AcDbLine
 10
94.56376759149998
 20
206.3501739502
 30
0.0
 11
94.56376759149998
 21
206.2322540282999
 31
0.0
  0
LINE
  5
9C
330
2
100
AcDbEntity
  8
0
 62
     3
100
AcDbLine
 10
94.2639930414
 20
206.6499652332999
 30
0.0
 11
94.56390747059996
 21
206.3499782644998
 31
0.0
  0
LINE
  5
9D
330
2
100
AcDbEntity
  8
0
 62
     3
100
AcDbLine
 10
94.26381488830001
 20
206.6498247585999
 30
0.0
 11
94.26382251769998
 21
206.1135698758
 31
0.0
  0
LINE
  5
9E
330
2
100
AcDbEntity
  8
0
 62
     3
100
AcDbLine
 10
94.5637580146
 20
206.2321317003999
 30
0.0
 11
94.69805669279995
 21
206.0884752962
 31
0.0
  0
LINE
  5
9F
330
2
100
AcDbEntity
  8
0
 62
     3
100
AcDbLine
 10
94.26423800759994
 20
207.0990999138999
 30
0.0
 11
94.56427518769995
 21
206.7990630878
 31
0.0
  0
LINE
  5
A0
330
2
100
AcDbEntity
  8
0
 62
     3
100
AcDbLine
 10
94.26380653649998
 20
206.1134442826999
 30
0.0
 11
94.56366525019999
 21
205.7926919537998
 31
0.0
  0
LINE
  5
A1
330
2
100
AcDbEntity
  8
0
 62
     3
100
AcDbLine
 10
94.57060352899999
 20
228.6501922607
 30
0.0
 11
94.57060352899999
 21
228.7783660888
 31
0.0
  0
LINE
  5
A2
330
2
100
AcDbEntity
  8
0
 62
     3
100
AcDbLine
 10
94.57104065789998
 20
228.6498954479
 30
0.0
 11
94.26421317399999
 21
228.3498897974999
 31
0.0
  0
LINE
  5
A3
330
2
100
AcDbEntity
  8
0
 62
     3
100
AcDbLine
 10
94.57440839870001
 20
229.2063523767999
 30
0.0
 11
94.26381789429994
 21
228.8957860102
 31
0.0
  0
LINE
  5
A4
330
2
100
AcDbEntity
  8
0
 62
     3
100
AcDbLine
 10
94.70289016599995
 20
228.9105075321999
 30
0.0
 11
94.57060461509998
 21
228.7782322618999
 31
0.0
  0
LINE
  5
A5
330
2
100
AcDbEntity
  8
0
 62
     3
100
AcDbLine
 10
94.56451476299999
 20
228.1994991996
 30
0.0
 11
94.26447755759999
 21
227.8994623987999
 31
0.0
  0
LINE
  5
A6
330
2
100
AcDbEntity
  8
0
 62
     3
100
AcDbLine
 10
94.26361195189995
 20
228.8956909178996
 30
0.0
 11
94.26361195189995
 21
228.3500366211
 31
0.0
  0
ARC
  5
A7
330
2
100
AcDbEntity
  8
0
 62
     3
100
AcDbCircle
 10
110.8655254039998
 20
217.5000915526999
 30
0.0
 40
6.6020507813
100
AcDbArc
 50
155.3838529761
 51
204.6161297210999
  0
LINE
  5
A8
330
2
100
AcDbEntity
  8
0
 62
     3
100
AcDbLine
 10
104.2634746227999
 20
209.5000762938998
 30
0.0
 11
104.2634746227999
 21
225.5000457762998
 31
0.0
  0
LINE
  5
A9
330
2
100
AcDbEntity
  8
0
 62
     3
100
AcDbLine
 10
103.2634898815999
 20
229.4495239258
 30
0.0
 11
103.2634898815999
 21
205.5497589111
 31
0.0
  0
LINE
  5
AA
330
2
100
AcDbEntity
  8
0
 62
     3
100
AcDbLine
 10
103.7634898816
 20
209.0000762939
 30
0.0
 11
103.7634898816
 21
226.0000762939
 31
0.0
  0
LINE
  5
AB
330
2
100
AcDbEntity
  8
0
 62
     3
100
AcDbLine
 10
106.2637645397998
 20
208.6000671385999
 30
0.0
 11
106.2637645397998
 21
226.4000549316
 31
0.0
  0
LINE
  5
AC
330
2
100
AcDbEntity
  8
0
 62
     3
100
AcDbLine
 10
97.8636943494
 20
226.9746551513
 30
0.0
 11
97.8636943494
 21
208.0258178710999
 31
0.0
  0
LINE
  5
AD
330
2
100
AcDbEntity
  8
0
 62
     3
100
AcDbLine
 10
97.56419440309999
 20
226.8497053818999
 30
0.0
 11
97.56417151530001
 21
208.1497389511999
 31
0.0
  0
LINE
  5
AE
330
2
100
AcDbEntity
  8
0
 62
     3
100
AcDbLine
 10
97.5641204118
 20
208.1496440875998
 30
0.0
 11
96.06411911450001
 21
206.6496424109
 31
0.0
  0
LINE
  5
AF
330
2
100
AcDbEntity
  8
0
 62
     3
100
AcDbLine
 10
97.86418002659999
 20
208.0255212388999
 30
0.0
 11
96.18844869699998
 21
206.3497900504999
 31
0.0
  0
LINE
  5
B0
330
2
100
AcDbEntity
  8
0
 62
     3
100
AcDbLine
 10
96.06387095389999
 20
206.6498648472999
 30
0.0
 11
96.1881309241
 21
206.3498746569
 31
0.0
  0
LINE
  5
B1
330
2
100
AcDbEntity
  8
0
 62
     3
100
AcDbLine
 10
97.56420693409999
 20
208.1498710401999
 30
0.0
 11
97.86431036739999
 21
208.0255654592999
 31
0.0
  0
LINE
  5
B2
330
2
100
AcDbEntity
  8
0
 62
     3
100
AcDbLine
 10
96.764329115
 20
216.0000915526999
 30
0.0
 11
97.56450001340001
 21
216.0000915526999
 31
0.0
  0
LINE
  5
B3
330
2
100
AcDbEntity
  8
0
 62
     3
100
AcDbLine
 10
96.76420955260001
 20
218.9999455723
 30
0.0
 11
97.56438045099995
 21
218.9998362602
 31
0.0
  0
LINE
  5
B4
330
2
100
AcDbEntity
  8
0
 62
     3
100
AcDbLine
 10
96.76298634150001
 20
219.0002136229999
 30
0.0
 11
96.76298634150001
 21
216.0002136229998
 31
0.0
  0
LINE
  5
B5
330
2
100
AcDbEntity
  8
0
 62
     3
100
AcDbLine
 10
106.2638408336999
 20
214.7500762938999
 30
0.0
 11
104.8635722789998
 21
214.7500762938999
 31
0.0
  0
LINE
  5
B6
330
2
100
AcDbEntity
  8
0
 62
     3
100
AcDbLine
 10
106.2639629039999
 20
210.1000518798998
 30
0.0
 11
104.8637096080998
 21
210.1000518798998
 31
0.0
  0
LINE
  5
B7
330
2
100
AcDbEntity
  8
0
 62
     3
100
AcDbLine
 10
103.7635966930998
 20
209.5000762938998
 30
0.0
 11
106.2638408336999
 21
209.5000762938998
 31
0.0
  0
LINE
  5
B8
330
2
100
AcDbEntity
  8
0
 62
     3
100
AcDbLine
 10
104.8635722789998
 20
214.7500762938999
 30
0.0
 11
104.8635722789998
 21
210.1000518798998
 31
0.0
  0
LINE
  5
B9
330
2
100
AcDbEntity
  8
0
 62
     3
100
AcDbLine
 10
104.2637018525
 20
209.4998188743999
 30
0.0
 11
104.8637004831999
 21
210.0998172016999
 31
0.0
  0
LINE
  5
BA
330
2
100
AcDbEntity
  8
0
 62
     3
100
AcDbLine
 10
103.7634898816
 20
209.0000762939
 30
0.0
 11
103.2634898815999
 21
209.0000762939
 31
0.0
  0
LINE
  5
BB
330
2
100
AcDbEntity
  8
0
 62
     3
100
AcDbLine
 10
109.2638560924999
 20
213.5798797607
 30
0.0
 11
109.2638560924999
 21
214.6223297119
 31
0.0
  0
LINE
  5
BC
330
2
100
AcDbEntity
  8
0
 62
     3
100
AcDbLine
 10
109.2638103161999
 20
209.4752960204999
 30
0.0
 11
106.2638255748999
 21
209.4752960204999
 31
0.0
  0
LINE
  5
BD
330
2
100
AcDbEntity
  8
0
 62
     3
100
AcDbLine
 10
109.2638560924999
 20
213.5798797607
 30
0.0
 11
106.2638713512999
 21
213.5798797607
 31
0.0
  0
LINE
  5
BE
330
2
100
AcDbEntity
  8
0
 62
     3
100
AcDbLine
 10
109.2638560924999
 20
211.6656341551999
 30
0.0
 11
106.2638713512999
 21
211.6656341551999
 31
0.0
  0
LINE
  5
BF
330
2
100
AcDbEntity
  8
0
 62
     3
100
AcDbLine
 10
109.2638560924999
 20
212.5406646727999
 30
0.0
 11
106.2638713512999
 21
212.5406646727999
 31
0.0
  0
LINE
  5
C0
330
2
100
AcDbEntity
  8
0
 62
     3
100
AcDbLine
 10
109.2638408336999
 20
210.1329498291
 30
0.0
 11
106.2638408336999
 21
210.1329498291
 31
0.0
  0
LINE
  5
C1
330
2
100
AcDbEntity
  8
0
 62
     3
100
AcDbLine
 10
109.2638408336999
 20
211.0079803466999
 30
0.0
 11
106.2638408336999
 21
211.0079803466999
 31
0.0
  0
LINE
  5
C2
330
2
100
AcDbEntity
  8
0
 62
     3
100
AcDbLine
 10
109.2638103161999
 20
209.4752960204999
 30
0.0
 11
109.2638103161999
 21
208.6002807617
 31
0.0
  0
LINE
  5
C3
330
2
100
AcDbEntity
  8
0
 62
     3
100
AcDbLine
 10
109.2638560924999
 20
212.5406646727999
 30
0.0
 11
109.2638560924999
 21
211.6656341551999
 31
0.0
  0
LINE
  5
C4
330
2
100
AcDbEntity
  8
0
 62
     3
100
AcDbLine
 10
109.2638408336999
 20
211.0079803466999
 30
0.0
 11
109.2638408336999
 21
210.1329498291
 31
0.0
  0
LINE
  5
C5
330
2
100
AcDbEntity
  8
0
 62
     3
100
AcDbLine
 10
106.2638713512999
 20
218.1001434325999
 30
0.0
 11
109.2638560924999
 21
218.1001434325999
 31
0.0
  0
LINE
  5
C6
330
2
100
AcDbEntity
  8
0
 62
     3
100
AcDbLine
 10
106.2638713512999
 20
219.1926116943
 30
0.0
 11
109.2638560924999
 21
219.1926116943
 31
0.0
  0
LINE
  5
C7
330
2
100
AcDbEntity
  8
0
 62
     3
100
AcDbLine
 10
109.2638560924999
 20
214.6223297119
 30
0.0
 11
106.2638713512999
 21
214.6223297119
 31
0.0
  0
LINE
  5
C8
330
2
100
AcDbEntity
  8
0
 62
     3
100
AcDbLine
 10
109.2638560924999
 20
216.9001464842999
 30
0.0
 11
106.2638713512999
 21
216.9001464842999
 31
0.0
  0
LINE
  5
C9
330
2
100
AcDbEntity
  8
0
 62
     3
100
AcDbLine
 10
109.2638560924999
 20
215.8076782226
 30
0.0
 11
106.2638713512999
 21
215.8076782226
 31
0.0
  0
LINE
  5
CA
330
2
100
AcDbEntity
  8
0
 62
     3
100
AcDbLine
 10
109.2638560924999
 20
218.1001434325999
 30
0.0
 11
109.2638560924999
 21
219.1925811767
 31
0.0
  0
LINE
  5
CB
330
2
100
AcDbEntity
  8
0
 62
     3
100
AcDbLine
 10
109.2638560924999
 20
215.8076782226
 30
0.0
 11
109.2638560924999
 21
216.9001464842999
 31
0.0
  0
LINE
  5
CC
330
2
100
AcDbEntity
  8
0
 62
     3
100
AcDbLine
 10
96.18847071029998
 20
228.6498940011
 30
0.0
 11
97.86422398360002
 21
226.9741405864999
 31
0.0
  0
LINE
  5
CD
330
2
100
AcDbEntity
  8
0
 62
     3
100
AcDbLine
 10
96.06415936049998
 20
228.3496726670999
 30
0.0
 11
97.56417199540001
 21
226.8496604115997
 31
0.0
  0
LINE
  5
CE
330
2
100
AcDbEntity
  8
0
 62
     3
100
AcDbLine
 10
96.18837474740001
 20
228.6498554788999
 30
0.0
 11
96.06411357729999
 21
228.3498657916999
 31
0.0
  0
LINE
  5
CF
330
2
100
AcDbEntity
  8
0
 62
     3
100
AcDbLine
 10
97.86387170200001
 20
226.9741521218999
 30
0.0
 11
97.5638674143
 21
226.8498863125
 31
0.0
  0
LINE
  5
D0
330
2
100
AcDbEntity
  8
0
 62
     3
100
AcDbLine
 10
106.2638560924999
 20
224.8998260497999
 30
0.0
 11
104.8636027965997
 21
224.8998260497999
 31
0.0
  0
LINE
  5
D1
330
2
100
AcDbEntity
  8
0
 62
     3
100
AcDbLine
 10
104.8635722789998
 20
220.2500457762997
 30
0.0
 11
106.2638408336999
 21
220.2500457762997
 31
0.0
  0
LINE
  5
D2
330
2
100
AcDbEntity
  8
0
 62
     3
100
AcDbLine
 10
106.2638408336999
 20
225.5000457762998
 30
0.0
 11
103.7635966930998
 21
225.5000457762998
 31
0.0
  0
LINE
  5
D3
330
2
100
AcDbEntity
  8
0
 62
     3
100
AcDbLine
 10
104.2636707836999
 20
225.4997972298999
 30
0.0
 11
104.8636585237999
 21
224.8998095403998
 31
0.0
  0
LINE
  5
D4
330
2
100
AcDbEntity
  8
0
 62
     3
100
AcDbLine
 10
104.8635722789998
 20
224.8999481200999
 30
0.0
 11
104.8635722789998
 21
220.2500457762997
 31
0.0
  0
LINE
  5
D5
330
2
100
AcDbEntity
  8
0
 62
     3
100
AcDbLine
 10
103.7634898816
 20
226.0000762939
 30
0.0
 11
103.2634898815999
 21
226.0000762939
 31
0.0
  0
LINE
  5
D6
330
2
100
AcDbEntity
  8
0
 62
     3
100
AcDbLine
 10
106.2638713512999
 20
221.4204101561999
 30
0.0
 11
109.2638560924999
 21
221.4204101561999
 31
0.0
  0
LINE
  5
D7
330
2
100
AcDbEntity
  8
0
 62
     3
100
AcDbLine
 10
106.2638713512999
 20
220.3779754638
 30
0.0
 11
109.2638560924999
 21
220.3779754638
 31
0.0
  0
LINE
  5
D8
330
2
100
AcDbEntity
  8
0
 62
     3
100
AcDbLine
 10
106.2638713512999
 20
223.3346557616999
 30
0.0
 11
109.2638560924999
 21
223.3346557616999
 31
0.0
  0
LINE
  5
D9
330
2
100
AcDbEntity
  8
0
 62
     3
100
AcDbLine
 10
106.2638713512999
 20
222.4596405028999
 30
0.0
 11
109.2638560924999
 21
222.4596405028999
 31
0.0
  0
LINE
  5
DA
330
2
100
AcDbEntity
  8
0
 62
     3
100
AcDbLine
 10
106.2638713512999
 20
224.8674621581999
 30
0.0
 11
109.2638560924999
 21
224.8674621581999
 31
0.0
  0
LINE
  5
DB
330
2
100
AcDbEntity
  8
0
 62
     3
100
AcDbLine
 10
106.2638713512999
 20
223.9924621581999
 30
0.0
 11
109.2638560924999
 21
223.9924621581999
 31
0.0
  0
LINE
  5
DC
330
2
100
AcDbEntity
  8
0
 62
     3
100
AcDbLine
 10
109.2638560924999
 20
220.377960205
 30
0.0
 11
109.2638560924999
 21
221.4204101561999
 31
0.0
  0
LINE
  5
DD
330
2
100
AcDbEntity
  8
0
 62
     3
100
AcDbLine
 10
109.2638560924999
 20
223.3346252440998
 30
0.0
 11
109.2638560924999
 21
222.4596252440999
 31
0.0
  0
LINE
  5
DE
330
2
100
AcDbEntity
  8
0
 62
     3
100
AcDbLine
 10
109.2638560924999
 20
224.8674316405999
 30
0.0
 11
109.2638560924999
 21
223.9924316405998
 31
0.0
  0
LINE
  5
DF
330
2
100
AcDbEntity
  8
0
 62
     3
100
AcDbLine
 10
106.2638713512999
 20
225.5252685547
 30
0.0
 11
109.2638560924999
 21
225.5252685547
 31
0.0
  0
LINE
  5
E0
330
2
100
AcDbEntity
  8
0
 62
     3
100
AcDbLine
 10
109.2638560924999
 20
226.4002532958999
 30
0.0
 11
109.2638560924999
 21
225.5252380370997
 31
0.0
  0
LINE
  5
E1
330
2
100
AcDbEntity
  8
0
 62
     3
100
AcDbLine
 10
125.2633830700996
 20
175.9000701904
 30
0.0
 11
111.2634898815999
 21
175.9000701904
 31
0.0
  0
LINE
  5
E2
330
2
100
AcDbEntity
  8
0
 62
     3
100
AcDbLine
 10
111.2634898815999
 20
161.100112915
 30
0.0
 11
125.2633830700996
 21
161.100112915
 31
0.0
  0
LINE
  5
E3
330
2
100
AcDbEntity
  8
0
 62
     3
100
AcDbLine
 10
111.2634898815999
 20
171.5001525878999
 30
0.0
 11
111.2634898815999
 21
176.8792724608999
 31
0.0
  0
LINE
  5
E4
330
2
100
AcDbEntity
  8
0
 62
     3
100
AcDbLine
 10
113.4316659685999
 20
169.5000820094999
 30
0.0
 11
113.8641236762999
 21
175.9004667901999
 31
0.0
  0
LINE
  5
E5
330
2
100
AcDbEntity
  8
0
 62
     3
100
AcDbLine
 10
113.9269342070999
 20
169.5000956434
 30
0.0
 11
114.3593651697998
 21
175.9000845981
 31
0.0
  0
LINE
  5
E6
330
2
100
AcDbEntity
  8
0
 62
     3
100
AcDbLine
 10
114.8594316669999
 20
175.9004928241999
 30
0.0
 11
114.4269729305999
 21
169.5000928195
 31
0.0
  0
LINE
  5
E7
330
2
100
AcDbEntity
  8
0
 62
     3
100
AcDbLine
 10
115.2633952053999
 20
161.1001986123
 30
0.0
 11
115.2634104639999
 21
175.9000795937
 31
0.0
  0
LINE
  5
E8
330
2
100
AcDbEntity
  8
0
 62
     3
100
AcDbLine
 10
115.1963811027999
 20
166.0553932198999
 30
0.0
 11
114.8615692290997
 21
161.1001691999
 31
0.0
  0
LINE
  5
E9
330
2
100
AcDbEntity
  8
0
 62
     3
100
AcDbLine
 10
112.8641513767999
 20
161.1008520012999
 30
0.0
 11
113.2965319355998
 21
167.5000949761999
 31
0.0
  0
LINE
  5
EA
330
2
100
AcDbEntity
  8
0
 62
     3
100
AcDbLine
 10
113.3593722972999
 20
161.1001653276999
 30
0.0
 11
113.7917991453999
 21
167.5000933860999
 31
0.0
  0
LINE
  5
EB
330
2
100
AcDbEntity
  8
0
 62
     3
100
AcDbLine
 10
111.2634898815999
 20
160.121017456
 30
0.0
 11
111.2634898815999
 21
165.5001983642
 31
0.0
  0
LINE
  5
EC
330
2
100
AcDbEntity
  8
0
 62
     3
100
AcDbLine
 10
114.2918378689999
 20
167.5000905621
 30
0.0
 11
113.8617306315
 21
161.134492798
 31
0.0
  0
LINE
  5
ED
330
2
100
AcDbEntity
  8
0
 62
     3
100
AcDbLine
 10
114.6579592510999
 20
165.5031689736999
 30
0.0
 11
114.3605028801996
 21
161.1008073204
 31
0.0
  0
LINE
  5
EE
330
2
100
AcDbEntity
  8
0
 62
     3
100
AcDbLine
 10
110.0635081921
 20
159.600189209
 30
0.0
 11
110.0635081921
 21
160.121017456
 31
0.0
  0
LINE
  5
EF
330
2
100
AcDbEntity
  8
0
 62
     3
100
AcDbLine
 10
110.0635081921
 20
160.121017456
 30
0.0
 11
111.2634898815999
 21
160.121017456
 31
0.0
  0
LINE
  5
F0
330
2
100
AcDbEntity
  8
0
 62
     3
100
AcDbLine
 10
110.0635081921
 20
169.5001220703
 30
0.0
 11
115.2634135875999
 21
169.5001220703
 31
0.0
  0
LINE
  5
F1
330
2
100
AcDbEntity
  8
0
 62
     3
100
AcDbLine
 10
110.0635081921
 20
167.5001220703
 30
0.0
 11
114.7928630504999
 21
167.5001220703
 31
0.0
  0
LINE
  5
F2
330
2
100
AcDbEntity
  8
0
 62
     3
100
AcDbLine
 10
110.0635081921
 20
165.5001983642
 30
0.0
 11
110.0635081921
 21
171.5001525878999
 31
0.0
  0
LINE
  5
F3
330
2
100
AcDbEntity
  8
0
 62
     3
100
AcDbLine
 10
111.2634898815999
 20
165.5001983642
 30
0.0
 11
110.0635081921
 21
165.5001983642
 31
0.0
  0
LINE
  5
F4
330
2
100
AcDbEntity
  8
0
 62
     3
100
AcDbLine
 10
110.0635081921
 20
171.5001831054
 30
0.0
 11
111.2634898815999
 21
171.5001831054
 31
0.0
  0
LINE
  5
F5
330
2
100
AcDbEntity
  8
0
 62
     3
100
AcDbLine
 10
115.1967216792999
 20
166.0541460883999
 30
0.0
 11
114.7931940376997
 21
167.4989753742999
 31
0.0
  0
LINE
  5
F6
330
2
100
AcDbEntity
  8
0
 62
     3
100
AcDbLine
 10
115.1966243960999
 20
166.0542661147999
 30
0.0
 11
114.6582974356999
 21
165.5035192258999
 31
0.0
  0
LINE
  5
F7
330
2
100
AcDbEntity
  8
0
 62
     3
100
AcDbLine
 10
114.7928156531998
 20
167.4995027582999
 30
0.0
 11
114.1986304498999
 21
166.1222068469999
 31
0.0
  0
LINE
  5
F8
330
2
100
AcDbEntity
  8
0
 62
     3
100
AcDbLine
 10
114.6584769040997
 20
165.5038358926
 30
0.0
 11
114.1991077935999
 21
166.1221288245999
 31
0.0
  0
LINE
  5
F9
330
2
100
AcDbEntity
  8
0
 62
     3
100
AcDbLine
 10
121.2633983287999
 20
166.5001220703
 30
0.0
 11
121.2633983287999
 21
170.5000762939
 31
0.0
  0
LINE
  5
FA
330
2
100
AcDbEntity
  8
0
 62
     3
100
AcDbLine
 10
123.2633830700999
 20
170.5000762939
 30
0.0
 11
123.2633830700999
 21
166.5001220703
 31
0.0
  0
LINE
  5
FB
330
2
100
AcDbEntity
  8
0
 62
     3
100
AcDbLine
 10
122.7633067760999
 20
170.5000915526999
 30
0.0
 11
122.7633067760999
 21
166.5001220703
 31
0.0
  0
LINE
  5
FC
330
2
100
AcDbEntity
  8
0
 62
     3
100
AcDbLine
 10
123.2633830700999
 20
166.5001220703
 30
0.0
 11
121.2633983287999
 21
166.5001220703
 31
0.0
  0
LINE
  5
FD
330
2
100
AcDbEntity
  8
0
 62
     3
100
AcDbLine
 10
121.2633983287999
 20
170.5000762939
 30
0.0
 11
123.2633830700999
 21
170.5000762939
 31
0.0
  0
LINE
  5
FE
330
2
100
AcDbEntity
  8
0
 62
     3
100
AcDbLine
 10
110.0634553418999
 20
177.4002529244999
 30
0.0
 11
110.0634400830999
 21
176.8793636423
 31
0.0
  0
LINE
  5
FF
330
2
100
AcDbEntity
  8
0
 62
     3
100
AcDbLine
 10
111.2634898815999
 20
176.8792877196999
 30
0.0
 11
110.0635081921
 21
176.8792877196999
 31
0.0
  0
LINE
  5
100
330
2
100
AcDbEntity
  8
0
 62
     3
100
AcDbLine
 10
125.2633830700996
 20
175.9000701904
 30
0.0
 11
125.2633830700996
 21
161.1001434325999
 31
0.0
  0
LINE
  5
101
330
2
100
AcDbEntity
  8
0
 62
     3
100
AcDbLine
 10
126.2633067760999
 20
175.900100708
 30
0.0
 11
126.2633067760999
 21
161.100112915
 31
0.0
  0
LINE
  5
102
330
2
100
AcDbEntity
  8
0
 62
     3
100
AcDbLine
 10
133.7633067760999
 20
164.6601257323999
 30
0.0
 11
126.2633067760999
 21
164.6601257323999
 31
0.0
  0
LINE
  5
103
330
2
100
AcDbEntity
  8
0
 62
     3
100
AcDbLine
 10
133.7633067760999
 20
164.1601257323999
 30
0.0
 11
126.2633067760999
 21
164.1601257323999
 31
0.0
  0
LINE
  5
104
330
2
100
AcDbEntity
  8
0
 62
     3
100
AcDbLine
 10
126.2633067760999
 20
161.100112915
 30
0.0
 11
125.2633067760999
 21
161.100112915
 31
0.0
  0
LINE
  5
105
330
2
100
AcDbEntity
  8
0
 62
     3
100
AcDbLine
 10
126.2633067760999
 20
166.2501068114999
 30
0.0
 11
125.2633067760999
 21
166.2501068114999
 31
0.0
  0
LINE
  5
106
330
2
100
AcDbEntity
  8
0
 62
     3
100
AcDbLine
 10
127.0633098278999
 20
164.6601257323999
 30
0.0
 11
127.0633098278999
 21
164.1601257323999
 31
0.0
  0
LINE
  5
107
330
2
100
AcDbEntity
  8
0
 62
     3
100
AcDbLine
 10
126.2633067760999
 20
170.7501068115
 30
0.0
 11
125.2633067760999
 21
170.7501068115
 31
0.0
  0
LINE
  5
108
330
2
100
AcDbEntity
  8
0
 62
     3
100
AcDbLine
 10
134.2633067760999
 20
164.5101318358999
 30
0.0
 11
134.2633067760999
 21
164.3101348876999
 31
0.0
  0
LINE
  5
109
330
2
100
AcDbEntity
  8
0
 62
     3
100
AcDbLine
 10
133.7633067760999
 20
164.6601257323999
 30
0.0
 11
133.7633067760999
 21
164.1601257323999
 31
0.0
  0
LINE
  5
10A
330
2
100
AcDbEntity
  8
0
 62
     3
100
AcDbLine
 10
133.7633086733999
 20
164.6601159241
 30
0.0
 11
134.2633116346999
 21
164.5101150480999
 31
0.0
  0
LINE
  5
10B
330
2
100
AcDbEntity
  8
0
 62
     3
100
AcDbLine
 10
134.2633091811999
 20
164.3101320847999
 30
0.0
 11
133.7633208351999
 21
164.1601355934
 31
0.0
  0
LINE
  5
10C
330
2
100
AcDbEntity
  8
0
 62
     3
100
AcDbLine
 10
133.7633067760999
 20
173.7601318359
 30
0.0
 11
126.2633067760999
 21
173.7601318359
 31
0.0
  0
LINE
  5
10D
330
2
100
AcDbEntity
  8
0
 62
     3
100
AcDbLine
 10
133.7633067760999
 20
174.2601318358999
 30
0.0
 11
126.2633067760999
 21
174.2601318358999
 31
0.0
  0
LINE
  5
10E
330
2
100
AcDbEntity
  8
0
 62
     3
100
AcDbLine
 10
126.2633067760999
 20
175.900100708
 30
0.0
 11
125.2633067760999
 21
175.900100708
 31
0.0
  0
LINE
  5
10F
330
2
100
AcDbEntity
  8
0
 62
     3
100
AcDbLine
 10
127.0633098278999
 20
174.2601318358999
 30
0.0
 11
127.0633098278999
 21
173.7601318359
 31
0.0
  0
LINE
  5
110
330
2
100
AcDbEntity
  8
0
 62
     3
100
AcDbLine
 10
134.2633067760999
 20
173.9101257323999
 30
0.0
 11
134.2633067760999
 21
174.1101379393999
 31
0.0
  0
LINE
  5
111
330
2
100
AcDbEntity
  8
0
 62
     3
100
AcDbLine
 10
133.7633067760999
 20
173.7601318359
 30
0.0
 11
133.7633067760999
 21
174.2601318358999
 31
0.0
  0
LINE
  5
112
330
2
100
AcDbEntity
  8
0
 62
     3
100
AcDbLine
 10
133.7633069927
 20
174.2601288688999
 30
0.0
 11
134.2633099539999
 21
174.1101279928999
 31
0.0
  0
LINE
  5
113
330
2
100
AcDbEntity
  8
0
 62
     3
100
AcDbLine
 10
134.2633108619999
 20
173.9101450296
 30
0.0
 11
133.7633079007
 21
173.7601441535999
 31
0.0
  0
LINE
  5
114
330
2
100
AcDbEntity
  8
0
 62
     3
100
AcDbLine
 10
115.2634441051999
 20
224.8999481200999
 30
0.0
 11
125.2633830700996
 21
224.8999481200999
 31
0.0
  0
LINE
  5
115
330
2
100
AcDbEntity
  8
0
 62
     3
100
AcDbLine
 10
115.2634441051999
 20
210.1000366211
 30
0.0
 11
125.2633830700996
 21
210.1000366211
 31
0.0
  0
ARC
  5
116
330
2
100
AcDbEntity
  8
0
 62
     3
100
AcDbCircle
 10
108.6614238414999
 20
217.5000915526999
 30
0.0
 40
6.602060317999999
100
AcDbArc
 50
335.3839265143
 51
24.61614520269998
  0
LINE
  5
117
330
2
100
AcDbEntity
  8
0
 62
     3
100
AcDbLine
 10
115.2634441051999
 20
210.1000518798998
 30
0.0
 11
115.2634441051999
 21
224.8999481200999
 31
0.0
  0
LINE
  5
118
330
2
100
AcDbEntity
  8
0
 62
     3
100
AcDbLine
 10
110.0638591442999
 20
214.5001525879
 30
0.0
 11
110.0638591442999
 21
220.5001068115
 31
0.0
  0
LINE
  5
119
330
2
100
AcDbEntity
  8
0
 62
     3
100
AcDbLine
 10
111.2638408337
 20
209.5000762938998
 30
0.0
 11
114.6634532605
 21
209.5000762938998
 31
0.0
  0
LINE
  5
11A
330
2
100
AcDbEntity
  8
0
 62
     3
100
AcDbLine
 10
115.2634441051999
 20
210.1000518798998
 30
0.0
 11
111.2638255748999
 21
210.1000518798998
 31
0.0
  0
LINE
  5
11B
330
2
100
AcDbEntity
  8
0
 62
     3
100
AcDbLine
 10
114.6634685192999
 20
214.7500762938999
 30
0.0
 11
110.0638591442999
 21
214.7500762938999
 31
0.0
  0
LINE
  5
11C
330
2
100
AcDbEntity
  8
0
 62
     3
100
AcDbLine
 10
111.2638408337
 20
209.1209716797
 30
0.0
 11
111.2638408337
 21
214.5001525879
 31
0.0
  0
LINE
  5
11D
330
2
100
AcDbEntity
  8
0
 62
     3
100
AcDbLine
 10
110.0638591442999
 20
208.6001434326
 30
0.0
 11
110.0638591442999
 21
209.1209716797
 31
0.0
  0
LINE
  5
11E
330
2
100
AcDbEntity
  8
0
 62
     3
100
AcDbLine
 10
110.0638591442999
 20
209.1209716797
 30
0.0
 11
111.2638408337
 21
209.1209716797
 31
0.0
  0
LINE
  5
11F
330
2
100
AcDbEntity
  8
0
 62
     3
100
AcDbLine
 10
111.2638408337
 20
214.5001525879
 30
0.0
 11
110.0638591442999
 21
214.5001525879
 31
0.0
  0
LINE
  5
120
330
2
100
AcDbEntity
  8
0
 62
     3
100
AcDbLine
 10
114.6634532605
 20
209.5000762938998
 30
0.0
 11
114.6634532605
 21
214.7500762938999
 31
0.0
  0
LINE
  5
121
330
2
100
AcDbEntity
  8
0
 62
     3
100
AcDbLine
 10
114.6636503133999
 20
209.4998054549
 30
0.0
 11
115.2636489440999
 21
210.0998037821999
 31
0.0
  0
LINE
  5
122
330
2
100
AcDbEntity
  8
0
 62
     3
100
AcDbLine
 10
114.6634685192999
 20
225.5000457762998
 30
0.0
 11
111.2638408337
 21
225.5000457762998
 31
0.0
  0
LINE
  5
123
330
2
100
AcDbEntity
  8
0
 62
     3
100
AcDbLine
 10
115.2634441051999
 20
224.8998260497999
 30
0.0
 11
111.2638713512999
 21
224.8998260497999
 31
0.0
  0
LINE
  5
124
330
2
100
AcDbEntity
  8
0
 62
     3
100
AcDbLine
 10
110.0638591442999
 20
220.2500457762997
 30
0.0
 11
114.6634685192999
 21
220.2500457762997
 31
0.0
  0
LINE
  5
125
330
2
100
AcDbEntity
  8
0
 62
     3
100
AcDbLine
 10
111.2638408337
 20
220.5001068115
 30
0.0
 11
111.2638408337
 21
225.8792266845
 31
0.0
  0
LINE
  5
126
330
2
100
AcDbEntity
  8
0
 62
     3
100
AcDbLine
 10
110.0638591442999
 20
220.5001373291
 30
0.0
 11
111.2638408337
 21
220.5001373291
 31
0.0
  0
LINE
  5
127
330
2
100
AcDbEntity
  8
0
 62
     3
100
AcDbLine
 10
110.0638091231999
 20
226.4002136445999
 30
0.0
 11
110.0637938643999
 21
225.8793243623999
 31
0.0
  0
LINE
  5
128
330
2
100
AcDbEntity
  8
0
 62
     3
100
AcDbLine
 10
111.2638408337
 20
225.8792419432999
 30
0.0
 11
110.0638591442999
 21
225.8792419432999
 31
0.0
  0
LINE
  5
129
330
2
100
AcDbEntity
  8
0
 62
     3
100
AcDbLine
 10
114.6636304725999
 20
225.4997976681999
 30
0.0
 11
115.2636182125999
 21
224.8998099786999
 31
0.0
  0
LINE
  5
12A
330
2
100
AcDbEntity
  8
0
 62
     3
100
AcDbLine
 10
114.6634532605
 20
220.2500457762997
 30
0.0
 11
114.6634532605
 21
225.5000457762998
 31
0.0
  0
CIRCLE
  5
12B
330
2
100
AcDbEntity
  8
0
 62
     3
100
AcDbCircle
 10
132.6633159314
 20
220.2000579833999
 30
0.0
 40
0.6000000238000001
  0
LINE
  5
12C
330
2
100
AcDbEntity
  8
0
 62
     3
100
AcDbLine
 10
134.2633067760999
 20
219.3000640868999
 30
0.0
 11
134.2633067760999
 21
221.1000671385999
 31
0.0
  0
LINE
  5
12D
330
2
100
AcDbEntity
  8
0
 62
     3
100
AcDbLine
 10
133.7633067760999
 20
218.9000396728
 30
0.0
 11
133.7633067760999
 21
221.6000671385999
 31
0.0
  0
LINE
  5
12E
330
2
100
AcDbEntity
  8
0
 62
     3
100
AcDbLine
 10
125.2633830700996
 20
210.1000518798998
 30
0.0
 11
125.2633830700996
 21
224.8999481200999
 31
0.0
  0
LINE
  5
12F
330
2
100
AcDbEntity
  8
0
 62
     3
100
AcDbLine
 10
126.2633067760999
 20
224.9000549315999
 30
0.0
 11
126.2633067760999
 21
210.1000671386
 31
0.0
  0
LINE
  5
130
330
2
100
AcDbEntity
  8
0
 62
     3
100
AcDbLine
 10
125.2633067760999
 20
210.1000671386
 30
0.0
 11
125.2633067760999
 21
224.9000549315999
 31
0.0
  0
LINE
  5
131
330
2
100
AcDbEntity
  8
0
 62
     3
100
AcDbLine
 10
133.7633067760999
 20
218.9000396728
 30
0.0
 11
127.0633098278999
 21
218.9000396728
 31
0.0
  0
LINE
  5
132
330
2
100
AcDbEntity
  8
0
 62
     3
100
AcDbLine
 10
133.7632762584999
 20
216.1000366211
 30
0.0
 11
127.0633098278999
 21
216.1000366211
 31
0.0
  0
LINE
  5
133
330
2
100
AcDbEntity
  8
0
 62
     3
100
AcDbLine
 10
127.0633098278999
 20
213.4000549315999
 30
0.0
 11
133.7633067760999
 21
213.4000549315999
 31
0.0
  0
LINE
  5
134
330
2
100
AcDbEntity
  8
0
 62
     3
100
AcDbLine
 10
126.2633067760999
 20
210.1000671386
 30
0.0
 11
125.2633067760999
 21
210.1000671386
 31
0.0
  0
LINE
  5
135
330
2
100
AcDbEntity
  8
0
 62
     3
100
AcDbLine
 10
127.0633098278999
 20
213.4000549315999
 30
0.0
 11
127.0633098278999
 21
213.1000518798999
 31
0.0
  0
LINE
  5
136
330
2
100
AcDbEntity
  8
0
 62
     3
100
AcDbLine
 10
126.2633067760999
 20
213.1000518798999
 30
0.0
 11
127.0633098278999
 21
213.1000518798999
 31
0.0
  0
LINE
  5
137
330
2
100
AcDbEntity
  8
0
 62
     3
100
AcDbLine
 10
127.0633098278999
 20
219.4000396728
 30
0.0
 11
127.0633098278999
 21
218.9000396728
 31
0.0
  0
LINE
  5
138
330
2
100
AcDbEntity
  8
0
 62
     3
100
AcDbLine
 10
127.0633098278999
 20
215.6000366210999
 30
0.0
 11
127.0633098278999
 21
216.1000366211
 31
0.0
  0
LINE
  5
139
330
2
100
AcDbEntity
  8
0
 62
     3
100
AcDbLine
 10
127.0633098278999
 20
219.4000396728
 30
0.0
 11
126.2633067760999
 21
219.4000396728
 31
0.0
  0
LINE
  5
13A
330
2
100
AcDbEntity
  8
0
 62
     3
100
AcDbLine
 10
127.0633098278999
 20
215.6000366210999
 30
0.0
 11
126.2633067760999
 21
215.6000366210999
 31
0.0
  0
LINE
  5
13B
330
2
100
AcDbEntity
  8
0
 62
     3
100
AcDbLine
 10
134.2633067760999
 20
215.7000579833999
 30
0.0
 11
134.2633067760999
 21
213.9000549316
 31
0.0
  0
LINE
  5
13C
330
2
100
AcDbEntity
  8
0
 62
     3
100
AcDbLine
 10
133.7633067760999
 20
216.1000366211
 30
0.0
 11
133.7633067760999
 21
213.4000549315999
 31
0.0
  0
LINE
  5
13D
330
2
100
AcDbEntity
  8
0
 62
     3
100
AcDbLine
 10
133.7632830597998
 20
213.4000678053
 30
0.0
 11
134.2632835906
 21
213.9000683781998
 31
0.0
  0
CIRCLE
  5
13E
330
2
100
AcDbEntity
  8
0
 62
     3
100
AcDbCircle
 10
132.6633159314
 20
217.5000610351
 30
0.0
 40
0.6000000238000001
  0
CIRCLE
  5
13F
330
2
100
AcDbEntity
  8
0
 62
     3
100
AcDbCircle
 10
132.6633159314
 20
214.8000640868999
 30
0.0
 40
0.6000000238000001
  0
LINE
  5
140
330
2
100
AcDbEntity
  8
0
 62
     3
100
AcDbLine
 10
134.2633067760999
 20
216.6000518798998
 30
0.0
 11
134.2633067760999
 21
218.4000549315999
 31
0.0
  0
LINE
  5
141
330
2
100
AcDbEntity
  8
0
 62
     3
100
AcDbLine
 10
133.7633067760999
 20
216.1000366211
 30
0.0
 11
133.7633067760999
 21
218.9000396728
 31
0.0
  0
LINE
  5
142
330
2
100
AcDbEntity
  8
0
 62
     3
100
AcDbLine
 10
133.7633152667999
 20
218.9000482203999
 30
0.0
 11
134.2633050079999
 21
218.4000584369999
 31
0.0
  0
LINE
  5
143
330
2
100
AcDbEntity
  8
0
 62
     3
100
AcDbLine
 10
133.7632721563998
 20
216.1000448904
 30
0.0
 11
134.2632942663998
 21
216.6000670424999
 31
0.0
  0
LINE
  5
144
330
2
100
AcDbEntity
  8
0
 62
     3
100
AcDbLine
 10
133.8132925478999
 20
216.1500613673999
 30
0.0
 11
134.2632941046
 21
215.7000597728
 31
0.0
  0
LINE
  5
145
330
2
100
AcDbEntity
  8
0
 62
     3
100
AcDbLine
 10
133.8132925958996
 20
218.8500749016999
 30
0.0
 11
134.2632941526
 21
219.3000764963
 31
0.0
  0
LINE
  5
146
330
2
100
AcDbEntity
  8
0
 62
     3
100
AcDbLine
 10
127.0633098278999
 20
221.6000518798999
 30
0.0
 11
133.7633067760999
 21
221.6000518798999
 31
0.0
  0
LINE
  5
147
330
2
100
AcDbEntity
  8
0
 62
     3
100
AcDbLine
 10
126.2633067760999
 20
224.9000549315999
 30
0.0
 11
125.2633067760999
 21
224.9000549315999
 31
0.0
  0
LINE
  5
148
330
2
100
AcDbEntity
  8
0
 62
     3
100
AcDbLine
 10
127.0633098278999
 20
221.6000518798999
 30
0.0
 11
127.0633098278999
 21
221.9000549315999
 31
0.0
  0
LINE
  5
149
330
2
100
AcDbEntity
  8
0
 62
     3
100
AcDbLine
 10
126.2633067760999
 20
221.9000549315999
 30
0.0
 11
127.0633098278999
 21
221.9000549315999
 31
0.0
  0
LINE
  5
14A
330
2
100
AcDbEntity
  8
0
 62
     3
100
AcDbLine
 10
133.7632938013999
 20
221.6000576741998
 30
0.0
 11
134.2632943321999
 21
221.1000571012998
 31
0.0
  0
TEXT
  5
14B
330
2
100
AcDbEntity
  8
0
 62
     5
100
AcDbText
 10
145.0
 20
10.0
 30
0.0
 40
5.0
  1
ＭＡ４-Ｓ００３４６Ｃ
 41
0.8418911459846411
 72
     5
 11
199.0413935612998
 21
10.0
 31
0.0
100
AcDbText
  0
LINE
  5
14C
330
2
100
AcDbEntity
  8
0
 62
     3
100
AcDbLine
 10
164.0634471569998
 20
164.4500579834
 30
0.0
 11
166.0634471569998
 21
164.4500579834
 31
0.0
  0
LINE
  5
14D
330
2
100
AcDbEntity
  8
0
 62
     3
100
AcDbLine
 10
164.0634471569998
 20
164.2500610351
 30
0.0
 11
166.0634471569998
 21
164.2500610351
 31
0.0
  0
LINE
  5
14E
330
2
100
AcDbEntity
  8
0
 62
     3
100
AcDbLine
 10
156.3632365856999
 20
159.5002593993999
 30
0.0
 11
179.1636363659999
 21
159.5002593993999
 31
0.0
  0
LINE
  5
14F
330
2
100
AcDbEntity
  8
0
 62
     3
100
AcDbLine
 10
156.3633433971998
 20
177.5000305175
 30
0.0
 11
179.1632854138
 21
177.5000305175
 31
0.0
  0
LINE
  5
150
330
2
100
AcDbEntity
  8
0
 62
     3
100
AcDbLine
 10
163.0869151745999
 20
165.8000488280999
 30
0.0
 11
172.4399882946999
 21
165.8000488280999
 31
0.0
  0
LINE
  5
151
330
2
100
AcDbEntity
  8
0
 62
     3
100
AcDbLine
 10
164.1357738170999
 20
172.5000610351
 30
0.0
 11
171.3911296520999
 21
172.5000610351
 31
0.0
  0
LINE
  5
152
330
2
100
AcDbEntity
  8
0
 62
     3
100
AcDbLine
 10
163.3634502087
 20
164.6000518798999
 30
0.0
 11
172.1634532604999
 21
164.6000518798999
 31
0.0
  0
LINE
  5
153
330
2
100
AcDbEntity
  8
0
 62
     3
100
AcDbLine
 10
163.3634502087
 20
164.1000518798999
 30
0.0
 11
172.1634532604999
 21
164.1000518798999
 31
0.0
  0
LINE
  5
154
330
2
100
AcDbEntity
  8
0
 62
     3
100
AcDbLine
 10
170.8031322155999
 20
175.8999176025
 30
0.0
 11
164.7236644420999
 21
175.8999176025
 31
0.0
  0
LINE
  5
155
330
2
100
AcDbEntity
  8
0
 62
     3
100
AcDbLine
 10
170.8031322155999
 20
161.1000366210999
 30
0.0
 11
164.7236644420999
 21
161.1000366210999
 31
0.0
  0
ARC
  5
156
330
2
100
AcDbEntity
  8
0
 62
     3
100
AcDbCircle
 10
167.7634441051999
 20
168.5000610351
 30
0.0
 40
7.399999618499996
100
AcDbArc
 50
197.7012635081999
 51
342.298738313
  0
ARC
  5
157
330
2
100
AcDbEntity
  8
0
 62
     3
100
AcDbCircle
 10
167.7634441051999
 20
168.5000610351
 30
0.0
 40
7.399999618499996
100
AcDbArc
 50
17.701261687
 51
162.2987364918
  0
CIRCLE
  5
158
330
2
100
AcDbEntity
  8
0
 62
     3
100
AcDbCircle
 10
167.7634441051999
 20
168.5000457763
 30
0.0
 40
7.399999618499996
  0
CIRCLE
  5
159
330
2
100
AcDbEntity
  8
0
 62
     3
100
AcDbCircle
 10
167.7634441051999
 20
168.5000610351
 30
0.0
 40
8.0
  0
CIRCLE
  5
15A
330
2
100
AcDbEntity
  8
0
 62
     3
100
AcDbCircle
 10
167.7634441051999
 20
168.5000610351
 30
0.0
 40
8.899993896499998
  0
LINE
  5
15B
330
2
100
AcDbEntity
  8
0
  6
CENTER
 62
     3
100
AcDbLine
 10
182.4634410534999
 20
168.5
 30
0.0
 11
153.0634471569999
 21
168.5
 31
0.0
  0
ARC
  5
15C
330
2
100
AcDbEntity
  8
0
 62
     3
100
AcDbCircle
 10
167.7634441051999
 20
168.5000457763
 30
0.0
 40
8.0
100
AcDbArc
 50
112.3340449017
 51
172.8181020777999
  0
LINE
  5
15D
330
2
100
AcDbEntity
  8
0
 62
     3
100
AcDbLine
 10
156.0634471569999
 20
177.2001037596998
 30
0.0
 11
156.0634471569999
 21
159.8001861571999
 31
0.0
  0
LINE
  5
15E
330
2
100
AcDbEntity
  8
0
 62
     3
100
AcDbLine
 10
159.0910960827999
 20
170.5000762939
 30
0.0
 11
156.9133311901999
 21
170.5000762939
 31
0.0
  0
LINE
  5
15F
330
2
100
AcDbEntity
  8
0
 62
     3
100
AcDbLine
 10
156.9133464489999
 20
166.5001068115
 30
0.0
 11
159.0910808239998
 21
166.5001068115
 31
0.0
  0
LINE
  5
160
330
2
100
AcDbEntity
  8
0
 62
     3
100
AcDbLine
 10
156.0633457345999
 20
159.8001119083999
 30
0.0
 11
156.363339731
 21
159.5001181901
 31
0.0
  0
LINE
  5
161
330
2
100
AcDbEntity
  8
0
 62
     3
100
AcDbLine
 10
156.9134532604999
 20
170.5000762939
 30
0.0
 11
156.9134532604999
 21
166.5001068115
 31
0.0
  0
LINE
  5
162
330
2
100
AcDbEntity
  8
0
 62
     3
100
AcDbLine
 10
159.9635173473999
 20
160.7002258299999
 30
0.0
 11
159.9635173473999
 21
163.0002746581999
 31
0.0
  0
ARC
  5
163
330
2
100
AcDbEntity
  8
0
 62
     3
100
AcDbCircle
 10
167.7634441051999
 20
168.5000457763
 30
0.0
 40
8.0
100
AcDbArc
 50
187.1796576200998
 51
247.6683593249
  0
LINE
  5
164
330
2
100
AcDbEntity
  8
0
 62
     3
100
AcDbLine
 10
159.9635173473999
 20
160.7002258299999
 30
0.0
 11
162.2634441051999
 21
160.7002258299999
 31
0.0
  0
LINE
  5
165
330
2
100
AcDbEntity
  8
0
 62
     3
100
AcDbLine
 10
162.2634441051999
 20
160.7002258299999
 30
0.0
 11
162.2634441051999
 21
161.5029296874999
 31
0.0
  0
LINE
  5
166
330
2
100
AcDbEntity
  8
0
 62
     3
100
AcDbLine
 10
164.7634441052
 20
161.0838775633999
 30
0.0
 11
164.7634441052
 21
160.1209259033
 31
0.0
  0
ARC
  5
167
330
2
100
AcDbEntity
  8
0
 62
     3
100
AcDbCircle
 10
167.7634441051999
 20
168.5000610351
 30
0.0
 40
5.399999618499998
100
AcDbArc
 50
132.2054694238
 51
210.0000126739999
  0
ARC
  5
168
330
2
100
AcDbEntity
  8
0
 62
     3
100
AcDbCircle
 10
167.7634441051999
 20
168.5000610351
 30
0.0
 40
6.4999847412
100
AcDbArc
 50
159.7476881575
 51
200.2522945396
  0
LINE
  5
169
330
2
100
AcDbEntity
  8
0
 62
     3
100
AcDbLine
 10
159.9635173473999
 20
163.0002746581999
 30
0.0
 11
160.7661449108999
 21
163.0002746581999
 31
0.0
  0
LINE
  5
16A
330
2
100
AcDbEntity
  8
0
 62
     3
100
AcDbLine
 10
159.8261729871
 20
167.5001983641999
 30
0.0
 11
160.4313060436999
 21
167.5001983641999
 31
0.0
  0
LINE
  5
16B
330
2
100
AcDbEntity
  8
0
 62
     3
100
AcDbLine
 10
159.3843089733999
 20
165.5000610351
 30
0.0
 11
160.3472606334999
 21
165.5000610351
 31
0.0
  0
LINE
  5
16C
330
2
100
AcDbEntity
  8
0
 62
     3
100
AcDbLine
 10
161.6653148328
 20
166.2500610351
 30
0.0
 11
160.7138072643999
 21
166.2500610351
 31
0.0
  0
LINE
  5
16D
330
2
100
AcDbEntity
  8
0
 62
     3
100
AcDbLine
 10
159.8262187633999
 20
169.5001983642
 30
0.0
 11
160.4313518200999
 21
169.5001983642
 31
0.0
  0
LINE
  5
16E
330
2
100
AcDbEntity
  8
0
 62
     3
100
AcDbLine
 10
159.3843089733999
 20
171.5000610350999
 30
0.0
 11
160.3472606334999
 21
171.5000610350999
 31
0.0
  0
LINE
  5
16F
330
2
100
AcDbEntity
  8
0
 62
     3
100
AcDbLine
 10
161.6653148328
 20
170.7500610350999
 30
0.0
 11
160.7138072643999
 21
170.7500610350999
 31
0.0
  0
LINE
  5
170
330
2
100
AcDbEntity
  8
0
 62
     3
100
AcDbLine
 10
164.0634479063996
 20
164.4500549585
 30
0.0
 11
163.663447781
 21
164.6000550087
 31
0.0
  0
LINE
  5
171
330
2
100
AcDbEntity
  8
0
 62
     3
100
AcDbLine
 10
164.0634557995999
 20
164.2500542346999
 30
0.0
 11
163.6634556741999
 21
164.1000541844999
 31
0.0
  0
LINE
  5
172
330
2
100
AcDbEntity
  8
0
 62
     3
100
AcDbLine
 10
163.6634532604998
 20
164.6000518798999
 30
0.0
 11
163.6634532604998
 21
164.1000518798999
 31
0.0
  0
LINE
  5
173
330
2
100
AcDbEntity
  8
0
 62
     3
100
AcDbLine
 10
163.3634502087
 20
164.6000518798999
 30
0.0
 11
163.3634502087
 21
164.1000518798999
 31
0.0
  0
LINE
  5
174
330
2
100
AcDbEntity
  8
0
 62
     3
100
AcDbLine
 10
164.0634471569998
 20
164.4500579834
 30
0.0
 11
164.0634471569998
 21
164.2500610351
 31
0.0
  0
LINE
  5
175
330
2
100
AcDbEntity
  8
0
 62
     3
100
AcDbLine
 10
156.0634927096998
 20
177.199970198
 30
0.0
 11
156.3634866807998
 21
177.4999639414999
 31
0.0
  0
LINE
  5
176
330
2
100
AcDbEntity
  8
0
 62
     3
100
AcDbLine
 10
159.9635173473999
 20
176.3001251219999
 30
0.0
 11
162.2634441051999
 21
176.3001251219999
 31
0.0
  0
LINE
  5
177
330
2
100
AcDbEntity
  8
0
 62
     3
100
AcDbLine
 10
159.9635173473999
 20
174.0001220703
 30
0.0
 11
160.7663585339
 21
174.0001220703
 31
0.0
  0
LINE
  5
178
330
2
100
AcDbEntity
  8
0
 62
     3
100
AcDbLine
 10
159.9635173473999
 20
174.0001220703
 30
0.0
 11
159.9635173473999
 21
176.3001251219999
 31
0.0
  0
LINE
  5
179
330
2
100
AcDbEntity
  8
0
 62
     3
100
AcDbLine
 10
162.2634441051999
 20
175.4971923827999
 30
0.0
 11
162.2634441051999
 21
176.3001251219999
 31
0.0
  0
LINE
  5
17A
330
2
100
AcDbEntity
  8
0
 62
     3
100
AcDbLine
 10
164.7634441052
 20
176.8792114258
 30
0.0
 11
164.7634441052
 21
175.9162597655999
 31
0.0
  0
LINE
  5
17B
330
2
100
AcDbEntity
  8
0
 62
     3
100
AcDbLine
 10
169.6634532604998
 20
174.2000579834
 30
0.0
 11
169.6634532604998
 21
173.7000579834
 31
0.0
  0
LINE
  5
17C
330
2
100
AcDbEntity
  8
0
 62
     3
100
AcDbLine
 10
169.1634539412999
 20
173.8500482976999
 30
0.0
 11
169.6634569024999
 21
173.7000474217999
 31
0.0
  0
ARC
  5
17E
330
2
100
AcDbEntity
  8
0
 62
     3
100
AcDbCircle
 10
167.7634441051999
 20
168.5000457763
 30
0.0
 40
8.0
100
AcDbArc
 50
7.1818004783
 51
67.6659191261
  0
LINE
  5
17F
330
2
100
AcDbEntity
  8
0
 62
     3
100
AcDbLine
 10
179.4634410535
 20
177.1999206542998
 30
0.0
 11
179.4634410535
 21
159.8000640868999
 31
0.0
  0
LINE
  5
180
330
2
100
AcDbEntity
  8
0
  6
CENTER
 62
     3
100
AcDbLine
 10
167.7634441051999
 20
180.5000305174999
 30
0.0
 11
167.7634441051999
 21
156.5002593993999
 31
0.0
  0
LINE
  5
181
330
2
100
AcDbEntity
  8
0
 62
     3
100
AcDbLine
 10
165.8634502086998
 20
174.2000579834
 30
0.0
 11
165.8634502086998
 21
173.7000579834
 31
0.0
  0
LINE
  5
182
330
2
100
AcDbEntity
  8
0
 62
     3
100
AcDbLine
 10
166.3634572806
 20
173.8500649061999
 30
0.0
 11
165.8634543193999
 21
173.7000640303
 31
0.0
  0
ARC
  5
183
330
2
100
AcDbEntity
  8
0
 62
     3
100
AcDbCircle
 10
167.7634441051999
 20
168.5000457763
 30
0.0
 40
8.0
100
AcDbArc
 50
292.3317312888
 51
352.8202929747
  0
ARC
  5
184
330
2
100
AcDbEntity
  8
0
 62
     3
100
AcDbCircle
 10
167.7634441051999
 20
168.5000610351
 30
0.0
 40
5.399999618499998
100
AcDbArc
 50
329.9999820897
 51
47.79450484929996
  0
LINE
  5
185
330
2
100
AcDbEntity
  8
0
 62
     3
100
AcDbLine
 10
170.7634441051999
 20
161.0838623046999
 30
0.0
 11
170.7634441051999
 21
160.1209259033
 31
0.0
  0
LINE
  5
186
330
2
100
AcDbEntity
  8
0
 62
     3
100
AcDbLine
 10
169.0634494882999
 20
164.6000442555999
 30
0.0
 11
169.4634496136998
 21
164.4500442053999
 31
0.0
  0
LINE
  5
187
330
2
100
AcDbEntity
  8
0
 62
     3
100
AcDbLine
 10
169.4634396477999
 20
164.2500582907
 30
0.0
 11
169.0634395223999
 21
164.1000582404999
 31
0.0
  0
LINE
  5
188
330
2
100
AcDbEntity
  8
0
 62
     3
100
AcDbLine
 10
165.8634502086998
 20
173.7000579834
 30
0.0
 11
169.6634532604998
 21
173.7000579834
 31
0.0
  0
LINE
  5
18A
330
2
100
AcDbEntity
  8
0
 62
     3
100
AcDbLine
 10
166.7634441051999
 20
164.6000518798999
 30
0.0
 11
166.7634441051999
 21
164.1000518798999
 31
0.0
  0
LINE
  5
18B
330
2
100
AcDbEntity
  8
0
 62
     3
100
AcDbLine
 10
166.4634563121999
 20
164.6000518798999
 30
0.0
 11
166.4634563121999
 21
164.1000518798999
 31
0.0
  0
LINE
  5
18C
330
2
100
AcDbEntity
  8
0
 62
     3
100
AcDbLine
 10
166.0634471569998
 20
164.4500579834
 30
0.0
 11
166.0634471569998
 21
164.2500610351
 31
0.0
  0
LINE
  5
18D
330
2
100
AcDbEntity
  8
0
 62
     3
100
AcDbLine
 10
166.4634494122998
 20
164.6000485578999
 30
0.0
 11
166.0634600022999
 21
164.4500525259999
 31
0.0
  0
LINE
  5
18E
330
2
100
AcDbEntity
  8
0
 62
     3
100
AcDbLine
 10
166.0634378218998
 20
164.2500620248999
 30
0.0
 11
166.4634379473999
 21
164.1000619746999
 31
0.0
  0
LINE
  5
18F
330
2
100
AcDbEntity
  8
0
 62
     3
100
AcDbLine
 10
169.0634471569999
 20
164.6000518798999
 30
0.0
 11
169.0634471569999
 21
164.1000518798999
 31
0.0
  0
LINE
  5
190
330
2
100
AcDbEntity
  8
0
 62
     3
100
AcDbLine
 10
168.7634441051999
 20
164.6000518798999
 30
0.0
 11
168.7634441051999
 21
164.1000518798999
 31
0.0
  0
LINE
  5
191
330
2
100
AcDbEntity
  8
0
 62
     3
100
AcDbLine
 10
171.4634410534999
 20
164.4500579834
 30
0.0
 11
169.4634410534999
 21
164.4500579834
 31
0.0
  0
LINE
  5
192
330
2
100
AcDbEntity
  8
0
 62
     3
100
AcDbLine
 10
171.4634410534999
 20
164.2500610351
 30
0.0
 11
169.4634410534999
 21
164.2500610351
 31
0.0
  0
LINE
  5
193
330
2
100
AcDbEntity
  8
0
 62
     3
100
AcDbLine
 10
169.4634410534999
 20
164.4500579834
 30
0.0
 11
169.4634410534999
 21
164.2500610351
 31
0.0
  0
LINE
  5
194
330
2
100
AcDbEntity
  8
0
 62
     3
100
AcDbLine
 10
172.1634532604999
 20
164.6000518798999
 30
0.0
 11
172.1634532604999
 21
164.1000518798999
 31
0.0
  0
LINE
  5
195
330
2
100
AcDbEntity
  8
0
 62
     3
100
AcDbLine
 10
171.4634420645999
 20
164.4500559123
 30
0.0
 11
171.86344219
 21
164.6000559625
 31
0.0
  0
LINE
  5
196
330
2
100
AcDbEntity
  8
0
 62
     3
100
AcDbLine
 10
171.4634410534999
 20
164.4500579834
 30
0.0
 11
171.4634410534999
 21
164.2500610351
 31
0.0
  0
LINE
  5
197
330
2
100
AcDbEntity
  8
0
 62
     3
100
AcDbLine
 10
171.4634395291999
 20
164.2500512717999
 30
0.0
 11
171.8634396545999
 21
164.1000512215999
 31
0.0
  0
LINE
  5
198
330
2
100
AcDbEntity
  8
0
 62
     3
100
AcDbLine
 10
171.8634502087
 20
164.6000518798999
 30
0.0
 11
171.8634502087
 21
164.1000518798999
 31
0.0
  0
LINE
  5
199
330
2
100
AcDbEntity
  8
0
 62
     3
100
AcDbLine
 10
175.5633556041999
 20
160.7002258299999
 30
0.0
 11
175.5633556041999
 21
163.0002746581999
 31
0.0
  0
LINE
  5
19A
330
2
100
AcDbEntity
  8
0
 62
     3
100
AcDbLine
 10
173.2633067761
 20
160.7002258299999
 30
0.0
 11
175.5633556041999
 21
160.7002258299999
 31
0.0
  0
LINE
  5
19B
330
2
100
AcDbEntity
  8
0
 62
     3
100
AcDbLine
 10
173.2633067761
 20
160.7002258299999
 30
0.0
 11
173.2633067761
 21
161.5028076172
 31
0.0
  0
LINE
  5
19C
330
2
100
AcDbEntity
  8
0
 62
     3
100
AcDbLine
 10
179.1633354256999
 20
159.4999922543999
 30
0.0
 11
179.4633296243999
 21
159.7999857703999
 31
0.0
  0
ARC
  5
19D
330
2
100
AcDbEntity
  8
0
 62
     3
100
AcDbCircle
 10
167.7634441051999
 20
168.5000610351
 30
0.0
 40
6.4999847412
100
AcDbArc
 50
339.7477036391998
 51
20.25229636080003
  0
LINE
  5
19E
330
2
100
AcDbEntity
  8
0
 62
     3
100
AcDbLine
 10
173.8615886364998
 20
166.2500610351
 30
0.0
 11
174.8130962047999
 21
166.2500610351
 31
0.0
  0
LINE
  5
19F
330
2
100
AcDbEntity
  8
0
 62
     3
100
AcDbLine
 10
174.7607585582999
 20
163.0002746581999
 30
0.0
 11
175.5633556041999
 21
163.0002746581999
 31
0.0
  0
LINE
  5
1A0
330
2
100
AcDbEntity
  8
0
 62
     3
100
AcDbLine
 10
175.0958415661999
 20
167.5001983641999
 30
0.0
 11
175.7009746227999
 21
167.5001983641999
 31
0.0
  0
LINE
  5
1A1
330
2
100
AcDbEntity
  8
0
 62
     3
100
AcDbLine
 10
175.1796428356999
 20
165.5000610351
 30
0.0
 11
176.1425944957998
 21
165.5000610351
 31
0.0
  0
LINE
  5
1A2
330
2
100
AcDbEntity
  8
0
 62
     3
100
AcDbLine
 10
173.8615886364998
 20
170.7500610350999
 30
0.0
 11
174.8130962047999
 21
170.7500610350999
 31
0.0
  0
LINE
  5
1A3
330
2
100
AcDbEntity
  8
0
 62
     3
100
AcDbLine
 10
175.0957957897999
 20
169.5001983642
 30
0.0
 11
175.7009288463999
 21
169.5001983642
 31
0.0
  0
LINE
  5
1A4
330
2
100
AcDbEntity
  8
0
 62
     3
100
AcDbLine
 10
175.1796428356999
 20
171.5000610350999
 30
0.0
 11
176.1425944957998
 21
171.5000610350999
 31
0.0
  0
LINE
  5
1A5
330
2
100
AcDbEntity
  8
0
 62
     3
100
AcDbLine
 10
169.1634533876999
 20
174.0500660253999
 30
0.0
 11
169.6634526951999
 21
174.2000658051999
 31
0.0
  0
LINE
  5
1A6
330
2
100
AcDbEntity
  8
0
 62
     3
100
AcDbLine
 10
165.8634502086998
 20
174.2000579834
 30
0.0
 11
169.6634532604998
 21
174.2000579834
 31
0.0
  0
LINE
  5
1A7
330
2
100
AcDbEntity
  8
0
 62
     3
100
AcDbLine
 10
166.3634502086999
 20
173.8500518798999
 30
0.0
 11
169.1634532604998
 21
173.8500518798999
 31
0.0
  0
LINE
  5
1A8
330
2
100
AcDbEntity
  8
0
 62
     3
100
AcDbLine
 10
166.3634502086999
 20
174.0500640869
 30
0.0
 11
169.1634532604998
 21
174.0500640869
 31
0.0
  0
LINE
  5
1A9
330
2
100
AcDbEntity
  8
0
 62
     3
100
AcDbLine
 10
166.3634502086999
 20
174.0500640869
 30
0.0
 11
166.3634502086999
 21
173.8500518798999
 31
0.0
  0
LINE
  5
1AA
330
2
100
AcDbEntity
  8
0
 62
     3
100
AcDbLine
 10
165.8634548728999
 20
174.2000502929
 30
0.0
 11
166.3634578341
 21
174.0500494168999
 31
0.0
  0
LINE
  5
1AB
330
2
100
AcDbEntity
  8
0
 62
     3
100
AcDbLine
 10
169.1634532604998
 20
174.0500640869
 30
0.0
 11
169.1634532604998
 21
173.8500518798999
 31
0.0
  0
LINE
  5
1AC
330
2
100
AcDbEntity
  8
0
 62
     3
100
AcDbLine
 10
170.7634441051999
 20
176.8792114258
 30
0.0
 11
170.7634441051999
 21
175.9162750243999
 31
0.0
  0
LINE
  5
1AD
330
2
100
AcDbEntity
  8
0
 62
     3
100
AcDbLine
 10
173.2633067761
 20
176.3001251219999
 30
0.0
 11
175.5633556041999
 21
176.3001251219999
 31
0.0
  0
LINE
  5
1AE
330
2
100
AcDbEntity
  8
0
 62
     3
100
AcDbLine
 10
173.2633067761
 20
175.4972991942999
 30
0.0
 11
173.2633067761
 21
176.3000030516999
 31
0.0
  0
LINE
  5
1AF
330
2
100
AcDbEntity
  8
0
 62
     3
100
AcDbLine
 10
174.7605296764999
 20
174.0001220703
 30
0.0
 11
175.5633556041999
 21
174.0001220703
 31
0.0
  0
LINE
  5
1B0
330
2
100
AcDbEntity
  8
0
 62
     3
100
AcDbLine
 10
175.5633556041999
 20
174.0001220703
 30
0.0
 11
175.5633556041999
 21
176.3001251219999
 31
0.0
  0
LINE
  5
1B1
330
2
100
AcDbEntity
  8
0
 62
     3
100
AcDbLine
 10
179.1633329761999
 20
177.500033131
 30
0.0
 11
179.4633379897999
 21
177.2000288506999
 31
0.0
  0
LINE
  5
1B2
330
2
100
AcDbEntity
  8
0
100
AcDbLine
 10
210.0
 20
297.0
 30
0.0
 11
0.0
 21
297.0
 31
0.0
  0
TEXT
  5
1DD
330
2
100
AcDbEntity
  8
0
 62
     7
100
AcDbText
 10
107.9999999999996
 20
115.00000295525
 30
0.0
 40
2.999994089499998
  1
AP6HS52*
 11
107.9999999999996
 21
116.5
 31
0.0
100
AcDbText
 73
     2
  0
TEXT
  5
1DE
330
2
100
AcDbEntity
  8
0
 62
     7
100
AcDbText
 10
107.9999999999996
 20
110.0000029552499
 30
0.0
 40
2.999994089499998
  1
AP6HS53*
 11
107.9999999999996
 21
111.4999999999999
 31
0.0
100
AcDbText
 73
     2
  0
TEXT
  5
1DF
330
2
100
AcDbEntity
  8
0
 62
     7
100
AcDbText
 10
107.9999999999996
 20
105.0000029552499
 30
0.0
 40
2.999994089499998
  1
AP6HS54*
 11
107.9999999999996
 21
106.4999999999999
 31
0.0
100
AcDbText
 73
     2
  0
ENDSEC
  0
SECTION
  2
OBJECTS
  0
DICTIONARY
  5
7
330
0
100
AcDbDictionary
281
     1
  3
ACAD_COLOR
350
1E8
  3
ACAD_GROUP
350
1F
  3
ACAD_LAYOUT
350
B
  3
ACAD_MATERIAL
350
1E7
  3
ACAD_MLINESTYLE
350
20
  3
ACAD_PLOTSETTINGS
350
21
  3
ACAD_PLOTSTYLENAME
350
6
  3
ACAD_TABLESTYLE
350
1E9
  3
ACDBHEADERROUNDTRIPXREC
350
1EF
  3
AcDbVariableDictionary
350
1E0
  0
DICTIONARY
  5
1E8
102
{ACAD_REACTORS
330
7
102
}
330
7
100
AcDbDictionary
281
     1
  0
DICTIONARY
  5
1F
102
{ACAD_REACTORS
330
7
102
}
330
7
100
AcDbDictionary
281
     1
  0
DICTIONARY
  5
B
102
{ACAD_REACTORS
330
7
102
}
330
7
100
AcDbDictionary
281
     1
  3
Model
350
A
  3
ﾚｲｱｳﾄ1
350
F
  0
DICTIONARY
  5
1E7
102
{ACAD_REACTORS
330
7
102
}
330
7
100
AcDbDictionary
281
     1
  0
DICTIONARY
  5
20
102
{ACAD_REACTORS
330
7
102
}
330
7
100
AcDbDictionary
281
     1
  3
Standard
350
22
  0
DICTIONARY
  5
21
102
{ACAD_REACTORS
330
7
102
}
330
7
100
AcDbDictionary
281
     1
  0
ACDBDICTIONARYWDFLT
  5
6
102
{ACAD_REACTORS
330
7
102
}
330
7
100
AcDbDictionary
281
     1
  3
Normal
350
5
100
AcDbDictionaryWithDefault
340
5
  0
DICTIONARY
  5
1E9
102
{ACAD_REACTORS
330
7
102
}
330
7
100
AcDbDictionary
281
     1
  3
Standard
350
1EA
  0
DICTIONARY
  5
1EF
102
{ACAD_REACTORS
330
7
102
}
330
7
100
AcDbDictionary
281
     1
  0
DICTIONARY
  5
1E0
102
{ACAD_REACTORS
330
7
102
}
330
7
100
AcDbDictionary
281
     1
  3
CTABLESTYLE
350
1EC
  3
DIMASSOC
350
1E1
  3
PROJECTNAME
350
1ED
  0
LAYOUT
  5
A
102
{ACAD_XDICTIONARY
360
1F0
102
}
102
{ACAD_REACTORS
330
B
102
}
330
B
100
AcDbPlotSettings
  1

  2
C:\Program Files\AutoCAD 2000i\plotters\DWF Classic.pc3
  4

  6

 40
0.0
 41
0.0
 42
0.0
 43
0.0
 44
0.0
 45
0.0
 46
0.0
 47
0.0
 48
0.0
 49
0.0
140
0.0
141
0.0
142
1.0
143
1.0
 70
  1712
 72
     0
 73
     0
 74
     0
  7

 75
     0
147
1.0
148
0.0
149
0.0
100
AcDbLayout
  1
Model
 70
     1
 71
     0
 10
0.0
 20
0.0
 11
12.0
 21
9.0
 12
0.0
 22
0.0
 32
0.0
 14
0.0
 24
0.0
 34
0.0
 15
0.0
 25
0.0
 35
0.0
146
0.0
 13
0.0
 23
0.0
 33
0.0
 16
1.0
 26
0.0
 36
0.0
 17
0.0
 27
1.0
 37
0.0
 76
     0
330
2
  0
LAYOUT
  5
F
102
{ACAD_XDICTIONARY
360
1F2
102
}
102
{ACAD_REACTORS
330
B
102
}
330
B
100
AcDbPlotSettings
  1

  2
C:\Program Files\AutoCAD 2000i\plotters\DWF Classic.pc3
  4

  6

 40
0.0
 41
0.0
 42
0.0
 43
0.0
 44
0.0
 45
0.0
 46
0.0
 47
0.0
 48
0.0
 49
0.0
140
0.0
141
0.0
142
1.0
143
1.0
 70
   688
 72
     0
 73
     0
 74
     5
  7

 75
    16
147
1.0
148
0.0
149
0.0
100
AcDbLayout
  1
ﾚｲｱｳﾄ1
 70
     1
 71
     1
 10
0.0
 20
0.0
 11
12.0
 21
9.0
 12
0.0
 22
0.0
 32
0.0
 14
1.000000000000000E+20
 24
1.000000000000000E+20
 34
1.000000000000000E+20
 15
-1.000000000000000E+20
 25
-1.000000000000000E+20
 35
-1.000000000000000E+20
146
0.0
 13
0.0
 23
0.0
 33
0.0
 16
1.0
 26
0.0
 36
0.0
 17
0.0
 27
1.0
 37
0.0
 76
     0
330
C
  0
MLINESTYLE
  5
22
102
{ACAD_REACTORS
330
20
102
}
330
20
100
AcDbMlineStyle
  2
STANDARD
 70
     0
  3

 62
   256
 51
90.0
 52
90.0
 71
     2
 49
0.5
 62
   256
  6
BYLAYER
 49
-0.5
 62
   256
  6
BYLAYER
  0
ACDBPLACEHOLDER
  5
5
102
{ACAD_REACTORS
330
6
102
}
330
6
  0
TABLESTYLE
  5
1EA
102
{ACAD_REACTORS
330
1E9
102
}
330
1E9
100
AcDbTableStyle
  3
Standard
 70
     0
 71
     0
 40
0.06
 41
0.06
280
     0
281
     0
  7
STANDARD
140
0.18
170
     2
 62
     0
 63
     7
283
     0
274
    -2
284
     1
 64
     0
275
    -2
285
     1
 65
     0
276
    -2
286
     1
 66
     0
277
    -2
287
     1
 67
     0
278
    -2
288
     1
 68
     0
279
    -2
289
     1
 69
     0
  7
STANDARD
140
0.25
170
     5
 62
     0
 63
     7
283
     0
274
    -2
284
     1
 64
     0
275
    -2
285
     1
 65
     0
276
    -2
286
     1
 66
     0
277
    -2
287
     1
 67
     0
278
    -2
288
     1
 68
     0
279
    -2
289
     1
 69
     0
  7
STANDARD
140
0.18
170
     5
 62
     0
 63
     7
283
     0
274
    -2
284
     1
 64
     0
275
    -2
285
     1
 65
     0
276
    -2
286
     1
 66
     0
277
    -2
287
     1
 67
     0
278
    -2
288
     1
 68
     0
279
    -2
289
     1
 69
     0
  0
DICTIONARYVAR
  5
1EC
102
{ACAD_REACTORS
330
1E0
102
}
330
1E0
100
DictionaryVariables
280
     0
  1
STANDARD
  0
DICTIONARYVAR
  5
1E1
102
{ACAD_REACTORS
330
1E0
102
}
330
1E0
100
DictionaryVariables
280
     0
  1
1
  0
DICTIONARYVAR
  5
1ED
102
{ACAD_REACTORS
330
1E0
102
}
330
1E0
100
DictionaryVariables
280
     0
  1

  0
DICTIONARY
  5
1F0
330
A
100
AcDbDictionary
280
     1
281
     1
  3
ACAD_XREC_ROUNDTRIP
360
1F1
  0
DICTIONARY
  5
1F2
330
F
100
AcDbDictionary
280
     1
281
     1
  3
ACAD_XREC_ROUNDTRIP
360
1F3
  0
XRECORD
  5
1F1
102
{ACAD_REACTORS
330
1F0
102
}
330
1F0
100
AcDbXrecord
280
     1
102
SHADEPLOT
 70
     0
102
SHADEPLOTRESLEVEL
 70
     2
102
SHADEPLOTCUSTOMDPI
 70
   300
  0
XRECORD
  5
1F3
102
{ACAD_REACTORS
330
1F2
102
}
330
1F2
100
AcDbXrecord
280
     1
102
SHADEPLOT
 70
     0
102
SHADEPLOTRESLEVEL
 70
     2
102
SHADEPLOTCUSTOMDPI
 70
   300
  0
ENDSEC
  0
EOF
