  0
SECTION
  2
HEADER
  9
$ACADVER
  1
AC1004
  9
$ANGBASE
 50
0.0000000000
  9
$ANGDIR
 70
     0
  9
$ATTDIA
 70
     0
  9
$ATTMODE
 70
     1
  9
$ATTREQ
 70
     1
  9
$AUNITS
 70
     0
  9
$AUPREC
 70
     0
  9
$AXISMODE
 70
     0
  9
$AXISUNIT
 10
0.0000000000
 20
0.0000000000
  9
$BLIPMODE
 70
     1
  9
$CECOLOR
 62
   256
  9
$CELTYPE
  6
BYLAYER
  9
$CHAMFERA
 40
0.0000000000
  9
$CHAMFERB
 40
0.0000000000
  9
$CLAYER
  8
0
  9
$COORDS
 70
     0
  9
$DIMALT
 70
     0
  9
$DIMALTD
 70
     2
  9
$DIMALTF
 40
25.4000000000
  9
$DIMAPOST
  1

  9
$DIMASO
 70
     1
  9
$DIMASZ
 40
1.9727878465
  9
$DIMBLK
  1

  9
$DIMBLK1
  1

  9
$DIMBLK2
  1

  9
$DIMCEN
 40
9.0000000000E-02
  9
$DIMDLE
 40
0.0000000000
  9
$DIMDLI
 40
0.3800000000
  9
$DIMEXE
 40
3.8099999428
  9
$DIMEXO
 40
2.5399999619
  9
$DIMLFAC
 40
1.0000000000
  9
$DIMLIM
 70
     0
  9
$DIMPOST
  1

  9
$DIMRND
 40
0.0000000000
  9
$DIMSCALE
 40
1.0000000000
  9
$DIMSE1
 70
     0
  9
$DIMSE2
 70
     0
  9
$DIMSHO
 70
     0
  9
$DIMTAD
 70
     0
  9
$DIMTIH
 70
     0
  9
$DIMTM
 40
0.0000000000
  9
$DIMTOH
 70
     1
  9
$DIMTOL
 70
     0
  9
$DIMTP
 40
0.0000000000
  9
$DIMTSZ
 40
0.0000000000
  9
$DIMTXT
 40
2.9999940395
  9
$DIMZIN
 70
     0
  9
$DRAGMODE
 70
     1
  9
$ELEVATION
 40
0.0000000000
  9
$EXTMAX
 10
3.1750000000
 20
283.2585876465
 30
0.0000000000
  9
$EXTMIN
 10
-178.6170776367
 20
-3.1750000000
 30
0.0000000000
  9
$FASTZOOM
 70
     1
  9
$FILLETRAD
 40
6.2500000000E-02
  9
$FILLMODE
 70
     1
  9
$GRIDMODE
 70
     0
  9
$GRIDUNIT
 10
0.0000000000
 20
0.0000000000
  9
$INSBASE
 10
0.0000000000
 20
0.0000000000
 30
0.0000000000
  9
$LIMCHECK
 70
     0
  9
$LIMMAX
 10
3.1750000000
 20
283.2585876465
  9
$LIMMIN
 10
-178.6170776367
 20
-3.1750000000
  9
$LTSCALE
 40
1.0000000000
  9
$LUNITS
 70
     2
  9
$LUPREC
 70
     3
  9
$MEASUREMENT
 70
     0
  9
$MENU
  1
ACAD
  9
$MIRRTEXT
 70
     0
  9
$ORTHOMODE
 70
     0
  9
$OSMODE
 70
     0
  9
$PDMODE
 70
     0
  9
$PDSIZE
 40
0.0000000000
  9
$PLINEWID
 40
0.0000000000
  9
$PROXYGRAPHICS
 70
     0
  9
$QTEXTMODE
 70
     0
  9
$REGENMODE
 70
     1
  9
$SKETCHINC
 40
0.1000000000
  9
$SKPOLY
 70
     0
  9
$SNAPANG
 50
0.0000000000
  9
$SNAPBASE
 10
0.0000000000
 20
0.0000000000
  9
$SNAPISOPAIR
 70
     0
  9
$SNAPMODE
 70
     0
  9
$SNAPSTYLE
 70
     0
  9
$SNAPUNIT
 10
1.0000000000
 20
1.0000000000
  9
$SPLFRAME
 70
     0
  9
$SPLINESEGS
 70
     8
  9
$TDCREATE
 40
2455938.6128356530
  9
$TDINDWG
 40
0.0000000000
  9
$TDUPDATE
 40
2455938.6128356530
  9
$TDUSRTIMER
 40
0.0000000000
  9
$TEXTSIZE
 40
2.9999940395
  9
$TEXTSTYLE
  7
STANDARD
  9
$THICKNESS
 40
0.0000000000
  9
$TRACEWID
 40
5.0000000000E-02
  9
$USERI1
 70
     0
  9
$USERI2
 70
     0
  9
$USERI3
 70
     0
  9
$USERI4
 70
     0
  9
$USERI5
 70
     0
  9
$USERR1
 40
0.0000000000
  9
$USERR2
 40
0.0000000000
  9
$USERR3
 40
0.0000000000
  9
$USERR4
 40
0.0000000000
  9
$USERR5
 40
0.0000000000
  9
$USRTIMER
 70
     1
  9
$VIEWCTR
 10
-87.7210388184
 20
140.0417938232
  9
$VIEWDIR
 10
0.0000000000
 20
0.0000000000
 30
1.0000000000
  9
$VIEWSIZE
 40
286.4335876465
  0
ENDSEC
  0
SECTION
  2
TABLES
  0
TABLE
  2
LTYPE
 70
     3
  0
LTYPE
  2
SOLID
  3
Solid
 70
    64
 72
    65
 73
     0
 40
0.0000000000
  0
LTYPE
  2
CENTER
  3
Center
 70
    64
 72
    65
 73
     4
 40
9.1000067592
 49
6.5000119209
 49
-0.7999984026
 49
0.9999980330
 49
-0.7999984026
  0
LTYPE
  2
PHANTOM
  3
Phantom
 70
    64
 72
    65
 73
     6
 40
9.4999814630
 49
4.7999906540
 49
-0.8999982476
 49
0.9999980330
 49
-0.8999982476
 49
0.9999980330
 49
-0.8999982476
  0
ENDTAB
  0
TABLE
  2
LAYER
 70
     3
  0
LAYER
  2
Layer0$C$L0
 70
     0
  6
SOLID
 62
     3
  0
LAYER
  2
Layer1$C$L1
 70
     0
  6
SOLID
 62
     3
  0
LAYER
  2
Layer8$C$L8
 70
     0
  6
SOLID
 62
     7
  0
ENDTAB
  0
TABLE
  2
STYLE
 70
     1
  0
STYLE
  2
STANDARD
  3
txt
  4

 40
0.0000000000
 41
1.0000000000
 42
2.9999940395
 50
0.0000000000
 70
     0
 71
     0
  0
ENDTAB
  0
ENDSEC
  0
SECTION
  2
BLOCKS
  0
BLOCK
  8
Layer8$C$L8
  2
Cadra_attr_0
 70
     2
 10
0.0000000000
 20
0.0000000000
  0
TEXT
  8
Layer8$C$L8
 10
-99.3229102188
 20
275.9164142609
 40
4.1671714783
  1
AP6GS5*M*
 41
0.8683820931
 72
     5
 11
-70.3733334951
 21
275.9164142609
  0
ATTDEF
  8
Layer8$C$L8
 10
-84.848122
 20
278.000000
 40
0.156000
  1
ìL>ÄK
  3

  2
10
 70
    11
  0
ENDBLK
  8
Layer8$C$L8
  0
BLOCK
  8
Layer8$C$L8
  2
Cadra_attr_1
 70
     2
 10
0.000000
 20
0.000000
  0
TEXT
  8
Layer8$C$L8
 10
-66.0872999535
 20
16.0000000000
 40
5.0000000000
  1
MA4-S00161D
 41
0.8525090542
 72
     5
 11
-23.4618472432
 21
16.0000000000
  0
ATTDEF
  8
Layer8$C$L8
 10
-44.774575
 20
18.500000
 40
0.156000
  1
  
  3

  2
20
 70
    11
  0
ENDBLK
  8
Layer8$C$L8
  0
ENDSEC
  0
SECTION
  2
ENTITIES
  0
LINE
  8
Layer1$C$L1
 62
     3
 10
-165.2976959229
 20
134.3354003677
 11
-162.3052658111
 21
136.0854180373
  0
LINE
  8
Layer1$C$L1
 62
     3
 10
-162.3052737007
 20
136.0854728210
 11
-159.3128711721
 21
134.3354686978
  0
LINE
  8
Layer1$C$L1
 62
     3
 10
-162.3052477820
 20
114.5854556464
 11
-165.2975461765
 21
116.3353962859
  0
LINE
  8
Layer1$C$L1
 62
     3
 10
-159.3129951027
 20
116.3353717114
 11
-162.3052659141
 21
114.5854446184
  0
ARC
  8
Layer1$C$L1
 62
     3
 10
-151.9053358870
 20
125.3354125204
 40
2.7500000000
 50
306.8673214176
 51
413.1326066380
  0
LINE
  8
Layer1$C$L1
 62
     3
 10
-151.8051130572
 20
118.1355644843
 11
-152.1051201862
 21
117.8355407402
  0
LINE
  8
Layer1$C$L1
 62
     3
 10
-172.8053307259
 20
118.1355341982
 11
-172.5053799890
 21
117.8355835624
  0
LINE
  8
Layer1$C$L1
 62
     3
 10
-172.5053010077
 20
132.8355091140
 11
-172.8053059707
 21
132.5355047831
  0
LINE
  8
Layer1$C$L1
 62
     3
 10
-152.1050606619
 20
132.8354262247
 11
-151.8051039832
 21
132.5354815054
  0
LINE
  8
Layer1$C$L1
 62
     3
 10
-151.8050093489
 20
118.1354918661
 11
-151.8050093489
 21
132.5354094686
  0
LINE
  8
Layer1$C$L1
 62
     3
 10
-172.5053114730
 20
132.8353972616
 11
-152.1051802474
 21
132.8353972616
  0
LINE
  8
Layer1$C$L1
 62
     3
 10
-172.5053114730
 20
117.8354735556
 11
-152.1051802474
 21
117.8354735556
  0
LINE
  8
Layer1$C$L1
 62
     3
 10
-172.8052382308
 20
118.1354766073
 11
-172.8052382308
 21
132.5354094686
  0
LINE
  8
Layer1$C$L1
 62
     3
 10
-159.1054091292
 20
133.1353545370
 11
-159.1054091292
 21
134.0355010214
  0
LINE
  8
Layer1$C$L1
 62
     3
 10
-159.3054823714
 20
133.1353545370
 11
-159.3054823714
 21
134.0355010214
  0
LINE
  8
Layer1$C$L1
 62
     3
 10
-165.3054823714
 20
133.1353545370
 11
-165.3054823714
 21
134.0355010214
  0
LINE
  8
Layer1$C$L1
 62
     3
 10
-165.5054335433
 20
133.1353545370
 11
-165.5054335433
 21
134.0355010214
  0
LINE
  8
Layer1$C$L1
  6
CENTER
 62
     3
 10
-175.4420790511
 20
125.3354430380
 11
-148.3351454573
 21
125.3354430380
  0
LINE
  8
Layer1$C$L1
 62
     3
 10
-150.8557923443
 20
134.0358694960
 11
-150.5556599680
 21
134.3358111259
  0
LINE
  8
Layer1$C$L1
 62
     3
 10
-150.2557090221
 20
134.0357974993
 11
-150.5559252641
 21
133.7359398363
  0
LINE
  8
Layer1$C$L1
 62
     3
 10
-150.5556535854
 20
116.9356380943
 11
-150.2558578925
 21
116.6357050479
  0
LINE
  8
Layer1$C$L1
 62
     3
 10
-150.8556918087
 20
116.6354745610
 11
-150.5557931134
 21
116.3356445171
  0
LINE
  8
Layer1$C$L1
 62
     3
 10
-174.3557632905
 20
116.6356035676
 11
-174.0557048107
 21
116.9357917275
  0
LINE
  8
Layer1$C$L1
 62
     3
 10
-174.0558340995
 20
116.3356313487
 11
-173.7557756197
 21
116.6358195086
  0
LINE
  8
Layer1$C$L1
 62
     3
 10
-174.0556950335
 20
134.3358186858
 11
-173.7558192388
 21
134.0359657413
  0
LINE
  8
Layer1$C$L1
 62
     3
 10
-174.3556342915
 20
134.0358565711
 11
-174.0557584968
 21
133.7360036266
  0
LINE
  8
Layer1$C$L1
 62
     3
 10
-174.0552382308
 20
134.3354277792
 11
-150.5558638411
 21
134.3354277792
  0
LINE
  8
Layer1$C$L1
 62
     3
 10
-173.7551894026
 20
134.0355010214
 11
-150.8557905989
 21
134.0355010214
  0
LINE
  8
Layer1$C$L1
 62
     3
 10
-173.1552138167
 20
133.1353697958
 11
-151.4551558333
 21
133.1353697958
  0
LINE
  8
Layer1$C$L1
 62
     3
 10
-173.1552138167
 20
117.5356993856
 11
-151.4551558333
 21
117.5356993856
  0
LINE
  8
Layer1$C$L1
 62
     3
 10
-173.7551894026
 20
116.6354308309
 11
-150.8555464583
 21
116.6354308309
  0
LINE
  8
Layer1$C$L1
 62
     3
 10
-174.0552382308
 20
116.3353820028
 11
-150.5554976302
 21
116.3353820028
  0
LINE
  8
Layer1$C$L1
 62
     3
 10
-151.4551710921
 20
133.1353545370
 11
-151.4551710921
 21
116.6355223837
  0
LINE
  8
Layer1$C$L1
 62
     3
 10
-171.7052779036
 20
117.5355620565
 11
-171.7052779036
 21
116.6355376425
  0
LINE
  8
Layer1$C$L1
 62
     3
 10
-152.9051222640
 20
117.5355467977
 11
-152.9051222640
 21
116.6355223837
  0
LINE
  8
Layer1$C$L1
 62
     3
 10
-150.8556531771
 20
116.6354804120
 11
-150.5556159211
 21
116.9355171621
  0
LINE
  8
Layer1$C$L1
 62
     3
 10
-173.7558201737
 20
116.6357773108
 11
-174.0557711635
 21
116.9357276937
  0
LINE
  8
Layer1$C$L1
 62
     3
 10
-174.0557721865
 20
133.7360300833
 11
-173.7558216013
 21
134.0359808961
  0
LINE
  8
Layer1$C$L1
 62
     3
 10
-150.5559278352
 20
133.7359369823
 11
-150.8557921542
 21
134.0358014277
  0
LINE
  8
Layer1$C$L1
 62
     3
 10
-174.3556999343
 20
134.0359105629
 11
-174.0557496272
 21
134.3358616285
  0
LINE
  8
Layer1$C$L1
 62
     3
 10
-174.0552382308
 20
116.9352355184
 11
-174.0552382308
 21
133.7355284872
  0
LINE
  8
Layer1$C$L1
 62
     3
 10
-150.5552534896
 20
116.9352355184
 11
-150.5552534896
 21
133.7364134970
  0
LINE
  8
Layer1$C$L1
 62
     3
 10
-174.0558776846
 20
116.3356356277
 11
-174.3558282698
 21
116.6355864152
  0
LINE
  8
Layer1$C$L1
 62
     3
 10
-150.5558653555
 20
116.3356547544
 11
-150.2559148208
 21
116.6356055924
  0
LINE
  8
Layer1$C$L1
 62
     3
 10
-150.2554488021
 20
116.6353087606
 11
-150.2554488021
 21
134.0358519735
  0
LINE
  8
Layer1$C$L1
 62
     3
 10
-150.2556468746
 20
134.0357912164
 11
-150.5555972322
 21
134.3357422315
  0
LINE
  8
Layer1$C$L1
 62
     3
 10
-173.1552290755
 20
133.1353545370
 11
-173.1552290755
 21
116.6355223837
  0
LINE
  8
Layer1$C$L1
  6
CENTER
 62
     3
 10
-162.3051314193
 20
113.9585967245
 11
-162.3051314193
 21
136.9671263876
  0
LINE
  8
Layer1$C$L1
 62
     3
 10
-174.3551649886
 20
116.6362853231
 11
-174.3551649886
 21
134.0354247274
  0
INSERT
  8
Layer8$C$L8
 66
     1
  2
Cadra_attr_0
 10
0.000000
 20
0.000000
  0
ATTRIB
  8
Layer8$C$L8
 10
-84.848122
 20
278.000000
 40
0.156000
  1
ìL>ÄK
  2
10
 70
    11
  0
SEQEND
  8
Layer8$C$L8
  0
INSERT
  8
Layer8$C$L8
 66
     1
  2
Cadra_attr_1
 10
0.000000
 20
0.000000
  0
ATTRIB
  8
Layer8$C$L8
 10
-44.774575
 20
18.500000
 40
0.156000
  1
  
  2
20
 70
    11
  0
SEQEND
  8
Layer8$C$L8
  0
LINE
  8
Layer1$C$L1
 62
     3
 10
-78.8056197005
 20
123.7354277792
 11
-82.8053601670
 21
123.7354277792
  0
LINE
  8
Layer1$C$L1
 62
     3
 10
-82.8053601670
 20
126.9354277792
 11
-78.8056197005
 21
126.9354277792
  0
LINE
  8
Layer1$C$L1
 62
     3
 10
-82.8053601670
 20
123.7354277792
 11
-82.8053601670
 21
122.5854277792
  0
LINE
  8
Layer1$C$L1
 62
     3
 10
-82.8056197005
 20
126.9354277792
 11
-82.8056197005
 21
128.0854277792
  0
ARC
  8
Layer0$C$L0
  6
PHANTOM
 62
     3
 10
-72.8053603011
 20
78.7355040731
 40
0.5000000000
 50
0.0000000000
 51
90.0000000000
  0
ARC
  8
Layer0$C$L0
  6
PHANTOM
 62
     3
 10
-77.8053603011
 20
72.2355040731
 40
3.0000000000
 50
0.0000000000
 51
89.9999999983
  0
LINE
  8
Layer0$C$L0
  6
PHANTOM
 62
     3
 10
-72.3053603011
 20
71.3355040731
 11
-74.8053603011
 21
71.3355040731
  0
LINE
  8
Layer0$C$L0
  6
PHANTOM
 62
     3
 10
-72.8053603011
 20
79.2355040731
 11
-72.8053603011
 21
66.3355040731
  0
ARC
  8
Layer0$C$L0
  6
PHANTOM
 62
     3
 10
-72.8053603011
 20
66.8355040731
 40
0.5000000000
 50
270.0000000000
 51
360.0000000000
  0
LINE
  8
Layer0$C$L0
  6
PHANTOM
 62
     3
 10
-72.3053603011
 20
66.8355040731
 11
-72.3053603011
 21
78.7355040731
  0
LINE
  8
Layer0$C$L0
  6
PHANTOM
 62
     3
 10
-74.8053603011
 20
66.3355040731
 11
-72.8053603011
 21
66.3355040731
  0
LINE
  8
Layer0$C$L0
  6
PHANTOM
 62
     3
 10
-74.8053603011
 20
72.2355040731
 11
-74.8053603011
 21
66.3355040731
  0
LINE
  8
Layer0$C$L0
  6
PHANTOM
 62
     3
 10
-72.8053603011
 20
79.2355040731
 11
-77.9053603011
 21
79.2355040731
  0
ARC
  8
Layer0$C$L0
  6
PHANTOM
 62
     3
 10
-78.4053603011
 20
87.8355040731
 40
0.5000000000
 50
0.0000000000
 51
90.0000000000
  0
LINE
  8
Layer0$C$L0
  6
PHANTOM
 62
     3
 10
-80.4053603011
 20
83.3355040731
 11
-77.9053603011
 21
83.3355040731
  0
LINE
  8
Layer0$C$L0
  6
PHANTOM
 62
     3
 10
-78.4053603011
 20
88.3355040731
 11
-80.4053603011
 21
88.3355040731
  0
LINE
  8
Layer0$C$L0
  6
PHANTOM
 62
     3
 10
-78.4053603012
 20
88.3355040731
 11
-78.4053603008
 21
75.2355040731
  0
LINE
  8
Layer0$C$L0
  6
PHANTOM
 62
     3
 10
-80.4053603011
 20
88.3355040731
 11
-80.4053603011
 21
75.2355040731
  0
LINE
  8
Layer0$C$L0
  6
PHANTOM
 62
     3
 10
-80.4053603011
 20
75.2355040731
 11
-72.3053603011
 21
75.2355040731
  0
LINE
  8
Layer0$C$L0
  6
PHANTOM
 62
     3
 10
-77.9053603011
 20
77.1719957462
 11
-77.9053603011
 21
87.8355040731
  0
LINE
  8
Layer0$C$L0
  6
PHANTOM
 62
     3
 10
-75.2676447930
 20
73.8355040731
 11
-78.8053603011
 21
73.8355040731
  0
LINE
  8
Layer0$C$L0
  6
PHANTOM
 62
     3
 10
-83.8053603011
 20
79.7510283297
 11
-80.4053603011
 21
79.7510283297
  0
LINE
  8
Layer0$C$L0
  6
PHANTOM
 62
     3
 10
-80.4053603011
 20
77.1176272423
 11
-83.8053603011
 21
77.7171389767
  0
LINE
  8
Layer0$C$L0
  6
PHANTOM
 62
     3
 10
-78.8053603011
 20
73.8355040731
 11
-78.8053603011
 21
75.2355040731
  0
LINE
  8
Layer0$C$L0
  6
PHANTOM
 62
     3
 10
-83.8053603011
 20
80.5355040731
 11
-80.4053603011
 21
80.5355040731
  0
LINE
  8
Layer0$C$L0
  6
PHANTOM
 62
     3
 10
-83.8053603011
 20
80.5355040731
 11
-83.8053603011
 21
77.7171389767
  0
LINE
  8
Layer0$C$L0
  6
PHANTOM
 62
     3
 10
-77.7053603011
 20
81.0578851052
 11
-77.9053603011
 21
81.0578851052
  0
LINE
  8
Layer0$C$L0
  6
PHANTOM
 62
     3
 10
-77.7053603011
 20
81.4632905107
 11
-77.9053603011
 21
81.4632905107
  0
LINE
  8
Layer0$C$L0
  6
PHANTOM
 62
     3
 10
-77.7053603011
 20
81.8223638697
 11
-77.9053603011
 21
81.8223638697
  0
LINE
  8
Layer0$C$L0
  6
PHANTOM
 62
     3
 10
-77.7053603011
 20
82.6340326814
 11
-77.9053603011
 21
82.6340326814
  0
LINE
  8
Layer0$C$L0
  6
PHANTOM
 62
     3
 10
-77.7053603011
 20
83.0973531447
 11
-77.9053603011
 21
83.0973531447
  0
LINE
  8
Layer0$C$L0
  6
PHANTOM
 62
     3
 10
-77.7053603011
 20
83.5606736080
 11
-77.9053603011
 21
83.5606736080
  0
LINE
  8
Layer0$C$L0
  6
PHANTOM
 62
     3
 10
-77.7053603011
 20
83.8618319092
 11
-77.9053603011
 21
83.8618319092
  0
LINE
  8
Layer0$C$L0
  6
PHANTOM
 62
     3
 10
-77.7053603011
 20
82.3328743802
 11
-77.9053603011
 21
82.3328743802
  0
LINE
  8
Layer0$C$L0
  6
PHANTOM
 62
     3
 10
-77.7053603011
 20
80.9073059547
 11
-77.9053603011
 21
80.9073059547
  0
LINE
  8
Layer0$C$L0
  6
PHANTOM
 62
     3
 10
-77.7053603011
 20
82.0076920551
 11
-77.9053603011
 21
82.0076920551
  0
LINE
  8
Layer0$C$L0
  6
PHANTOM
 62
     3
 10
-77.7053603011
 20
83.9197469671
 11
-77.9053603011
 21
83.9197469671
  0
LINE
  8
Layer0$C$L0
  6
PHANTOM
 62
     3
 10
-77.7053603011
 20
82.2749593223
 11
-77.9053603011
 21
82.2749593223
  0
LINE
  8
Layer0$C$L0
  6
PHANTOM
 62
     3
 10
-77.7053603011
 20
82.0540241014
 11
-77.9053603011
 21
82.0540241014
  0
LINE
  8
Layer0$C$L0
  6
PHANTOM
 62
     3
 10
-77.7053603011
 20
80.8725569199
 11
-77.9053603011
 21
80.8725569199
  0
LINE
  8
Layer0$C$L0
  6
PHANTOM
 62
     3
 10
-77.7053603011
 20
80.8918295394
 11
-77.7053603011
 21
80.8725569199
  0
LINE
  8
Layer0$C$L0
  6
PHANTOM
 62
     3
 10
-77.7053603011
 20
83.9197469671
 11
-77.7053603011
 21
82.0358531644
  0
LINE
  8
Layer0$C$L0
  6
PHANTOM
 62
     3
 10
-72.1053603011
 20
73.5856517569
 11
-72.3053603011
 21
73.5856517569
  0
LINE
  8
Layer0$C$L0
  6
PHANTOM
 62
     3
 10
-72.1053603011
 20
73.8868100580
 11
-72.3053603011
 21
73.8868100580
  0
LINE
  8
Layer0$C$L0
  6
PHANTOM
 62
     3
 10
-72.1053603011
 20
73.1223312936
 11
-72.3053603011
 21
73.1223312936
  0
LINE
  8
Layer0$C$L0
  6
PHANTOM
 62
     3
 10
-72.1053603011
 20
72.6590108302
 11
-72.3053603011
 21
72.6590108302
  0
LINE
  8
Layer0$C$L0
  6
PHANTOM
 62
     3
 10
-72.1053603011
 20
72.3578525291
 11
-72.3053603011
 21
72.3578525291
  0
LINE
  8
Layer0$C$L0
  6
PHANTOM
 62
     3
 10
-72.1053603011
 20
73.9447251160
 11
-72.3053603011
 21
73.9447251160
  0
LINE
  8
Layer0$C$L0
  6
PHANTOM
 62
     3
 10
-72.1053603011
 20
73.9447251160
 11
-72.1053603011
 21
72.6590108302
  0
LINE
  8
Layer0$C$L0
  6
PHANTOM
 62
     3
 10
-72.1053603011
 20
72.2999374712
 11
-72.3053603011
 21
72.2999374712
  0
LINE
  8
Layer0$C$L0
  6
PHANTOM
 62
     3
 10
-72.1053603011
 20
72.6590108302
 11
-72.1053603011
 21
72.2999374712
  0
LINE
  8
Layer0$C$L0
  6
PHANTOM
 62
     3
 10
-72.1053603011
 20
71.4419366132
 11
-72.3053603011
 21
71.4419366132
  0
LINE
  8
Layer0$C$L0
  6
PHANTOM
 62
     3
 10
-72.1053603011
 20
71.3029404742
 11
-72.3053603011
 21
71.3029404742
  0
LINE
  8
Layer0$C$L0
  6
PHANTOM
 62
     3
 10
-72.1053603011
 20
71.4419366132
 11
-72.1053603011
 21
71.3029404742
  0
LINE
  8
Layer0$C$L0
  6
PHANTOM
 62
     3
 10
-72.1053603011
 20
71.5577667290
 11
-72.3053603011
 21
71.5577667290
  0
LINE
  8
Layer0$C$L0
  6
PHANTOM
 62
     3
 10
-72.1053603011
 20
71.8125929838
 11
-72.3053603011
 21
71.8125929838
  0
LINE
  8
Layer0$C$L0
  6
PHANTOM
 62
     3
 10
-72.1053603011
 20
71.9168400881
 11
-72.3053603011
 21
71.9168400881
  0
LINE
  8
Layer0$C$L0
  6
PHANTOM
 62
     3
 10
-72.1053603011
 20
71.9168400881
 11
-72.1053603011
 21
71.8125929838
  0
ARC
  8
Layer0$C$L0
  6
PHANTOM
 62
     3
 10
-39.8054291250
 20
121.3355193319
 40
5.0000000000
 50
270.0000000000
 51
360.0000000000
  0
ARC
  8
Layer0$C$L0
  6
PHANTOM
 62
     3
 10
-43.7054291250
 20
120.3355193319
 40
4.0000000000
 50
180.0000000000
 51
270.0000000000
  0
CIRCLE
  8
Layer0$C$L0
  6
PHANTOM
 62
     3
 10
-40.8054291250
 20
125.3355193319
 40
2.9500000000
  0
LINE
  8
Layer0$C$L0
  6
PHANTOM
 62
     3
 10
-46.7054291250
 20
126.5355193319
 11
-46.7054291250
 21
128.2855193319
  0
LINE
  8
Layer0$C$L0
  6
PHANTOM
 62
     3
 10
-46.7054291250
 20
124.1355193319
 11
-46.7054291250
 21
122.3855193319
  0
LINE
  8
Layer0$C$L0
  6
PHANTOM
 62
     3
 10
-46.9054291250
 20
126.5355193319
 11
-46.9054291250
 21
124.1355193319
  0
LINE
  8
Layer0$C$L0
  6
PHANTOM
 62
     3
 10
-47.7054291250
 20
120.3355193319
 11
-47.7054291250
 21
122.3855193319
  0
LINE
  8
Layer0$C$L0
  6
PHANTOM
 62
     3
 10
-34.8054291250
 20
129.3355193319
 11
-34.8054291250
 21
121.3355193319
  0
LINE
  8
Layer0$C$L0
  6
PHANTOM
 62
     3
 10
-47.4054291250
 20
124.1355193319
 11
-47.4054291250
 21
126.5355193319
  0
LINE
  8
Layer0$C$L0
  6
PHANTOM
 62
     3
 10
-47.4054291250
 20
126.5355193319
 11
-46.7054291250
 21
126.5355193319
  0
LINE
  8
Layer0$C$L0
  6
PHANTOM
 62
     3
 10
-46.7054291250
 20
124.1355193319
 11
-47.4054291250
 21
124.1355193319
  0
LINE
  8
Layer0$C$L0
  6
PHANTOM
 62
     3
 10
-47.7054291250
 20
128.2855193319
 11
-47.7054291250
 21
130.3355193319
  0
ARC
  8
Layer0$C$L0
  6
PHANTOM
 62
     3
 10
-39.8054291250
 20
129.3355193319
 40
5.0000000000
 50
0.0000000000
 51
90.0000000000
  0
ARC
  8
Layer0$C$L0
  6
PHANTOM
 62
     3
 10
-43.7054291250
 20
130.3355193319
 40
4.0000000000
 50
90.0000000000
 51
180.0000000000
  0
LINE
  8
Layer0$C$L0
  6
PHANTOM
 62
     3
 10
-39.8054291250
 20
116.3355193319
 11
-51.8054291250
 21
116.3355193319
  0
ARC
  8
Layer0$C$L0
  6
PHANTOM
 62
     3
 10
-51.8054291250
 20
121.3355193319
 40
5.0000000000
 50
180.0000000000
 51
270.0000000000
  0
ARC
  8
Layer0$C$L0
  6
PHANTOM
 62
     3
 10
-50.8054291250
 20
125.3355193319
 40
2.9500000000
 50
90.0000000000
 51
270.0000000000
  0
LINE
  8
Layer0$C$L0
  6
PHANTOM
 62
     3
 10
-46.7054291250
 20
128.2855193319
 11
-50.8054291250
 21
128.2855193319
  0
LINE
  8
Layer0$C$L0
  6
PHANTOM
 62
     3
 10
-46.7054291250
 20
122.3855193319
 11
-50.8054291250
 21
122.3855193319
  0
LINE
  8
Layer0$C$L0
  6
PHANTOM
 62
     3
 10
-56.8054291250
 20
121.3355193319
 11
-56.8054291250
 21
129.3355193319
  0
ARC
  8
Layer0$C$L0
  6
PHANTOM
 62
     3
 10
-51.8054291250
 20
129.3355193319
 40
5.0000000000
 50
90.0000000000
 51
180.0000000000
  0
LINE
  8
Layer0$C$L0
  6
PHANTOM
 62
     3
 10
-51.8054291250
 20
134.3355193319
 11
-39.8054291250
 21
134.3355193319
  0
LINE
  8
Layer0$C$L0
  6
PHANTOM
 62
     3
 10
-46.9054291250
 20
122.5855193319
 11
-46.9054291250
 21
123.8355193319
  0
LINE
  8
Layer0$C$L0
  6
PHANTOM
 62
     3
 10
-46.9054291250
 20
123.8355193319
 11
-46.7054291250
 21
123.8355193319
  0
LINE
  8
Layer0$C$L0
  6
PHANTOM
 62
     3
 10
-46.7054291250
 20
122.5855193319
 11
-46.9054291250
 21
122.5855193319
  0
LINE
  8
Layer0$C$L0
  6
PHANTOM
 62
     3
 10
-46.9054291250
 20
126.8355193319
 11
-46.9054291250
 21
128.0855193319
  0
LINE
  8
Layer0$C$L0
  6
PHANTOM
 62
     3
 10
-46.7054291250
 20
126.8355193319
 11
-46.9054291250
 21
126.8355193319
  0
LINE
  8
Layer0$C$L0
  6
PHANTOM
 62
     3
 10
-46.9054291250
 20
128.0855193319
 11
-46.7054291250
 21
128.0855193319
  0
LINE
  8
Layer0$C$L0
  6
PHANTOM
 62
     3
 10
-78.4053601670
 20
116.3354277792
 11
-80.4053601670
 21
116.3354277792
  0
LINE
  8
Layer0$C$L0
  6
PHANTOM
 62
     3
 10
-80.4053601670
 20
121.3354277792
 11
-77.9053601670
 21
121.3354277792
  0
ARC
  8
Layer0$C$L0
  6
PHANTOM
 62
     3
 10
-78.4053601670
 20
116.8354277792
 40
0.5000000000
 50
270.0000000000
 51
360.0000000000
  0
LINE
  8
Layer0$C$L0
  6
PHANTOM
 62
     3
 10
-80.4053601670
 20
129.3354277792
 11
-77.9053601670
 21
129.3354277792
  0
LINE
  8
Layer0$C$L0
  6
PHANTOM
 62
     3
 10
-78.4053601670
 20
116.3354277792
 11
-78.4053601670
 21
134.3354277792
  0
ARC
  8
Layer0$C$L0
  6
PHANTOM
 62
     3
 10
-78.4053601670
 20
133.8354277792
 40
0.5000000000
 50
0.0000000000
 51
90.0000000000
  0
LINE
  8
Layer0$C$L0
  6
PHANTOM
 62
     3
 10
-77.9053601670
 20
133.8354277792
 11
-77.9053601670
 21
116.8354277792
  0
LINE
  8
Layer0$C$L0
  6
PHANTOM
 62
     3
 10
-80.4053601670
 20
134.3354277792
 11
-78.4053601670
 21
134.3354277792
  0
LINE
  8
Layer0$C$L0
  6
PHANTOM
 62
     3
 10
-80.4053601670
 20
116.3354277792
 11
-80.4053601670
 21
134.3354277792
  0
LINE
  8
Layer0$C$L0
  6
PHANTOM
 62
     3
 10
-77.7053601670
 20
120.9010648448
 11
-77.9053601670
 21
120.9010648448
  0
LINE
  8
Layer0$C$L0
  6
PHANTOM
 62
     3
 10
-77.7053601670
 20
119.8701768139
 11
-77.9053601670
 21
119.8701768139
  0
LINE
  8
Layer0$C$L0
  6
PHANTOM
 62
     3
 10
-77.7053601670
 20
121.8508717946
 11
-77.9053601670
 21
121.8508717946
  0
LINE
  8
Layer0$C$L0
  6
PHANTOM
 62
     3
 10
-77.7053601670
 20
119.8701768139
 11
-77.7053601670
 21
121.8508717946
  0
LINE
  8
Layer0$C$L0
  6
PHANTOM
 62
     3
 10
-77.7053601670
 20
118.6085938024
 11
-77.9053601670
 21
118.6085938024
  0
LINE
  8
Layer0$C$L0
  6
PHANTOM
 62
     3
 10
-77.7053601670
 20
117.6616826054
 11
-77.9053601670
 21
117.6616826054
  0
LINE
  8
Layer0$C$L0
  6
PHANTOM
 62
     3
 10
-77.7053601670
 20
119.5555049993
 11
-77.9053601670
 21
119.5555049993
  0
LINE
  8
Layer0$C$L0
  6
PHANTOM
 62
     3
 10
-77.7053601670
 20
121.8740378178
 11
-77.9053601670
 21
121.8740378178
  0
LINE
  8
Layer0$C$L0
  6
PHANTOM
 62
     3
 10
-77.7053601670
 20
121.8663482099
 11
-77.7053601670
 21
121.8740378178
  0
LINE
  8
Layer0$C$L0
  6
PHANTOM
 62
     3
 10
-83.8053601670
 20
120.2354277792
 11
-80.4053601670
 21
120.2354277792
  0
LINE
  8
Layer0$C$L0
  6
PHANTOM
 62
     3
 10
-83.8053601670
 20
121.6259803810
 11
-80.4053601670
 21
121.6259803810
  0
LINE
  8
Layer0$C$L0
  6
PHANTOM
 62
     3
 10
-83.3053601670
 20
122.3854277792
 11
-83.8053601670
 21
121.8854277792
  0
LINE
  8
Layer0$C$L0
  6
PHANTOM
 62
     3
 10
-83.8053601670
 20
120.2354277792
 11
-83.8053601670
 21
121.8854277792
  0
LINE
  8
Layer0$C$L0
  6
PHANTOM
 62
     3
 10
-83.3053601670
 20
122.3854277792
 11
-80.4053601670
 21
122.3854277792
  0
LINE
  8
Layer0$C$L0
  6
PHANTOM
 62
     3
 10
-83.8053601670
 20
129.0448751774
 11
-80.4053601670
 21
129.0448751774
  0
LINE
  8
Layer0$C$L0
  6
PHANTOM
 62
     3
 10
-83.8053601670
 20
128.7854277792
 11
-83.3053601670
 21
128.2854277792
  0
LINE
  8
Layer0$C$L0
  6
PHANTOM
 62
     3
 10
-83.3053601670
 20
128.2854277792
 11
-80.4053601670
 21
128.2854277792
  0
LINE
  8
Layer0$C$L0
  6
PHANTOM
 62
     3
 10
-83.8053601670
 20
130.4354277792
 11
-80.4053601670
 21
130.4354277792
  0
LINE
  8
Layer0$C$L0
  6
PHANTOM
 62
     3
 10
-83.8053601670
 20
128.7854277792
 11
-83.8053601670
 21
130.4354277792
  0
LINE
  8
Layer0$C$L0
  6
PHANTOM
 62
     3
 10
-72.8053601670
 20
116.3354277792
 11
-78.4053601667
 21
116.3354277792
  0
ARC
  8
Layer0$C$L0
  6
PHANTOM
 62
     3
 10
-72.8053601670
 20
116.8354277792
 40
0.5000000000
 50
270.0000000000
 51
360.0000000000
  0
LINE
  8
Layer0$C$L0
  6
PHANTOM
 62
     3
 10
-72.8053601670
 20
116.3354277792
 11
-72.8053601670
 21
122.3854277792
  0
LINE
  8
Layer0$C$L0
  6
PHANTOM
 62
     3
 10
-77.9053601670
 20
122.3854277792
 11
-72.3053601670
 21
122.3854277792
  0
LINE
  8
Layer0$C$L0
  6
PHANTOM
 62
     3
 10
-72.3053601670
 20
120.3354277792
 11
-77.9053601670
 21
120.3354277792
  0
LINE
  8
Layer0$C$L0
  6
PHANTOM
 62
     3
 10
-77.9053601670
 20
130.3354277792
 11
-72.3053601670
 21
130.3354277792
  0
LINE
  8
Layer0$C$L0
  6
PHANTOM
 62
     3
 10
-72.3053601670
 20
128.2854277792
 11
-77.9053601670
 21
128.2854277792
  0
LINE
  8
Layer0$C$L0
  6
PHANTOM
 62
     3
 10
-72.8053601670
 20
128.2854277792
 11
-72.8053601670
 21
134.3354277792
  0
ARC
  8
Layer0$C$L0
  6
PHANTOM
 62
     3
 10
-72.8053601670
 20
133.8354277792
 40
0.5000000000
 50
0.0000000000
 51
90.0000000000
  0
LINE
  8
Layer0$C$L0
  6
PHANTOM
 62
     3
 10
-78.4053601667
 20
134.3354277792
 11
-72.8053601670
 21
134.3354277792
  0
LINE
  8
Layer0$C$L0
  6
PHANTOM
 62
     3
 10
-72.8053601670
 20
124.1354277792
 11
-72.8053601670
 21
126.5354277792
  0
LINE
  8
Layer0$C$L0
  6
PHANTOM
 62
     3
 10
-72.3053601670
 20
126.5354277792
 11
-77.9053601670
 21
126.5354277792
  0
LINE
  8
Layer0$C$L0
  6
PHANTOM
 62
     3
 10
-72.3053601670
 20
124.1354277792
 11
-77.9053601670
 21
124.1354277792
  0
LINE
  8
Layer0$C$L0
  6
PHANTOM
 62
     3
 10
-83.0053601670
 20
122.5854277792
 11
-83.0053601670
 21
123.8354277792
  0
LINE
  8
Layer0$C$L0
  6
PHANTOM
 62
     3
 10
-83.2589500054
 20
123.8354277792
 11
-83.2589500054
 21
122.5854277792
  0
LINE
  8
Layer0$C$L0
  6
PHANTOM
 62
     3
 10
-82.8053601670
 20
122.5854277792
 11
-82.8053601670
 21
123.8354277792
  0
LINE
  8
Layer0$C$L0
  6
PHANTOM
 62
     3
 10
-83.6053601670
 20
123.8354277792
 11
-82.8053601670
 21
123.8354277792
  0
LINE
  8
Layer0$C$L0
  6
PHANTOM
 62
     3
 10
-83.6053601670
 20
123.8354277792
 11
-83.6053601670
 21
122.7586328599
  0
LINE
  8
Layer0$C$L0
  6
PHANTOM
 62
     3
 10
-83.2589500054
 20
128.0854277792
 11
-83.2589500054
 21
126.8354277792
  0
LINE
  8
Layer0$C$L0
  6
PHANTOM
 62
     3
 10
-83.0053601670
 20
126.8354277792
 11
-83.0053601670
 21
128.0854277792
  0
LINE
  8
Layer0$C$L0
  6
PHANTOM
 62
     3
 10
-82.8053601670
 20
126.8354277792
 11
-82.8053601670
 21
128.0854277792
  0
LINE
  8
Layer0$C$L0
  6
PHANTOM
 62
     3
 10
-83.6053601670
 20
127.9122226984
 11
-83.6053601670
 21
126.8354277792
  0
LINE
  8
Layer0$C$L0
  6
PHANTOM
 62
     3
 10
-82.8053601670
 20
126.8354277792
 11
-83.6053601670
 21
126.8354277792
  0
LINE
  8
Layer0$C$L0
  6
PHANTOM
 62
     3
 10
-84.1053601670
 20
127.6235475638
 11
-84.1053601670
 21
123.0473079945
  0
LINE
  8
Layer0$C$L0
  6
PHANTOM
 62
     3
 10
-80.4053601670
 20
128.0854277792
 11
-83.3053601670
 21
128.0854277792
  0
LINE
  8
Layer0$C$L0
  6
PHANTOM
 62
     3
 10
-80.4053601670
 20
122.5854277792
 11
-83.3053601670
 21
122.5854277792
  0
LINE
  8
Layer0$C$L0
  6
PHANTOM
 62
     3
 10
-72.3053601670
 20
133.8354277792
 11
-72.3053601670
 21
116.8354277792
  0
LINE
  8
Layer0$C$L0
  6
PHANTOM
 62
     3
 10
-84.3053601670
 20
123.1627780484
 11
-84.3053601670
 21
127.5080775100
  0
LINE
  8
Layer0$C$L0
  6
PHANTOM
 62
     3
 10
-84.3053601670
 20
127.5080775100
 11
-83.3053601669
 21
128.0854277791
  0
LINE
  8
Layer0$C$L0
  6
PHANTOM
 62
     3
 10
-83.3053601670
 20
122.5854277791
 11
-84.3053601670
 21
123.1627780484
  0
LINE
  8
Layer0$C$L0
  6
PHANTOM
 62
     3
 10
-72.1053601670
 20
120.9010648448
 11
-72.3053601670
 21
120.9010648448
  0
LINE
  8
Layer0$C$L0
  6
PHANTOM
 62
     3
 10
-72.1053601670
 20
119.8701768139
 11
-72.3053601670
 21
119.8701768139
  0
LINE
  8
Layer0$C$L0
  6
PHANTOM
 62
     3
 10
-72.1053601670
 20
121.8508717946
 11
-72.3053601670
 21
121.8508717946
  0
LINE
  8
Layer0$C$L0
  6
PHANTOM
 62
     3
 10
-72.1053601670
 20
119.8701768139
 11
-72.1053601670
 21
121.8508717946
  0
LINE
  8
Layer0$C$L0
  6
PHANTOM
 62
     3
 10
-72.1053601670
 20
121.8856208294
 11
-72.3053601670
 21
121.8856208294
  0
LINE
  8
Layer0$C$L0
  6
PHANTOM
 62
     3
 10
-72.1053601670
 20
121.8663482099
 11
-72.1053601670
 21
121.8856208294
  0
LINE
  8
Layer1$C$L1
 62
     3
 10
-118.3048567610
 20
84.2846521978
 11
-118.3048567610
 21
60.3852366348
  0
LINE
  8
Layer1$C$L1
 62
     3
 10
-118.3054976302
 20
134.2354064169
 11
-118.3054976302
 21
116.4354186239
  0
LINE
  8
Layer1$C$L1
 62
     3
 10
-117.3054976302
 20
133.3354125204
 11
-117.3054976302
 21
126.3353972616
  0
LINE
  8
Layer1$C$L1
 62
     3
 10
-117.3054976302
 20
133.3353972616
 11
-117.7052779036
 21
133.3353972616
  0
LINE
  8
Layer1$C$L1
 62
     3
 10
-117.3054823714
 20
117.3353057089
 11
-117.7053847151
 21
117.3353057089
  0
LINE
  8
Layer1$C$L1
 62
     3
 10
-116.7055220443
 20
132.7354064169
 11
-116.7055220443
 21
126.3353972616
  0
LINE
  8
Layer1$C$L1
 62
     3
 10
-116.7052327703
 20
132.7351648409
 11
-117.3052195494
 21
133.3351534407
  0
LINE
  8
Layer1$C$L1
 62
     3
 10
-116.7051452848
 20
117.9352354564
 11
-117.3052178241
 21
117.3351599327
  0
LINE
  8
Layer1$C$L1
 62
     3
 10
-117.3049232434
 20
64.3351894911
 11
-116.7049246127
 21
64.9351878184
  0
LINE
  8
Layer1$C$L1
 62
     3
 10
-117.3049802325
 20
80.3351617352
 11
-116.7049924925
 21
79.7351740458
  0
LINE
  8
Layer1$C$L1
 62
     3
 10
-117.3052534896
 20
64.3355345907
 11
-117.3052534896
 21
80.3353972616
  0
LINE
  8
Layer1$C$L1
 62
     3
 10
-116.7051558333
 20
69.5855345907
 11
-116.7051558333
 21
64.9355101766
  0
LINE
  8
Layer1$C$L1
 62
     3
 10
-116.7051558333
 20
79.7352996054
 11
-116.7051558333
 21
75.0853972616
  0
LINE
  8
Layer1$C$L1
 62
     3
 10
-116.7055220443
 20
124.3354125204
 11
-116.7055220443
 21
117.9354491415
  0
LINE
  8
Layer1$C$L1
 62
     3
 10
-117.3054976302
 20
124.3354125204
 11
-117.3054976302
 21
117.3354735556
  0
LINE
  8
Layer1$C$L1
 62
     3
 10
-115.3053908187
 20
117.9354491415
 11
-116.7053999739
 21
117.9354491415
  0
LINE
  8
Layer1$C$L1
 62
     3
 10
-96.3055891829
 20
132.7353911581
 11
-96.3055891829
 21
117.9354644003
  0
LINE
  8
Layer1$C$L1
 62
     3
 10
-106.3055922442
 20
117.9355270244
 11
-106.3055769856
 21
132.7354080059
  0
LINE
  8
Layer1$C$L1
 62
     3
 10
-100.3055891829
 20
127.3353972616
 11
-98.3055891829
 21
127.3353972616
  0
LINE
  8
Layer1$C$L1
 62
     3
 10
-100.3055891829
 20
123.3354430380
 11
-100.3055891829
 21
127.3353972616
  0
LINE
  8
Layer1$C$L1
 62
     3
 10
-98.3055891829
 20
123.3354430380
 11
-100.3055891829
 21
123.3354430380
  0
LINE
  8
Layer1$C$L1
 62
     3
 10
-98.3055891829
 20
127.3353972616
 11
-98.3055891829
 21
123.3354430380
  0
LINE
  8
Layer1$C$L1
 62
     3
 10
-115.2003950911
 20
80.3353972616
 11
-117.7051558333
 21
80.3353972616
  0
LINE
  8
Layer1$C$L1
 62
     3
 10
-106.3052840071
 20
64.9355101766
 11
-106.3052840071
 21
79.7352996054
  0
LINE
  8
Layer1$C$L1
 62
     3
 10
-112.9084944564
 20
64.3355345907
 11
-106.9052748519
 21
64.3355345907
  0
LINE
  8
Layer1$C$L1
 62
     3
 10
-96.3053297835
 20
64.9355101766
 11
-96.3053297835
 21
79.7352996054
  0
LINE
  8
Layer1$C$L1
 62
     3
 10
-106.9049747825
 20
64.3351760716
 11
-106.3049761518
 21
64.9351743989
  0
LINE
  8
Layer1$C$L1
 62
     3
 10
-106.9050212180
 20
80.3351614992
 11
-106.3050334780
 21
79.7351738098
  0
LINE
  8
Layer1$C$L1
 62
     3
 10
-106.9052748519
 20
75.0853972616
 11
-106.9052748519
 21
80.3353972616
  0
LINE
  8
Layer1$C$L1
 62
     3
 10
-115.3048872786
 20
79.7351470175
 11
-116.7051405745
 21
79.7351470175
  0
LINE
  8
Layer1$C$L1
 62
     3
 10
-115.3047804671
 20
64.9354949179
 11
-116.7050337630
 21
64.9354949179
  0
LINE
  8
Layer1$C$L1
 62
     3
 10
-112.8046431380
 20
75.0853972616
 11
-106.9052595931
 21
75.0853972616
  0
LINE
  8
Layer1$C$L1
 62
     3
 10
-115.3048872786
 20
69.5855345907
 11
-116.7051558333
 21
69.5855345907
  0
LINE
  8
Layer1$C$L1
 62
     3
 10
-106.9052748519
 20
64.3355345907
 11
-106.9052748519
 21
69.5855345907
  0
LINE
  8
Layer1$C$L1
 62
     3
 10
-106.9110459698
 20
122.3384929079
 11
-107.2085013121
 21
117.9361464786
  0
LINE
  8
Layer1$C$L1
 62
     3
 10
-108.7048528154
 20
117.9361911596
 11
-108.2724732853
 21
124.3354189104
  0
LINE
  8
Layer1$C$L1
 62
     3
 10
-106.7095735539
 20
132.7358167584
 11
-107.1420333189
 21
126.3354015296
  0
LINE
  8
Layer1$C$L1
 62
     3
 10
-106.3726088940
 20
122.8907161255
 11
-106.7074197391
 21
117.9355073295
  0
LINE
  8
Layer1$C$L1
 62
     3
 10
-106.7761714250
 20
124.3348296375
 11
-107.3703566283
 21
122.9575337262
  0
LINE
  8
Layer1$C$L1
 62
     3
 10
-106.3722530145
 20
122.8894817583
 11
-106.7757806561
 21
124.3343110442
  0
LINE
  8
Layer1$C$L1
 62
     3
 10
-106.9104008790
 20
122.3390599116
 11
-107.3697699894
 21
122.9573528436
  0
LINE
  8
Layer1$C$L1
 62
     3
 10
-106.3722505158
 20
122.8895377540
 11
-106.9105774763
 21
122.3387908651
  0
LINE
  8
Layer1$C$L1
 62
     3
 10
-108.2096318950
 20
117.9355044860
 11
-107.7772060755
 21
124.3354173203
  0
LINE
  8
Layer1$C$L1
 62
     3
 10
-116.7055220443
 20
132.7353911581
 11
-115.3055128890
 21
132.7353911581
  0
LINE
  8
Layer1$C$L1
 62
     3
 10
-106.9052595931
 20
69.5855345907
 11
-112.8046431380
 21
69.5855345907
  0
LINE
  8
Layer1$C$L1
 62
     3
 10
-106.3052992659
 20
64.9354949179
 11
-112.8046583968
 21
64.9354949179
  0
LINE
  8
Layer1$C$L1
 62
     3
 10
-117.7051558333
 20
64.3355345907
 11
-115.2003950911
 21
64.3355345907
  0
LINE
  8
Layer1$C$L1
 62
     3
 10
-116.7051558333
 20
75.0853972616
 11
-115.3048872786
 21
75.0853972616
  0
LINE
  8
Layer1$C$L1
 62
     3
 10
-106.3052840071
 20
79.7351470175
 11
-112.8045973616
 21
79.7351470175
  0
LINE
  8
Layer1$C$L1
 62
     3
 10
-106.9052595931
 20
80.3353972616
 11
-112.9083723860
 21
80.3353972616
  0
LINE
  8
Layer1$C$L1
 62
     3
 10
-39.3053985534
 20
129.8354430380
 11
-39.3053985534
 21
128.3354430380
  0
LINE
  8
Layer1$C$L1
 62
     3
 10
-42.3053985534
 20
129.8354430380
 11
-39.3053985534
 21
129.8354430380
  0
LINE
  8
Layer1$C$L1
 62
     3
 10
-42.3053985534
 20
118.0891204061
 11
-42.3053985534
 21
122.3354582968
  0
LINE
  8
Layer1$C$L1
 62
     3
 10
-39.3053985534
 20
120.8354582968
 11
-42.3053985534
 21
120.8354582968
  0
LINE
  8
Layer1$C$L1
 62
     3
 10
-39.3053985534
 20
122.3354582968
 11
-39.3053985534
 21
120.8354582968
  0
LINE
  8
Layer1$C$L1
 62
     3
 10
-80.6051222640
 20
69.5855651083
 11
-81.0051161605
 21
69.5855651083
  0
LINE
  8
Layer1$C$L1
 62
     3
 10
-80.0051161605
 20
73.8355345907
 11
-80.0051161605
 21
69.9605651083
  0
LINE
  8
Layer1$C$L1
 62
     3
 10
-80.6051222640
 20
73.8355345907
 11
-80.6051222640
 21
69.5855651083
  0
LINE
  8
Layer1$C$L1
 62
     3
 10
-80.0051161605
 20
70.3355345907
 11
-80.6051222640
 21
70.3355345907
  0
LINE
  8
Layer1$C$L1
 62
     3
 10
-80.0051030729
 20
69.9600750456
 11
-79.2051086023
 21
70.0535345685
  0
LINE
  8
Layer1$C$L1
 62
     3
 10
-79.2051601729
 20
73.8353420672
 11
-79.2051641629
 21
70.0538479265
  0
LINE
  8
Layer1$C$L1
  6
CENTER
 62
     3
 10
-93.8011824446
 20
82.3852172079
 11
-83.1321455794
 21
82.3852172079
  0
LINE
  8
Layer1$C$L1
 62
     3
 10
-47.7056049114
 20
122.8354582968
 11
-50.0597930847
 21
122.8354582968
  0
LINE
  8
Layer1$C$L1
 62
     3
 10
-47.7056049114
 20
127.8354582968
 11
-50.0597930847
 21
127.8354582968
  0
LINE
  8
Layer1$C$L1
 62
     3
 10
-115.3048872786
 20
78.0061736288
 11
-115.3048872786
 21
66.6645903768
  0
LINE
  8
Layer1$C$L1
 62
     3
 10
-117.7053292561
 20
126.3354031008
 11
-115.3053201009
 21
126.3354161785
  0
LINE
  8
Layer1$C$L1
 62
     3
 10
-117.7052526779
 20
124.3354219996
 11
-115.3054876632
 21
124.3354089222
  0
LINE
  8
Layer1$C$L1
 62
     3
 10
-112.8052534896
 20
126.3354277792
 11
-106.3055739241
 21
126.3354277792
  0
LINE
  8
Layer1$C$L1
 62
     3
 10
-112.8052534896
 20
124.3354277792
 11
-106.7761244612
 21
124.3354277792
  0
LINE
  8
Layer1$C$L1
 62
     3
 10
-108.1373392523
 20
126.3354059437
 11
-107.7048825732
 21
132.7357755003
  0
LINE
  8
Layer1$C$L1
 62
     3
 10
-107.6420720425
 20
126.3354043536
 11
-107.2096410797
 21
132.7353933082
  0
LINE
  8
Layer1$C$L1
 62
     3
 10
-107.2771673519
 20
124.3354144963
 11
-107.7072735608
 21
117.9698319563
  0
LINE
  8
Layer1$C$L1
 62
     3
 10
-81.0051161605
 20
68.5855345907
 11
-81.2847029525
 21
68.5855345907
  0
LINE
  8
Layer1$C$L1
 62
     3
 10
-81.0051161605
 20
70.8855376425
 11
-81.2846876937
 21
70.8855376425
  0
LINE
  8
Layer1$C$L1
 62
     3
 10
-81.0051161605
 20
68.5855345907
 11
-81.0051161605
 21
73.8355345907
  0
LINE
  8
Layer1$C$L1
 62
     3
 10
-52.2053474782
 20
126.3355623524
 11
-50.2053453550
 21
124.3355602292
  0
LINE
  8
Layer1$C$L1
 62
     3
 10
-52.2053474782
 20
124.3355602292
 11
-50.2053453550
 21
126.3355623524
  0
LINE
  8
Layer1$C$L1
 62
     3
 10
-38.5554901061
 20
122.3354888143
 11
-39.3054138122
 21
122.3354888143
  0
LINE
  8
Layer1$C$L1
 62
     3
 10
-43.0555053649
 20
128.3355040731
 11
-42.3054138122
 21
128.3355040731
  0
LINE
  8
Layer1$C$L1
 62
     3
 10
-39.3053748533
 20
129.0855215146
 11
-42.3053748533
 21
129.0855291440
  0
LINE
  8
Layer1$C$L1
 62
     3
 10
-39.3053786680
 20
121.5855367734
 11
-42.3053786680
 21
121.5855444028
  0
LINE
  8
Layer1$C$L1
 62
     3
 10
-42.3054138122
 20
122.3354888143
 11
-43.0554901061
 21
122.3354888143
  0
LINE
  8
Layer1$C$L1
 62
     3
 10
-39.3054138122
 20
128.3355040731
 11
-38.5554901061
 21
128.3355040731
  0
LINE
  8
Layer1$C$L1
 62
     3
 10
-91.4051100569
 20
81.0852751913
 11
-88.6051222640
 21
81.0852751913
  0
LINE
  8
Layer1$C$L1
 62
     3
 10
-85.7051588851
 20
79.8852172079
 11
-85.7051588851
 21
84.8852172079
  0
LINE
  8
Layer1$C$L1
 62
     3
 10
-85.7050003715
 20
84.8853442941
 11
-84.6051790320
 21
84.6353828575
  0
LINE
  8
Layer1$C$L1
 62
     3
 10
-84.6051421564
 20
80.1352378314
 11
-85.7051420480
 21
79.8852358144
  0
LINE
  8
Layer1$C$L1
 62
     3
 10
-91.6051070052
 20
81.2852263632
 11
-88.6050917464
 21
81.2852263632
  0
LINE
  8
Layer1$C$L1
 62
     3
 10
-91.6050871702
 20
83.4851730868
 11
-91.6051000812
 21
81.2852219149
  0
LINE
  8
Layer1$C$L1
 62
     3
 10
-91.4051100569
 20
83.6852660360
 11
-91.4051100569
 21
81.0852904501
  0
LINE
  8
Layer1$C$L1
 62
     3
 10
-85.7051588851
 20
84.7351927938
 11
-86.3051497298
 21
84.7351927938
  0
LINE
  8
Layer1$C$L1
 62
     3
 10
-85.7051588851
 20
80.0352416220
 11
-86.3051497298
 21
80.0352416220
  0
LINE
  8
Layer1$C$L1
 62
     3
 10
-86.3051497298
 20
85.1352172079
 11
-86.6051070052
 21
85.1352172079
  0
LINE
  8
Layer1$C$L1
 62
     3
 10
-86.3051497298
 20
79.7351927938
 11
-86.3051497298
 21
85.1352172079
  0
LINE
  8
Layer1$C$L1
 62
     3
 10
-87.6051070052
 20
84.8352751913
 11
-86.6051070052
 21
84.8352751913
  0
LINE
  8
Layer1$C$L1
 62
     3
 10
-87.6050917464
 20
84.8352904501
 11
-87.6050917464
 21
80.7600951376
  0
LINE
  8
Layer1$C$L1
 62
     3
 10
-88.6051070052
 20
80.7602019491
 11
-87.6051070052
 21
80.7602019491
  0
LINE
  8
Layer1$C$L1
 62
     3
 10
-88.6051070052
 20
84.0102019491
 11
-88.6051070052
 21
80.7602019491
  0
LINE
  8
Layer1$C$L1
 62
     3
 10
-87.6051070052
 20
84.0102019491
 11
-88.6051070052
 21
84.0102019491
  0
LINE
  8
Layer1$C$L1
 62
     3
 10
-87.6051070052
 20
80.7600798788
 11
-87.6051070052
 21
79.7355284872
  0
LINE
  8
Layer1$C$L1
 62
     3
 10
-91.4050140580
 20
81.0853002329
 11
-91.6050214013
 21
81.2852846826
  0
LINE
  8
Layer1$C$L1
 62
     3
 10
-91.6050036962
 20
83.4852579272
 11
-91.4050049338
 21
83.6852509746
  0
LINE
  8
Layer1$C$L1
 62
     3
 10
-91.4051710921
 20
83.6852355184
 11
-88.6051680403
 21
83.6852355184
  0
LINE
  8
Layer1$C$L1
 62
     3
 10
-91.6051680403
 20
83.4851622763
 11
-88.6051527816
 21
83.4851622763
  0
LINE
  8
Layer1$C$L1
 62
     3
 10
-86.6051070052
 20
85.1348357382
 11
-86.6051070052
 21
79.7350554647
  0
LINE
  8
Layer1$C$L1
 62
     3
 10
-84.6051527816
 20
84.6352172079
 11
-84.6051527816
 21
80.1352172079
  0
LINE
  8
Layer1$C$L1
 62
     3
 10
-41.8054205965
 20
126.3355299836
 11
-39.8054184733
 21
124.3355278604
  0
LINE
  8
Layer1$C$L1
 62
     3
 10
-41.8054205965
 20
124.3355278604
 11
-39.8054184733
 21
126.3355299836
  0
LINE
  8
Layer1$C$L1
 62
     3
 10
-115.8054976302
 20
126.3354277792
 11
-115.8054976302
 21
124.3354277792
  0
LINE
  8
Layer1$C$L1
 62
     3
 10
-113.3046752819
 20
61.5854793618
 11
-114.8046752819
 21
61.5854869912
  0
LINE
  8
Layer1$C$L1
 62
     3
 10
-113.3046879985
 20
83.0852962570
 11
-114.8046879985
 21
83.0853038864
  0
LINE
  8
Layer1$C$L1
 62
     3
 10
-112.8046431380
 20
66.8313536825
 11
-112.8046431380
 21
77.8213744345
  0
LINE
  8
Layer1$C$L1
 62
     3
 10
-115.3054976302
 20
132.7362609091
 11
-115.3054976302
 21
117.9345336141
  0
LINE
  8
Layer1$C$L1
 62
     3
 10
-113.3053212368
 20
114.5854183262
 11
-114.8053212368
 21
114.5854259556
  0
LINE
  8
Layer1$C$L1
 62
     3
 10
-113.3053339525
 20
136.0854030681
 11
-114.8053339525
 21
136.0854106975
  0
LINE
  8
Layer1$C$L1
 62
     3
 10
-114.6803755599
 20
130.8354277792
 11
-113.4303755599
 21
130.8354277792
  0
LINE
  8
Layer1$C$L1
 62
     3
 10
-113.4302687484
 20
119.8354582968
 11
-114.6802687484
 21
119.8354582968
  0
LINE
  8
Layer1$C$L1
 62
     3
 10
-112.8052687484
 20
117.9359374227
 11
-112.8052687484
 21
132.7353758993
  0
LINE
  8
Layer1$C$L1
 62
     3
 10
-42.3054901061
 20
132.5818877401
 11
-42.3054901061
 21
128.3354888143
  0
LINE
  8
Layer1$C$L1
 62
     3
 10
-39.3054901061
 20
120.8355040731
 11
-39.3054901061
 21
122.3355040731
  0
LINE
  8
Layer1$C$L1
 62
     3
 10
-42.3054901061
 20
120.8355040731
 11
-39.3054901061
 21
120.8355040731
  0
LINE
  8
Layer1$C$L1
 62
     3
 10
-45.8054901061
 20
122.5987029257
 11
-45.8054901061
 21
128.0722899618
  0
LINE
  8
Layer1$C$L1
 62
     3
 10
-45.8054901061
 20
122.5855040731
 11
-46.3054901061
 21
122.5855040731
  0
LINE
  8
Layer1$C$L1
 62
     3
 10
-44.8662811218
 20
129.3355040731
 11
-46.7519317565
 21
129.3355040731
  0
LINE
  8
Layer1$C$L1
 62
     3
 10
-44.8662811218
 20
121.3355040731
 11
-46.7519317565
 21
121.3355040731
  0
LINE
  8
Layer1$C$L1
 62
     3
 10
-46.3054775096
 20
128.0855299892
 11
-45.8054622508
 21
128.0855149502
  0
LINE
  8
Layer1$C$L1
 62
     3
 10
-38.0214935241
 20
117.8355498495
 11
-43.5895019470
 21
117.8355498495
  0
LINE
  8
Layer1$C$L1
 62
     3
 10
-43.5895019470
 20
132.8354735556
 11
-38.0214782653
 21
132.8354735556
  0
LINE
  8
Layer1$C$L1
  6
CENTER
 62
     3
 10
-76.1957411605
 20
125.3354277792
 11
-129.6220259505
 21
125.3354277792
  0
LINE
  8
Layer1$C$L1
 62
     3
 10
-112.8051771956
 20
117.9354338827
 11
-90.1058516341
 21
117.9354338827
  0
LINE
  8
Layer1$C$L1
 62
     3
 10
-96.3055739241
 20
132.7354064169
 11
-90.1055769759
 21
132.7354064169
  0
LINE
  8
Layer1$C$L1
 62
     3
 10
-90.1058516341
 20
132.7353911581
 11
-112.8052534896
 21
132.7353911581
  0
LINE
  8
Layer1$C$L1
  6
CENTER
 62
     3
 10
-77.4283034163
 20
72.3355040731
 11
-130.7469527083
 21
72.3355040731
  0
LINE
  8
Layer1$C$L1
 62
     3
 10
-106.3052840071
 20
79.7351775350
 11
-90.0847670394
 21
79.7351775350
  0
LINE
  8
Layer1$C$L1
 62
     3
 10
-106.3052840071
 20
64.9354949179
 11
-90.0847670394
 21
64.9354949179
  0
LINE
  8
Layer1$C$L1
 62
     3
 10
-113.4293989974
 20
72.3355345907
 11
-114.6796431380
 21
72.3355345907
  0
LINE
  8
Layer1$C$L1
 62
     3
 10
-95.7055678206
 20
127.2853942098
 11
-95.7055678206
 21
123.3854155722
  0
LINE
  8
Layer1$C$L1
 62
     3
 10
-95.7055678206
 20
123.3854155722
 11
-96.3055739241
 21
123.3854155722
  0
LINE
  8
Layer1$C$L1
 62
     3
 10
-96.3055739241
 20
127.2853942098
 11
-95.7055678206
 21
127.2853942098
  0
LINE
  8
Layer1$C$L1
 62
     3
 10
-118.3054976302
 20
116.6354155722
 11
-117.7053999739
 21
116.6354155722
  0
LINE
  8
Layer1$C$L1
 62
     3
 10
-117.7053999739
 20
116.6354155722
 11
-117.7053999739
 21
134.0354247274
  0
LINE
  8
Layer1$C$L1
 62
     3
 10
-117.7053999739
 20
134.0354247274
 11
-118.3054976302
 21
134.0354247274
  0
LINE
  8
Layer1$C$L1
 62
     3
 10
-118.3052534896
 20
63.6355223837
 11
-117.7051558333
 21
63.6355223837
  0
LINE
  8
Layer1$C$L1
 62
     3
 10
-117.7051558333
 20
63.6355223837
 11
-117.7051558333
 21
81.0353636923
  0
LINE
  8
Layer1$C$L1
 62
     3
 10
-117.7051558333
 20
81.0353636923
 11
-118.3052534896
 21
81.0353636923
  0
LINE
  8
Layer1$C$L1
 62
     3
 10
-31.5554901061
 20
125.3354888143
 11
-31.5554901061
 21
119.9950194540
  0
LINE
  8
Layer1$C$L1
 62
     3
 10
-50.0554901061
 20
119.9950041952
 11
-50.0554901061
 21
122.8354582968
  0
LINE
  8
Layer1$C$L1
 62
     3
 10
-31.5554901061
 20
130.6759886923
 11
-31.5554901061
 21
125.3355193319
  0
LINE
  8
Layer1$C$L1
 62
     3
 10
-50.0554901061
 20
127.8335051718
 11
-50.0554901061
 21
130.6760039511
  0
LINE
  8
Layer1$C$L1
 62
     3
 10
-31.5554697164
 20
119.9950355062
 11
-40.8054637947
 21
114.5854932999
  0
LINE
  8
Layer1$C$L1
 62
     3
 10
-40.8054373967
 20
114.5855088918
 11
-50.0554218267
 21
119.9950374662
  0
LINE
  8
Layer1$C$L1
 62
     3
 10
-40.8054602903
 20
136.0855411109
 11
-31.5554796925
 21
130.6760067882
  0
LINE
  8
Layer1$C$L1
 62
     3
 10
-50.0554795996
 20
130.6759829504
 11
-40.8054816217
 21
136.0855194479
  0
LINE
  8
Layer1$C$L1
 62
     3
 10
-90.1059826024
 20
117.9354677367
 11
-79.0610682282
 21
119.5970913986
  0
LINE
  8
Layer1$C$L1
 62
     3
 10
-79.0610399131
 20
131.0738346112
 11
-90.1058184863
 21
132.7354378429
  0
LINE
  8
Layer1$C$L1
 62
     3
 10
-90.1055922347
 20
130.0853362265
 11
-90.1055922347
 21
127.7353301229
  0
LINE
  8
Layer1$C$L1
 62
     3
 10
-90.1055922347
 20
122.9353270712
 11
-90.1055922347
 21
120.5853209677
  0
LINE
  8
Layer1$C$L1
 62
     3
 10
-78.8056197005
 20
119.8936858358
 11
-78.8056197005
 21
130.7771697225
  0
LINE
  8
Layer1$C$L1
 62
     3
 10
-78.8053603011
 20
74.1351307571
 11
-78.8053603011
 21
79.2350300491
  0
LINE
  8
Layer1$C$L1
 62
     3
 10
-90.1053328353
 20
73.8352802932
 11
-79.1052565413
 21
73.8352802932
  0
LINE
  8
Layer1$C$L1
 62
     3
 10
-81.3052840071
 20
67.5514668166
 11
-81.3052840071
 21
73.8352955520
  0
LINE
  8
Layer1$C$L1
 62
     3
 10
-90.1053633528
 20
79.7351216018
 11
-90.1053633528
 21
64.9352101028
  0
LINE
  8
Layer1$C$L1
 62
     3
 10
-78.8053603011
 20
77.3894736461
 11
-90.1054022652
 21
79.7351856126
  0
LINE
  8
Layer1$C$L1
 62
     3
 10
-81.3053450423
 20
70.8852375686
 11
-81.3053450423
 21
68.8352497756
  0
LINE
  8
Layer1$C$L1
 62
     3
 10
-81.5267752255
 20
67.2618628817
 11
-90.1053827422
 21
64.9351614356
  0
LINE
  8
Layer1$C$L1
 62
     3
 10
-90.1053633528
 20
79.7351978957
 11
-79.3052382308
 21
79.7351978957
  0
ARC
  8
Layer1$C$L1
 62
     3
 10
-110.7032027083
 20
72.3355345907
 40
6.6020507813
 50
155.3838529761
 51
204.6161297211
  0
ARC
  8
Layer1$C$L1
 62
     3
 10
-112.9073042708
 20
72.3355345907
 40
6.6020603180
 50
335.3839265143
 51
384.6161452027
  0
ARC
  8
Layer1$C$L1
 62
     3
 10
-40.8054443298
 20
125.3354430380
 40
4.0000000000
 50
112.0243727761
 51
247.9756818654
  0
ARC
  8
Layer1$C$L1
 62
     3
 10
-81.9967543441
 20
72.3135619345
 40
3.5914897919
 50
321.0131538591
 51
388.2156463622
  0
ARC
  8
Layer1$C$L1
 62
     3
 10
-81.7972426253
 20
125.3134551229
 40
3.5914897919
 50
9.7433809642
 51
33.5943841279
  0
ARC
  8
Layer1$C$L1
 62
     3
 10
-81.7972426253
 20
125.3134551229
 40
3.5914897919
 50
326.4056158721
 51
369.5420269875
  0
ARC
  8
Layer1$C$L1
 62
     3
 10
-40.8054901061
 20
125.3354888143
 40
3.7500000000
 50
306.8698895688
 51
413.1297106378
  0
ARC
  8
Layer1$C$L1
 62
     3
 10
-40.8054901061
 20
125.3354888143
 40
3.7500000000
 50
126.8702875410
 51
233.1301017798
  0
CIRCLE
  8
Layer1$C$L1
 62
     3
 10
-51.2054077087
 20
125.3355193319
 40
2.3750000000
  0
CIRCLE
  8
Layer1$C$L1
 62
     3
 10
-40.8055206237
 20
125.3354277792
 40
2.7500000000
  0
CIRCLE
  8
Layer1$C$L1
 62
     3
 10
-40.8054901061
 20
125.3354888143
 40
2.3750000000
  0
ARC
  8
Layer1$C$L1
 62
     3
 10
-90.7953047591
 20
125.3357024374
 40
24.5100555420
 50
167.0331504169
 51
192.9680343936
  0
ARC
  8
Layer1$C$L1
 62
     3
 10
-137.3153853255
 20
125.3357024374
 40
24.5100555420
 50
347.0319672003
 51
372.9668477619
  0
ARC
  8
Layer1$C$L1
 62
     3
 10
-109.5230727034
 20
133.5847106161
 40
5.8443355560
 50
154.6663552641
 51
208.0613864215
  0
ARC
  8
Layer1$C$L1
 62
     3
 10
-118.5876021224
 20
133.5847106161
 40
5.8443355560
 50
331.9386151724
 51
385.3336429146
  0
ARC
  8
Layer1$C$L1
 62
     3
 10
-109.5230727034
 20
117.0861602011
 40
5.8443355560
 50
151.9385962757
 51
205.3336274330
  0
ARC
  8
Layer1$C$L1
 62
     3
 10
-118.5874800521
 20
117.0861602011
 40
5.8443355560
 50
334.6663605005
 51
388.0613848276
  0
ARC
  8
Layer1$C$L1
 62
     3
 10
-40.8054901061
 20
125.3355040731
 40
7.3999996185
 50
201.1803140669
 51
518.8196859331
  0
ARC
  8
Layer1$C$L1
 62
     3
 10
-40.8054901061
 20
125.3355040731
 40
5.0000000000
 50
252.5423463444
 51
467.4565435225
  0
ARC
  8
Layer1$C$L1
 62
     3
 10
-40.8054901061
 20
125.3355040731
 40
4.0000000000
 50
112.0243181346
 51
247.9756818654
  0
ARC
  8
Layer1$C$L1
 62
     3
 10
-40.8054901061
 20
125.3355040731
 40
5.6999998093
 50
105.2575677616
 51
135.4320696845
  0
ARC
  8
Layer1$C$L1
 62
     3
 10
-40.8054901061
 20
125.3355040731
 40
5.6999998093
 50
224.5679303155
 51
254.7424322384
  0
ARC
  8
Layer1$C$L1
 62
     3
 10
-46.3054901061
 20
127.5855040731
 40
0.5000000000
 50
90.0000179861
 51
180.0000000000
  0
ARC
  8
Layer1$C$L1
 62
     3
 10
-46.3054901061
 20
123.0855040731
 40
0.5000000000
 50
180.0000000000
 51
269.9999820139
  0
ARC
  8
Layer1$C$L1
 62
     3
 10
-46.7519317565
 20
128.8355040731
 40
0.5000000000
 50
90.0008376088
 51
149.5198471118
  0
ARC
  8
Layer1$C$L1
 62
     3
 10
-46.7519317565
 20
121.8355040731
 40
0.5000000000
 50
210.4801528882
 51
269.9991623912
  0
ARC
  8
Layer1$C$L1
 62
     3
 10
-40.8054595886
 20
125.3354582968
 40
8.0000000000
 50
198.2099536858
 51
521.7900426717
  0
ARC
  8
Layer1$C$L1
 62
     3
 10
-87.3692366439
 20
82.3852172079
 40
3.5640773773
 50
320.8538909231
 51
399.1461090769
  0
ARC
  8
Layer1$C$L1
 62
     3
 10
-89.2699141341
 20
66.6646208944
 40
26.0349578857
 50
167.4190287842
 51
191.2498320060
  0
ARC
  8
Layer1$C$L1
 62
     3
 10
-138.8390669661
 20
66.6646208944
 40
26.0349578857
 50
348.7501695879
 51
372.5809693945
  0
ARC
  8
Layer1$C$L1
 62
     3
 10
-89.2698988753
 20
78.0063109579
 40
26.0349578857
 50
168.7501506912
 51
192.5809539129
  0
ARC
  8
Layer1$C$L1
 62
     3
 10
-138.8389448958
 20
78.0063109579
 40
26.0349578857
 50
347.4190306055
 51
371.2496801479
  0
ARC
  8
Layer1$C$L1
 62
     3
 10
-79.1055617171
 20
130.7771086874
 40
0.2999998331
 50
359.9999093863
 51
441.4443777765
  0
ARC
  8
Layer1$C$L1
 62
     3
 10
-79.1055922347
 20
119.8935942831
 40
0.2999998331
 50
278.5556222235
 51
360.0000000000
  0
ARC
  8
Layer1$C$L1
 62
     3
 10
-79.1052565413
 20
74.1351307571
 40
0.2999998331
 50
270.0000726276
 51
360.0000000000
  0
ARC
  8
Layer1$C$L1
 62
     3
 10
-79.3052382308
 20
79.2350605666
 40
0.4999999404
 50
9.0613658866E-05
 51
89.9991623912
  0
ARC
  8
Layer1$C$L1
 62
     3
 10
-81.6051802474
 20
67.5513600051
 40
0.2999998331
 50
288.4351356881
 51
360.0005104429
  0
LINE
  8
Layer1$C$L1
  6
CENTER
 62
     3
 10
-40.8054748474
 20
111.5854868361
 11
-40.8054748474
 21
139.0855234096
  0
ARC
  8
Layer1$C$L1
 62
     3
 10
-87.3692366439
 20
125.3354277792
 40
3.5640773773
 50
320.8538909231
 51
399.1461090769
  0
LINE
  8
Layer1$C$L1
 62
     3
 10
-84.6051527816
 20
127.5854277792
 11
-84.6051527816
 21
123.0854277792
  0
LINE
  8
Layer1$C$L1
 62
     3
 10
-86.6051070052
 20
128.0850463095
 11
-86.6051070052
 21
122.5854277792
  0
LINE
  8
Layer1$C$L1
 62
     3
 10
-91.6051680403
 20
126.4353728475
 11
-88.6051527816
 21
126.4353728475
  0
LINE
  8
Layer1$C$L1
 62
     3
 10
-91.4051710921
 20
126.6354460897
 11
-88.6051680403
 21
126.6354460897
  0
LINE
  8
Layer1$C$L1
 62
     3
 10
-91.6050036962
 20
126.4354684985
 11
-91.4050049338
 21
126.6354615459
  0
LINE
  8
Layer1$C$L1
 62
     3
 10
-91.4050140580
 20
124.0355108042
 11
-91.6050214013
 21
124.2354952539
  0
LINE
  8
Layer1$C$L1
 62
     3
 10
-87.6051070052
 20
123.7102904501
 11
-87.6051070052
 21
122.7354277792
  0
LINE
  8
Layer1$C$L1
 62
     3
 10
-87.6051070052
 20
126.9604125204
 11
-88.6051070052
 21
126.9604125204
  0
LINE
  8
Layer1$C$L1
 62
     3
 10
-88.6051070052
 20
126.9604125204
 11
-88.6051070052
 21
123.7104125204
  0
LINE
  8
Layer1$C$L1
 62
     3
 10
-88.6051070052
 20
123.7104125204
 11
-87.6051070052
 21
123.7104125204
  0
LINE
  8
Layer1$C$L1
 62
     3
 10
-87.6050917464
 20
127.9354277792
 11
-87.6050917464
 21
123.7103057089
  0
LINE
  8
Layer1$C$L1
 62
     3
 10
-87.6050917464
 20
127.9354277792
 11
-86.6050917464
 21
127.9354277792
  0
LINE
  8
Layer1$C$L1
 62
     3
 10
-86.3051497298
 20
122.5854277792
 11
-86.3051497298
 21
128.0854277792
  0
LINE
  8
Layer1$C$L1
 62
     3
 10
-85.7051588851
 20
122.9854521932
 11
-86.3051497298
 21
122.9854521932
  0
LINE
  8
Layer1$C$L1
 62
     3
 10
-85.7051588851
 20
127.6854033651
 11
-86.3051497298
 21
127.6854033651
  0
LINE
  8
Layer1$C$L1
 62
     3
 10
-91.4051100569
 20
126.6354766073
 11
-91.4051100569
 21
124.0355010214
  0
LINE
  8
Layer1$C$L1
 62
     3
 10
-91.6050871702
 20
126.4353836581
 11
-91.6051000812
 21
124.2354324862
  0
LINE
  8
Layer1$C$L1
 62
     3
 10
-91.6051070052
 20
124.2354369345
 11
-88.6050917464
 21
124.2354369345
  0
LINE
  8
Layer1$C$L1
 62
     3
 10
-84.6051421564
 20
123.0854484027
 11
-85.7051420480
 21
122.8354463857
  0
LINE
  8
Layer1$C$L1
 62
     3
 10
-85.7050003715
 20
127.8355548654
 11
-84.6051790320
 21
127.5855934288
  0
LINE
  8
Layer1$C$L1
 62
     3
 10
-85.7051588851
 20
122.8354277792
 11
-85.7051588851
 21
127.8354277792
  0
LINE
  8
Layer1$C$L1
 62
     3
 10
-91.4051100569
 20
124.0354857626
 11
-88.6051222640
 21
124.0354857626
  0
LINE
  8
Layer1$C$L1
 62
     3
 10
-90.1058516341
 20
117.9353728475
 11
-90.1058516341
 21
124.0354857626
  0
LINE
  8
Layer1$C$L1
 62
     3
 10
-90.1058516341
 20
126.6354460897
 11
-90.1058516341
 21
132.7353453817
  0
LINE
  8
Layer1$C$L1
 62
     3
 10
-87.6050917464
 20
122.7354277792
 11
-86.6050917464
 21
122.7354277792
  0
LINE
  8
Layer1$C$L1
 62
     3
 10
-90.1058516341
 20
128.0854277792
 11
-78.8056197005
 21
128.0854277792
  0
LINE
  8
Layer1$C$L1
 62
     3
 10
-90.1058516341
 20
122.5854277792
 11
-78.8056197005
 21
122.5854277792
  0
LINE
  8
Layer1$C$L1
  6
CENTER
 62
     3
 10
-55.9554382256
 20
125.3355193319
 11
-28.5554901061
 21
125.3355193319
  0
CIRCLE
  8
Layer1$C$L1
 62
     3
 10
-51.2054382263
 20
125.3354582968
 40
2.7500000000
  0
LINE
  8
Layer1$C$L1
 62
     3
 10
-47.7056049114
 20
126.9358884581
 11
-47.7056049114
 21
128.0089722351
  0
LINE
  8
Layer1$C$L1
 62
     3
 10
-47.7056049114
 20
122.6619626768
 11
-47.7056049114
 21
123.7358838804
  0
LINE
  8
Layer1$C$L1
 62
     3
 10
-46.8055957561
 20
126.9358884581
 11
-47.7056049114
 21
126.9358884581
  0
LINE
  8
Layer1$C$L1
 62
     3
 10
-46.8055957561
 20
123.7358838804
 11
-47.7056049114
 21
123.7358838804
  0
LINE
  8
Layer1$C$L1
 62
     3
 10
-46.8055957561
 20
123.0858823546
 11
-46.8055957561
 21
123.7358838804
  0
LINE
  8
Layer1$C$L1
 62
     3
 10
-46.8055957561
 20
126.9358884581
 11
-46.8055957561
 21
127.5854391706
  0
LINE
  8
Layer1$C$L1
 62
     3
 10
-46.7385292338
 20
127.8354582968
 11
-45.8054901061
 21
127.8354582968
  0
LINE
  8
Layer1$C$L1
 62
     3
 10
-46.7384763758
 20
122.8354582968
 11
-45.8054901061
 21
122.8354582968
  0
LINE
  8
Layer1$C$L1
 62
     3
 10
-124.8040304077
 20
73.8353835974
 11
-124.0038595093
 21
73.8352742853
  0
LINE
  8
Layer1$C$L1
 62
     3
 10
-124.8040175276
 20
70.8355193319
 11
-124.0038466292
 21
70.8355193319
  0
LINE
  8
Layer1$C$L1
 62
     3
 10
-124.8053603011
 20
73.8356414022
 11
-124.8053603011
 21
70.8356414022
  0
LINE
  8
Layer1$C$L1
 62
     3
 10
-127.0039686995
 20
61.6354155722
 11
-127.0039686995
 21
83.0353331747
  0
LINE
  8
Layer1$C$L1
 62
     3
 10
-127.3040116877
 20
61.9344790556
 11
-127.0039745076
 21
61.6344422295
  0
LINE
  8
Layer1$C$L1
 62
     3
 10
-127.0045790511
 20
61.6355529013
 11
-125.3538222151
 21
61.6355529013
  0
LINE
  8
Layer1$C$L1
 62
     3
 10
-127.0037524655
 20
83.0348480800
 11
-127.3037896709
 21
82.7348112792
  0
LINE
  8
Layer1$C$L1
 62
     3
 10
-125.3541884261
 20
83.0354552450
 11
-127.0045790511
 21
83.0354552450
  0
LINE
  8
Layer1$C$L1
 62
     3
 10
-127.3041395980
 20
61.9355712118
 11
-127.3041395980
 21
82.7354064169
  0
LINE
  8
Layer1$C$L1
 62
     3
 10
-118.3044822138
 20
60.3852261615
 11
-127.0048169425
 21
60.6285106095
  0
LINE
  8
Layer1$C$L1
 62
     3
 10
-126.8700877437
 20
60.9240503837
 11
-118.3045640037
 21
60.6854073205
  0
LINE
  8
Layer1$C$L1
 62
     3
 10
-118.3047157211
 20
83.9844272568
 11
-126.8652074849
 21
83.7454217919
  0
LINE
  8
Layer1$C$L1
 62
     3
 10
-126.9937470621
 20
84.0413775985
 11
-118.3047692448
 21
84.2846546481
  0
LINE
  8
Layer1$C$L1
 62
     3
 10
-127.3044096855
 20
61.4852597578
 11
-127.3044020561
 21
60.9490048749
  0
LINE
  8
Layer1$C$L1
 62
     3
 10
-124.0041975814
 20
81.6850371542
 11
-124.0041975814
 21
62.9851927938
  0
LINE
  8
Layer1$C$L1
 62
     3
 10
-127.3044627575
 20
60.9488218864
 11
-127.0046040438
 21
60.6280695575
  0
LINE
  8
Layer1$C$L1
 62
     3
 10
-127.3046126204
 20
83.7310118856
 11
-127.3046126204
 21
83.1853575888
  0
LINE
  8
Layer1$C$L1
 62
     3
 10
-125.5041034425
 20
83.1850638207
 11
-124.0040908076
 21
81.6850515652
  0
LINE
  8
Layer1$C$L1
 62
     3
 10
-124.0041201376
 20
62.9850143363
 11
-125.5041222779
 21
61.4850118167
  0
LINE
  8
Layer1$C$L1
 62
     3
 10
-125.5046858626
 20
61.4854216757
 11
-127.3046126204
 21
61.4854216757
  0
LINE
  8
Layer1$C$L1
 62
     3
 10
-125.5046858626
 20
83.1853575888
 11
-127.3046126204
 21
83.1853575888
  0
LINE
  8
Layer1$C$L1
 62
     3
 10
-127.0045241734
 20
61.0674775401
 11
-126.8702254951
 21
60.9238211359
  0
LINE
  8
Layer1$C$L1
 62
     3
 10
-126.8653581932
 20
83.7458836439
 11
-126.9976437441
 21
83.6136083736
  0
LINE
  8
Layer1$C$L1
 62
     3
 10
-126.9938399605
 20
84.0417284884
 11
-127.3044304649
 21
83.7311621218
  0
LINE
  8
Layer1$C$L1
 62
     3
 10
-123.7046522933
 20
81.8099913778
 11
-123.7046522933
 21
62.8612609091
  0
LINE
  8
Layer1$C$L1
 62
     3
 10
-124.0040353844
 20
62.9852645289
 11
-123.7039319510
 21
62.8609589480
  0
LINE
  8
Layer1$C$L1
 62
     3
 10
-125.5044324409
 20
61.4852096878
 11
-125.3801724707
 21
61.1852194974
  0
LINE
  8
Layer1$C$L1
 62
     3
 10
-127.3042631286
 20
61.4853257188
 11
-127.0043486995
 21
61.1853387500
  0
LINE
  8
Layer1$C$L1
 62
     3
 10
-123.7044316927
 20
81.8094969624
 11
-124.0044359804
 21
81.6852311530
  0
LINE
  8
Layer1$C$L1
 62
     3
 10
-125.3798483635
 20
83.4852289160
 11
-125.5041095337
 21
83.1852392288
  0
LINE
  8
Layer1$C$L1
 62
     3
 10
-126.9972227253
 20
83.4852657630
 11
-127.3040502093
 21
83.1852601126
  0
LINE
  8
Layer1$C$L1
 62
     3
 10
-125.3801894026
 20
83.4855284872
 11
-126.9976210433
 21
83.4855284872
  0
LINE
  8
Layer1$C$L1
 62
     3
 10
-125.3801894026
 20
61.1856169882
 11
-127.0065321761
 21
61.1856169882
  0
LINE
  8
Layer1$C$L1
 62
     3
 10
-125.3797927671
 20
83.4852856605
 11
-123.7040394938
 21
81.8095322459
  0
LINE
  8
Layer1$C$L1
 62
     3
 10
-123.7040726612
 20
62.8609021087
 11
-125.3798044966
 21
61.1851704146
  0
LINE
  8
Layer1$C$L1
 62
     3
 10
-126.9976210433
 20
83.4855284872
 11
-126.9976210433
 21
83.6137023153
  0
LINE
  8
Layer1$C$L1
 62
     3
 10
-127.0044569808
 20
61.1856169882
 11
-127.0044569808
 21
61.0676970663
  0
LINE
  8
Layer1$C$L1
 62
     3
 10
-43.7978149353
 20
116.3355384581
 11
-52.2053161560
 21
116.3355384581
  0
LINE
  8
Layer1$C$L1
 62
     3
 10
-43.7983337341
 20
134.3353248350
 11
-52.2056671081
 21
134.3353248350
  0
LINE
  8
Layer1$C$L1
 62
     3
 10
-33.0055480895
 20
119.1470618956
 11
-33.0055480895
 21
117.5354285948
  0
LINE
  8
Layer1$C$L1
 62
     3
 10
-48.6053863464
 20
119.1470466368
 11
-48.6053863464
 21
117.5354285948
  0
LINE
  8
Layer1$C$L1
 62
     3
 10
-46.3053375183
 20
117.8019386046
 11
-46.3053375183
 21
117.5355506651
  0
LINE
  8
Layer1$C$L1
 62
     3
 10
-35.3054748474
 20
117.8020301573
 11
-35.3054748474
 21
117.5354285948
  0
LINE
  8
Layer1$C$L1
 62
     3
 10
-46.3053375183
 20
117.5354285948
 11
-48.6053863464
 21
117.5354285948
  0
LINE
  8
Layer1$C$L1
 62
     3
 10
-46.3053375183
 20
133.1353431456
 11
-48.6053863464
 21
133.1353431456
  0
LINE
  8
Layer1$C$L1
 62
     3
 10
-35.3054748474
 20
133.1353431456
 11
-35.3054748474
 21
132.8690620177
  0
LINE
  8
Layer1$C$L1
 62
     3
 10
-46.3053375183
 20
133.1353431456
 11
-46.3053375183
 21
132.8691383116
  0
LINE
  8
Layer1$C$L1
 62
     3
 10
-33.0055480895
 20
117.5354285948
 11
-35.3054748474
 21
117.5354285948
  0
LINE
  8
Layer1$C$L1
 62
     3
 10
-33.0055480895
 20
133.1353431456
 11
-35.3054748474
 21
133.1353431456
  0
LINE
  8
Layer1$C$L1
 62
     3
 10
-48.6053863464
 20
133.1353431456
 11
-48.6053863464
 21
131.5240302794
  0
LINE
  8
Layer1$C$L1
 62
     3
 10
-33.0055480895
 20
133.1353431456
 11
-33.0055480895
 21
131.5240302794
  0
LINE
  8
Layer1$C$L1
 62
     3
 10
-52.5054717956
 20
116.6357093565
 11
-52.5054717956
 21
122.9123206846
  0
LINE
  8
Layer1$C$L1
 62
     3
 10
-29.1055059506
 20
116.6355764852
 11
-29.4054999218
 21
116.3355827417
  0
LINE
  8
Layer1$C$L1
 62
     3
 10
-52.2053677963
 20
116.3355303268
 11
-52.5053728099
 21
116.6355346071
  0
LINE
  8
Layer1$C$L1
 62
     3
 10
-29.1053785316
 20
134.0354558482
 11
-29.4053725281
 21
134.3354495665
  0
LINE
  8
Layer1$C$L1
 62
     3
 10
-52.2053810355
 20
134.3355459150
 11
-52.5053752342
 21
134.0355523991
  0
LINE
  8
Layer1$C$L1
 62
     3
 10
-29.4053741394
 20
116.3355384581
 11
-37.8131652770
 21
116.3355384581
  0
LINE
  8
Layer1$C$L1
 62
     3
 10
-52.5054717956
 20
127.7588935606
 11
-52.5054717956
 21
134.0355201475
  0
LINE
  8
Layer1$C$L1
 62
     3
 10
-29.1054778991
 20
116.6354652159
 11
-29.1054778991
 21
134.0353980772
  0
LINE
  8
Layer1$C$L1
 62
     3
 10
-29.4052673278
 20
134.3353248350
 11
-37.8126312194
 21
134.3353248350
  0
LINE
  8
Layer1$C$L1
 62
     3
 10
-118.3053240005
 20
116.3856119746
 11
-127.0051949752
 21
116.5288448162
  0
LINE
  8
Layer1$C$L1
 62
     3
 10
-127.3051004375
 20
116.8423578669
 11
-118.3052502571
 21
116.6924476715
  0
LINE
  8
Layer1$C$L1
 62
     3
 10
-126.9982372817
 20
134.1420206214
 11
-127.3049965633
 21
133.8352620380
  0
LINE
  8
Layer1$C$L1
 62
     3
 10
-118.3052657274
 20
133.9850314962
 11
-127.3051180538
 21
133.8352500290
  0
LINE
  8
Layer1$C$L1
 62
     3
 10
-126.9982583580
 20
134.1421005315
 11
-118.3052198036
 21
134.2850462366
  0
LINE
  8
Layer1$C$L1
 62
     3
 10
-127.0055708724
 20
134.1422972860
 11
-127.0055708724
 21
116.5288481893
  0
LINE
  8
Layer1$C$L1
 62
     3
 10
-127.3051906931
 20
116.8422675683
 11
-127.0053117470
 21
116.5287584992
  0
LINE
  8
Layer1$C$L1
 62
     3
 10
-127.3054976302
 20
133.8354125204
 11
-127.3054976302
 21
116.8424468222
  0
ENDSEC
  0
EOF
