  0
SECTION
  2
HEADER
  9
$ACADVER
  1
AC1015
  9
$ACADMAINTVER
 70
    20
  9
$DWGCODEPAGE
  3
ANSI_932
  9
$INSBASE
 10
0.0
 20
0.0
 30
0.0
  9
$EXTMIN
 10
0.0
 20
0.0
 30
0.0
  9
$EXTMAX
 10
210.0
 20
297.0
 30
0.0
  9
$LIMMIN
 10
-180.4887359618999
 20
-3.174999999999998
  9
$LIMMAX
 10
3.174999999999998
 20
291.2585876465
  9
$ORTHOMODE
 70
     0
  9
$REGENMODE
 70
     1
  9
$FILLMODE
 70
     1
  9
$QTEXTMODE
 70
     0
  9
$MIRRTEXT
 70
     0
  9
$LTSCALE
 40
1.0
  9
$ATTMODE
 70
     1
  9
$TEXTSIZE
 40
2.999994039499997
  9
$TRACEWID
 40
0.05
  9
$TEXTSTYLE
  7
STANDARD
  9
$CLAYER
  8
0
  9
$CELTYPE
  6
ByLayer
  9
$CECOLOR
 62
   256
  9
$CELTSCALE
 40
1.0
  9
$DISPSILH
 70
     0
  9
$DIMSCALE
 40
1.0
  9
$DIMASZ
 40
1.9727878465
  9
$DIMEXO
 40
2.539999961899999
  9
$DIMDLI
 40
0.38
  9
$DIMRND
 40
0.0
  9
$DIMDLE
 40
0.0
  9
$DIMEXE
 40
3.809999942799997
  9
$DIMTP
 40
0.0
  9
$DIMTM
 40
0.0
  9
$DIMTXT
 40
2.999994039499997
  9
$DIMCEN
 40
0.09
  9
$DIMTSZ
 40
0.0
  9
$DIMTOL
 70
     0
  9
$DIMLIM
 70
     0
  9
$DIMTIH
 70
     0
  9
$DIMTOH
 70
     1
  9
$DIMSE1
 70
     0
  9
$DIMSE2
 70
     0
  9
$DIMTAD
 70
     0
  9
$DIMZIN
 70
     0
  9
$DIMBLK
  1

  9
$DIMASO
 70
     1
  9
$DIMSHO
 70
     0
  9
$DIMPOST
  1

  9
$DIMAPOST
  1

  9
$DIMALT
 70
     0
  9
$DIMALTD
 70
     2
  9
$DIMALTF
 40
25.4
  9
$DIMLFAC
 40
1.0
  9
$DIMTOFL
 70
     0
  9
$DIMTVP
 40
0.0
  9
$DIMTIX
 70
     0
  9
$DIMSOXD
 70
     0
  9
$DIMSAH
 70
     0
  9
$DIMBLK1
  1

  9
$DIMBLK2
  1

  9
$DIMSTYLE
  2
Standard
  9
$DIMCLRD
 70
     0
  9
$DIMCLRE
 70
     0
  9
$DIMCLRT
 70
     0
  9
$DIMTFAC
 40
1.0
  9
$DIMGAP
 40
0.09
  9
$DIMJUST
 70
     0
  9
$DIMSD1
 70
     0
  9
$DIMSD2
 70
     0
  9
$DIMTOLJ
 70
     1
  9
$DIMTZIN
 70
     0
  9
$DIMALTZ
 70
     0
  9
$DIMALTTZ
 70
     0
  9
$DIMUPT
 70
     0
  9
$DIMDEC
 70
     4
  9
$DIMTDEC
 70
     4
  9
$DIMALTU
 70
     2
  9
$DIMALTTD
 70
     2
  9
$DIMTXSTY
  7
STANDARD
  9
$DIMAUNIT
 70
     0
  9
$DIMADEC
 70
     0
  9
$DIMALTRND
 40
0.0
  9
$DIMAZIN
 70
     0
  9
$DIMDSEP
 70
    46
  9
$DIMATFIT
 70
     3
  9
$DIMFRAC
 70
     0
  9
$DIMLDRBLK
  1

  9
$DIMLUNIT
 70
     2
  9
$DIMLWD
 70
    -2
  9
$DIMLWE
 70
    -2
  9
$DIMTMOVE
 70
     0
  9
$LUNITS
 70
     2
  9
$LUPREC
 70
     3
  9
$SKETCHINC
 40
0.1
  9
$FILLETRAD
 40
0.0625
  9
$AUNITS
 70
     0
  9
$AUPREC
 70
     0
  9
$MENU
  1
ACAD
  9
$ELEVATION
 40
0.0
  9
$PELEVATION
 40
0.0
  9
$THICKNESS
 40
0.0
  9
$LIMCHECK
 70
     0
  9
$CHAMFERA
 40
0.0
  9
$CHAMFERB
 40
0.0
  9
$CHAMFERC
 40
0.0
  9
$CHAMFERD
 40
0.0
  9
$SKPOLY
 70
     0
  9
$TDCREATE
 40
2452363.673391204
  9
$TDUCREATE
 40
2452363.298391204
  9
$TDUPDATE
 40
2453396.599002604
  9
$TDUUPDATE
 40
2453396.224002605
  9
$TDINDWG
 40
0.0021850347
  9
$TDUSRTIMER
 40
0.0021832292
  9
$USRTIMER
 70
     1
  9
$ANGBASE
 50
0.0
  9
$ANGDIR
 70
     0
  9
$PDMODE
 70
     0
  9
$PDSIZE
 40
0.0
  9
$PLINEWID
 40
0.0
  9
$SPLFRAME
 70
     0
  9
$SPLINETYPE
 70
     6
  9
$SPLINESEGS
 70
     8
  9
$HANDSEED
  5
24E
  9
$SURFTAB1
 70
     6
  9
$SURFTAB2
 70
     6
  9
$SURFTYPE
 70
     6
  9
$SURFU
 70
     6
  9
$SURFV
 70
     6
  9
$UCSBASE
  2

  9
$UCSNAME
  2

  9
$UCSORG
 10
0.0
 20
0.0
 30
0.0
  9
$UCSXDIR
 10
1.0
 20
0.0
 30
0.0
  9
$UCSYDIR
 10
0.0
 20
1.0
 30
0.0
  9
$UCSORTHOREF
  2

  9
$UCSORTHOVIEW
 70
     0
  9
$UCSORGTOP
 10
0.0
 20
0.0
 30
0.0
  9
$UCSORGBOTTOM
 10
0.0
 20
0.0
 30
0.0
  9
$UCSORGLEFT
 10
0.0
 20
0.0
 30
0.0
  9
$UCSORGRIGHT
 10
0.0
 20
0.0
 30
0.0
  9
$UCSORGFRONT
 10
0.0
 20
0.0
 30
0.0
  9
$UCSORGBACK
 10
0.0
 20
0.0
 30
0.0
  9
$PUCSBASE
  2

  9
$PUCSNAME
  2

  9
$PUCSORG
 10
0.0
 20
0.0
 30
0.0
  9
$PUCSXDIR
 10
1.0
 20
0.0
 30
0.0
  9
$PUCSYDIR
 10
0.0
 20
1.0
 30
0.0
  9
$PUCSORTHOREF
  2

  9
$PUCSORTHOVIEW
 70
     0
  9
$PUCSORGTOP
 10
0.0
 20
0.0
 30
0.0
  9
$PUCSORGBOTTOM
 10
0.0
 20
0.0
 30
0.0
  9
$PUCSORGLEFT
 10
0.0
 20
0.0
 30
0.0
  9
$PUCSORGRIGHT
 10
0.0
 20
0.0
 30
0.0
  9
$PUCSORGFRONT
 10
0.0
 20
0.0
 30
0.0
  9
$PUCSORGBACK
 10
0.0
 20
0.0
 30
0.0
  9
$USERI1
 70
     9
  9
$USERI2
 70
     0
  9
$USERI3
 70
     0
  9
$USERI4
 70
     0
  9
$USERI5
 70
     0
  9
$USERR1
 40
0.0
  9
$USERR2
 40
0.0
  9
$USERR3
 40
0.0
  9
$USERR4
 40
0.0
  9
$USERR5
 40
0.0
  9
$WORLDVIEW
 70
     1
  9
$SHADEDGE
 70
     3
  9
$SHADEDIF
 70
    70
  9
$TILEMODE
 70
     1
  9
$MAXACTVP
 70
    64
  9
$PINSBASE
 10
0.0
 20
0.0
 30
0.0
  9
$PLIMCHECK
 70
     0
  9
$PEXTMIN
 10
1.000000000000000E+20
 20
1.000000000000000E+20
 30
1.000000000000000E+20
  9
$PEXTMAX
 10
-1.000000000000000E+20
 20
-1.000000000000000E+20
 30
-1.000000000000000E+20
  9
$PLIMMIN
 10
0.0
 20
0.0
  9
$PLIMMAX
 10
12.0
 20
9.0
  9
$UNITMODE
 70
     0
  9
$VISRETAIN
 70
     1
  9
$PLINEGEN
 70
     0
  9
$PSLTSCALE
 70
     1
  9
$TREEDEPTH
 70
  3020
  9
$CMLSTYLE
  2
Standard
  9
$CMLJUST
 70
     0
  9
$CMLSCALE
 40
1.0
  9
$PROXYGRAPHICS
 70
     1
  9
$MEASUREMENT
 70
     0
  9
$CELWEIGHT
370
    -1
  9
$ENDCAPS
280
     0
  9
$JOINSTYLE
280
     0
  9
$LWDISPLAY
290
     0
  9
$INSUNITS
 70
     0
  9
$HYPERLINKBASE
  1

  9
$STYLESHEET
  1

  9
$XEDIT
290
     1
  9
$CEPSNTYPE
380
     0
  9
$PSTYLEMODE
290
     1
  9
$FINGERPRINTGUID
  2
{0A960C17-271D-41E0-A5BF-86FB4EF58932}
  9
$VERSIONGUID
  2
{1B26535C-7871-4367-97FC-4BE907323003}
  9
$EXTNAMES
290
     1
  9
$PSVPSCALE
 40
0.0
  9
$OLESTARTUP
290
     0
  0
ENDSEC
  0
SECTION
  2
CLASSES
  0
CLASS
  1
ACDBDICTIONARYWDFLT
  2
AcDbDictionaryWithDefault
  3
ObjectDBX Classes
 90
        0
280
     0
281
     0
  0
CLASS
  1
ACDBPLACEHOLDER
  2
AcDbPlaceHolder
  3
ObjectDBX Classes
 90
        0
280
     0
281
     0
  0
CLASS
  1
LAYOUT
  2
AcDbLayout
  3
ObjectDBX Classes
 90
        0
280
     0
281
     0
  0
CLASS
  1
DICTIONARYVAR
  2
AcDbDictionaryVar
  3
ObjectDBX Classes
 90
        0
280
     0
281
     0
  0
CLASS
  1
TABLESTYLE
  2
AcDbTableStyle
  3
ObjectDBX Classes
 90
     2047
280
     0
281
     0
  0
ENDSEC
  0
SECTION
  2
TABLES
  0
TABLE
  2
VPORT
  5
19
330
0
100
AcDbSymbolTable
 70
     2
  0
VPORT
  5
248
330
19
100
AcDbSymbolTableRecord
100
AcDbViewportTableRecord
  2
*Active
 70
     0
 10
0.0
 20
0.0
 11
1.0
 21
1.0
 12
104.9953776948859
 22
253.1696819854583
 13
0.0
 23
0.0
 14
1.0
 24
1.0
 15
0.0
 25
0.0
 16
0.0
 26
0.0
 36
1.0
 17
0.0
 27
0.0
 37
0.0
 40
511.260647601947
 41
1.25
 42
50.0
 43
0.0
 44
0.0
 50
0.0
 51
0.0
 71
     0
 72
   100
 73
     1
 74
     1
 75
     0
 76
     0
 77
     0
 78
     0
281
     0
 65
     1
110
0.0
120
0.0
130
0.0
111
1.0
121
0.0
131
0.0
112
0.0
122
1.0
132
0.0
 79
     0
146
0.0
  0
ENDTAB
  0
TABLE
  2
LTYPE
  5
14
330
0
100
AcDbSymbolTable
 70
     3
  0
LTYPE
  5
15
330
14
100
AcDbSymbolTableRecord
100
AcDbLinetypeTableRecord
  2
ByBlock
 70
     0
  3

 72
    65
 73
     0
 40
0.0
  0
LTYPE
  5
16
330
14
100
AcDbSymbolTableRecord
100
AcDbLinetypeTableRecord
  2
ByLayer
 70
     0
  3

 72
    65
 73
     0
 40
0.0
  0
LTYPE
  5
8
330
14
100
AcDbSymbolTableRecord
100
AcDbLinetypeTableRecord
  2
Continuous
 70
     0
  3
Solid line
 72
    65
 73
     0
 40
0.0
  0
LTYPE
  5
31
330
14
100
AcDbSymbolTableRecord
100
AcDbLinetypeTableRecord
  2
CENTER
 70
     0
  3
Center
 72
    65
 73
     4
 40
9.100006759199999
 49
6.5000119209
 74
     0
 49
-0.7999984026000001
 74
     0
 49
0.9999980329999999
 74
     0
 49
-0.7999984026000001
 74
     0
  0
LTYPE
  5
37
330
14
100
AcDbSymbolTableRecord
100
AcDbLinetypeTableRecord
  2
PHANTOM
 70
     0
  3
Phantom
 72
    65
 73
     6
 40
9.499981462999999
 49
4.799990654
 74
     0
 49
-0.8999982475999999
 74
     0
 49
0.9999980329999999
 74
     0
 49
-0.8999982475999999
 74
     0
 49
0.9999980329999999
 74
     0
 49
-0.8999982475999999
 74
     0
  0
ENDTAB
  0
TABLE
  2
LAYER
  5
10
330
0
100
AcDbSymbolTable
 70
     1
  0
LAYER
  5
4
330
10
100
AcDbSymbolTableRecord
100
AcDbLayerTableRecord
  2
0
 70
     0
 62
     7
  6
Continuous
370
    -3
390
5
  0
ENDTAB
  0
TABLE
  2
STYLE
  5
11
330
0
100
AcDbSymbolTable
 70
     1
  0
STYLE
  5
12
330
11
100
AcDbSymbolTableRecord
100
AcDbTextStyleTableRecord
  2
STANDARD
 70
     0
 40
0.0
 41
1.0
 50
0.0
 71
     0
 42
2.999994039499997
  3
romans.shx
  4
bigfont.shx
  0
ENDTAB
  0
TABLE
  2
VIEW
  5
17
330
0
100
AcDbSymbolTable
 70
     0
  0
ENDTAB
  0
TABLE
  2
UCS
  5
18
330
0
100
AcDbSymbolTable
 70
     0
  0
ENDTAB
  0
TABLE
  2
APPID
  5
1B
330
0
100
AcDbSymbolTable
 70
     1
  0
APPID
  5
1C
330
1B
100
AcDbSymbolTableRecord
100
AcDbRegAppTableRecord
  2
ACAD
 70
     0
  0
ENDTAB
  0
TABLE
  2
DIMSTYLE
  5
1D
330
0
100
AcDbSymbolTable
 70
     1
100
AcDbDimStyleTable
 71
     0
  0
DIMSTYLE
105
23
330
1D
100
AcDbSymbolTableRecord
100
AcDbDimStyleTableRecord
  2
Standard
 70
     0
340
12
  0
ENDTAB
  0
TABLE
  2
BLOCK_RECORD
  5
1
330
0
100
AcDbSymbolTable
 70
     0
  0
BLOCK_RECORD
  5
2
330
1
100
AcDbSymbolTableRecord
100
AcDbBlockTableRecord
  2
*Model_Space
340
A
  0
BLOCK_RECORD
  5
C
330
1
100
AcDbSymbolTableRecord
100
AcDbBlockTableRecord
  2
*Paper_Space
340
F
  0
ENDTAB
  0
ENDSEC
  0
SECTION
  2
BLOCKS
  0
BLOCK
  5
3
330
2
100
AcDbEntity
  8
0
100
AcDbBlockBegin
  2
*Model_Space
 70
     2
 10
0.0
 20
0.0
 30
0.0
  3
*Model_Space
  1

  0
ENDBLK
  5
9
330
2
100
AcDbEntity
  8
0
100
AcDbBlockEnd
  0
BLOCK
  5
D
330
C
100
AcDbEntity
 67
     1
  8
0
100
AcDbBlockBegin
  2
*Paper_Space
 70
     0
 10
0.0
 20
0.0
 30
0.0
  3
*Paper_Space
  1

  0
ENDBLK
  5
E
330
C
100
AcDbEntity
 67
     1
  8
0
100
AcDbBlockEnd
  0
ENDSEC
  0
SECTION
  2
ENTITIES
  0
ARC
  5
24
330
2
100
AcDbEntity
  8
0
 62
     3
100
AcDbCircle
 10
172.5961285478
 20
225.9434814452999
 30
0.0
 40
7.449999809299999
100
AcDbArc
 50
325.5996702829997
 51
34.40032971699996
  0
LINE
  5
25
330
2
100
AcDbEntity
  8
0
 62
     3
100
AcDbLine
 10
173.7961102371999
 20
229.4434814453
 30
0.0
 11
173.7961102371999
 21
222.4434814452999
 31
0.0
  0
LINE
  5
26
330
2
100
AcDbEntity
  8
0
 62
     3
100
AcDbLine
 10
173.2961102371999
 20
228.9434814452999
 30
0.0
 11
173.2961102371999
 21
222.9434814452999
 31
0.0
  0
LINE
  5
27
330
2
100
AcDbEntity
  8
0
 62
     3
100
AcDbLine
 10
171.3961163407
 20
229.4434814453
 30
0.0
 11
171.3961163407
 21
222.4434814452999
 31
0.0
  0
LINE
  5
28
330
2
100
AcDbEntity
  8
0
 62
     3
100
AcDbLine
 10
171.8961163406999
 20
228.9434814452999
 30
0.0
 11
171.8961163406999
 21
222.9434814452999
 31
0.0
  0
ARC
  5
29
330
2
100
AcDbEntity
  8
0
 62
     3
100
AcDbCircle
 10
172.5961285478
 20
225.9434814452999
 30
0.0
 40
7.449999809299999
100
AcDbArc
 50
145.5996343108
 51
214.4002937449
  0
LINE
  5
2A
330
2
100
AcDbEntity
  8
0
100
AcDbLine
 10
210.0
 20
0.0
 30
0.0
 11
210.0
 21
297.0
 31
0.0
  0
ARC
  5
2B
330
2
100
AcDbEntity
  8
0
 62
     3
100
AcDbCircle
 10
172.5961285478
 20
225.9434814452999
 30
0.0
 40
7.949999809299999
100
AcDbArc
 50
325.5996702829997
 51
34.40032971699996
  0
ARC
  5
2C
330
2
100
AcDbEntity
  8
0
 62
     3
100
AcDbCircle
 10
172.5961285478
 20
225.9434814452999
 30
0.0
 40
7.949999809299999
100
AcDbArc
 50
145.5996343108
 51
214.4002937449
  0
ARC
  5
2D
330
2
100
AcDbEntity
  8
0
 62
     3
100
AcDbCircle
 10
172.5961285478
 20
225.9434814452999
 30
0.0
 40
8.850000381499999
100
AcDbArc
 50
145.5996343108
 51
214.4002937449
  0
ARC
  5
2E
330
2
100
AcDbEntity
  8
0
 62
     3
100
AcDbCircle
 10
172.5961285478
 20
225.9434814452999
 30
0.0
 40
8.850000381499999
100
AcDbArc
 50
325.5996702829997
 51
34.40032971699996
  0
LINE
  5
2F
330
2
100
AcDbEntity
  8
0
 62
     3
100
AcDbLine
 10
144.1461163406999
 20
230.9434814452999
 30
0.0
 11
144.1461163406999
 21
220.9434814452999
 31
0.0
  0
LINE
  5
30
330
2
100
AcDbEntity
  8
0
  6
CENTER
 62
     3
100
AcDbLine
 10
172.5961285478
 20
236.0434722899999
 30
0.0
 11
172.5961285478
 21
215.8434753417998
 31
0.0
  0
LINE
  5
32
330
2
100
AcDbEntity
  8
0
 62
     3
100
AcDbLine
 10
181.5461102371999
 20
234.3934783934999
 30
0.0
 11
181.5461102371999
 21
217.4934844971
 31
0.0
  0
LINE
  5
33
330
2
100
AcDbEntity
  8
0
 62
     3
100
AcDbLine
 10
163.6461163406998
 20
234.3934783934999
 30
0.0
 11
163.6461163406998
 21
217.4934844971
 31
0.0
  0
LINE
  5
34
330
2
100
AcDbEntity
  8
0
 62
     3
100
AcDbLine
 10
136.4461041336999
 20
234.3934783934999
 30
0.0
 11
136.4461041336999
 21
217.4934692382999
 31
0.0
  0
ARC
  5
35
330
2
100
AcDbEntity
  8
0
 62
     3
100
AcDbCircle
 10
92.76327332309998
 20
228.7574157714999
 30
0.0
 40
1.0999994278
100
AcDbArc
 50
195.594286753
 51
265.0000463061
  0
LINE
  5
36
330
2
100
AcDbEntity
  8
0
  6
PHANTOM
 62
     3
100
AcDbLine
 10
89.7461148148
 20
227.2419047717
 30
0.0
 11
89.7461148148
 21
228.0419154527999
 31
0.0
  0
LINE
  5
38
330
2
100
AcDbEntity
  8
0
 62
     3
100
AcDbLine
 10
93.04611023719996
 20
224.9434814452999
 30
0.0
 11
93.04611023719996
 21
233.5434722899999
 31
0.0
  0
ARC
  5
39
330
2
100
AcDbEntity
  8
0
 62
     3
100
AcDbCircle
 10
66.42638977819999
 20
227.7188568115
 30
0.0
 40
0.1999999881
100
AcDbArc
 50
278.7462118221
 51
351.2538403149998
  0
LINE
  5
3A
330
2
100
AcDbEntity
  8
0
 62
     3
100
AcDbLine
 10
66.80175598919999
 20
226.8434753418
 30
0.0
 11
66.80175598919999
 21
234.0434722899999
 31
0.0
  0
ARC
  5
3B
330
2
100
AcDbEntity
  8
0
 62
     3
100
AcDbCircle
 10
61.17712220009996
 20
227.7188568115
 30
0.0
 40
0.1999999881
100
AcDbArc
 50
188.7461751666999
 51
261.2538787916
  0
LINE
  5
3C
330
2
100
AcDbEntity
  8
0
 62
     3
100
AcDbLine
 10
62.30175616189999
 20
227.3434729324999
 30
0.0
 11
60.80175456949999
 21
228.8434745249
 31
0.0
  0
LINE
  5
3D
330
2
100
AcDbEntity
  8
0
 62
     3
100
AcDbLine
 10
60.5017529374
 20
226.4434814452999
 30
0.0
 11
60.5017529374
 21
233.5434722899999
 31
0.0
  0
LINE
  5
3E
330
2
100
AcDbEntity
  8
0
 62
     3
100
AcDbLine
 10
58.5017529374
 20
225.5434722899999
 30
0.0
 11
58.5017529374
 21
233.5434722899999
 31
0.0
  0
LINE
  5
3F
330
2
100
AcDbEntity
  8
0
 62
     3
100
AcDbLine
 10
65.30174855709998
 20
227.3434837220998
 30
0.0
 11
66.80175014949998
 21
228.8434853144998
 31
0.0
  0
LINE
  5
40
330
2
100
AcDbEntity
  8
0
100
AcDbLine
 10
0.0
 20
297.0
 30
0.0
 11
0.0
 21
0.0
 31
0.0
  0
LINE
  5
41
330
2
100
AcDbEntity
  8
0
 62
     3
100
AcDbLine
 10
87.0461102372
 20
218.8035430908
 30
0.0
 11
87.0461102372
 21
233.0834045409999
 31
0.0
  0
LINE
  5
42
330
2
100
AcDbEntity
  8
0
  6
CENTER
 62
     3
100
AcDbLine
 10
60.5017529374
 20
236.0434722899999
 30
0.0
 11
60.5017529374
 21
215.8434753417998
 31
0.0
  0
LINE
  5
43
330
2
100
AcDbEntity
  8
0
 62
     3
100
AcDbLine
 10
52.40174683389998
 20
217.8434753417998
 30
0.0
 11
52.40174683389998
 21
234.0434722899999
 31
0.0
  0
LINE
  5
44
330
2
100
AcDbEntity
  8
0
 62
     3
100
AcDbLine
 10
68.60174378209999
 20
217.8434753417998
 30
0.0
 11
68.60174378209999
 21
234.0434722899999
 31
0.0
  0
LINE
  5
45
330
2
100
AcDbEntity
  8
0
 62
     3
100
AcDbLine
 10
52.30175598919998
 20
234.1434783935
 30
0.0
 11
52.30175598919998
 21
217.7434692383
 31
0.0
  0
LINE
  5
46
330
2
100
AcDbEntity
  8
0
 62
     3
100
AcDbLine
 10
68.70174988559998
 20
234.1434783935
 30
0.0
 11
68.70174988559998
 21
217.7434692383
 31
0.0
  0
LINE
  5
47
330
2
100
AcDbEntity
  8
0
 62
     3
100
AcDbLine
 10
51.55175598919999
 20
234.3934783934999
 30
0.0
 11
51.55175598919999
 21
217.4934692382999
 31
0.0
  0
LINE
  5
48
330
2
100
AcDbEntity
  8
0
 62
     3
100
AcDbLine
 10
69.45174988559998
 20
234.3934783934999
 30
0.0
 11
69.45174988559998
 21
217.4934692382999
 31
0.0
  0
LINE
  5
49
330
2
100
AcDbEntity
  8
0
 62
     3
100
AcDbLine
 10
94.346113289
 20
234.8934783934999
 30
0.0
 11
94.346113289
 21
216.9934692383
 31
0.0
  0
LINE
  5
4A
330
2
100
AcDbEntity
  8
0
  6
PHANTOM
 62
     3
100
AcDbLine
 10
88.74610718539996
 20
236.0481944445
 30
0.0
 11
88.74610718539996
 21
215.8356242540999
 31
0.0
  0
LINE
  5
4B
330
2
100
AcDbEntity
  8
0
  6
PHANTOM
 62
     3
100
AcDbLine
 10
85.74610718539998
 20
235.5481944445
 30
0.0
 11
85.74610718539998
 21
216.2383571032
 31
0.0
  0
LINE
  5
4C
330
2
100
AcDbEntity
  8
0
 62
     3
100
AcDbLine
 10
143.0461102371999
 20
217.6434783935
 30
0.0
 11
136.4461041336999
 21
217.6434783935
 31
0.0
  0
LINE
  5
4D
330
2
100
AcDbEntity
  8
0
 62
     3
100
AcDbLine
 10
144.9703656082999
 20
219.5934753418
 30
0.0
 11
136.4461041336999
 21
219.5934753418
 31
0.0
  0
LINE
  5
4E
330
2
100
AcDbEntity
  8
0
 62
     3
100
AcDbLine
 10
144.1461163406999
 20
220.9434814452999
 30
0.0
 11
136.4461041336999
 21
220.9434814452999
 31
0.0
  0
LINE
  5
4F
330
2
100
AcDbEntity
  8
0
 62
     3
100
AcDbLine
 10
144.1461163406999
 20
175.8022308349
 30
0.0
 11
136.4461041336999
 21
175.8022308349
 31
0.0
  0
LINE
  5
50
330
2
100
AcDbEntity
  8
0
 62
     3
100
AcDbLine
 10
144.1461163406999
 20
177.3500061035
 30
0.0
 11
136.2461224441997
 21
177.3500061035
 31
0.0
  0
LINE
  5
51
330
2
100
AcDbEntity
  8
0
 62
     3
100
AcDbLine
 10
142.5461102371999
 20
172.1500091553
 30
0.0
 11
137.4461041336999
 21
172.1500091553
 31
0.0
  0
LINE
  5
52
330
2
100
AcDbEntity
  8
0
 62
     3
100
AcDbLine
 10
142.5461102371999
 20
164.8500061035
 30
0.0
 11
137.4461041336999
 21
164.8500061035
 31
0.0
  0
LINE
  5
53
330
2
100
AcDbEntity
  8
0
 62
     3
100
AcDbLine
 10
142.5461102371999
 20
167.450012207
 30
0.0
 11
139.9461041336999
 21
167.450012207
 31
0.0
  0
LINE
  5
54
330
2
100
AcDbEntity
  8
0
 62
     3
100
AcDbLine
 10
142.5461102371999
 20
169.5500030517
 30
0.0
 11
139.9461041336999
 21
169.5500030517
 31
0.0
  0
LINE
  5
55
330
2
100
AcDbEntity
  8
0
 62
     3
100
AcDbLine
 10
145.1461163406999
 20
162.5
 30
0.0
 11
137.4461041336999
 21
162.5
 31
0.0
  0
LINE
  5
56
330
2
100
AcDbEntity
  8
0
 62
     3
100
AcDbLine
 10
145.1461163406999
 20
174.5000152588
 30
0.0
 11
137.4461041336999
 21
174.5000152588
 31
0.0
  0
LINE
  5
57
330
2
100
AcDbEntity
  8
0
 62
     3
100
AcDbLine
 10
144.1461163406999
 20
161.1977844238
 30
0.0
 11
136.4461041336999
 21
161.1977844238
 31
0.0
  0
LINE
  5
58
330
2
100
AcDbEntity
  8
0
 62
     3
100
AcDbLine
 10
144.1461163406999
 20
159.6500091553
 30
0.0
 11
136.2461224441997
 21
159.6500091553
 31
0.0
  0
LINE
  5
59
330
2
100
AcDbEntity
  8
0
 62
     3
100
AcDbLine
 10
143.6461163406999
 20
162.352935791
 30
0.0
 11
136.9240704422999
 21
162.352935791
 31
0.0
  0
LINE
  5
5A
330
2
100
AcDbEntity
  8
0
 62
     3
100
AcDbLine
 10
143.6461163406999
 20
174.6470794678
 30
0.0
 11
136.9240704422999
 21
174.6470794678
 31
0.0
  0
LINE
  5
5B
330
2
100
AcDbEntity
  8
0
100
AcDbLine
 10
0.0
 20
0.0
 30
0.0
 11
210.0
 21
0.0
 31
0.0
  0
LINE
  5
5C
330
2
100
AcDbEntity
  8
0
  6
CENTER
 62
     3
100
AcDbLine
 10
174.0067883377999
 20
168.5
 30
0.0
 11
85.04611023719998
 21
168.5
 31
0.0
  0
LINE
  5
5D
330
2
100
AcDbEntity
  8
0
  6
CENTER
 62
     3
100
AcDbLine
 10
147.6461163406999
 20
225.9434814452999
 30
0.0
 11
85.04611023719998
 21
225.9434814452999
 31
0.0
  0
LINE
  5
5E
330
2
100
AcDbEntity
  8
0
 62
     3
100
AcDbLine
 10
55.70175131329998
 20
224.5434764338
 30
0.0
 11
54.20174972099996
 21
223.0434748414
 31
0.0
  0
LINE
  5
5F
330
2
100
AcDbEntity
  8
0
 62
     3
100
AcDbLine
 10
55.70175567269996
 20
224.5434740799
 30
0.0
 11
54.54671995019999
 21
224.3657762870999
 31
0.0
  0
LINE
  5
60
330
2
100
AcDbEntity
  8
0
 62
     3
100
AcDbLine
 10
52.40174683389998
 20
227.4434814452999
 30
0.0
 11
58.5017529374
 21
227.4434814452999
 31
0.0
  0
LINE
  5
61
330
2
100
AcDbEntity
  8
0
 62
     3
100
AcDbLine
 10
54.20174988559995
 20
225.0434722899999
 30
0.0
 11
60.5017529374
 21
225.0434722899999
 31
0.0
  0
LINE
  5
62
330
2
100
AcDbEntity
  8
0
  6
CENTER
 62
     3
100
AcDbLine
 10
50.40174683389998
 20
225.9434814452999
 30
0.0
 11
70.60174378209999
 21
225.9434814452999
 31
0.0
  0
LINE
  5
63
330
2
100
AcDbEntity
  8
0
 62
     3
100
AcDbLine
 10
55.70174052369998
 20
218.5434808539
 30
0.0
 11
54.20173893139996
 21
220.0434824461999
 31
0.0
  0
LINE
  5
64
330
2
100
AcDbEntity
  8
0
 62
     3
100
AcDbLine
 10
55.70174574839999
 20
218.5434736563
 30
0.0
 11
54.54671002589997
 21
218.7211714491
 31
0.0
  0
LINE
  5
65
330
2
100
AcDbEntity
  8
0
 62
     3
100
AcDbLine
 10
52.40174683389998
 20
217.8434753417998
 30
0.0
 11
68.60174378209999
 21
217.8434753417998
 31
0.0
  0
LINE
  5
66
330
2
100
AcDbEntity
  8
0
 62
     3
100
AcDbLine
 10
68.70174988559998
 20
217.7434692383
 30
0.0
 11
52.30175598919998
 21
217.7434692383
 31
0.0
  0
LINE
  5
67
330
2
100
AcDbEntity
  8
0
 62
     3
100
AcDbLine
 10
68.95174988559998
 20
216.9934692383
 30
0.0
 11
52.05175598919999
 21
216.9934692383
 31
0.0
  0
CIRCLE
  5
68
330
2
100
AcDbEntity
  8
0
 62
     3
100
AcDbCircle
 10
57.20174988559996
 20
221.5434722899999
 30
0.0
 40
2.75
  0
ARC
  5
69
330
2
100
AcDbEntity
  8
0
 62
     3
100
AcDbCircle
 10
49.20174988559995
 20
221.5434722899999
 30
0.0
 40
5.1999998093
100
AcDbArc
 50
344.0576315526
 51
15.94236844739999
  0
LINE
  5
6A
330
2
100
AcDbEntity
  8
0
 62
     3
100
AcDbLine
 10
54.20174988559995
 20
217.8434753417998
 30
0.0
 11
54.20174988559995
 21
225.0434722899999
 31
0.0
  0
ARC
  5
6B
330
2
100
AcDbEntity
  8
0
 62
     3
100
AcDbCircle
 10
52.05175598919999
 20
217.4934692382999
 30
0.0
 40
0.5
100
AcDbArc
 50
180.0000359722
 51
270.0000179861
  0
ARC
  5
6C
330
2
100
AcDbEntity
  8
0
 62
     3
100
AcDbCircle
 10
54.57711609659998
 20
218.9188537598
 30
0.0
 40
0.1999999881
100
AcDbArc
 50
188.7461751666999
 51
261.2538787916
  0
LINE
  5
6D
330
2
100
AcDbEntity
  8
0
 62
     3
100
AcDbLine
 10
54.37945955499998
 20
218.8884370401999
 30
0.0
 11
54.2017617622
 21
220.0434727626999
 31
0.0
  0
ARC
  5
6E
330
2
100
AcDbEntity
  8
0
 62
     3
100
AcDbCircle
 10
54.57711609659998
 20
224.1681060791
 30
0.0
 40
0.1999999881
100
AcDbArc
 50
98.7461212084
 51
171.2538248333999
  0
LINE
  5
6F
330
2
100
AcDbEntity
  8
0
 62
     3
100
AcDbLine
 10
54.20176485949998
 20
225.0434776095
 30
0.0
 11
53.90176466879997
 21
225.4434774663999
 31
0.0
  0
LINE
  5
70
330
2
100
AcDbEntity
  8
0
 62
     3
100
AcDbLine
 10
54.37944963069998
 20
224.198510696
 30
0.0
 11
54.20175183789999
 21
223.0434749734999
 31
0.0
  0
ARC
  5
71
330
2
100
AcDbEntity
  8
0
 62
     3
100
AcDbCircle
 10
68.95174988559998
 20
217.4934692382999
 30
0.0
 40
0.5
100
AcDbArc
 50
270.0000179861
 51
0.0
  0
ARC
  5
72
330
2
100
AcDbEntity
  8
0
 62
     3
100
AcDbCircle
 10
62.0017529374
 20
226.3434753417998
 30
0.0
 40
0.5
100
AcDbArc
 50
0.0
 51
89.99998201389999
  0
LINE
  5
73
330
2
100
AcDbEntity
  8
0
 62
     3
100
AcDbLine
 10
62.30174792979999
 20
227.3434883321
 30
0.0
 11
61.1467122073
 21
227.5211861248
 31
0.0
  0
LINE
  5
74
330
2
100
AcDbEntity
  8
0
 62
     3
100
AcDbLine
 10
60.5017529374
 20
226.8434753418
 30
0.0
 11
66.80175598919999
 21
226.8434753418
 31
0.0
  0
ARC
  5
75
330
2
100
AcDbEntity
  8
0
 62
     3
100
AcDbCircle
 10
62.0017529374
 20
218.3434753418
 30
0.0
 40
0.5
100
AcDbArc
 50
270.0000179861
 51
0.0
  0
ARC
  5
76
330
2
100
AcDbEntity
  8
0
 62
     3
100
AcDbCircle
 10
59.0017529374
 20
225.5434722899999
 30
0.0
 40
0.5
100
AcDbArc
 50
180.0000359722
 51
270.0000179861
  0
ARC
  5
77
330
2
100
AcDbEntity
  8
0
 62
     3
100
AcDbCircle
 10
57.20174988559996
 20
229.5434722899999
 30
0.0
 40
5.1999998093
100
AcDbArc
 50
254.0576461235998
 51
285.9423898485998
  0
LINE
  5
78
330
2
100
AcDbEntity
  8
0
 62
     3
100
AcDbLine
 10
58.12098307389999
 20
221.897015844
 30
0.0
 11
59.40845126269997
 21
223.1844840327998
 31
0.0
  0
LINE
  5
79
330
2
100
AcDbEntity
  8
0
 62
     3
100
AcDbLine
 10
57.5552955007
 20
222.4627034172
 30
0.0
 11
58.84276368949997
 21
223.750171606
 31
0.0
  0
ARC
  5
7A
330
2
100
AcDbEntity
  8
0
 62
     3
100
AcDbCircle
 10
57.20174988559996
 20
213.5434722899999
 30
0.0
 40
5.1999998093
100
AcDbArc
 50
74.0576101514
 51
105.9423538763998
  0
LINE
  5
7B
330
2
100
AcDbEntity
  8
0
 62
     3
100
AcDbLine
 10
58.12098307389999
 20
221.1899090749
 30
0.0
 11
58.7220173538
 21
220.5888747949
 31
0.0
  0
LINE
  5
7C
330
2
100
AcDbEntity
  8
0
 62
     3
100
AcDbLine
 10
58.15634057019996
 20
220.0231980112999
 30
0.0
 11
58.7220173538
 21
220.5888747949
 31
0.0
  0
ARC
  5
7D
330
2
100
AcDbEntity
  8
0
 62
     3
100
AcDbCircle
 10
55.92895325479998
 20
221.5434875488
 30
0.0
 40
0.5
100
AcDbArc
 50
314.9999987477997
 51
45.00000125220004
  0
ARC
  5
7E
330
2
100
AcDbEntity
  8
0
 62
     3
100
AcDbCircle
 10
58.4745465165
 20
221.5434722899999
 30
0.0
 40
0.5
100
AcDbArc
 50
135.0000003415999
 51
224.9999823555
  0
LINE
  5
7F
330
2
100
AcDbEntity
  8
0
 62
     3
100
AcDbLine
 10
55.56073133239999
 20
219.3367641024999
 30
0.0
 11
56.84819952119998
 21
220.6242322912999
 31
0.0
  0
LINE
  5
80
330
2
100
AcDbEntity
  8
0
 62
     3
100
AcDbLine
 10
54.9950437592
 20
219.9024516757
 30
0.0
 11
56.28251194799997
 21
221.1899198645
 31
0.0
  0
LINE
  5
81
330
2
100
AcDbEntity
  8
0
 62
     3
100
AcDbLine
 10
55.70174988559998
 20
218.5434722899999
 30
0.0
 11
55.77346619419997
 21
218.5434722899999
 31
0.0
  0
LINE
  5
82
330
2
100
AcDbEntity
  8
0
 62
     3
100
AcDbLine
 10
55.20174988559997
 20
217.8434753417998
 30
0.0
 11
55.20174988559997
 21
218.6204071044999
 31
0.0
  0
ARC
  5
83
330
2
100
AcDbEntity
  8
0
 62
     3
100
AcDbCircle
 10
57.20174988559996
 20
220.270690918
 30
0.0
 40
0.5
100
AcDbArc
 50
45.0000012522
 51
135.0000003415999
  0
LINE
  5
84
330
2
100
AcDbEntity
  8
0
 62
     3
100
AcDbLine
 10
57.55530629029997
 20
220.6242322912999
 30
0.0
 11
58.15634057019996
 21
220.0231980112999
 31
0.0
  0
LINE
  5
85
330
2
100
AcDbEntity
  8
0
 62
     3
100
AcDbLine
 10
56.24714366199999
 20
223.0637484867
 30
0.0
 11
56.84818873160001
 21
222.4627034172
 31
0.0
  0
LINE
  5
86
330
2
100
AcDbEntity
  8
0
 62
     3
100
AcDbLine
 10
55.68146687839997
 20
222.4980717031
 30
0.0
 11
56.24714366199999
 21
223.0637484867
 31
0.0
  0
LINE
  5
87
330
2
100
AcDbEntity
  8
0
 62
     3
100
AcDbLine
 10
55.68146687839997
 20
222.4980717031
 30
0.0
 11
56.28251194799997
 21
221.8970266336
 31
0.0
  0
LINE
  5
88
330
2
100
AcDbEntity
  8
0
 62
     3
100
AcDbLine
 10
55.70174988559998
 20
224.5434722899999
 30
0.0
 11
55.77346619419997
 21
224.5434722899999
 31
0.0
  0
LINE
  5
89
330
2
100
AcDbEntity
  8
0
 62
     3
100
AcDbLine
 10
56.10174378209999
 20
225.0434722899999
 30
0.0
 11
56.10174378209999
 21
224.461151123
 31
0.0
  0
LINE
  5
8A
330
2
100
AcDbEntity
  8
0
 62
     3
100
AcDbLine
 10
58.30175598919999
 20
225.0434722899999
 30
0.0
 11
58.30175598919999
 21
224.461151123
 31
0.0
  0
ARC
  5
8B
330
2
100
AcDbEntity
  8
0
 62
     3
100
AcDbCircle
 10
57.20174988559996
 20
222.8162689209
 30
0.0
 40
0.5
100
AcDbArc
 50
224.9999996584
 51
315.0000021628998
  0
ARC
  5
8C
330
2
100
AcDbEntity
  8
0
 62
     3
100
AcDbCircle
 10
65.20174988559998
 20
221.5434722899999
 30
0.0
 40
5.1999998093
100
AcDbArc
 50
164.0575921653
 51
195.9423358903
  0
LINE
  5
8D
330
2
100
AcDbEntity
  8
0
 62
     3
100
AcDbLine
 10
60.5017529374
 20
218.3434753418
 30
0.0
 11
60.5017529374
 21
225.4434814452999
 31
0.0
  0
LINE
  5
8E
330
2
100
AcDbEntity
  8
0
 62
     3
100
AcDbLine
 10
60.20174988559997
 20
220.1151885985999
 30
0.0
 11
60.20174988559997
 21
220.0434722899999
 31
0.0
  0
ARC
  5
8F
330
2
100
AcDbEntity
  8
0
 62
     3
100
AcDbCircle
 10
59.82638367469996
 20
218.9188537598
 30
0.0
 40
0.1999999881
100
AcDbArc
 50
278.7462118221
 51
351.2538403149998
  0
LINE
  5
90
330
2
100
AcDbEntity
  8
0
 62
     3
100
AcDbLine
 10
58.70176307939996
 20
218.5434788522
 30
0.0
 11
59.85679880189997
 21
218.7211766449
 31
0.0
  0
LINE
  5
91
330
2
100
AcDbEntity
  8
0
 62
     3
100
AcDbLine
 10
58.63003357699998
 20
218.5434722899999
 30
0.0
 11
58.70174988559996
 21
218.5434722899999
 31
0.0
  0
LINE
  5
92
330
2
100
AcDbEntity
  8
0
 62
     3
100
AcDbLine
 10
59.20174988559995
 20
217.7434692383
 30
0.0
 11
59.20174988559995
 21
218.6204071044999
 31
0.0
  0
LINE
  5
93
330
2
100
AcDbEntity
  8
0
 62
     3
100
AcDbLine
 10
58.70174370849998
 20
218.5434808539
 30
0.0
 11
60.20174530089997
 21
220.0434824461999
 31
0.0
  0
LINE
  5
94
330
2
100
AcDbEntity
  8
0
 62
     3
100
AcDbLine
 10
60.02404927279997
 20
218.8884318442998
 30
0.0
 11
60.20174706559995
 21
220.0434675668
 31
0.0
  0
ARC
  5
95
330
2
100
AcDbEntity
  8
0
 62
     3
100
AcDbCircle
 10
61.0017529374
 20
218.3434753418
 30
0.0
 40
0.5
100
AcDbArc
 50
180.0000359722
 51
270.0000179861
  0
LINE
  5
96
330
2
100
AcDbEntity
  8
0
 62
     3
100
AcDbLine
 10
60.20174988559997
 20
223.0434722899999
 30
0.0
 11
60.20174988559997
 21
222.9717712401998
 31
0.0
  0
ARC
  5
97
330
2
100
AcDbEntity
  8
0
 62
     3
100
AcDbCircle
 10
59.82638367469996
 20
224.1681060791
 30
0.0
 40
0.1999999881
100
AcDbArc
 50
8.746159685
 51
81.2537881779
  0
LINE
  5
98
330
2
100
AcDbEntity
  8
0
 62
     3
100
AcDbLine
 10
58.70175315509996
 20
224.543468884
 30
0.0
 11
59.85678887759997
 21
224.3657710912
 31
0.0
  0
LINE
  5
99
330
2
100
AcDbEntity
  8
0
 62
     3
100
AcDbLine
 10
58.63003357699998
 20
224.5434722899999
 30
0.0
 11
58.70174988559996
 21
224.5434722899999
 31
0.0
  0
LINE
  5
9A
330
2
100
AcDbEntity
  8
0
 62
     3
100
AcDbLine
 10
58.70174370849998
 20
224.5434872234
 30
0.0
 11
60.20174530089997
 21
223.043485631
 31
0.0
  0
LINE
  5
9B
330
2
100
AcDbEntity
  8
0
 62
     3
100
AcDbLine
 10
60.02405919709997
 20
224.1985158918999
 30
0.0
 11
60.20175931009998
 21
223.0434650879999
 31
0.0
  0
ARC
  5
9C
330
2
100
AcDbEntity
  8
0
 62
     3
100
AcDbCircle
 10
66.35175904089996
 20
216.2934722899999
 30
0.0
 40
0.3000000119
100
AcDbArc
 50
270.0000179861
 51
0.0
  0
ARC
  5
9D
330
2
100
AcDbEntity
  8
0
 62
     3
100
AcDbCircle
 10
63.95174988559997
 20
216.2934722899999
 30
0.0
 40
0.3000000119
100
AcDbArc
 50
180.0000359722
 51
270.0000179861
  0
LINE
  5
9E
330
2
100
AcDbEntity
  8
0
 62
     3
100
AcDbLine
 10
66.35175904089996
 20
215.9934844971
 30
0.0
 11
63.95174988559997
 21
215.9934844971
 31
0.0
  0
LINE
  5
9F
330
2
100
AcDbEntity
  8
0
 62
     3
100
AcDbLine
 10
65.30178050169999
 20
227.3434794871
 30
0.0
 11
66.45681622419999
 21
227.5211772798
 31
0.0
  0
LINE
  5
A0
330
2
100
AcDbEntity
  8
0
 62
     3
100
AcDbLine
 10
62.50175293739999
 20
224.4434814453
 30
0.0
 11
68.60174378209999
 21
224.4434814453
 31
0.0
  0
LINE
  5
A1
330
2
100
AcDbEntity
  8
0
 62
     3
100
AcDbLine
 10
62.50175293739999
 20
218.3434753418
 30
0.0
 11
62.50175293739999
 21
226.3434753417998
 31
0.0
  0
LINE
  5
A2
330
2
100
AcDbEntity
  8
0
 62
     3
100
AcDbLine
 10
63.40174683389998
 20
217.7434692383
 30
0.0
 11
63.40174683389998
 21
217.8434753417998
 31
0.0
  0
LINE
  5
A3
330
2
100
AcDbEntity
  8
0
 62
     3
100
AcDbLine
 10
63.65174683389998
 20
216.9934844971
 30
0.0
 11
63.65174683389998
 21
216.2934722899999
 31
0.0
  0
ARC
  5
A4
330
2
100
AcDbEntity
  8
0
 62
     3
100
AcDbCircle
 10
63.80175598919999
 20
222.3434753417998
 30
0.0
 40
5.1999998093
100
AcDbArc
 50
74.0576101514
 51
105.9423538763998
  0
LINE
  5
A5
330
2
100
AcDbEntity
  8
0
 62
     3
100
AcDbLine
 10
62.30175598919998
 20
227.3434753417998
 30
0.0
 11
62.37347229779999
 21
227.3434753417998
 31
0.0
  0
LINE
  5
A6
330
2
100
AcDbEntity
  8
0
 62
     3
100
AcDbLine
 10
62.70174988559997
 20
226.8434753418
 30
0.0
 11
62.70174988559997
 21
227.4257965087999
 31
0.0
  0
LINE
  5
A7
330
2
100
AcDbEntity
  8
0
 62
     3
100
AcDbLine
 10
65.2300396806
 20
227.3434753417998
 30
0.0
 11
65.30175598919999
 21
227.3434753417998
 31
0.0
  0
LINE
  5
A8
330
2
100
AcDbEntity
  8
0
 62
     3
100
AcDbLine
 10
64.90176209269998
 20
226.8434753418
 30
0.0
 11
64.90176209269998
 21
227.4257965087999
 31
0.0
  0
LINE
  5
A9
330
2
100
AcDbEntity
  8
0
 62
     3
100
AcDbLine
 10
66.65176209269998
 20
216.9934844971
 30
0.0
 11
66.65176209269998
 21
216.2934722899999
 31
0.0
  0
LINE
  5
AA
330
2
100
AcDbEntity
  8
0
 62
     3
100
AcDbLine
 10
66.80175594369997
 20
226.8434857133998
 30
0.0
 11
67.10175452509997
 21
226.4434846346
 31
0.0
  0
LINE
  5
AB
330
2
100
AcDbEntity
  8
0
 62
     3
100
AcDbLine
 10
135.9461041336999
 20
159.5500030516999
 30
0.0
 11
94.346113289
 21
159.5500030516999
 31
0.0
  0
LINE
  5
AC
330
2
100
AcDbEntity
  8
0
 62
     3
100
AcDbLine
 10
135.9461041336999
 20
177.450012207
 30
0.0
 11
94.346113289
 21
177.450012207
 31
0.0
  0
LINE
  5
AD
330
2
100
AcDbEntity
  8
0
 62
     3
100
AcDbLine
 10
135.9461041336999
 20
216.9934692383
 30
0.0
 11
94.346113289
 21
216.9934692383
 31
0.0
  0
LINE
  5
AE
330
2
100
AcDbEntity
  8
0
  6
CENTER
 62
     3
100
AcDbLine
 10
98.6461163407
 20
169.3000030517
 30
0.0
 11
95.14611634069998
 21
169.3000030517
 31
0.0
  0
LINE
  5
AF
330
2
100
AcDbEntity
  8
0
  6
PHANTOM
 62
     3
100
AcDbLine
 10
91.74613770299998
 20
169.2000045776
 30
0.0
 11
99.74610718540001
 21
169.2000045776
 31
0.0
  0
LINE
  5
B0
330
2
100
AcDbEntity
  8
0
  6
PHANTOM
 62
     3
100
AcDbLine
 10
86.24610718539996
 20
177.1000061035
 30
0.0
 11
99.7461148148
 21
177.1000061035
 31
0.0
  0
LINE
  5
B1
330
2
100
AcDbEntity
  8
0
 62
     3
100
AcDbLine
 10
88.04611023719997
 20
170.5
 30
0.0
 11
94.09611328899996
 21
170.5
 31
0.0
  0
LINE
  5
B2
330
2
100
AcDbEntity
  8
0
 62
     3
100
AcDbLine
 10
88.04611023719997
 20
166.5
 30
0.0
 11
91.56788452919998
 21
166.5
 31
0.0
  0
LINE
  5
B3
330
2
100
AcDbEntity
  8
0
  6
PHANTOM
 62
     3
100
AcDbLine
 10
88.74613049169999
 20
166.1999836688
 30
0.0
 11
91.74615525570001
 21
169.2000084326999
 31
0.0
  0
LINE
  5
B4
330
2
100
AcDbEntity
  8
0
  6
PHANTOM
 62
     3
100
AcDbLine
 10
89.04615601359997
 20
166.5000152588
 30
0.0
 11
91.56787819489997
 21
166.5000152588
 31
0.0
  0
LINE
  5
B5
330
2
100
AcDbEntity
  8
0
  6
PHANTOM
 62
     3
100
AcDbLine
 10
88.74610718539996
 20
165.3000183105
 30
0.0
 11
91.44681854309999
 21
165.3000183105
 31
0.0
  0
LINE
  5
B6
330
2
100
AcDbEntity
  8
0
  6
PHANTOM
 62
     3
100
AcDbLine
 10
93.04611023719996
 20
162.3000030516999
 30
0.0
 11
88.74610718539996
 21
162.3000030516999
 31
0.0
  0
LINE
  5
B7
330
2
100
AcDbEntity
  8
0
  6
PHANTOM
 62
     3
100
AcDbLine
 10
86.94611176309997
 20
171.7000274658
 30
0.0
 11
93.84611328899998
 21
171.7000274658
 31
0.0
  0
LINE
  5
B8
330
2
100
AcDbEntity
  8
0
 62
     3
100
AcDbLine
 10
88.04611023719997
 20
168.5
 30
0.0
 11
94.346113289
 21
168.5
 31
0.0
  0
LINE
  5
B9
330
2
100
AcDbEntity
  8
0
  6
PHANTOM
 62
     3
100
AcDbLine
 10
86.24610718539996
 20
159.9000091552999
 30
0.0
 11
94.346113289
 21
159.9000091552999
 31
0.0
  0
LINE
  5
BA
330
2
100
AcDbEntity
  8
0
  6
PHANTOM
 62
     3
100
AcDbLine
 10
97.64611942199998
 20
174.7000189134999
 30
0.0
 11
85.74611819709998
 21
174.8000249735
 31
0.0
  0
LINE
  5
BB
330
2
100
AcDbEntity
  8
0
  6
PHANTOM
 62
     3
100
AcDbLine
 10
97.6461228406
 20
171.6000141874
 30
0.0
 11
85.7461216157
 21
171.5000234222
 31
0.0
  0
ARC
  5
BC
330
2
100
AcDbEntity
  8
0
 62
     3
100
AcDbCircle
 10
88.04611023719997
 20
169.5
 30
0.0
 40
1.0
100
AcDbArc
 50
89.99998201389999
 51
270.0000006831999
  0
LINE
  5
BD
330
2
100
AcDbEntity
  8
0
  6
PHANTOM
 62
     3
100
AcDbLine
 10
85.74610718539998
 20
160.4000091552999
 30
0.0
 11
85.74610718539998
 21
176.6000061035
 31
0.0
  0
ARC
  5
BE
330
2
100
AcDbEntity
  8
0
 62
     3
100
AcDbCircle
 10
88.04611023719997
 20
167.5
 30
0.0
 40
1.0
100
AcDbArc
 50
89.99998201389999
 51
270.0000006831999
  0
ARC
  5
BF
330
2
100
AcDbEntity
  8
0
  6
PHANTOM
 62
     3
100
AcDbCircle
 10
86.24610718539996
 20
160.4000091552999
 30
0.0
 40
0.5
100
AcDbArc
 50
179.9999820138999
 51
269.9999640277999
  0
LINE
  5
C0
330
2
100
AcDbEntity
  8
0
  6
PHANTOM
 62
     3
100
AcDbLine
 10
88.74610718539996
 20
159.9000091552999
 30
0.0
 11
88.74610718539996
 21
166.1999816894
 31
0.0
  0
LINE
  5
C1
330
2
100
AcDbEntity
  8
0
  6
PHANTOM
 62
     3
100
AcDbLine
 10
86.94611176309997
 20
171.5097732543999
 30
0.0
 11
86.94611176309997
 21
174.7902603149
 31
0.0
  0
ARC
  5
C2
330
2
100
AcDbEntity
  8
0
  6
PHANTOM
 62
     3
100
AcDbCircle
 10
86.24610718539996
 20
176.6000061035
 30
0.0
 40
0.5
100
AcDbArc
 50
90.0
 51
179.9999820138999
  0
LINE
  5
C3
330
2
100
AcDbEntity
  8
0
  6
PHANTOM
 62
     3
100
AcDbLine
 10
88.74610718539996
 20
171.7000274658
 30
0.0
 11
88.74610718539996
 21
174.7756195068
 31
0.0
  0
LINE
  5
C4
330
2
100
AcDbEntity
  8
0
 62
     3
100
AcDbLine
 10
96.846113289
 20
167.1999969482
 30
0.0
 11
96.846113289
 21
171.3999938965
 31
0.0
  0
LINE
  5
C5
330
2
100
AcDbEntity
  8
0
 62
     3
100
AcDbLine
 10
97.34611328900001
 20
167.1999969482
 30
0.0
 11
97.34611328900001
 21
171.3999938965
 31
0.0
  0
LINE
  5
C6
330
2
100
AcDbEntity
  8
0
 62
     3
100
AcDbLine
 10
97.6461163407
 20
174.6500091553
 30
0.0
 11
97.6461163407
 21
166.9499969482
 31
0.0
  0
LINE
  5
C7
330
2
100
AcDbEntity
  8
0
 62
     3
100
AcDbLine
 10
96.1461163407
 20
174.6500091553
 30
0.0
 11
96.1461163407
 21
166.9499969482
 31
0.0
  0
LINE
  5
C8
330
2
100
AcDbEntity
  8
0
 62
     3
100
AcDbLine
 10
94.346113289
 20
177.450012207
 30
0.0
 11
94.346113289
 21
159.5500030516999
 31
0.0
  0
LINE
  5
C9
330
2
100
AcDbEntity
  8
0
 62
     3
100
AcDbLine
 10
94.09611328899996
 20
169.5
 30
0.0
 11
94.346113289
 21
169.5
 31
0.0
  0
LINE
  5
CA
330
2
100
AcDbEntity
  8
0
 62
     3
100
AcDbLine
 10
94.09611328899996
 20
161.5
 30
0.0
 11
94.346113289
 21
161.5
 31
0.0
  0
LINE
  5
CB
330
2
100
AcDbEntity
  8
0
 62
     3
100
AcDbLine
 10
93.5461102372
 20
160.3999938965
 30
0.0
 11
94.346113289
 21
160.3999938965
 31
0.0
  0
LINE
  5
CC
330
2
100
AcDbEntity
  8
0
 62
     3
100
AcDbLine
 10
93.44610413369995
 20
162.200012207
 30
0.0
 11
94.346113289
 21
162.200012207
 31
0.0
  0
LINE
  5
CD
330
2
100
AcDbEntity
  8
0
 62
     3
100
AcDbLine
 10
93.44610413369995
 20
168.200012207
 30
0.0
 11
94.346113289
 21
168.200012207
 31
0.0
  0
LINE
  5
CE
330
2
100
AcDbEntity
  8
0
 62
     3
100
AcDbLine
 10
93.94610413369994
 20
164.2000122069999
 30
0.0
 11
93.94610413369994
 21
166.200012207
 31
0.0
  0
ARC
  5
CF
330
2
100
AcDbEntity
  8
0
 62
     3
100
AcDbCircle
 10
98.44610413369998
 20
165.2000122069999
 30
0.0
 40
7.0
100
AcDbArc
 50
164.4057132469999
 51
195.5942694502
  0
LINE
  5
D0
330
2
100
AcDbEntity
  8
0
 62
     3
100
AcDbLine
 10
93.44610413369995
 20
162.200012207
 30
0.0
 11
93.44610413369995
 21
168.200012207
 31
0.0
  0
ARC
  5
D1
330
2
100
AcDbEntity
  8
0
 62
     3
100
AcDbCircle
 10
92.76327332309998
 20
163.6139526366999
 30
0.0
 40
1.0999994278
100
AcDbArc
 50
195.594286753
 51
265.0000463061
  0
LINE
  5
D2
330
2
100
AcDbEntity
  8
0
 62
     3
100
AcDbLine
 10
93.44610413369995
 20
164.2000122069999
 30
0.0
 11
93.94610413369994
 21
164.2000122069999
 31
0.0
  0
ARC
  5
D3
330
2
100
AcDbEntity
  8
0
 62
     3
100
AcDbCircle
 10
93.5461102372
 20
161.6999969482
 30
0.0
 40
0.5
100
AcDbArc
 50
89.99998201389999
 51
179.9999640277999
  0
ARC
  5
D4
330
2
100
AcDbEntity
  8
0
 62
     3
100
AcDbCircle
 10
93.5461102372
 20
160.8999938964999
 30
0.0
 40
0.5
100
AcDbArc
 50
180.0000359722
 51
270.0000179861
  0
ARC
  5
D5
330
2
100
AcDbEntity
  8
0
 62
     3
100
AcDbCircle
 10
93.74610718539996
 20
162.5124206543
 30
0.0
 40
0.1999999881
100
AcDbArc
 50
288.6601494400998
 51
23.57428522220001
  0
LINE
  5
D6
330
2
100
AcDbEntity
  8
0
 62
     3
100
AcDbLine
 10
94.09611328899996
 20
161.5
 30
0.0
 11
94.09611328899996
 21
162.1999969482
 31
0.0
  0
LINE
  5
D7
330
2
100
AcDbEntity
  8
0
 62
     3
100
AcDbLine
 10
93.5461102372
 20
162.1999969482
 30
0.0
 11
94.09611328899996
 21
162.1999969482
 31
0.0
  0
LINE
  5
D8
330
2
100
AcDbEntity
  8
0
 62
     3
100
AcDbLine
 10
93.04611023719996
 20
160.8999938964999
 30
0.0
 11
93.04611023719996
 21
162.4849853515
 31
0.0
  0
LINE
  5
D9
330
2
100
AcDbEntity
  8
0
 62
     3
100
AcDbLine
 10
93.44611266139995
 20
162.2000054222
 30
0.0
 11
93.8101030246
 21
162.3229271027
 31
0.0
  0
LINE
  5
DA
330
2
100
AcDbEntity
  8
0
 62
     3
100
AcDbLine
 10
93.44610422919997
 20
163.7000123868
 30
0.0
 11
93.92941523140001
 21
162.5924025782999
 31
0.0
  0
LINE
  5
DB
330
2
100
AcDbEntity
  8
0
 62
     3
100
AcDbLine
 10
93.18526410929996
 20
162.4728150154
 30
0.0
 11
93.44610861369998
 21
163.6999920777
 31
0.0
  0
LINE
  5
DC
330
2
100
AcDbEntity
  8
0
 62
     3
100
AcDbLine
 10
92.6673922217
 20
162.5181184101
 30
0.0
 11
93.18523532379998
 21
162.4728130326
 31
0.0
  0
ARC
  5
DD
330
2
100
AcDbEntity
  8
0
 62
     3
100
AcDbCircle
 10
92.76327332309998
 20
166.7860717773
 30
0.0
 40
1.0999994278
100
AcDbArc
 50
94.99995369389999
 51
164.4057132469999
  0
ARC
  5
DE
330
2
100
AcDbEntity
  8
0
 62
     3
100
AcDbCircle
 10
93.74610718539996
 20
167.8876037598
 30
0.0
 40
0.1999999881
100
AcDbArc
 50
336.4257147778
 51
71.3398505599
  0
LINE
  5
DF
330
2
100
AcDbEntity
  8
0
 62
     3
100
AcDbLine
 10
94.09611328899996
 20
168.5
 30
0.0
 11
94.09611328899996
 21
169.5
 31
0.0
  0
LINE
  5
E0
330
2
100
AcDbEntity
  8
0
 62
     3
100
AcDbLine
 10
93.4461099666
 20
168.2000064584999
 30
0.0
 11
93.81010032989999
 21
168.0770847778999
 31
0.0
  0
LINE
  5
E1
330
2
100
AcDbEntity
  8
0
 62
     3
100
AcDbLine
 10
93.44610727370001
 20
166.7000026366999
 30
0.0
 11
93.92941217329999
 21
167.8075984599
 31
0.0
  0
LINE
  5
E2
330
2
100
AcDbEntity
  8
0
 62
     3
100
AcDbLine
 10
93.185254181
 20
167.9271701341999
 30
0.0
 11
93.4460986854
 21
166.6999930719
 31
0.0
  0
LINE
  5
E3
330
2
100
AcDbEntity
  8
0
 62
     3
100
AcDbLine
 10
92.66741513669998
 20
167.8818808317
 30
0.0
 11
93.18525823870002
 21
167.9271862091999
 31
0.0
  0
LINE
  5
E4
330
2
100
AcDbEntity
  8
0
 62
     3
100
AcDbLine
 10
93.44610413369995
 20
166.200012207
 30
0.0
 11
93.94610413369994
 21
166.200012207
 31
0.0
  0
LINE
  5
E5
330
2
100
AcDbEntity
  8
0
 62
     3
100
AcDbLine
 10
96.1461163407
 20
167.1999969482
 30
0.0
 11
97.6461163407
 21
167.1999969482
 31
0.0
  0
LINE
  5
E6
330
2
100
AcDbEntity
  8
0
 62
     3
100
AcDbLine
 10
97.6461163407
 20
166.9499969482
 30
0.0
 11
96.1461163407
 21
166.9499969482
 31
0.0
  0
LINE
  5
E7
330
2
100
AcDbEntity
  8
0
 62
     3
100
AcDbLine
 10
93.5461102372
 20
176.5999908447
 30
0.0
 11
94.346113289
 21
176.5999908447
 31
0.0
  0
LINE
  5
E8
330
2
100
AcDbEntity
  8
0
 62
     3
100
AcDbLine
 10
93.04611023719996
 20
170.5
 30
0.0
 11
93.04611023719996
 21
176.0999908447
 31
0.0
  0
LINE
  5
E9
330
2
100
AcDbEntity
  8
0
 62
     3
100
AcDbLine
 10
94.09611328899996
 20
170.5
 30
0.0
 11
94.09611328899996
 21
176.5999908447
 31
0.0
  0
ARC
  5
EA
330
2
100
AcDbEntity
  8
0
 62
     3
100
AcDbCircle
 10
92.76327332309998
 20
173.3860626221
 30
0.0
 40
1.0999994278
100
AcDbArc
 50
94.99995369389999
 51
164.4057132469999
  0
ARC
  5
EB
330
2
100
AcDbEntity
  8
0
 62
     3
100
AcDbCircle
 10
98.44610413369998
 20
171.8000030517
 30
0.0
 40
7.0
100
AcDbArc
 50
164.4057132469999
 51
190.7027611742
  0
LINE
  5
EC
330
2
100
AcDbEntity
  8
0
 62
     3
100
AcDbLine
 10
92.66741425099999
 20
174.4818706812
 30
0.0
 11
93.04612511610001
 21
174.5150035716
 31
0.0
  0
ARC
  5
ED
330
2
100
AcDbEntity
  8
0
  6
PHANTOM
 62
     3
100
AcDbCircle
 10
93.84611328899998
 20
171.1000289917
 30
0.0
 40
0.5999999046
100
AcDbArc
 50
51.39447990529999
 51
90.0
  0
ARC
  5
EE
330
2
100
AcDbEntity
  8
0
 62
     3
100
AcDbCircle
 10
93.5461102372
 20
176.0999908447
 30
0.0
 40
0.5
100
AcDbArc
 50
89.99998201389999
 51
179.9999640277999
  0
LINE
  5
EF
330
2
100
AcDbEntity
  8
0
 62
     3
100
AcDbLine
 10
96.1461163407
 20
171.3999938965
 30
0.0
 11
97.6461163407
 21
171.3999938965
 31
0.0
  0
LINE
  5
F0
330
2
100
AcDbEntity
  8
0
 62
     3
100
AcDbLine
 10
97.6461163407
 20
174.6500091553
 30
0.0
 11
96.1461163407
 21
174.6500091553
 31
0.0
  0
LINE
  5
F1
330
2
100
AcDbEntity
  8
0
 62
     3
100
AcDbLine
 10
97.6461163407
 20
171.6499938965
 30
0.0
 11
96.1461163407
 21
171.6499938965
 31
0.0
  0
LINE
  5
F2
330
2
100
AcDbEntity
  8
0
 62
     3
100
AcDbLine
 10
97.14611634069999
 20
174.6500091553
 30
0.0
 11
97.14611634069999
 21
171.6499938965
 31
0.0
  0
LINE
  5
F3
330
2
100
AcDbEntity
  8
0
  6
PHANTOM
 62
     3
100
AcDbLine
 10
97.6461163407
 20
171.6000061034999
 30
0.0
 11
97.6461163407
 21
174.7000045775999
 31
0.0
  0
LINE
  5
F4
330
2
100
AcDbEntity
  8
0
 62
     3
100
AcDbLine
 10
111.6461163406998
 20
176.5
 30
0.0
 11
98.6461163407
 21
176.5
 31
0.0
  0
LINE
  5
F5
330
2
100
AcDbEntity
  8
0
 62
     3
100
AcDbLine
 10
111.6461163406998
 20
160.4999999999999
 30
0.0
 11
98.6461163407
 21
160.4999999999999
 31
0.0
  0
LINE
  5
F6
330
2
100
AcDbEntity
  8
0
 62
     3
100
AcDbLine
 10
98.6461163407
 20
176.5
 30
0.0
 11
98.6461163407
 21
160.4999999999999
 31
0.0
  0
LINE
  5
F7
330
2
100
AcDbEntity
  8
0
  6
PHANTOM
 62
     3
100
AcDbLine
 10
100.0461102371998
 20
169.5000076294
 30
0.0
 11
100.0461102371998
 21
176.8000106811
 31
0.0
  0
ARC
  5
F8
330
2
100
AcDbEntity
  8
0
  6
PHANTOM
 62
     3
100
AcDbCircle
 10
99.7461148148
 20
169.5000076294
 30
0.0
 40
0.2999999821
100
AcDbArc
 50
269.9999640277999
 51
0.0000006831999766
  0
ARC
  5
F9
330
2
100
AcDbEntity
  8
0
  6
PHANTOM
 62
     3
100
AcDbCircle
 10
99.7461148148
 20
176.8000106811
 30
0.0
 40
0.2999999821
100
AcDbArc
 50
0.000017986089343
 51
90.0
  0
LINE
  5
FA
330
2
100
AcDbEntity
  8
0
 62
     3
100
AcDbLine
 10
111.6461163406998
 20
176.5
 30
0.0
 11
111.6461163406998
 21
160.4999999999999
 31
0.0
  0
LINE
  5
FB
330
2
100
AcDbEntity
  8
0
  6
PHANTOM
 62
     3
100
AcDbLine
 10
100.0461102371998
 20
215.8356242540999
 30
0.0
 11
86.24610718539996
 21
215.8356242540999
 31
0.0
  0
LINE
  5
FC
330
2
100
AcDbEntity
  8
0
  6
PHANTOM
 62
     3
100
AcDbLine
 10
99.54046772700001
 20
217.0423061216
 30
0.0
 11
88.74612797349998
 21
217.1628971972999
 31
0.0
  0
LINE
  5
FD
330
2
100
AcDbEntity
  8
0
 62
     3
100
AcDbLine
 10
87.50460824499999
 20
226.3816894756
 30
0.0
 11
93.04612997399999
 21
226.8434829806
 31
0.0
  0
LINE
  5
FE
330
2
100
AcDbEntity
  8
0
  6
PHANTOM
 62
     3
100
AcDbLine
 10
94.1541320329
 20
223.7496774391999
 30
0.0
 11
88.74610718539996
 21
223.8938890763999
 31
0.0
  0
LINE
  5
FF
330
2
100
AcDbEntity
  8
0
 62
     3
100
AcDbLine
 10
93.04612019589994
 20
217.8434812371999
 30
0.0
 11
87.50459846700001
 21
218.3052747422
 31
0.0
  0
LINE
  5
100
330
2
100
AcDbEntity
  8
0
  6
PHANTOM
 62
     3
100
AcDbLine
 10
88.74610718539996
 20
218.9898917423
 30
0.0
 11
94.15415290839998
 21
219.1341094379999
 31
0.0
  0
ARC
  5
101
330
2
100
AcDbEntity
  8
0
  6
PHANTOM
 62
     3
100
AcDbCircle
 10
86.24610718539996
 20
216.3356242541
 30
0.0
 40
0.5
100
AcDbArc
 50
180.0000359722
 51
270.0000179861
  0
ARC
  5
102
330
2
100
AcDbEntity
  8
0
 62
     3
100
AcDbCircle
 10
87.5461102372
 20
225.8834075928
 30
0.0
 40
0.5
100
AcDbArc
 50
94.76362914860001
 51
179.9999640277999
  0
ARC
  5
103
330
2
100
AcDbEntity
  8
0
 62
     3
100
AcDbCircle
 10
87.5461102372
 20
218.8035430908
 30
0.0
 40
0.5
100
AcDbArc
 50
180.0000359722
 51
265.2363708514
  0
LINE
  5
104
330
2
100
AcDbEntity
  8
0
  6
PHANTOM
 62
     3
100
AcDbLine
 10
89.4461193925
 20
226.9419093493
 30
0.0
 11
88.74610718539996
 21
226.9419093493
 31
0.0
  0
LINE
  5
105
330
2
100
AcDbEntity
  8
0
  6
PHANTOM
 62
     3
100
AcDbLine
 10
88.74610718539996
 20
224.9419017199
 30
0.0
 11
89.4461193925
 21
224.9419017199
 31
0.0
  0
LINE
  5
106
330
2
100
AcDbEntity
  8
0
  6
PHANTOM
 62
     3
100
AcDbLine
 10
89.7461148148
 20
223.8672404651
 30
0.0
 11
89.7461148148
 21
224.6418986682
 31
0.0
  0
ARC
  5
107
330
2
100
AcDbEntity
  8
0
  6
PHANTOM
 62
     3
100
AcDbCircle
 10
89.4461193925
 20
224.6418986682
 30
0.0
 40
0.2999999821
100
AcDbArc
 50
0.0
 51
89.99998201389999
  0
ARC
  5
108
330
2
100
AcDbEntity
  8
0
  6
PHANTOM
 62
     3
100
AcDbCircle
 10
89.4461193925
 20
227.2419047717
 30
0.0
 40
0.2999999821
100
AcDbArc
 50
270.0000179861
 51
0.0
  0
LINE
  5
109
330
2
100
AcDbEntity
  8
0
 62
     3
100
AcDbLine
 10
96.14612000770001
 20
216.9934694977998
 30
0.0
 11
97.1461210692
 21
215.9934684361999
 31
0.0
  0
LINE
  5
10A
330
2
100
AcDbEntity
  8
0
 62
     3
100
AcDbLine
 10
97.6461163407
 20
216.9934692383
 30
0.0
 11
97.6461163407
 21
215.9934692383
 31
0.0
  0
LINE
  5
10B
330
2
100
AcDbEntity
  8
0
  6
PHANTOM
 62
     3
100
AcDbLine
 10
97.6461163407
 20
217.0634761217999
 30
0.0
 11
97.6461163407
 21
215.8356242540999
 31
0.0
  0
LINE
  5
10C
330
2
100
AcDbEntity
  8
0
 62
     3
100
AcDbLine
 10
97.6461163407
 20
215.9934692383
 30
0.0
 11
97.14611634069999
 21
215.9934692383
 31
0.0
  0
ARC
  5
10D
330
2
100
AcDbEntity
  8
0
  6
PHANTOM
 62
     3
100
AcDbCircle
 10
94.14612397009998
 20
223.4498134020999
 30
0.0
 40
0.2999999821
100
AcDbArc
 50
0.00042174865241
 51
88.47247850790001
  0
LINE
  5
10E
330
2
100
AcDbEntity
  8
0
 62
     3
100
AcDbLine
 10
93.04611023719996
 20
217.8434753417998
 30
0.0
 11
94.346113289
 21
217.8434753417998
 31
0.0
  0
ARC
  5
10F
330
2
100
AcDbEntity
  8
0
  6
PHANTOM
 62
     3
100
AcDbCircle
 10
94.14612397009998
 20
219.4340281848
 30
0.0
 40
0.2999999821
100
AcDbArc
 50
271.5276307750999
 51
0.00122297069999
  0
LINE
  5
110
330
2
100
AcDbEntity
  8
0
 62
     3
100
AcDbLine
 10
94.09611328899996
 20
217.8434753417998
 30
0.0
 11
94.09611328899996
 21
224.4434814453
 31
0.0
  0
ARC
  5
111
330
2
100
AcDbEntity
  8
0
 62
     3
100
AcDbCircle
 10
93.5461102372
 20
224.9434814452999
 30
0.0
 40
0.5
100
AcDbArc
 50
180.0000359722
 51
270.0000179861
  0
LINE
  5
112
330
2
100
AcDbEntity
  8
0
 62
     3
100
AcDbLine
 10
93.5461102372
 20
224.4434814453
 30
0.0
 11
94.09611328899996
 21
224.4434814453
 31
0.0
  0
LINE
  5
113
330
2
100
AcDbEntity
  8
0
  6
PHANTOM
 62
     3
100
AcDbLine
 10
94.4461193925
 20
223.4498134020999
 30
0.0
 11
94.4461193925
 21
219.4340281848
 31
0.0
  0
LINE
  5
114
330
2
100
AcDbEntity
  8
0
  6
PHANTOM
 62
     3
100
AcDbLine
 10
100.0461102371998
 20
216.5366587999999
 30
0.0
 11
100.0461102371998
 21
215.8356242540999
 31
0.0
  0
LINE
  5
115
330
2
100
AcDbEntity
  8
0
  6
PHANTOM
 62
     3
100
AcDbLine
 10
100.0461164033999
 20
216.5366488376999
 30
0.0
 11
99.54046191280001
 21
217.0423029446999
 31
0.0
  0
LINE
  5
116
330
2
100
AcDbEntity
  8
0
 62
     3
100
AcDbLine
 10
131.4461041336999
 20
172.5
 30
0.0
 11
131.4461041336999
 21
164.5
 31
0.0
  0
LINE
  5
117
330
2
100
AcDbEntity
  8
0
 62
     3
100
AcDbLine
 10
127.9461041336999
 20
172.5
 30
0.0
 11
127.9461041336999
 21
164.5
 31
0.0
  0
LINE
  5
118
330
2
100
AcDbEntity
  8
0
 62
     3
100
AcDbLine
 10
131.4461041336999
 20
164.5
 30
0.0
 11
127.9461041336999
 21
164.5
 31
0.0
  0
LINE
  5
119
330
2
100
AcDbEntity
  8
0
 62
     3
100
AcDbLine
 10
131.4461041336999
 20
172.5
 30
0.0
 11
127.9461041336999
 21
172.5
 31
0.0
  0
ARC
  5
11A
330
2
100
AcDbEntity
  8
0
 62
     3
100
AcDbCircle
 10
138.4461041336999
 20
170.0
 30
0.0
 40
0.5
100
AcDbArc
 50
0.0
 51
89.99998201389999
  0
LINE
  5
11B
330
2
100
AcDbEntity
  8
0
 62
     3
100
AcDbLine
 10
136.4461041336999
 20
176.950012207
 30
0.0
 11
136.4461041336999
 21
160.0500030517
 31
0.0
  0
ARC
  5
11C
330
2
100
AcDbEntity
  8
0
 62
     3
100
AcDbCircle
 10
137.4461041336999
 20
165.8500061035
 30
0.0
 40
1.0
100
AcDbArc
 50
179.9999640277999
 51
270.0000006831999
  0
ARC
  5
11D
330
2
100
AcDbEntity
  8
0
 62
     3
100
AcDbCircle
 10
137.4461041336999
 20
161.5
 30
0.0
 40
1.0
100
AcDbArc
 50
89.99998201389999
 51
179.9999640277999
  0
LINE
  5
11E
330
2
100
AcDbEntity
  8
0
 62
     3
100
AcDbLine
 10
138.4461041336999
 20
166.5
 30
0.0
 11
136.4461041336999
 21
166.5
 31
0.0
  0
ARC
  5
11F
330
2
100
AcDbEntity
  8
0
 62
     3
100
AcDbCircle
 10
135.9461041336999
 20
160.0500030517
 30
0.0
 40
0.5
100
AcDbArc
 50
270.0000179861
 51
0.0
  0
ARC
  5
120
330
2
100
AcDbEntity
  8
0
 62
     3
100
AcDbCircle
 10
138.4461041336999
 20
167.0
 30
0.0
 40
0.5
100
AcDbArc
 50
270.0000179861
 51
0.0
  0
LINE
  5
121
330
2
100
AcDbEntity
  8
0
 62
     3
100
AcDbLine
 10
138.9461041336999
 20
170.0
 30
0.0
 11
138.9461041336999
 21
167.0
 31
0.0
  0
LINE
  5
122
330
2
100
AcDbEntity
  8
0
 62
     3
100
AcDbLine
 10
139.9461041336999
 20
169.5500030517
 30
0.0
 11
139.9461041336999
 21
167.450012207
 31
0.0
  0
ARC
  5
123
330
2
100
AcDbEntity
  8
0
 62
     3
100
AcDbCircle
 10
137.4461041336999
 20
171.1500091553
 30
0.0
 40
1.0
100
AcDbArc
 50
89.99998201389999
 51
179.9999640277999
  0
ARC
  5
124
330
2
100
AcDbEntity
  8
0
 62
     3
100
AcDbCircle
 10
137.4461041336999
 20
175.5000152588
 30
0.0
 40
1.0
100
AcDbArc
 50
179.9999640277999
 51
270.0000006831999
  0
LINE
  5
125
330
2
100
AcDbEntity
  8
0
 62
     3
100
AcDbLine
 10
138.4461041336999
 20
170.5
 30
0.0
 11
136.4461041336999
 21
170.5
 31
0.0
  0
ARC
  5
126
330
2
100
AcDbEntity
  8
0
 62
     3
100
AcDbCircle
 10
135.9461041336999
 20
176.950012207
 30
0.0
 40
0.5
100
AcDbArc
 50
0.0
 51
89.99998201389999
  0
ARC
  5
127
330
2
100
AcDbEntity
  8
0
 62
     3
100
AcDbCircle
 10
135.9461041336999
 20
217.4934692382999
 30
0.0
 40
0.5
100
AcDbArc
 50
270.0000179861
 51
0.0
  0
TEXT
  5
128
330
2
100
AcDbEntity
  8
0
 62
     5
100
AcDbText
 10
145.0
 20
10.0
 30
0.0
 40
5.0
  1
ＭＡ４－Ｓ００５７７Ｂ
 41
0.8443967743953098
 72
     5
 11
199.0413935612998
 21
10.0
 31
0.0
100
AcDbText
  0
LINE
  5
129
330
2
100
AcDbEntity
  8
0
 62
     3
100
AcDbLine
 10
171.1961041336999
 20
225.0434722899999
 30
0.0
 11
166.9961224441999
 21
225.0434722899999
 31
0.0
  0
LINE
  5
12A
330
2
100
AcDbEntity
  8
0
 62
     3
100
AcDbLine
 10
170.5961285477999
 20
225.6434783935
 30
0.0
 11
167.5961285477999
 21
225.6434783935
 31
0.0
  0
LINE
  5
12B
330
2
100
AcDbEntity
  8
0
 62
     3
100
AcDbLine
 10
171.1961041336999
 20
226.8434753418
 30
0.0
 11
166.9961224441999
 21
226.8434753418
 31
0.0
  0
LINE
  5
12C
330
2
100
AcDbEntity
  8
0
 62
     3
100
AcDbLine
 10
170.5961285477999
 20
226.2434844971
 30
0.0
 11
167.5961285477999
 21
226.2434844971
 31
0.0
  0
LINE
  5
12D
330
2
100
AcDbEntity
  8
0
  6
CENTER
 62
     3
100
AcDbLine
 10
162.4961224441999
 20
225.9434814452999
 30
0.0
 11
182.6961193924999
 21
225.9434814452999
 31
0.0
  0
LINE
  5
12E
330
2
100
AcDbEntity
  8
0
 62
     3
100
AcDbLine
 10
166.5961285477998
 20
219.5934753418
 30
0.0
 11
178.5961285477999
 21
219.5934753418
 31
0.0
  0
LINE
  5
12F
330
2
100
AcDbEntity
  8
0
 62
     3
100
AcDbLine
 10
166.5961285477998
 20
217.6434783935
 30
0.0
 11
178.5961285477999
 21
217.6434783935
 31
0.0
  0
LINE
  5
130
330
2
100
AcDbEntity
  8
0
 62
     3
100
AcDbLine
 10
166.5961285477998
 20
218.4934844971
 30
0.0
 11
178.5961285477999
 21
218.4934844971
 31
0.0
  0
ARC
  5
131
330
2
100
AcDbEntity
  8
0
  6
PHANTOM
 62
     3
100
AcDbCircle
 10
163.7461071853999
 20
168.5
 30
0.0
 40
7.800003051799999
100
AcDbArc
 50
269.2655267634999
 51
90.73447323650009
  0
LINE
  5
132
330
2
100
AcDbEntity
  8
0
 62
     3
100
AcDbLine
 10
164.1461163406999
 20
216.9934844971
 30
0.0
 11
181.0461102372
 21
216.9934844971
 31
0.0
  0
LINE
  5
133
330
2
100
AcDbEntity
  8
0
  6
PHANTOM
 62
     3
100
AcDbLine
 10
154.0461560135998
 20
176.9132232666
 30
0.0
 11
157.0461407547998
 21
176.9132232666
 31
0.0
  0
LINE
  5
134
330
2
100
AcDbEntity
  8
0
  6
PHANTOM
 62
     3
100
AcDbLine
 10
154.0461560135998
 20
176.4900970459
 30
0.0
 11
157.0461407547998
 21
176.4900970459
 31
0.0
  0
LINE
  5
135
330
2
100
AcDbEntity
  8
0
  6
PHANTOM
 62
     3
100
AcDbLine
 10
154.0461560135998
 20
175.8901062011999
 30
0.0
 11
157.0461407547998
 21
175.8901062011999
 31
0.0
  0
LINE
  5
136
330
2
100
AcDbEntity
  8
0
  6
PHANTOM
 62
     3
100
AcDbLine
 10
153.2461682205999
 20
177.4000091553
 30
0.0
 11
157.0461407547998
 21
177.4000091553
 31
0.0
  0
LINE
  5
137
330
2
100
AcDbEntity
  8
0
  6
PHANTOM
 62
     3
100
AcDbLine
 10
157.0461407547998
 20
164.5797424315999
 30
0.0
 11
154.0461560135998
 21
164.5797424315999
 31
0.0
  0
LINE
  5
138
330
2
100
AcDbEntity
  8
0
  6
PHANTOM
 62
     3
100
AcDbLine
 10
157.0461407547998
 20
165.6221923828
 30
0.0
 11
154.0461560135998
 21
165.6221923828
 31
0.0
  0
LINE
  5
139
330
2
100
AcDbEntity
  8
0
  6
PHANTOM
 62
     3
100
AcDbLine
 10
157.0461407547998
 20
167.9000091552999
 30
0.0
 11
154.0461560135998
 21
167.9000091552999
 31
0.0
  0
LINE
  5
13A
330
2
100
AcDbEntity
  8
0
  6
PHANTOM
 62
     3
100
AcDbLine
 10
157.0461407547998
 20
166.8075561523
 30
0.0
 11
154.0461560135998
 21
166.8075561523
 31
0.0
  0
LINE
  5
13B
330
2
100
AcDbEntity
  8
0
  6
PHANTOM
 62
     3
100
AcDbLine
 10
154.0461560135998
 20
175.2032165527
 30
0.0
 11
157.0461407547998
 21
175.2032165527
 31
0.0
  0
LINE
  5
13C
330
2
100
AcDbEntity
  8
0
  6
PHANTOM
 62
     3
100
AcDbLine
 10
154.0461560135998
 20
174.3345184326
 30
0.0
 11
157.0461407547998
 21
174.3345184326
 31
0.0
  0
LINE
  5
13D
330
2
100
AcDbEntity
  8
0
  6
PHANTOM
 62
     3
100
AcDbLine
 10
154.0461560135998
 20
173.4595031737999
 30
0.0
 11
157.0461407547998
 21
173.4595031737999
 31
0.0
  0
LINE
  5
13E
330
2
100
AcDbEntity
  8
0
  6
PHANTOM
 62
     3
100
AcDbLine
 10
154.0461560135998
 20
171.3778381348
 30
0.0
 11
157.0461407547998
 21
171.3778381348
 31
0.0
  0
LINE
  5
13F
330
2
100
AcDbEntity
  8
0
  6
PHANTOM
 62
     3
100
AcDbLine
 10
154.0461560135998
 20
170.1924743652
 30
0.0
 11
157.0461407547998
 21
170.1924743652
 31
0.0
  0
LINE
  5
140
330
2
100
AcDbEntity
  8
0
  6
PHANTOM
 62
     3
100
AcDbLine
 10
154.0461560135998
 20
169.1000213623
 30
0.0
 11
157.0461407547998
 21
169.1000213623
 31
0.0
  0
LINE
  5
141
330
2
100
AcDbEntity
  8
0
  6
PHANTOM
 62
     3
100
AcDbLine
 10
154.0461560135998
 20
172.4202880859
 30
0.0
 11
157.0461407547998
 21
172.4202880859
 31
0.0
  0
LINE
  5
142
330
2
100
AcDbEntity
  8
0
  6
PHANTOM
 62
     3
100
AcDbLine
 10
157.0461407547998
 20
160.086807251
 30
0.0
 11
154.0461560135998
 21
160.086807251
 31
0.0
  0
LINE
  5
143
330
2
100
AcDbEntity
  8
0
  6
PHANTOM
 62
     3
100
AcDbLine
 10
157.0461407547998
 20
160.5099334717
 30
0.0
 11
154.0461560135998
 21
160.5099334717
 31
0.0
  0
LINE
  5
144
330
2
100
AcDbEntity
  8
0
  6
PHANTOM
 62
     3
100
AcDbLine
 10
157.0461407547998
 20
161.1099243164
 30
0.0
 11
154.0461560135998
 21
161.1099243164
 31
0.0
  0
LINE
  5
145
330
2
100
AcDbEntity
  8
0
  6
PHANTOM
 62
     3
100
AcDbLine
 10
157.0461407547998
 20
162.6655120849
 30
0.0
 11
154.0461560135998
 21
162.6655120849
 31
0.0
  0
LINE
  5
146
330
2
100
AcDbEntity
  8
0
  6
PHANTOM
 62
     3
100
AcDbLine
 10
157.0461407547998
 20
163.5405273437
 30
0.0
 11
154.0461560135998
 21
163.5405273437
 31
0.0
  0
LINE
  5
147
330
2
100
AcDbEntity
  8
0
  6
PHANTOM
 62
     3
100
AcDbLine
 10
157.0461407547998
 20
161.7968139648
 30
0.0
 11
154.0461560135998
 21
161.7968139648
 31
0.0
  0
LINE
  5
148
330
2
100
AcDbEntity
  8
0
  6
PHANTOM
 62
     3
100
AcDbLine
 10
157.046125496
 20
159.6000213623
 30
0.0
 11
153.2461529617999
 21
159.6000213623
 31
0.0
  0
LINE
  5
149
330
2
100
AcDbEntity
  8
0
  6
PHANTOM
 62
     3
100
AcDbLine
 10
144.1461163406999
 20
175.8999328613
 30
0.0
 11
148.6461163407
 21
175.8999328613
 31
0.0
  0
LINE
  5
14A
330
2
100
AcDbEntity
  8
0
  6
PHANTOM
 62
     3
100
AcDbLine
 10
145.6461163406999
 20
164.6179656982
 30
0.0
 11
148.6461163407
 21
164.6179656982
 31
0.0
  0
LINE
  5
14B
330
2
100
AcDbEntity
  8
0
  6
PHANTOM
 62
     3
100
AcDbLine
 10
148.6461163407
 20
169.5999908447
 30
0.0
 11
145.6461163406999
 21
169.5999908447
 31
0.0
  0
LINE
  5
14C
330
2
100
AcDbEntity
  8
0
  6
PHANTOM
 62
     3
100
AcDbLine
 10
145.6461163406999
 20
167.3999938965
 30
0.0
 11
148.6461163407
 21
167.3999938965
 31
0.0
  0
LINE
  5
14D
330
2
100
AcDbEntity
  8
0
  6
PHANTOM
 62
     3
100
AcDbLine
 10
148.6461163407
 20
172.3819885254
 30
0.0
 11
145.6461163406999
 21
172.3819885254
 31
0.0
  0
LINE
  5
14E
330
2
100
AcDbEntity
  8
0
  6
PHANTOM
 62
     3
100
AcDbLine
 10
148.6461163407
 20
161.0999450683
 30
0.0
 11
144.1461163406999
 21
161.0999450683
 31
0.0
  0
LINE
  5
14F
330
2
100
AcDbEntity
  8
0
 62
     3
100
AcDbLine
 10
145.6461163406999
 20
174.0000152588
 30
0.0
 11
145.6461163406999
 21
163.0
 31
0.0
  0
LINE
  5
150
330
2
100
AcDbEntity
  8
0
 62
     3
100
AcDbLine
 10
142.5461102371999
 20
172.1500091553
 30
0.0
 11
142.5461102371999
 21
169.5500030517
 31
0.0
  0
LINE
  5
151
330
2
100
AcDbEntity
  8
0
 62
     3
100
AcDbLine
 10
143.3460980301999
 20
174.5000152588
 30
0.0
 11
143.3460980301999
 21
162.5
 31
0.0
  0
LINE
  5
152
330
2
100
AcDbEntity
  8
0
 62
     3
100
AcDbLine
 10
144.1461163406999
 20
159.6500091553
 30
0.0
 11
144.1461163406999
 21
161.9403839111
 31
0.0
  0
LINE
  5
153
330
2
100
AcDbEntity
  8
0
 62
     3
100
AcDbLine
 10
144.1461157516999
 20
161.9403729226
 30
0.0
 11
143.6461084552
 21
162.3529340517
 31
0.0
  0
LINE
  5
154
330
2
100
AcDbEntity
  8
0
 62
     3
100
AcDbLine
 10
142.5461102371999
 20
167.450012207
 30
0.0
 11
142.5461102371999
 21
164.8500061035
 31
0.0
  0
ARC
  5
155
330
2
100
AcDbEntity
  8
0
 62
     3
100
AcDbCircle
 10
145.1461163406999
 20
163.0
 30
0.0
 40
0.5
100
AcDbArc
 50
270.0000179861
 51
0.0
  0
LINE
  5
156
330
2
100
AcDbEntity
  8
0
 62
     3
100
AcDbLine
 10
144.1461163406999
 20
177.3500061035
 30
0.0
 11
144.1461163406999
 21
175.0596313476
 31
0.0
  0
LINE
  5
157
330
2
100
AcDbEntity
  8
0
 62
     3
100
AcDbLine
 10
144.1461076890998
 20
175.0596468209999
 30
0.0
 11
143.6461121621998
 21
174.6470954031
 31
0.0
  0
ARC
  5
158
330
2
100
AcDbEntity
  8
0
 62
     3
100
AcDbCircle
 10
145.1461163406999
 20
174.0000152588
 30
0.0
 40
0.5
100
AcDbArc
 50
0.0
 51
89.99998201389999
  0
LINE
  5
159
330
2
100
AcDbEntity
  8
0
  6
PHANTOM
 62
     3
100
AcDbLine
 10
154.0461560135998
 20
170.1924743652
 30
0.0
 11
154.0461560135998
 21
169.1000213623
 31
0.0
  0
LINE
  5
15A
330
2
100
AcDbEntity
  8
0
  6
PHANTOM
 62
     3
100
AcDbLine
 10
153.2461682205999
 20
171.5000152588
 30
0.0
 11
153.2461682205999
 21
165.5000305175999
 31
0.0
  0
LINE
  5
15B
330
2
100
AcDbEntity
  8
0
  6
PHANTOM
 62
     3
100
AcDbLine
 10
148.9925061111998
 20
160.4999999999999
 30
0.0
 11
148.9925061111998
 21
176.5
 31
0.0
  0
LINE
  5
15C
330
2
100
AcDbEntity
  8
0
  6
PHANTOM
 62
     3
100
AcDbLine
 10
148.6461163407
 20
175.8999328613
 30
0.0
 11
148.6461163407
 21
161.0999450683
 31
0.0
  0
LINE
  5
15D
330
2
100
AcDbEntity
  8
0
  6
PHANTOM
 62
     3
100
AcDbLine
 10
148.7038861160999
 20
161.0
 30
0.0
 11
152.0461712723998
 21
161.0
 31
0.0
  0
LINE
  5
15E
330
2
100
AcDbEntity
  8
0
  6
PHANTOM
 62
     3
100
AcDbLine
 10
148.9925061111998
 20
160.4999999999999
 30
0.0
 11
152.0461712723998
 21
160.4999999999999
 31
0.0
  0
LINE
  5
15F
330
2
100
AcDbEntity
  8
0
  6
PHANTOM
 62
     3
100
AcDbLine
 10
148.9925580283999
 20
160.499992359
 30
0.0
 11
148.6461072226999
 21
161.100062746
 31
0.0
  0
LINE
  5
160
330
2
100
AcDbEntity
  8
0
  6
PHANTOM
 62
     3
100
AcDbLine
 10
152.0461712723998
 20
165.5000305175999
 30
0.0
 11
152.0461712723998
 21
160.1209106445
 31
0.0
  0
LINE
  5
161
330
2
100
AcDbEntity
  8
0
  6
PHANTOM
 62
     3
100
AcDbLine
 10
152.0461712723998
 20
160.1209106445
 30
0.0
 11
153.2461682205999
 21
160.1209106445
 31
0.0
  0
LINE
  5
162
330
2
100
AcDbEntity
  8
0
  6
PHANTOM
 62
     3
100
AcDbLine
 10
153.2461218260999
 20
159.6000241849
 30
0.0
 11
153.2461370848999
 21
160.1209134671
 31
0.0
  0
LINE
  5
163
330
2
100
AcDbEntity
  8
0
  6
PHANTOM
 62
     3
100
AcDbLine
 10
154.0460797195999
 20
160.5099182129
 30
0.0
 11
154.0460797195999
 21
160.086807251
 31
0.0
  0
LINE
  5
164
330
2
100
AcDbEntity
  8
0
  6
PHANTOM
 62
     3
100
AcDbLine
 10
154.0461560135998
 20
161.1099243164
 30
0.0
 11
154.0461560135998
 21
161.7968139648
 31
0.0
  0
LINE
  5
165
330
2
100
AcDbEntity
  8
0
  6
PHANTOM
 62
     3
100
AcDbLine
 10
154.0461560135998
 20
162.6655120849
 30
0.0
 11
154.0461560135998
 21
163.5405273437
 31
0.0
  0
LINE
  5
166
330
2
100
AcDbEntity
  8
0
  6
PHANTOM
 62
     3
100
AcDbLine
 10
153.2461682205999
 20
165.5000305175999
 30
0.0
 11
152.0461712723998
 21
165.5000305175999
 31
0.0
  0
LINE
  5
167
330
2
100
AcDbEntity
  8
0
  6
PHANTOM
 62
     3
100
AcDbLine
 10
154.0461560135998
 20
167.9000091552999
 30
0.0
 11
154.0461560135998
 21
166.8075561523
 31
0.0
  0
LINE
  5
168
330
2
100
AcDbEntity
  8
0
  6
PHANTOM
 62
     3
100
AcDbLine
 10
154.0461560135998
 20
165.6221923828
 30
0.0
 11
154.0461560135998
 21
164.5797424315999
 31
0.0
  0
LINE
  5
169
330
2
100
AcDbEntity
  8
0
  6
PHANTOM
 62
     3
100
AcDbLine
 10
148.7038861160999
 20
176.0
 30
0.0
 11
152.0461712723998
 21
176.0
 31
0.0
  0
LINE
  5
16A
330
2
100
AcDbEntity
  8
0
  6
PHANTOM
 62
     3
100
AcDbLine
 10
148.9925671463999
 20
176.5
 30
0.0
 11
152.0461712723998
 21
176.5
 31
0.0
  0
LINE
  5
16B
330
2
100
AcDbEntity
  8
0
  6
PHANTOM
 62
     3
100
AcDbLine
 10
148.6461098744999
 20
175.8999072893999
 30
0.0
 11
148.9925606801999
 21
176.4999776763
 31
0.0
  0
LINE
  5
16C
330
2
100
AcDbEntity
  8
0
  6
PHANTOM
 62
     3
100
AcDbLine
 10
154.0461560135998
 20
175.2032165527
 30
0.0
 11
154.0461560135998
 21
175.8901062011999
 31
0.0
  0
LINE
  5
16D
330
2
100
AcDbEntity
  8
0
  6
PHANTOM
 62
     3
100
AcDbLine
 10
152.0461712723998
 20
176.8791809082
 30
0.0
 11
152.0461712723998
 21
171.5000152588
 31
0.0
  0
LINE
  5
16E
330
2
100
AcDbEntity
  8
0
  6
PHANTOM
 62
     3
100
AcDbLine
 10
152.0461712723998
 20
171.5000152588
 30
0.0
 11
153.2461682205999
 21
171.5000152588
 31
0.0
  0
LINE
  5
16F
330
2
100
AcDbEntity
  8
0
  6
PHANTOM
 62
     3
100
AcDbLine
 10
154.0461560135998
 20
173.4595031737999
 30
0.0
 11
154.0461560135998
 21
174.3345184326
 31
0.0
  0
LINE
  5
170
330
2
100
AcDbEntity
  8
0
  6
PHANTOM
 62
     3
100
AcDbLine
 10
154.0461560135998
 20
172.4202880859
 30
0.0
 11
154.0461560135998
 21
171.3778381348
 31
0.0
  0
LINE
  5
171
330
2
100
AcDbEntity
  8
0
  6
PHANTOM
 62
     3
100
AcDbLine
 10
153.2461682205999
 20
177.4000091553
 30
0.0
 11
153.2461682205999
 21
176.8791809082
 31
0.0
  0
LINE
  5
172
330
2
100
AcDbEntity
  8
0
  6
PHANTOM
 62
     3
100
AcDbLine
 10
153.2461682205999
 20
176.8791809082
 30
0.0
 11
152.0461712723998
 21
176.8791809082
 31
0.0
  0
LINE
  5
173
330
2
100
AcDbEntity
  8
0
  6
PHANTOM
 62
     3
100
AcDbLine
 10
154.0462017898998
 20
176.9132080077999
 30
0.0
 11
154.0462017898998
 21
176.4900970459
 31
0.0
  0
LINE
  5
174
330
2
100
AcDbEntity
  8
0
  6
PHANTOM
 62
     3
100
AcDbLine
 10
163.3460980301999
 20
177.5
 30
0.0
 11
158.6461163406999
 21
177.5
 31
0.0
  0
LINE
  5
175
330
2
100
AcDbEntity
  8
0
  6
PHANTOM
 62
     3
100
AcDbLine
 10
158.6461163406999
 20
159.4999999999999
 30
0.0
 11
163.3461285477999
 21
159.4999999999999
 31
0.0
  0
LINE
  5
176
330
2
100
AcDbEntity
  8
0
  6
PHANTOM
 62
     3
100
AcDbLine
 10
157.6998120194
 20
176.4999847412
 30
0.0
 11
157.6998120194
 21
160.4999847411999
 31
0.0
  0
LINE
  5
177
330
2
100
AcDbEntity
  8
0
  6
PHANTOM
 62
     3
100
AcDbLine
 10
158.0461102371999
 20
177.1999969482
 30
0.0
 11
158.0461102371999
 21
159.799987793
 31
0.0
  0
LINE
  5
178
330
2
100
AcDbEntity
  8
0
  6
PHANTOM
 62
     3
100
AcDbLine
 10
157.0460644607998
 20
177.3999938965
 30
0.0
 11
157.0460644607998
 21
159.6000213623
 31
0.0
  0
LINE
  5
179
330
2
100
AcDbEntity
  8
0
  6
PHANTOM
 62
     3
100
AcDbLine
 10
158.6461163406999
 20
177.5
 30
0.0
 11
158.6461163406999
 21
159.4999999999999
 31
0.0
  0
LINE
  5
17A
330
2
100
AcDbEntity
  8
0
  6
PHANTOM
 62
     3
100
AcDbLine
 10
157.0461102371999
 20
161.0
 30
0.0
 11
157.9883862381999
 21
161.0
 31
0.0
  0
LINE
  5
17B
330
2
100
AcDbEntity
  8
0
  6
PHANTOM
 62
     3
100
AcDbLine
 10
157.0461102371999
 20
160.4999999999999
 30
0.0
 11
157.6997204667
 21
160.4999999999999
 31
0.0
  0
LINE
  5
17C
330
2
100
AcDbEntity
  8
0
  6
PHANTOM
 62
     3
100
AcDbLine
 10
157.6997065409998
 20
160.4999899869
 30
0.0
 11
158.0461039408999
 21
161.0999678724
 31
0.0
  0
LINE
  5
17D
330
2
100
AcDbEntity
  8
0
  6
PHANTOM
 62
     3
100
AcDbLine
 10
158.0461102371999
 20
159.799987793
 30
0.0
 11
158.6461163406999
 21
159.799987793
 31
0.0
  0
LINE
  5
17E
330
2
100
AcDbEntity
  8
0
  6
PHANTOM
 62
     3
100
AcDbLine
 10
157.0461102371999
 20
176.5
 30
0.0
 11
157.6996746903
 21
176.5
 31
0.0
  0
LINE
  5
17F
330
2
100
AcDbEntity
  8
0
  6
PHANTOM
 62
     3
100
AcDbLine
 10
157.0461102371999
 20
176.0
 30
0.0
 11
157.9883557205999
 21
176.0
 31
0.0
  0
LINE
  5
180
330
2
100
AcDbEntity
  8
0
  6
PHANTOM
 62
     3
100
AcDbLine
 10
157.6996830453999
 20
176.4999856336
 30
0.0
 11
158.0461033333999
 21
175.8999681046
 31
0.0
  0
LINE
  5
181
330
2
100
AcDbEntity
  8
0
  6
PHANTOM
 62
     3
100
AcDbLine
 10
158.0461102371999
 20
177.1999969482
 30
0.0
 11
158.6461163406999
 21
177.1999969482
 31
0.0
  0
LINE
  5
182
330
2
100
AcDbEntity
  8
0
  6
PHANTOM
 62
     3
100
AcDbLine
 10
163.3461590652999
 20
159.4999999999999
 30
0.0
 11
163.3461590652999
 21
177.5
 31
0.0
  0
LINE
  5
183
330
2
100
AcDbEntity
  8
0
  6
PHANTOM
 62
     3
100
AcDbLine
 10
163.6461163406998
 20
177.1999969482
 30
0.0
 11
163.6461163406998
 21
159.799987793
 31
0.0
  0
LINE
  5
184
330
2
100
AcDbEntity
  8
0
  6
PHANTOM
 62
     3
100
AcDbLine
 10
163.6460980094
 20
159.799973598
 30
0.0
 11
163.3461225907999
 21
159.499982881
 31
0.0
  0
LINE
  5
185
330
2
100
AcDbEntity
  8
0
  6
PHANTOM
 62
     3
100
AcDbLine
 10
163.6461114123999
 20
177.1999730897
 30
0.0
 11
163.3461022766999
 21
177.4999732479999
 31
0.0
  0
LINE
  5
186
330
2
100
AcDbEntity
  8
0
 62
     3
100
AcDbLine
 10
145.3460980301999
 20
218.4934844971
 30
0.0
 11
143.3460980301999
 21
218.4934844971
 31
0.0
  0
ARC
  5
187
330
2
100
AcDbEntity
  8
0
 62
     3
100
AcDbCircle
 10
143.0461102371999
 20
217.9434814452999
 30
0.0
 40
0.3000000119
100
AcDbArc
 50
270.0000179861
 51
0.0
  0
LINE
  5
188
330
2
100
AcDbEntity
  8
0
 62
     3
100
AcDbLine
 10
143.3460980301999
 20
218.4934844971
 30
0.0
 11
143.3460980301999
 21
217.9434814452999
 31
0.0
  0
ARC
  5
189
330
2
100
AcDbEntity
  8
0
 62
     3
100
AcDbCircle
 10
145.3460980301999
 20
218.7934722899999
 30
0.0
 40
0.3000000119
100
AcDbArc
 50
270.0000179861
 51
45.00000125220004
  0
LINE
  5
18A
330
2
100
AcDbEntity
  8
0
 62
     3
100
AcDbLine
 10
144.9703879757999
 20
219.5934593103999
 30
0.0
 11
145.5582481626999
 21
219.0055991234999
 31
0.0
  0
ARC
  5
18B
330
2
100
AcDbEntity
  8
0
 62
     3
100
AcDbCircle
 10
166.7461224441999
 20
216.2934722899999
 30
0.0
 40
0.3000000119
100
AcDbArc
 50
179.9999640277999
 51
270.0000006831999
  0
ARC
  5
18C
330
2
100
AcDbEntity
  8
0
 62
     3
100
AcDbCircle
 10
169.1461163407
 20
216.2934722899999
 30
0.0
 40
0.3000000119
100
AcDbArc
 50
270.0000179861
 51
0.0
  0
LINE
  5
18D
330
2
100
AcDbEntity
  8
0
 62
     3
100
AcDbLine
 10
166.7461224441999
 20
215.9934844971
 30
0.0
 11
169.1461163407
 21
215.9934844971
 31
0.0
  0
LINE
  5
18E
330
2
100
AcDbEntity
  8
0
 62
     3
100
AcDbLine
 10
165.2938997452999
 20
220.9434705621998
 30
0.0
 11
166.4490490684999
 21
221.7344275568998
 31
0.0
  0
ARC
  5
18F
330
2
100
AcDbEntity
  8
0
 62
     3
100
AcDbCircle
 10
164.1461163406999
 20
217.4934844971
 30
0.0
 40
0.5
100
AcDbArc
 50
179.9999640277999
 51
270.0000006831999
  0
LINE
  5
190
330
2
100
AcDbEntity
  8
0
 62
     3
100
AcDbLine
 10
166.4461041336999
 20
216.9934844971
 30
0.0
 11
166.4461041336999
 21
216.2934722899999
 31
0.0
  0
LINE
  5
191
330
2
100
AcDbEntity
  8
0
 62
     3
100
AcDbLine
 10
166.5961285477998
 20
217.6434783935
 30
0.0
 11
166.5961285477998
 21
219.5934753418
 31
0.0
  0
LINE
  5
192
330
2
100
AcDbEntity
  8
0
 62
     3
100
AcDbLine
 10
169.4461346512999
 20
216.9934844971
 30
0.0
 11
169.4461346512999
 21
216.2934722899999
 31
0.0
  0
LINE
  5
193
330
2
100
AcDbEntity
  8
0
 62
     3
100
AcDbLine
 10
166.9961224441999
 20
226.8434753418
 30
0.0
 11
166.9961224441999
 21
225.0434722899999
 31
0.0
  0
LINE
  5
194
330
2
100
AcDbEntity
  8
0
 62
     3
100
AcDbLine
 10
167.5961285477999
 20
226.8434753418
 30
0.0
 11
167.5961285477999
 21
225.0434722899999
 31
0.0
  0
LINE
  5
195
330
2
100
AcDbEntity
  8
0
 62
     3
100
AcDbLine
 10
173.9961224442
 20
225.0434722899999
 30
0.0
 11
178.1961041336999
 21
225.0434722899999
 31
0.0
  0
LINE
  5
196
330
2
100
AcDbEntity
  8
0
 62
     3
100
AcDbLine
 10
174.5961285477999
 20
225.6434783935
 30
0.0
 11
177.5961285478
 21
225.6434783935
 31
0.0
  0
LINE
  5
197
330
2
100
AcDbEntity
  8
0
 62
     3
100
AcDbLine
 10
173.9961224442
 20
226.8434753418
 30
0.0
 11
178.1961041336999
 21
226.8434753418
 31
0.0
  0
LINE
  5
198
330
2
100
AcDbEntity
  8
0
 62
     3
100
AcDbLine
 10
174.5961285477999
 20
226.2434844971
 30
0.0
 11
177.5961285478
 21
226.2434844971
 31
0.0
  0
LINE
  5
199
330
2
100
AcDbEntity
  8
0
 62
     3
100
AcDbLine
 10
171.8961163406999
 20
224.0434722899999
 30
0.0
 11
173.2961102371999
 21
224.0434722899999
 31
0.0
  0
LINE
  5
19A
330
2
100
AcDbEntity
  8
0
 62
     3
100
AcDbLine
 10
171.3961163407
 20
222.4434814452999
 30
0.0
 11
173.7961102371999
 21
222.4434814452999
 31
0.0
  0
LINE
  5
19B
330
2
100
AcDbEntity
  8
0
 62
     3
100
AcDbLine
 10
171.8961163406999
 20
222.9434814452999
 30
0.0
 11
173.2961102371999
 21
222.9434814452999
 31
0.0
  0
LINE
  5
19C
330
2
100
AcDbEntity
  8
0
 62
     3
100
AcDbLine
 10
171.3961405494998
 20
222.4434763624
 30
0.0
 11
171.8961302907
 21
222.9434661036
 31
0.0
  0
LINE
  5
19D
330
2
100
AcDbEntity
  8
0
 62
     3
100
AcDbLine
 10
170.5961285477999
 20
226.8434753418
 30
0.0
 11
170.5961285477999
 21
225.0434722899999
 31
0.0
  0
LINE
  5
19E
330
2
100
AcDbEntity
  8
0
 62
     3
100
AcDbLine
 10
171.1961041336999
 20
226.8434753418
 30
0.0
 11
171.1961041336999
 21
225.0434722899999
 31
0.0
  0
LINE
  5
19F
330
2
100
AcDbEntity
  8
0
 62
     3
100
AcDbLine
 10
173.9961224442
 20
226.8434753418
 30
0.0
 11
173.9961224442
 21
225.0434722899999
 31
0.0
  0
LINE
  5
1A0
330
2
100
AcDbEntity
  8
0
 62
     3
100
AcDbLine
 10
174.5961285477999
 20
226.8434753418
 30
0.0
 11
174.5961285477999
 21
225.0434722899999
 31
0.0
  0
LINE
  5
1A1
330
2
100
AcDbEntity
  8
0
 62
     3
100
AcDbLine
 10
173.7961344655998
 20
222.4434763624
 30
0.0
 11
173.2961339347999
 21
222.9434768932
 31
0.0
  0
LINE
  5
1A2
330
2
100
AcDbEntity
  8
0
 62
     3
100
AcDbLine
 10
178.5961285477999
 20
217.6434783935
 30
0.0
 11
178.5961285477999
 21
219.5934753418
 31
0.0
  0
LINE
  5
1A3
330
2
100
AcDbEntity
  8
0
 62
     3
100
AcDbLine
 10
179.8983536866998
 20
220.9434884145
 30
0.0
 11
178.7432043633999
 21
221.7344454092
 31
0.0
  0
LINE
  5
1A4
330
2
100
AcDbEntity
  8
0
 62
     3
100
AcDbLine
 10
178.1961041336999
 20
226.8434753418
 30
0.0
 11
178.1961041336999
 21
225.0434722899999
 31
0.0
  0
LINE
  5
1A5
330
2
100
AcDbEntity
  8
0
 62
     3
100
AcDbLine
 10
177.5961285478
 20
226.8434753418
 30
0.0
 11
177.5961285478
 21
225.0434722899999
 31
0.0
  0
ARC
  5
1A6
330
2
100
AcDbEntity
  8
0
 62
     3
100
AcDbCircle
 10
181.0461102372
 20
217.4934844971
 30
0.0
 40
0.5
100
AcDbArc
 50
270.0000179861
 51
0.0
  0
LINE
  5
1AA
330
2
100
AcDbEntity
  8
0
 62
     3
100
AcDbLine
 10
144.9703656082999
 20
232.2934722899999
 30
0.0
 11
136.4461041336999
 21
232.2934722899999
 31
0.0
  0
LINE
  5
1AB
330
2
100
AcDbEntity
  8
0
 62
     3
100
AcDbLine
 10
143.0461102371999
 20
234.2434692383
 30
0.0
 11
136.4461041336999
 21
234.2434692383
 31
0.0
  0
LINE
  5
1AC
330
2
100
AcDbEntity
  8
0
 62
     3
100
AcDbLine
 10
144.1461163406999
 20
230.9434814452999
 30
0.0
 11
136.4461041336999
 21
230.9434814452999
 31
0.0
  0
LINE
  5
1B8
330
2
100
AcDbEntity
  8
0
100
AcDbLine
 10
210.0
 20
297.0
 30
0.0
 11
0.0
 21
297.0
 31
0.0
  0
LINE
  5
1BB
330
2
100
AcDbEntity
  8
0
 62
     3
100
AcDbLine
 10
54.65176209269998
 20
235.8934783935
 30
0.0
 11
57.05175598919999
 21
235.8934783935
 31
0.0
  0
LINE
  5
1BC
330
2
100
AcDbEntity
  8
0
 62
     3
100
AcDbLine
 10
52.40174683389998
 20
234.0434722899999
 30
0.0
 11
68.60174378209999
 21
234.0434722899999
 31
0.0
  0
LINE
  5
1BD
330
2
100
AcDbEntity
  8
0
 62
     3
100
AcDbLine
 10
68.70174988559998
 20
234.1434783935
 30
0.0
 11
52.30175598919998
 21
234.1434783935
 31
0.0
  0
LINE
  5
1BE
330
2
100
AcDbEntity
  8
0
 62
     3
100
AcDbLine
 10
68.95174988559998
 20
234.8934783934999
 30
0.0
 11
52.05175598919999
 21
234.8934783934999
 31
0.0
  0
ARC
  5
1BF
330
2
100
AcDbEntity
  8
0
 62
     3
100
AcDbCircle
 10
52.05175598919999
 20
234.3934783934999
 30
0.0
 40
0.5
100
AcDbArc
 50
89.99998201389999
 51
179.9999640277999
  0
ARC
  5
1C0
330
2
100
AcDbEntity
  8
0
 62
     3
100
AcDbCircle
 10
54.65176209269998
 20
235.5934753417998
 30
0.0
 40
0.3000000119
100
AcDbArc
 50
89.99998201389999
 51
179.9999640277999
  0
LINE
  5
1C1
330
2
100
AcDbEntity
  8
0
 62
     3
100
AcDbLine
 10
54.35175904089996
 20
234.8934783934999
 30
0.0
 11
54.35175904089996
 21
235.5934753417998
 31
0.0
  0
ARC
  5
1C2
330
2
100
AcDbEntity
  8
0
 62
     3
100
AcDbCircle
 10
68.95174988559998
 20
234.3934783934999
 30
0.0
 40
0.5
100
AcDbArc
 50
0.0
 51
89.99998201389999
  0
LINE
  5
1C3
330
2
100
AcDbEntity
  8
0
 62
     3
100
AcDbLine
 10
62.30177309499999
 20
233.3434747146999
 30
0.0
 11
61.14673737249997
 21
233.165776922
 31
0.0
  0
LINE
  5
1C4
330
2
100
AcDbEntity
  8
0
 62
     3
100
AcDbLine
 10
61.59505939739998
 20
228.7024653334998
 30
0.0
 11
62.88252758619996
 21
229.9899335223
 31
0.0
  0
LINE
  5
1C5
330
2
100
AcDbEntity
  8
0
 62
     3
100
AcDbLine
 10
62.30175616189999
 20
233.3434793019999
 30
0.0
 11
60.80175456949999
 21
231.8434777097
 31
0.0
  0
CIRCLE
  5
1C6
330
2
100
AcDbEntity
  8
0
 62
     3
100
AcDbCircle
 10
63.80175598919999
 20
230.3434753418
 30
0.0
 40
2.75
  0
ARC
  5
1C7
330
2
100
AcDbEntity
  8
0
 62
     3
100
AcDbCircle
 10
59.0017529374
 20
233.5434722899999
 30
0.0
 40
0.5
100
AcDbArc
 50
89.99998201389999
 51
179.9999640277999
  0
ARC
  5
1C8
330
2
100
AcDbEntity
  8
0
 62
     3
100
AcDbCircle
 10
57.05175598919999
 20
235.5934753417998
 30
0.0
 40
0.3000000119
100
AcDbArc
 50
0.0
 51
89.99998201389999
  0
LINE
  5
1C9
330
2
100
AcDbEntity
  8
0
 62
     3
100
AcDbLine
 10
57.60174378209999
 20
234.0434722899999
 30
0.0
 11
57.60174378209999
 21
234.1434783935
 31
0.0
  0
LINE
  5
1CA
330
2
100
AcDbEntity
  8
0
 62
     3
100
AcDbLine
 10
57.35175904089996
 20
234.8934783934999
 30
0.0
 11
57.35175904089996
 21
235.5934753417998
 31
0.0
  0
LINE
  5
1CB
330
2
100
AcDbEntity
  8
0
 62
     3
100
AcDbLine
 10
61.80175598919999
 20
233.2665557860998
 30
0.0
 11
61.80175598919999
 21
234.1434783935
 31
0.0
  0
ARC
  5
1CC
330
2
100
AcDbEntity
  8
0
 62
     3
100
AcDbCircle
 10
55.80175598919999
 20
230.3434753418
 30
0.0
 40
5.1999998093
100
AcDbArc
 50
344.0576315526
 51
15.94236844739999
  0
LINE
  5
1CD
330
2
100
AcDbEntity
  8
0
 62
     3
100
AcDbLine
 10
60.9794518121
 20
232.9985253717999
 30
0.0
 11
60.80175401939996
 21
231.8434896492998
 31
0.0
  0
LINE
  5
1CE
330
2
100
AcDbEntity
  8
0
 62
     3
100
AcDbLine
 10
60.97947697719999
 20
227.6884376749999
 30
0.0
 11
60.80177918449999
 21
228.8434733974999
 31
0.0
  0
LINE
  5
1CF
330
2
100
AcDbEntity
  8
0
 62
     3
100
AcDbLine
 10
60.80175598919999
 20
228.9151916504
 30
0.0
 11
60.80175598919999
 21
228.8434753418
 31
0.0
  0
LINE
  5
1D0
330
2
100
AcDbEntity
  8
0
 62
     3
100
AcDbLine
 10
60.80175598919999
 20
231.8434753417999
 30
0.0
 11
60.80175598919999
 21
231.771774292
 31
0.0
  0
ARC
  5
1D1
330
2
100
AcDbEntity
  8
0
 62
     3
100
AcDbCircle
 10
61.17712220009996
 20
232.9681091308
 30
0.0
 40
0.1999999881
100
AcDbArc
 50
98.7461212084
 51
171.2538248333999
  0
ARC
  5
1D2
330
2
100
AcDbEntity
  8
0
 62
     3
100
AcDbCircle
 10
60.00175293739999
 20
233.5434722899999
 30
0.0
 40
0.5
100
AcDbArc
 50
0.0
 51
89.99998201389999
  0
LINE
  5
1D3
330
2
100
AcDbEntity
  8
0
 62
     3
100
AcDbLine
 10
65.30175934669997
 20
233.3434793019999
 30
0.0
 11
66.80176093909998
 21
231.8434777097
 31
0.0
  0
LINE
  5
1D4
330
2
100
AcDbEntity
  8
0
 62
     3
100
AcDbLine
 10
64.72099871199998
 20
230.6970295017999
 30
0.0
 11
66.00846690079999
 21
231.9844976905999
 31
0.0
  0
LINE
  5
1D5
330
2
100
AcDbEntity
  8
0
 62
     3
100
AcDbLine
 10
65.30175533649998
 20
233.3434835597
 30
0.0
 11
66.45679105899998
 21
233.1657857669999
 31
0.0
  0
ARC
  5
1D6
330
2
100
AcDbEntity
  8
0
 62
     3
100
AcDbCircle
 10
63.80175598919999
 20
238.3434753418
 30
0.0
 40
5.1999998093
100
AcDbArc
 50
254.0576461235998
 51
285.9423898485998
  0
ARC
  5
1D7
330
2
100
AcDbEntity
  8
0
 62
     3
100
AcDbCircle
 10
63.80175598919999
 20
229.0706939697
 30
0.0
 40
0.5
100
AcDbArc
 50
45.0000012522
 51
135.0000003415999
  0
ARC
  5
1D8
330
2
100
AcDbEntity
  8
0
 62
     3
100
AcDbCircle
 10
63.80175598919999
 20
231.6162719725998
 30
0.0
 40
0.5
100
AcDbArc
 50
224.9999996584
 51
315.0000021628998
  0
ARC
  5
1D9
330
2
100
AcDbEntity
  8
0
 62
     3
100
AcDbCircle
 10
62.5289593583
 20
230.3434906006
 30
0.0
 40
0.5
100
AcDbArc
 50
314.9999987477997
 51
45.00000125220004
  0
LINE
  5
1DA
330
2
100
AcDbEntity
  8
0
 62
     3
100
AcDbLine
 10
62.28148251659998
 20
231.298085361
 30
0.0
 11
62.84715930019999
 21
231.8637621446
 31
0.0
  0
LINE
  5
1DB
330
2
100
AcDbEntity
  8
0
 62
     3
100
AcDbLine
 10
62.28148251659998
 20
231.298085361
 30
0.0
 11
62.88252758619996
 21
230.6970402914
 31
0.0
  0
LINE
  5
1DC
330
2
100
AcDbEntity
  8
0
 62
     3
100
AcDbLine
 10
62.84715930019999
 20
231.8637621446
 30
0.0
 11
63.4482043697
 21
231.2627170749999
 31
0.0
  0
LINE
  5
1DD
330
2
100
AcDbEntity
  8
0
 62
     3
100
AcDbLine
 10
62.16074697049997
 20
228.1367777602999
 30
0.0
 11
63.44821515929996
 21
229.4242459491
 31
0.0
  0
ARC
  5
1DE
330
2
100
AcDbEntity
  8
0
 62
     3
100
AcDbCircle
 10
65.07455261999999
 20
230.3434753418
 30
0.0
 40
0.5
100
AcDbArc
 50
135.0000003415999
 51
224.9999823555
  0
LINE
  5
1DF
330
2
100
AcDbEntity
  8
0
 62
     3
100
AcDbLine
 10
64.72099871199998
 20
229.9899227326999
 30
0.0
 11
65.32203299199998
 21
229.3888884527999
 31
0.0
  0
LINE
  5
1E0
330
2
100
AcDbEntity
  8
0
 62
     3
100
AcDbLine
 10
64.15531113879999
 20
231.2627170749999
 30
0.0
 11
65.44277932759996
 21
232.5501852638
 31
0.0
  0
LINE
  5
1E1
330
2
100
AcDbEntity
  8
0
 62
     3
100
AcDbLine
 10
64.15532192839997
 20
229.4242459491
 30
0.0
 11
64.75635620839998
 21
228.8232116691998
 31
0.0
  0
LINE
  5
1E2
330
2
100
AcDbEntity
  8
0
 62
     3
100
AcDbLine
 10
64.75635620839998
 20
228.8232116691998
 30
0.0
 11
65.32203299199998
 21
229.3888884527999
 31
0.0
  0
LINE
  5
1E3
330
2
100
AcDbEntity
  8
0
 62
     3
100
AcDbLine
 10
62.30175598919998
 20
233.3434753417999
 30
0.0
 11
62.37347229779999
 21
233.3434753417999
 31
0.0
  0
LINE
  5
1E4
330
2
100
AcDbEntity
  8
0
 62
     3
100
AcDbLine
 10
65.2300396806
 20
233.3434753417999
 30
0.0
 11
65.30175598919999
 21
233.3434753417999
 31
0.0
  0
LINE
  5
1E5
330
2
100
AcDbEntity
  8
0
 62
     3
100
AcDbLine
 10
65.80175598919999
 20
234.0434722899999
 30
0.0
 11
65.80175598919999
 21
233.2665557860998
 31
0.0
  0
ARC
  5
1E6
330
2
100
AcDbEntity
  8
0
 62
     3
100
AcDbCircle
 10
71.80175598919998
 20
230.3434753418
 30
0.0
 40
5.1999998093
100
AcDbArc
 50
164.0575921653
 51
195.9423358903
  0
LINE
  5
1E7
330
2
100
AcDbEntity
  8
0
 62
     3
100
AcDbLine
 10
66.62407661939997
 20
232.9985165267999
 30
0.0
 11
66.80177441219999
 21
231.8434808042999
 31
0.0
  0
LINE
  5
1E8
330
2
100
AcDbEntity
  8
0
 62
     3
100
AcDbLine
 10
66.62405145429996
 20
227.6884465199999
 30
0.0
 11
66.80174924699997
 21
228.8434822424999
 31
0.0
  0
ARC
  5
1E9
330
2
100
AcDbEntity
  8
0
 62
     3
100
AcDbCircle
 10
66.42638977819999
 20
232.9681091308
 30
0.0
 40
0.1999999881
100
AcDbArc
 50
8.746159685
 51
81.2537881779
  0
LINE
  5
1EA
330
2
100
AcDbEntity
  8
0
 62
     3
100
AcDbLine
 10
135.9461041336999
 20
234.8934783934999
 30
0.0
 11
94.346113289
 21
234.8934783934999
 31
0.0
  0
LINE
  5
1EB
330
2
100
AcDbEntity
  8
0
  6
PHANTOM
 62
     3
100
AcDbLine
 10
86.24610718539996
 20
236.0481944445
 30
0.0
 11
100.0461102371998
 21
236.0481944445
 31
0.0
  0
LINE
  5
1EC
330
2
100
AcDbEntity
  8
0
  6
PHANTOM
 62
     3
100
AcDbLine
 10
88.74612018059996
 20
234.7209049241
 30
0.0
 11
99.5404828208
 21
234.8414962556
 31
0.0
  0
LINE
  5
1ED
330
2
100
AcDbEntity
  8
0
 62
     3
100
AcDbLine
 10
87.50461201089995
 20
233.5816852534998
 30
0.0
 11
93.04613373989999
 21
234.0434787586
 31
0.0
  0
LINE
  5
1EE
330
2
100
AcDbEntity
  8
0
  6
PHANTOM
 62
     3
100
AcDbLine
 10
94.15414876099999
 20
232.7496703358
 30
0.0
 11
88.74610718539996
 21
232.8938879209998
 31
0.0
  0
LINE
  5
1EF
330
2
100
AcDbEntity
  8
0
  6
PHANTOM
 62
     3
100
AcDbLine
 10
89.74614124989996
 20
228.0165531851999
 30
0.0
 11
94.15415066609998
 21
228.1340981804
 31
0.0
  0
ARC
  5
1F0
330
2
100
AcDbEntity
  8
0
 62
     3
100
AcDbCircle
 10
87.5461102372
 20
233.0834045409999
 30
0.0
 40
0.5
100
AcDbArc
 50
94.76362914860001
 51
179.9999640277999
  0
ARC
  5
1F1
330
2
100
AcDbEntity
  8
0
  6
PHANTOM
 62
     3
100
AcDbCircle
 10
86.24610718539996
 20
235.5481944445
 30
0.0
 40
0.5
100
AcDbArc
 50
89.99998201389999
 51
179.9999640277999
  0
LINE
  5
1F2
330
2
100
AcDbEntity
  8
0
  6
PHANTOM
 62
     3
100
AcDbLine
 10
89.4461193925
 20
228.3419185046
 30
0.0
 11
88.74610718539996
 21
228.3419185046
 31
0.0
  0
ARC
  5
1F3
330
2
100
AcDbEntity
  8
0
  6
PHANTOM
 62
     3
100
AcDbCircle
 10
89.4461193925
 20
228.0419154527999
 30
0.0
 40
0.2999999821
100
AcDbArc
 50
0.0
 51
89.99998201389999
  0
LINE
  5
1F4
330
2
100
AcDbEntity
  8
0
 62
     3
100
AcDbLine
 10
93.04611023719996
 20
234.0434722899999
 30
0.0
 11
94.346113289
 21
234.0434722899999
 31
0.0
  0
ARC
  5
1F5
330
2
100
AcDbEntity
  8
0
  6
PHANTOM
 62
     3
100
AcDbCircle
 10
94.14612397009998
 20
228.4340052966
 30
0.0
 40
0.2999999821
100
AcDbArc
 50
271.5275214920999
 51
359.9995782512999
  0
ARC
  5
1F6
330
2
100
AcDbEntity
  8
0
  6
PHANTOM
 62
     3
100
AcDbCircle
 10
94.14612397009998
 20
232.4497905139
 30
0.0
 40
0.2999999821
100
AcDbArc
 50
359.9987770293
 51
88.47236922489996
  0
ARC
  5
1F7
330
2
100
AcDbEntity
  8
0
 62
     3
100
AcDbCircle
 10
92.76327332309998
 20
231.9295349120999
 30
0.0
 40
1.0999994278
100
AcDbArc
 50
94.99995369389999
 51
164.4057132469999
  0
ARC
  5
1F8
330
2
100
AcDbEntity
  8
0
 62
     3
100
AcDbCircle
 10
98.44610413369998
 20
230.3434753418
 30
0.0
 40
7.0
100
AcDbArc
 50
164.4057132469999
 51
195.5942694502
  0
LINE
  5
1F9
330
2
100
AcDbEntity
  8
0
 62
     3
100
AcDbLine
 10
92.66741902679994
 20
233.0253414896
 30
0.0
 11
93.0461146913
 21
233.0584730500999
 31
0.0
  0
LINE
  5
1FA
330
2
100
AcDbEntity
  8
0
 62
     3
100
AcDbLine
 10
92.66738966149999
 20
227.6615942688
 30
0.0
 11
93.04610052669998
 21
227.6284613784
 31
0.0
  0
LINE
  5
1FB
330
2
100
AcDbEntity
  8
0
  6
PHANTOM
 62
     3
100
AcDbLine
 10
91.7461071854
 20
236.0481944445
 30
0.0
 11
91.7461071854
 21
234.7544246081
 31
0.0
  0
ARC
  5
1FC
330
2
100
AcDbEntity
  8
0
 62
     3
100
AcDbCircle
 10
93.5461102372
 20
233.5434722899999
 30
0.0
 40
0.5
100
AcDbArc
 50
89.99998201389999
 51
179.9999640277999
  0
LINE
  5
1FD
330
2
100
AcDbEntity
  8
0
  6
PHANTOM
 62
     3
100
AcDbLine
 10
94.4461193925
 20
232.4497905139
 30
0.0
 11
94.4461193925
 21
228.4340052966
 31
0.0
  0
LINE
  5
1FE
330
2
100
AcDbEntity
  8
0
 62
     3
100
AcDbLine
 10
96.14612000770001
 20
234.8934690789
 30
0.0
 11
97.1461210692
 21
235.8934701404999
 31
0.0
  0
LINE
  5
1FF
330
2
100
AcDbEntity
  8
0
 62
     3
100
AcDbLine
 10
97.6461163407
 20
235.8934783935
 30
0.0
 11
97.14611634069999
 21
235.8934783935
 31
0.0
  0
LINE
  5
200
330
2
100
AcDbEntity
  8
0
 62
     3
100
AcDbLine
 10
97.6461163407
 20
234.8934783934999
 30
0.0
 11
97.6461163407
 21
235.8934783935
 31
0.0
  0
LINE
  5
201
330
2
100
AcDbEntity
  8
0
  6
PHANTOM
 62
     3
100
AcDbLine
 10
100.0461098960997
 20
235.3471257409998
 30
0.0
 11
99.54046576879999
 21
234.8414828497
 31
0.0
  0
LINE
  5
202
330
2
100
AcDbEntity
  8
0
  6
PHANTOM
 62
     3
100
AcDbLine
 10
100.0461102371998
 20
236.0481944445
 30
0.0
 11
100.0461102371998
 21
235.3471446399
 31
0.0
  0
ARC
  5
203
330
2
100
AcDbEntity
  8
0
 62
     3
100
AcDbCircle
 10
135.9461041336999
 20
234.3934783934999
 30
0.0
 40
0.5
100
AcDbArc
 50
0.0
 51
89.99998201389999
  0
LINE
  5
207
330
2
100
AcDbEntity
  8
0
 62
     3
100
AcDbLine
 10
166.5961285477998
 20
233.3934783934998
 30
0.0
 11
178.5961285477999
 21
233.3934783934998
 31
0.0
  0
LINE
  5
208
330
2
100
AcDbEntity
  8
0
 62
     3
100
AcDbLine
 10
166.5961285477998
 20
232.2934722899999
 30
0.0
 11
178.5961285477999
 21
232.2934722899999
 31
0.0
  0
LINE
  5
209
330
2
100
AcDbEntity
  8
0
 62
     3
100
AcDbLine
 10
166.5961285477998
 20
234.2434844971
 30
0.0
 11
178.5961285477999
 21
234.2434844971
 31
0.0
  0
LINE
  5
20A
330
2
100
AcDbEntity
  8
0
 62
     3
100
AcDbLine
 10
164.1461163406999
 20
234.8934783934999
 30
0.0
 11
181.0461102372
 21
234.8934783934999
 31
0.0
  0
LINE
  5
20B
330
2
100
AcDbEntity
  8
0
 62
     3
100
AcDbLine
 10
145.3460980301999
 20
233.3934783934998
 30
0.0
 11
143.3460980301999
 21
233.3934783934998
 31
0.0
  0
ARC
  5
20C
330
2
100
AcDbEntity
  8
0
 62
     3
100
AcDbCircle
 10
143.0461102371999
 20
233.9434661865
 30
0.0
 40
0.3000000119
100
AcDbArc
 50
0.0
 51
89.99998201389999
  0
LINE
  5
20D
330
2
100
AcDbEntity
  8
0
 62
     3
100
AcDbLine
 10
143.3460980301999
 20
233.3934783934998
 30
0.0
 11
143.3460980301999
 21
233.9434661865
 31
0.0
  0
ARC
  5
20E
330
2
100
AcDbEntity
  8
0
 62
     3
100
AcDbCircle
 10
145.3460980301999
 20
233.0934753418
 30
0.0
 40
0.3000000119
100
AcDbArc
 50
315.0000021628998
 51
89.99998201389994
  0
LINE
  5
20F
330
2
100
AcDbEntity
  8
0
 62
     3
100
AcDbLine
 10
144.9703879757999
 20
232.2934576871
 30
0.0
 11
145.5582697419
 21
232.8813394532
 31
0.0
  0
LINE
  5
210
330
2
100
AcDbEntity
  8
0
 62
     3
100
AcDbLine
 10
165.2938920714998
 20
230.9434951979
 30
0.0
 11
166.4490413946998
 21
230.1525382032
 31
0.0
  0
ARC
  5
211
330
2
100
AcDbEntity
  8
0
 62
     3
100
AcDbCircle
 10
164.1461163406999
 20
234.3934783934999
 30
0.0
 40
0.5
100
AcDbArc
 50
89.99998201389999
 51
179.9999640277999
  0
LINE
  5
212
330
2
100
AcDbEntity
  8
0
 62
     3
100
AcDbLine
 10
166.5961285477998
 20
234.2434844971
 30
0.0
 11
166.5961285477998
 21
232.2934722899999
 31
0.0
  0
LINE
  5
213
330
2
100
AcDbEntity
  8
0
 62
     3
100
AcDbLine
 10
178.4461041336999
 20
235.8934783935
 30
0.0
 11
176.0461102371999
 21
235.8934783935
 31
0.0
  0
LINE
  5
214
330
2
100
AcDbEntity
  8
0
 62
     3
100
AcDbLine
 10
171.8961163406999
 20
227.8434753418
 30
0.0
 11
173.2961102371999
 21
227.8434753418
 31
0.0
  0
LINE
  5
215
330
2
100
AcDbEntity
  8
0
 62
     3
100
AcDbLine
 10
171.3961163407
 20
229.4434814453
 30
0.0
 11
173.7961102371999
 21
229.4434814453
 31
0.0
  0
LINE
  5
216
330
2
100
AcDbEntity
  8
0
 62
     3
100
AcDbLine
 10
171.8961163406999
 20
228.9434814452999
 30
0.0
 11
173.2961102371999
 21
228.9434814452999
 31
0.0
  0
LINE
  5
217
330
2
100
AcDbEntity
  8
0
 62
     3
100
AcDbLine
 10
171.3961297598999
 20
229.4434730038998
 30
0.0
 11
171.8961302907
 21
228.9434724731
 31
0.0
  0
LINE
  5
218
330
2
100
AcDbEntity
  8
0
 62
     3
100
AcDbLine
 10
173.7961236759999
 20
229.4434730038998
 30
0.0
 11
173.2961339347999
 21
228.9434832627
 31
0.0
  0
ARC
  5
219
330
2
100
AcDbEntity
  8
0
 62
     3
100
AcDbCircle
 10
176.0461102371999
 20
235.5934753417998
 30
0.0
 40
0.3000000119
100
AcDbArc
 50
89.99998201389999
 51
179.9999640277999
  0
LINE
  5
21A
330
2
100
AcDbEntity
  8
0
 62
     3
100
AcDbLine
 10
175.7461224441998
 20
234.8934783934999
 30
0.0
 11
175.7461224441998
 21
235.5934753417998
 31
0.0
  0
LINE
  5
21B
330
2
100
AcDbEntity
  8
0
 62
     3
100
AcDbLine
 10
178.5961285477999
 20
234.2434844971
 30
0.0
 11
178.5961285477999
 21
232.2934722899999
 31
0.0
  0
LINE
  5
21C
330
2
100
AcDbEntity
  8
0
 62
     3
100
AcDbLine
 10
179.8983613604999
 20
230.9434773455999
 30
0.0
 11
178.7431868568999
 21
230.1525031093
 31
0.0
  0
ARC
  5
21D
330
2
100
AcDbEntity
  8
0
 62
     3
100
AcDbCircle
 10
178.4461041336999
 20
235.5934753417998
 30
0.0
 40
0.3000000119
100
AcDbArc
 50
0.0
 51
89.99998201389999
  0
LINE
  5
21E
330
2
100
AcDbEntity
  8
0
 62
     3
100
AcDbLine
 10
178.7461224441998
 20
234.8934783934999
 30
0.0
 11
178.7461224441998
 21
235.5934753417998
 31
0.0
  0
ARC
  5
21F
330
2
100
AcDbEntity
  8
0
 62
     3
100
AcDbCircle
 10
181.0461102372
 20
234.3934783934999
 30
0.0
 40
0.5
100
AcDbArc
 50
0.0
 51
89.99998201389999
  0
TEXT
  5
236
330
2
100
AcDbEntity
  8
0
 62
     7
100
AcDbText
 10
107.9999999999996
 20
105.0000029552499
 30
0.0
 40
2.999994089499998
  1
AP2-026D
 11
107.9999999999996
 21
106.4999999999999
 31
0.0
100
AcDbText
 73
     2
  0
TEXT
  5
238
330
2
100
AcDbEntity
  8
0
 62
     7
100
AcDbText
 10
107.9999999999996
 20
110.0000029552499
 30
0.0
 40
2.999994089499998
  1
AP2-016D
 11
107.9999999999996
 21
111.4999999999999
 31
0.0
100
AcDbText
 73
     2
  0
TEXT
  5
239
330
2
100
AcDbEntity
  8
0
 62
     7
100
AcDbText
 10
107.9999999999996
 20
115.00000295525
 30
0.0
 40
2.999994089499998
  1
AP2-016DD
 11
107.9999999999996
 21
116.5
 31
0.0
100
AcDbText
 73
     2
  0
ENDSEC
  0
SECTION
  2
OBJECTS
  0
DICTIONARY
  5
7
330
0
100
AcDbDictionary
281
     1
  3
ACAD_COLOR
350
242
  3
ACAD_GROUP
350
1F
  3
ACAD_LAYOUT
350
B
  3
ACAD_MATERIAL
350
241
  3
ACAD_MLINESTYLE
350
20
  3
ACAD_PLOTSETTINGS
350
21
  3
ACAD_PLOTSTYLENAME
350
6
  3
ACAD_TABLESTYLE
350
243
  3
ACDBHEADERROUNDTRIPXREC
350
249
  3
AcDbVariableDictionary
350
23A
  0
DICTIONARY
  5
242
102
{ACAD_REACTORS
330
7
102
}
330
7
100
AcDbDictionary
281
     1
  0
DICTIONARY
  5
1F
102
{ACAD_REACTORS
330
7
102
}
330
7
100
AcDbDictionary
281
     1
  0
DICTIONARY
  5
B
102
{ACAD_REACTORS
330
7
102
}
330
7
100
AcDbDictionary
281
     1
  3
Model
350
A
  3
ﾚｲｱｳﾄ1
350
F
  0
DICTIONARY
  5
241
102
{ACAD_REACTORS
330
7
102
}
330
7
100
AcDbDictionary
281
     1
  0
DICTIONARY
  5
20
102
{ACAD_REACTORS
330
7
102
}
330
7
100
AcDbDictionary
281
     1
  3
Standard
350
22
  0
DICTIONARY
  5
21
102
{ACAD_REACTORS
330
7
102
}
330
7
100
AcDbDictionary
281
     1
  0
ACDBDICTIONARYWDFLT
  5
6
102
{ACAD_REACTORS
330
7
102
}
330
7
100
AcDbDictionary
281
     1
  3
Normal
350
5
100
AcDbDictionaryWithDefault
340
5
  0
DICTIONARY
  5
243
102
{ACAD_REACTORS
330
7
102
}
330
7
100
AcDbDictionary
281
     1
  3
Standard
350
244
  0
DICTIONARY
  5
249
102
{ACAD_REACTORS
330
7
102
}
330
7
100
AcDbDictionary
281
     1
  0
DICTIONARY
  5
23A
102
{ACAD_REACTORS
330
7
102
}
330
7
100
AcDbDictionary
281
     1
  3
CTABLESTYLE
350
246
  3
DIMASSOC
350
23B
  3
PROJECTNAME
350
247
  0
LAYOUT
  5
A
102
{ACAD_XDICTIONARY
360
24A
102
}
102
{ACAD_REACTORS
330
B
102
}
330
B
100
AcDbPlotSettings
  1

  2
C:\Program Files\AutoCAD 2000i\plotters\DWF Classic.pc3
  4

  6

 40
0.0
 41
0.0
 42
0.0
 43
0.0
 44
0.0
 45
0.0
 46
0.0
 47
0.0
 48
0.0
 49
0.0
140
0.0
141
0.0
142
1.0
143
1.0
 70
  1712
 72
     0
 73
     0
 74
     0
  7

 75
     0
147
1.0
148
0.0
149
0.0
100
AcDbLayout
  1
Model
 70
     1
 71
     0
 10
0.0
 20
0.0
 11
12.0
 21
9.0
 12
0.0
 22
0.0
 32
0.0
 14
0.0
 24
0.0
 34
0.0
 15
0.0
 25
0.0
 35
0.0
146
0.0
 13
0.0
 23
0.0
 33
0.0
 16
1.0
 26
0.0
 36
0.0
 17
0.0
 27
1.0
 37
0.0
 76
     0
330
2
  0
LAYOUT
  5
F
102
{ACAD_XDICTIONARY
360
24C
102
}
102
{ACAD_REACTORS
330
B
102
}
330
B
100
AcDbPlotSettings
  1

  2
C:\Program Files\AutoCAD 2000i\plotters\DWF Classic.pc3
  4

  6

 40
0.0
 41
0.0
 42
0.0
 43
0.0
 44
0.0
 45
0.0
 46
0.0
 47
0.0
 48
0.0
 49
0.0
140
0.0
141
0.0
142
1.0
143
1.0
 70
   688
 72
     0
 73
     0
 74
     5
  7

 75
    16
147
1.0
148
0.0
149
0.0
100
AcDbLayout
  1
ﾚｲｱｳﾄ1
 70
     1
 71
     1
 10
0.0
 20
0.0
 11
12.0
 21
9.0
 12
0.0
 22
0.0
 32
0.0
 14
1.000000000000000E+20
 24
1.000000000000000E+20
 34
1.000000000000000E+20
 15
-1.000000000000000E+20
 25
-1.000000000000000E+20
 35
-1.000000000000000E+20
146
0.0
 13
0.0
 23
0.0
 33
0.0
 16
1.0
 26
0.0
 36
0.0
 17
0.0
 27
1.0
 37
0.0
 76
     0
330
C
  0
MLINESTYLE
  5
22
102
{ACAD_REACTORS
330
20
102
}
330
20
100
AcDbMlineStyle
  2
STANDARD
 70
     0
  3

 62
   256
 51
90.0
 52
90.0
 71
     2
 49
0.5
 62
   256
  6
BYLAYER
 49
-0.5
 62
   256
  6
BYLAYER
  0
ACDBPLACEHOLDER
  5
5
102
{ACAD_REACTORS
330
6
102
}
330
6
  0
TABLESTYLE
  5
244
102
{ACAD_REACTORS
330
243
102
}
330
243
100
AcDbTableStyle
  3
Standard
 70
     0
 71
     0
 40
0.06
 41
0.06
280
     0
281
     0
  7
STANDARD
140
0.18
170
     2
 62
     0
 63
     7
283
     0
274
    -2
284
     1
 64
     0
275
    -2
285
     1
 65
     0
276
    -2
286
     1
 66
     0
277
    -2
287
     1
 67
     0
278
    -2
288
     1
 68
     0
279
    -2
289
     1
 69
     0
  7
STANDARD
140
0.25
170
     5
 62
     0
 63
     7
283
     0
274
    -2
284
     1
 64
     0
275
    -2
285
     1
 65
     0
276
    -2
286
     1
 66
     0
277
    -2
287
     1
 67
     0
278
    -2
288
     1
 68
     0
279
    -2
289
     1
 69
     0
  7
STANDARD
140
0.18
170
     5
 62
     0
 63
     7
283
     0
274
    -2
284
     1
 64
     0
275
    -2
285
     1
 65
     0
276
    -2
286
     1
 66
     0
277
    -2
287
     1
 67
     0
278
    -2
288
     1
 68
     0
279
    -2
289
     1
 69
     0
  0
DICTIONARYVAR
  5
246
102
{ACAD_REACTORS
330
23A
102
}
330
23A
100
DictionaryVariables
280
     0
  1
STANDARD
  0
DICTIONARYVAR
  5
23B
102
{ACAD_REACTORS
330
23A
102
}
330
23A
100
DictionaryVariables
280
     0
  1
1
  0
DICTIONARYVAR
  5
247
102
{ACAD_REACTORS
330
23A
102
}
330
23A
100
DictionaryVariables
280
     0
  1

  0
DICTIONARY
  5
24A
330
A
100
AcDbDictionary
280
     1
281
     1
  3
ACAD_XREC_ROUNDTRIP
360
24B
  0
DICTIONARY
  5
24C
330
F
100
AcDbDictionary
280
     1
281
     1
  3
ACAD_XREC_ROUNDTRIP
360
24D
  0
XRECORD
  5
24B
102
{ACAD_REACTORS
330
24A
102
}
330
24A
100
AcDbXrecord
280
     1
102
SHADEPLOT
 70
     0
102
SHADEPLOTRESLEVEL
 70
     2
102
SHADEPLOTCUSTOMDPI
 70
   300
  0
XRECORD
  5
24D
102
{ACAD_REACTORS
330
24C
102
}
330
24C
100
AcDbXrecord
280
     1
102
SHADEPLOT
 70
     0
102
SHADEPLOTRESLEVEL
 70
     2
102
SHADEPLOTCUSTOMDPI
 70
   300
  0
ENDSEC
  0
EOF
