  0
SECTION
  2
HEADER
  9
$ACADVER
  1
AC1015
  9
$ACADMAINTVER
 70
    13
  9
$DWGCODEPAGE
  3
ANSI_932
  9
$INSBASE
 10
0.0
 20
0.0
 30
0.0
  9
$EXTMIN
 10
-0.0050444527450964
 20
-0.0007496668014255
 30
-0.0000000349181948
  9
$EXTMAX
 10
210.0229992732402
 20
297.0183229054498
 30
0.0000000814935747
  9
$LIMMIN
 10
-166.7855957031
 20
-3.174999999999998
  9
$LIMMAX
 10
3.174999999999998
 20
291.2585876465
  9
$ORTHOMODE
 70
     0
  9
$REGENMODE
 70
     1
  9
$FILLMODE
 70
     1
  9
$QTEXTMODE
 70
     0
  9
$MIRRTEXT
 70
     0
  9
$LTSCALE
 40
1.0
  9
$ATTMODE
 70
     1
  9
$TEXTSIZE
 40
2.999994039499997
  9
$TRACEWID
 40
0.05
  9
$TEXTSTYLE
  7
STANDARD
  9
$CLAYER
  8
0
  9
$CELTYPE
  6
ByLayer
  9
$CECOLOR
 62
   256
  9
$CELTSCALE
 40
1.0
  9
$DISPSILH
 70
     0
  9
$DIMSCALE
 40
1.0
  9
$DIMASZ
 40
1.9727878465
  9
$DIMEXO
 40
2.539999961899999
  9
$DIMDLI
 40
0.38
  9
$DIMRND
 40
0.0
  9
$DIMDLE
 40
0.0
  9
$DIMEXE
 40
3.809999942799997
  9
$DIMTP
 40
0.0
  9
$DIMTM
 40
0.0
  9
$DIMTXT
 40
2.999994039499997
  9
$DIMCEN
 40
0.09
  9
$DIMTSZ
 40
0.0
  9
$DIMTOL
 70
     0
  9
$DIMLIM
 70
     0
  9
$DIMTIH
 70
     0
  9
$DIMTOH
 70
     1
  9
$DIMSE1
 70
     0
  9
$DIMSE2
 70
     0
  9
$DIMTAD
 70
     0
  9
$DIMZIN
 70
     0
  9
$DIMBLK
  1

  9
$DIMASO
 70
     1
  9
$DIMSHO
 70
     0
  9
$DIMPOST
  1

  9
$DIMAPOST
  1

  9
$DIMALT
 70
     0
  9
$DIMALTD
 70
     2
  9
$DIMALTF
 40
25.4
  9
$DIMLFAC
 40
1.0
  9
$DIMTOFL
 70
     0
  9
$DIMTVP
 40
0.0
  9
$DIMTIX
 70
     0
  9
$DIMSOXD
 70
     0
  9
$DIMSAH
 70
     0
  9
$DIMBLK1
  1

  9
$DIMBLK2
  1

  9
$DIMSTYLE
  2
Standard
  9
$DIMCLRD
 70
     0
  9
$DIMCLRE
 70
     0
  9
$DIMCLRT
 70
     0
  9
$DIMTFAC
 40
1.0
  9
$DIMGAP
 40
0.09
  9
$DIMJUST
 70
     0
  9
$DIMSD1
 70
     0
  9
$DIMSD2
 70
     0
  9
$DIMTOLJ
 70
     1
  9
$DIMTZIN
 70
     0
  9
$DIMALTZ
 70
     0
  9
$DIMALTTZ
 70
     0
  9
$DIMUPT
 70
     0
  9
$DIMDEC
 70
     4
  9
$DIMTDEC
 70
     4
  9
$DIMALTU
 70
     2
  9
$DIMALTTD
 70
     2
  9
$DIMTXSTY
  7
STANDARD
  9
$DIMAUNIT
 70
     0
  9
$DIMADEC
 70
     0
  9
$DIMALTRND
 40
0.0
  9
$DIMAZIN
 70
     0
  9
$DIMDSEP
 70
    46
  9
$DIMATFIT
 70
     3
  9
$DIMFRAC
 70
     0
  9
$DIMLDRBLK
  1

  9
$DIMLUNIT
 70
     2
  9
$DIMLWD
 70
    -2
  9
$DIMLWE
 70
    -2
  9
$DIMTMOVE
 70
     0
  9
$LUNITS
 70
     2
  9
$LUPREC
 70
     3
  9
$SKETCHINC
 40
0.1
  9
$FILLETRAD
 40
0.0625
  9
$AUNITS
 70
     0
  9
$AUPREC
 70
     0
  9
$MENU
  1
ACAD
  9
$ELEVATION
 40
0.0
  9
$PELEVATION
 40
0.0
  9
$THICKNESS
 40
0.0
  9
$LIMCHECK
 70
     0
  9
$CHAMFERA
 40
0.0
  9
$CHAMFERB
 40
0.0
  9
$CHAMFERC
 40
0.0
  9
$CHAMFERD
 40
0.0
  9
$SKPOLY
 70
     0
  9
$TDCREATE
 40
2452272.487858796
  9
$TDUCREATE
 40
2452272.112858796
  9
$TDUPDATE
 40
2453382.722094363
  9
$TDUUPDATE
 40
2453382.347094363
  9
$TDINDWG
 40
0.0028005787
  9
$TDUSRTIMER
 40
0.0028005787
  9
$USRTIMER
 70
     1
  9
$ANGBASE
 50
0.0
  9
$ANGDIR
 70
     0
  9
$PDMODE
 70
     0
  9
$PDSIZE
 40
0.0
  9
$PLINEWID
 40
0.0
  9
$SPLFRAME
 70
     0
  9
$SPLINETYPE
 70
     6
  9
$SPLINESEGS
 70
     8
  9
$HANDSEED
  5
25C
  9
$SURFTAB1
 70
     6
  9
$SURFTAB2
 70
     6
  9
$SURFTYPE
 70
     6
  9
$SURFU
 70
     6
  9
$SURFV
 70
     6
  9
$UCSBASE
  2

  9
$UCSNAME
  2

  9
$UCSORG
 10
0.0
 20
0.0
 30
0.0
  9
$UCSXDIR
 10
1.0
 20
0.0
 30
0.0
  9
$UCSYDIR
 10
0.0
 20
1.0
 30
0.0
  9
$UCSORTHOREF
  2

  9
$UCSORTHOVIEW
 70
     0
  9
$UCSORGTOP
 10
0.0
 20
0.0
 30
0.0
  9
$UCSORGBOTTOM
 10
0.0
 20
0.0
 30
0.0
  9
$UCSORGLEFT
 10
0.0
 20
0.0
 30
0.0
  9
$UCSORGRIGHT
 10
0.0
 20
0.0
 30
0.0
  9
$UCSORGFRONT
 10
0.0
 20
0.0
 30
0.0
  9
$UCSORGBACK
 10
0.0
 20
0.0
 30
0.0
  9
$PUCSBASE
  2

  9
$PUCSNAME
  2

  9
$PUCSORG
 10
0.0
 20
0.0
 30
0.0
  9
$PUCSXDIR
 10
1.0
 20
0.0
 30
0.0
  9
$PUCSYDIR
 10
0.0
 20
1.0
 30
0.0
  9
$PUCSORTHOREF
  2

  9
$PUCSORTHOVIEW
 70
     0
  9
$PUCSORGTOP
 10
0.0
 20
0.0
 30
0.0
  9
$PUCSORGBOTTOM
 10
0.0
 20
0.0
 30
0.0
  9
$PUCSORGLEFT
 10
0.0
 20
0.0
 30
0.0
  9
$PUCSORGRIGHT
 10
0.0
 20
0.0
 30
0.0
  9
$PUCSORGFRONT
 10
0.0
 20
0.0
 30
0.0
  9
$PUCSORGBACK
 10
0.0
 20
0.0
 30
0.0
  9
$USERI1
 70
     9
  9
$USERI2
 70
     0
  9
$USERI3
 70
     0
  9
$USERI4
 70
     0
  9
$USERI5
 70
     0
  9
$USERR1
 40
0.0
  9
$USERR2
 40
0.0
  9
$USERR3
 40
0.0
  9
$USERR4
 40
0.0
  9
$USERR5
 40
0.0
  9
$WORLDVIEW
 70
     1
  9
$SHADEDGE
 70
     3
  9
$SHADEDIF
 70
    70
  9
$TILEMODE
 70
     1
  9
$MAXACTVP
 70
    64
  9
$PINSBASE
 10
0.0
 20
0.0
 30
0.0
  9
$PLIMCHECK
 70
     0
  9
$PEXTMIN
 10
1.000000000000000E+20
 20
1.000000000000000E+20
 30
1.000000000000000E+20
  9
$PEXTMAX
 10
-1.000000000000000E+20
 20
-1.000000000000000E+20
 30
-1.000000000000000E+20
  9
$PLIMMIN
 10
0.0
 20
0.0
  9
$PLIMMAX
 10
12.0
 20
9.0
  9
$UNITMODE
 70
     0
  9
$VISRETAIN
 70
     1
  9
$PLINEGEN
 70
     0
  9
$PSLTSCALE
 70
     1
  9
$TREEDEPTH
 70
  3020
  9
$CMLSTYLE
  2
Standard
  9
$CMLJUST
 70
     0
  9
$CMLSCALE
 40
1.0
  9
$PROXYGRAPHICS
 70
     1
  9
$MEASUREMENT
 70
     0
  9
$CELWEIGHT
370
    -1
  9
$ENDCAPS
280
     0
  9
$JOINSTYLE
280
     0
  9
$LWDISPLAY
290
     0
  9
$INSUNITS
 70
     0
  9
$HYPERLINKBASE
  1

  9
$STYLESHEET
  1

  9
$XEDIT
290
     1
  9
$CEPSNTYPE
380
     0
  9
$PSTYLEMODE
290
     1
  9
$FINGERPRINTGUID
  2
{2328FDF8-F6BB-4B48-8C4B-0ED628EE6F65}
  9
$VERSIONGUID
  2
{3BE45AE3-F654-4358-8CFB-A8CF49F90ED4}
  9
$EXTNAMES
290
     1
  9
$PSVPSCALE
 40
0.0
  9
$OLESTARTUP
290
     0
  0
ENDSEC
  0
SECTION
  2
CLASSES
  0
CLASS
  1
ACDBDICTIONARYWDFLT
  2
AcDbDictionaryWithDefault
  3
AutoCAD 2000
 90
        0
280
     0
281
     0
  0
CLASS
  1
ACDBPLACEHOLDER
  2
AcDbPlaceHolder
  3
AutoCAD 2000
 90
        0
280
     0
281
     0
  0
CLASS
  1
LAYOUT
  2
AcDbLayout
  3
AutoCAD 2000
 90
        0
280
     0
281
     0
  0
CLASS
  1
DICTIONARYVAR
  2
AcDbDictionaryVar
  3
AutoCAD 2000
 90
        0
280
     0
281
     0
  0
ENDSEC
  0
SECTION
  2
TABLES
  0
TABLE
  2
VPORT
  5
19
330
0
100
AcDbSymbolTable
 70
     2
  0
VPORT
  5
25B
330
19
100
AcDbSymbolTableRecord
100
AcDbViewportTableRecord
  2
*Active
 70
     0
 10
0.0
 20
0.0
 11
1.0
 21
1.0
 12
105.0089774102475
 22
148.5087866193242
 13
0.0
 23
0.0
 14
1.0
 24
1.0
 15
0.0
 25
0.0
 16
0.0
 26
0.0
 36
1.0
 17
0.0
 27
0.0
 37
0.0
 40
301.3551174273207
 41
2.407317073170731
 42
50.0
 43
0.0
 44
0.0
 50
0.0
 51
0.0
 71
     0
 72
   100
 73
     1
 74
     1
 75
     0
 76
     0
 77
     0
 78
     0
281
     0
 65
     1
110
0.0
120
0.0
130
0.0
111
1.0
121
0.0
131
0.0
112
0.0
122
1.0
132
0.0
 79
     0
146
0.0
  0
ENDTAB
  0
TABLE
  2
LTYPE
  5
14
330
0
100
AcDbSymbolTable
 70
     3
  0
LTYPE
  5
15
330
14
100
AcDbSymbolTableRecord
100
AcDbLinetypeTableRecord
  2
ByBlock
 70
     0
  3

 72
    65
 73
     0
 40
0.0
  0
LTYPE
  5
16
330
14
100
AcDbSymbolTableRecord
100
AcDbLinetypeTableRecord
  2
ByLayer
 70
     0
  3

 72
    65
 73
     0
 40
0.0
  0
LTYPE
  5
8
330
14
100
AcDbSymbolTableRecord
100
AcDbLinetypeTableRecord
  2
Continuous
 70
     0
  3
Solid line
 72
    65
 73
     0
 40
0.0
  0
LTYPE
  5
4A
330
14
100
AcDbSymbolTableRecord
100
AcDbLinetypeTableRecord
  2
DASH
 70
     0
  3
Dash
 72
    65
 73
     2
 40
1.9999960661
 49
0.9999980329999999
 74
     0
 49
-0.9999980329999999
 74
     0
  0
LTYPE
  5
32
330
14
100
AcDbSymbolTableRecord
100
AcDbLinetypeTableRecord
  2
CENTER
 70
     0
  3
Center
 72
    65
 73
     4
 40
9.100006759199999
 49
6.5000119209
 74
     0
 49
-0.7999984026000001
 74
     0
 49
0.9999980329999999
 74
     0
 49
-0.7999984026000001
 74
     0
  0
ENDTAB
  0
TABLE
  2
LAYER
  5
10
330
0
100
AcDbSymbolTable
 70
     1
  0
LAYER
  5
4
330
10
100
AcDbSymbolTableRecord
100
AcDbLayerTableRecord
  2
0
 70
     0
 62
     7
  6
Continuous
370
    -3
390
5
  0
ENDTAB
  0
TABLE
  2
STYLE
  5
11
330
0
100
AcDbSymbolTable
 70
     1
  0
STYLE
  5
12
330
11
100
AcDbSymbolTableRecord
100
AcDbTextStyleTableRecord
  2
STANDARD
 70
     0
 40
0.0
 41
1.0
 50
0.0
 71
     0
 42
2.999994039499997
  3
romans.shx
  4
bigfont.shx
  0
ENDTAB
  0
TABLE
  2
VIEW
  5
17
330
0
100
AcDbSymbolTable
 70
     0
  0
ENDTAB
  0
TABLE
  2
UCS
  5
18
330
0
100
AcDbSymbolTable
 70
     0
  0
ENDTAB
  0
TABLE
  2
APPID
  5
1B
330
0
100
AcDbSymbolTable
 70
     2
  0
APPID
  5
1C
330
1B
100
AcDbSymbolTableRecord
100
AcDbRegAppTableRecord
  2
ACAD
 70
     0
  0
APPID
  5
259
330
1B
100
AcDbSymbolTableRecord
100
AcDbRegAppTableRecord
  2
DCO15
 70
     0
  0
ENDTAB
  0
TABLE
  2
DIMSTYLE
  5
1D
330
0
100
AcDbSymbolTable
 70
     1
100
AcDbDimStyleTable
 71
     0
  0
DIMSTYLE
105
23
330
1D
100
AcDbSymbolTableRecord
100
AcDbDimStyleTableRecord
  2
Standard
 70
     0
340
12
  0
ENDTAB
  0
TABLE
  2
BLOCK_RECORD
  5
1
330
0
100
AcDbSymbolTable
 70
     0
  0
BLOCK_RECORD
  5
2
330
1
100
AcDbSymbolTableRecord
100
AcDbBlockTableRecord
  2
*Model_Space
340
A
  0
BLOCK_RECORD
  5
C
330
1
100
AcDbSymbolTableRecord
100
AcDbBlockTableRecord
  2
*Paper_Space
340
F
  0
ENDTAB
  0
ENDSEC
  0
SECTION
  2
BLOCKS
  0
BLOCK
  5
3
330
2
100
AcDbEntity
  8
0
100
AcDbBlockBegin
  2
*Model_Space
 70
     2
 10
0.0
 20
0.0
 30
0.0
  3
*Model_Space
  1

  0
ENDBLK
  5
9
330
2
100
AcDbEntity
  8
0
100
AcDbBlockEnd
  0
BLOCK
  5
D
330
C
100
AcDbEntity
 67
     1
  8
0
100
AcDbBlockBegin
  2
*Paper_Space
 70
     0
 10
0.0
 20
0.0
 30
0.0
  3
*Paper_Space
  1

  0
ENDBLK
  5
E
330
C
100
AcDbEntity
 67
     1
  8
0
100
AcDbBlockEnd
  0
ENDSEC
  0
SECTION
  2
ENTITIES
  0
LINE
  5
24
330
2
100
AcDbEntity
  8
0
100
AcDbLine
 10
210.0
 20
0.0
 30
0.0
 11
210.0
 21
297.0
 31
0.0
  0
LINE
  5
25
330
2
100
AcDbEntity
  8
0
100
AcDbLine
 10
0.0
 20
297.0
 30
0.0
 11
0.0
 21
0.0
 31
0.0
  0
LINE
  5
26
330
2
100
AcDbEntity
  8
0
 62
     3
100
AcDbLine
 10
130.2665231446999
 20
204.9998967700999
 30
0.0
 11
131.0666940430998
 21
205.0000060822
 31
0.0
  0
LINE
  5
27
330
2
100
AcDbEntity
  8
0
 62
     3
100
AcDbLine
 10
130.2661538763
 20
202.0
 30
0.0
 11
131.0663247748
 21
202.0
 31
0.0
  0
LINE
  5
28
330
2
100
AcDbEntity
  8
0
 62
     3
100
AcDbLine
 10
130.2660697281999
 20
209.8488476796
 30
0.0
 11
131.7660821101
 21
211.3488601879999
 31
0.0
  0
LINE
  5
29
330
2
100
AcDbEntity
  8
0
 62
     3
100
AcDbLine
 10
129.9660327071999
 20
209.9731437839998
 30
0.0
 11
131.3428495158996
 21
211.3499607086999
 31
0.0
  0
LINE
  5
2A
330
2
100
AcDbEntity
  8
0
 62
     3
100
AcDbLine
 10
131.3410375258999
 20
195.6497858519
 30
0.0
 11
129.9661087800999
 21
197.0247144818999
 31
0.0
  0
LINE
  5
2B
330
2
100
AcDbEntity
  8
0
 62
     3
100
AcDbLine
 10
131.7661582989998
 20
195.6489982295
 30
0.0
 11
130.2661457905998
 21
197.1490106114998
 31
0.0
  0
LINE
  5
2C
330
2
100
AcDbEntity
  8
0
100
AcDbLine
 10
0.0
 20
0.0
 30
0.0
 11
210.0
 21
0.0
 31
0.0
  0
LINE
  5
2D
330
2
100
AcDbEntity
  8
0
 62
     3
100
AcDbLine
 10
133.5669189785999
 20
195.0500001336
 30
0.0
 11
124.56636397
 21
194.8499870957999
 31
0.0
  0
LINE
  5
2E
330
2
100
AcDbEntity
  8
0
 62
     3
100
AcDbLine
 10
124.5669329092999
 20
212.1431931533999
 30
0.0
 11
133.5675489381
 21
211.9431787595999
 31
0.0
  0
LINE
  5
2F
330
2
100
AcDbEntity
  8
0
 62
     3
100
AcDbLine
 10
124.5676675481999
 20
212.4500152588
 30
0.0
 11
133.2663042968997
 21
212.2567115391999
 31
0.0
  0
LINE
  5
30
330
2
100
AcDbEntity
  8
0
 62
     3
100
AcDbLine
 10
133.2589933149999
 20
194.7431565114
 30
0.0
 11
124.5663151773999
 21
194.5499852059999
 31
0.0
  0
LINE
  5
31
330
2
100
AcDbEntity
  8
0
  6
CENTER
 62
     3
100
AcDbLine
 10
93.58202606869999
 20
203.5000152588
 30
0.0
 11
135.3075509711
 21
203.5000152588
 31
0.0
  0
LINE
  5
33
330
2
100
AcDbEntity
  8
0
 62
     3
100
AcDbLine
 10
133.5657165691999
 20
160.0499734133
 30
0.0
 11
124.5676675481999
 21
159.8500160643
 31
0.0
  0
LINE
  5
34
330
2
100
AcDbEntity
  8
0
 62
     3
100
AcDbLine
 10
124.5676675481999
 20
177.1431768281
 30
0.0
 11
133.5664268209999
 21
176.9432036956
 31
0.0
  0
LINE
  5
35
330
2
100
AcDbEntity
  8
0
 62
     3
100
AcDbLine
 10
124.5669512139998
 20
177.4500311773
 30
0.0
 11
133.2664483467999
 21
177.2567083381
 31
0.0
  0
LINE
  5
36
330
2
100
AcDbEntity
  8
0
 62
     3
100
AcDbLine
 10
133.2588740121998
 20
159.7431538602999
 30
0.0
 11
124.5662568947
 21
159.5499839108
 31
0.0
  0
LINE
  5
37
330
2
100
AcDbEntity
  8
0
  6
CENTER
 62
     3
100
AcDbLine
 10
92.56735665040002
 20
168.5000152588
 30
0.0
 11
135.8845773382997
 21
168.5000152588
 31
0.0
  0
LINE
  5
38
330
2
100
AcDbEntity
  8
0
 62
     3
100
AcDbLine
 10
74.57095772459997
 20
177.4499969482
 30
0.0
 11
74.57095772459997
 21
159.5499877928999
 31
0.0
  0
LINE
  5
39
330
2
100
AcDbEntity
  8
0
  6
CENTER
 62
     3
100
AcDbLine
 10
65.57094246579999
 20
157.5501678466
 30
0.0
 11
65.57094246579999
 21
179.4501525879
 31
0.0
  0
LINE
  5
3A
330
2
100
AcDbEntity
  8
0
 62
     3
100
AcDbLine
 10
56.57095772459999
 20
177.4499969482
 30
0.0
 11
56.57095772459999
 21
159.5499877928999
 31
0.0
  0
CIRCLE
  5
3B
330
2
100
AcDbEntity
  8
0
 62
     3
100
AcDbCircle
 10
65.57094246579999
 20
168.5
 30
0.0
 40
9.0
  0
LINE
  5
3C
330
2
100
AcDbEntity
  8
0
 62
     3
100
AcDbLine
 10
56.57095772459999
 20
159.5499877928999
 30
0.0
 11
74.57095772459997
 21
159.5499877928999
 31
0.0
  0
LINE
  5
3D
330
2
100
AcDbEntity
  8
0
 62
     3
100
AcDbLine
 10
64.08174568849998
 20
172.3677062988
 30
0.0
 11
64.3664441748
 21
172.3677062988
 31
0.0
  0
LINE
  5
3E
330
2
100
AcDbEntity
  8
0
 62
     3
100
AcDbLine
 10
64.08174568849998
 20
171.0537109375
 30
0.0
 11
65.04535347659999
 21
171.0537109375
 31
0.0
  0
ARC
  5
3F
330
2
100
AcDbEntity
  8
0
 62
     3
100
AcDbCircle
 10
65.57094246579999
 20
168.5000152588
 30
0.0
 40
6.699999809299999
100
AcDbArc
 50
72.6319584263
 51
107.3679509599999
  0
LINE
  5
40
330
2
100
AcDbEntity
  8
0
 62
     3
100
AcDbLine
 10
63.57091194819997
 20
169.5
 30
0.0
 11
67.57091194819998
 21
169.5
 31
0.0
  0
ARC
  5
41
330
2
100
AcDbEntity
  8
0
 62
     3
100
AcDbCircle
 10
65.57094246579999
 20
168.5000152588
 30
0.0
 40
6.699999809299999
100
AcDbArc
 50
255.3012869677
 51
284.6984757969
  0
CIRCLE
  5
42
330
2
100
AcDbEntity
  8
0
 62
     3
100
AcDbCircle
 10
65.57094246579999
 20
168.5
 30
0.0
 40
8.0
  0
CIRCLE
  5
43
330
2
100
AcDbEntity
  8
0
 62
     3
100
AcDbCircle
 10
65.57094246579999
 20
168.5
 30
0.0
 40
7.399999618499996
  0
LINE
  5
44
330
2
100
AcDbEntity
  8
0
 62
     3
100
AcDbLine
 10
56.57095772459999
 20
177.4499969482
 30
0.0
 11
74.57095772459997
 21
177.4499969482
 31
0.0
  0
LINE
  5
45
330
2
100
AcDbEntity
  8
0
  6
CENTER
 62
     3
100
AcDbLine
 10
54.57095772459999
 20
168.5
 30
0.0
 11
76.57095772459998
 21
168.5
 31
0.0
  0
LINE
  5
46
330
2
100
AcDbEntity
  8
0
 62
     3
100
AcDbLine
 10
68.57124764159999
 20
170.6157073973999
 30
0.0
 11
62.57065254879996
 21
170.6157073973999
 31
0.0
  0
LINE
  5
47
330
2
100
AcDbEntity
  8
0
 62
     3
100
AcDbLine
 10
62.57065254879996
 20
173.1999053955
 30
0.0
 11
68.57124764159999
 21
173.1999053955
 31
0.0
  0
LINE
  5
48
330
2
100
AcDbEntity
  8
0
 62
     3
100
AcDbLine
 10
62.07091194819998
 20
164.0000152588
 30
0.0
 11
69.07091194819996
 21
164.0000152588
 31
0.0
  0
LINE
  5
49
330
2
100
AcDbEntity
  8
0
  6
DASH
 62
     3
100
AcDbLine
 10
60.87083870609999
 20
167.9998931884
 30
0.0
 11
70.27086312009998
 21
167.9998931884
 31
0.0
  0
LINE
  5
4B
330
2
100
AcDbEntity
  8
0
  6
DASH
 62
     3
100
AcDbLine
 10
60.87083870609999
 20
168.9998779297
 30
0.0
 11
70.27086312009998
 21
168.9998779297
 31
0.0
  0
LINE
  5
4C
330
2
100
AcDbEntity
  8
0
 62
     3
100
AcDbLine
 10
57.08565193849998
 20
171.5
 30
0.0
 11
58.1546674414
 21
171.5
 31
0.0
  0
LINE
  5
4D
330
2
100
AcDbEntity
  8
0
 62
     3
100
AcDbLine
 10
57.08565193849998
 20
165.5000152588
 30
0.0
 11
58.1546674414
 21
165.5000152588
 31
0.0
  0
LINE
  5
4E
330
2
100
AcDbEntity
  8
0
 62
     3
100
AcDbLine
 10
57.07101547799999
 20
161.8439012874
 30
0.0
 11
58.89720376489997
 21
160.0499797294999
 31
0.0
  0
LINE
  5
4F
330
2
100
AcDbEntity
  8
0
 62
     3
100
AcDbLine
 10
58.89721547659998
 20
176.9499768185999
 30
0.0
 11
57.07100918179996
 21
175.1560080758
 31
0.0
  0
ARC
  5
50
330
2
100
AcDbEntity
  8
0
 62
     3
100
AcDbCircle
 10
64.08174568849998
 20
171.3822021484
 30
0.0
 40
0.3284996748
100
AcDbArc
 50
180.0000906136999
 51
270.0001272691
  0
LINE
  5
51
330
2
100
AcDbEntity
  8
0
 62
     3
100
AcDbLine
 10
63.57805306149998
 20
172.3677062988
 30
0.0
 11
63.57805306149998
 21
171.1194000244
 31
0.0
  0
LINE
  5
52
330
2
100
AcDbEntity
  8
0
 62
     3
100
AcDbLine
 10
62.96484810549998
 20
172.3677062988
 30
0.0
 11
62.96484810549998
 21
171.1194000244
 31
0.0
  0
LINE
  5
53
330
2
100
AcDbEntity
  8
0
 62
     3
100
AcDbLine
 10
62.57065254879996
 20
170.6157073973999
 30
0.0
 11
62.57065254879996
 21
173.1999053955
 31
0.0
  0
LINE
  5
54
330
2
100
AcDbEntity
  8
0
  6
DASH
 62
     3
100
AcDbLine
 10
60.87074715329999
 20
168.9998931884
 30
0.0
 11
60.87074715329999
 21
172.1998291015
 31
0.0
  0
LINE
  5
55
330
2
100
AcDbEntity
  8
0
 62
     3
100
AcDbLine
 10
58.17093331049997
 20
165.4603271484
 30
0.0
 11
58.17093331049997
 21
171.5397949218
 31
0.0
  0
LINE
  5
56
330
2
100
AcDbEntity
  8
0
 62
     3
100
AcDbLine
 10
59.57098955889996
 20
170.9998149164999
 30
0.0
 11
60.0709611266
 21
172.1997473917999
 31
0.0
  0
LINE
  5
57
330
2
100
AcDbEntity
  8
0
 62
     3
100
AcDbLine
 10
59.57088626979999
 20
170.9997014584
 30
0.0
 11
60.07090447769996
 21
172.1997467688999
 31
0.0
  0
LINE
  5
58
330
2
100
AcDbEntity
  8
0
 62
     3
100
AcDbLine
 10
60.52098519039998
 20
168.3499908446999
 30
0.0
 11
61.42100960449997
 21
168.3499908446999
 31
0.0
  0
LINE
  5
59
330
2
100
AcDbEntity
  8
0
 62
     3
100
AcDbLine
 10
60.52098519039998
 20
168.6499023437
 30
0.0
 11
61.42100960449997
 21
168.6499023437
 31
0.0
  0
LINE
  5
5A
330
2
100
AcDbEntity
  8
0
 62
     3
100
AcDbLine
 10
60.57090551579998
 20
164.7998446503
 30
0.0
 11
61.77097247979998
 21
162.9998534218
 31
0.0
  0
LINE
  5
5B
330
2
100
AcDbEntity
  8
0
 62
     3
100
AcDbLine
 10
60.57081553979998
 20
164.7998224476
 30
0.0
 11
61.77081021139997
 21
162.9998013629999
 31
0.0
  0
LINE
  5
5C
330
2
100
AcDbEntity
  8
0
 62
     3
100
AcDbLine
 10
59.57087069279999
 20
165.9996983099
 30
0.0
 11
60.070874299
 21
164.7998122123999
 31
0.0
  0
LINE
  5
5D
330
2
100
AcDbEntity
  8
0
  6
DASH
 62
     3
100
AcDbLine
 10
60.87074715329999
 20
164.7999420166
 30
0.0
 11
60.87074715329999
 21
167.9998931884
 31
0.0
  0
LINE
  5
5E
330
2
100
AcDbEntity
  8
0
 62
     3
100
AcDbLine
 10
59.57079898009997
 20
165.9997581724
 30
0.0
 11
60.07080020159998
 21
164.7997553494
 31
0.0
  0
LINE
  5
5F
330
2
100
AcDbEntity
  8
0
  6
DASH
 62
     3
100
AcDbLine
 10
60.87092197369997
 20
164.7999724187999
 30
0.0
 11
60.5708731456
 21
164.7999749365999
 31
0.0
  0
LINE
  5
60
330
2
100
AcDbEntity
  8
0
 62
     3
100
AcDbLine
 10
60.07069832519995
 20
164.7999420166
 30
0.0
 11
60.57080513669999
 21
164.7999420166
 31
0.0
  0
LINE
  5
61
330
2
100
AcDbEntity
  8
0
 62
     3
100
AcDbLine
 10
58.60596138669999
 20
170.9997100829999
 30
0.0
 11
59.57080513669999
 21
170.9997100829999
 31
0.0
  0
LINE
  5
62
330
2
100
AcDbEntity
  8
0
 62
     3
100
AcDbLine
 10
59.57069832519995
 20
170.9998474120999
 30
0.0
 11
58.60597664549999
 21
170.9998474120999
 31
0.0
  0
LINE
  5
63
330
2
100
AcDbEntity
  8
0
 62
     3
100
AcDbLine
 10
58.60596138669999
 20
165.9997711181
 30
0.0
 11
59.57080513669999
 21
165.9997711181
 31
0.0
  0
LINE
  5
64
330
2
100
AcDbEntity
  8
0
 62
     3
100
AcDbLine
 10
59.57069832519995
 20
165.9998931884
 30
0.0
 11
58.60597664549999
 21
165.9998931884
 31
0.0
  0
LINE
  5
65
330
2
100
AcDbEntity
  8
0
 62
     3
100
AcDbLine
 10
59.22072273929996
 20
167.0998687743999
 30
0.0
 11
59.72072273929999
 21
167.0998687743999
 31
0.0
  0
LINE
  5
66
330
2
100
AcDbEntity
  8
0
 62
     3
100
AcDbLine
 10
59.22072273929996
 20
169.8999176025
 30
0.0
 11
59.72072273929999
 21
169.8999176025
 31
0.0
  0
LINE
  5
67
330
2
100
AcDbEntity
  8
0
 62
     3
100
AcDbLine
 10
58.87085396479998
 20
169.1998291014999
 30
0.0
 11
58.87085396479998
 21
167.7998199462999
 31
0.0
  0
LINE
  5
68
330
2
100
AcDbEntity
  8
0
 62
     3
100
AcDbLine
 10
58.87085396479998
 20
167.7998199462999
 30
0.0
 11
59.2208295508
 21
167.7998199462999
 31
0.0
  0
LINE
  5
69
330
2
100
AcDbEntity
  8
0
 62
     3
100
AcDbLine
 10
58.87085396479998
 20
169.1998291014999
 30
0.0
 11
59.2208295508
 21
169.1998291014999
 31
0.0
  0
LINE
  5
6A
330
2
100
AcDbEntity
  8
0
 62
     3
100
AcDbLine
 10
58.87074715329998
 20
167.7999420166
 30
0.0
 11
59.22072273929996
 21
167.7999420166
 31
0.0
  0
LINE
  5
6B
330
2
100
AcDbEntity
  8
0
 62
     3
100
AcDbLine
 10
58.87074715329998
 20
169.1999664306
 30
0.0
 11
59.22072273929996
 21
169.1999664306
 31
0.0
  0
LINE
  5
6C
330
2
100
AcDbEntity
  8
0
 62
     3
100
AcDbLine
 10
58.87074715329998
 20
169.1999664306
 30
0.0
 11
58.87074715329998
 21
167.7999420166
 31
0.0
  0
LINE
  5
6D
330
2
100
AcDbEntity
  8
0
 62
     3
100
AcDbLine
 10
59.22072273929996
 20
169.8999176025
 30
0.0
 11
59.22072273929996
 21
167.0998687743999
 31
0.0
  0
ARC
  5
6E
330
2
100
AcDbEntity
  8
0
 62
     3
100
AcDbCircle
 10
65.57094246579999
 20
168.5000152588
 30
0.0
 40
7.399990081799999
100
AcDbArc
 50
160.2551438921
 51
199.7454398616999
  0
ARC
  5
6F
330
2
100
AcDbEntity
  8
0
 62
     3
100
AcDbCircle
 10
60.52101570799999
 20
168.5000152588
 30
0.0
 40
0.1499977112
100
AcDbArc
 50
90.00003665540001
 51
269.9998914002
  0
LINE
  5
70
330
2
100
AcDbEntity
  8
0
  6
DASH
 62
     3
100
AcDbLine
 10
59.57069832519995
 20
167.0998687743999
 30
0.0
 11
59.57069832519995
 21
165.9998931884
 31
0.0
  0
LINE
  5
71
330
2
100
AcDbEntity
  8
0
 62
     3
100
AcDbLine
 10
59.72072273929999
 20
169.8999176025
 30
0.0
 11
59.72072273929999
 21
167.0998687743999
 31
0.0
  0
LINE
  5
72
330
2
100
AcDbEntity
  8
0
  6
DASH
 62
     3
100
AcDbLine
 10
59.57069832519995
 20
170.9998474120999
 30
0.0
 11
59.57069832519995
 21
169.8999176025
 31
0.0
  0
LINE
  5
73
330
2
100
AcDbEntity
  8
0
 62
     3
100
AcDbLine
 10
62.07091194819998
 20
166.5000152588
 30
0.0
 11
62.07091194819998
 21
164.0000152588
 31
0.0
  0
LINE
  5
74
330
2
100
AcDbEntity
  8
0
 62
     3
100
AcDbLine
 10
61.77087837889999
 20
162.9998931883999
 30
0.0
 11
63.87085396479998
 21
162.9998931883999
 31
0.0
  0
LINE
  5
75
330
2
100
AcDbEntity
  8
0
 62
     3
100
AcDbLine
 10
62.27092415529998
 20
162.4998931883999
 30
0.0
 11
63.37089974119999
 21
162.4998931883999
 31
0.0
  0
LINE
  5
76
330
2
100
AcDbEntity
  8
0
 62
     3
100
AcDbLine
 10
63.87089974119999
 20
163.0000152588
 30
0.0
 11
61.77092415529997
 21
163.0000152588
 31
0.0
  0
LINE
  5
77
330
2
100
AcDbEntity
  8
0
 62
     3
100
AcDbLine
 10
62.17077602829998
 20
162.9997831178999
 30
0.0
 11
62.27077656659997
 21
162.4997822197999
 31
0.0
  0
LINE
  5
78
330
2
100
AcDbEntity
  8
0
 62
     3
100
AcDbLine
 10
62.57095772459999
 20
160.0147247313999
 30
0.0
 11
62.57095772459999
 21
161.0836486816
 31
0.0
  0
LINE
  5
79
330
2
100
AcDbEntity
  8
0
 62
     3
100
AcDbLine
 10
63.87085396479998
 20
162.9998321532999
 30
0.0
 11
63.87085396479998
 21
162.0189971922999
 31
0.0
  0
LINE
  5
7A
330
2
100
AcDbEntity
  8
0
 62
     3
100
AcDbLine
 10
63.47083035279998
 20
162.9999451824
 30
0.0
 11
63.37083374919997
 21
162.499959034
 31
0.0
  0
LINE
  5
7B
330
2
100
AcDbEntity
  8
0
 62
     3
100
AcDbLine
 10
61.72093636229999
 20
168.6499023437
 30
0.0
 11
62.62096077639998
 21
168.6499023437
 31
0.0
  0
LINE
  5
7C
330
2
100
AcDbEntity
  8
0
 62
     3
100
AcDbLine
 10
61.72093636229999
 20
168.3499908446999
 30
0.0
 11
62.62096077639998
 21
168.3499908446999
 31
0.0
  0
LINE
  5
7D
330
2
100
AcDbEntity
  8
0
 62
     3
100
AcDbLine
 10
62.07091194819998
 20
166.5000152588
 30
0.0
 11
63.57091194819997
 21
166.5000152588
 31
0.0
  0
LINE
  5
7E
330
2
100
AcDbEntity
  8
0
 62
     3
100
AcDbLine
 10
61.72093636229999
 20
168.3499908446999
 30
0.0
 11
61.72093636229999
 21
167.4499664305998
 31
0.0
  0
LINE
  5
7F
330
2
100
AcDbEntity
  8
0
 62
     3
100
AcDbLine
 10
61.72093636229999
 20
169.5499267578
 30
0.0
 11
61.72093636229999
 21
168.650024414
 31
0.0
  0
LINE
  5
80
330
2
100
AcDbEntity
  8
0
 62
     3
100
AcDbLine
 10
61.42100960449997
 20
168.3499908446999
 30
0.0
 11
61.42100960449997
 21
167.4499664305998
 31
0.0
  0
LINE
  5
81
330
2
100
AcDbEntity
  8
0
 62
     3
100
AcDbLine
 10
61.42100960449997
 20
169.5499267578
 30
0.0
 11
61.42100960449997
 21
168.650024414
 31
0.0
  0
ARC
  5
82
330
2
100
AcDbEntity
  8
0
 62
     3
100
AcDbCircle
 10
61.57095772459999
 20
167.4499664305998
 30
0.0
 40
0.1499977112
100
AcDbArc
 50
180.0000906136999
 51
359.9999273724998
  0
ARC
  5
83
330
2
100
AcDbEntity
  8
0
 62
     3
100
AcDbCircle
 10
61.57094246579998
 20
169.5499420166
 30
0.0
 40
0.1499977112
100
AcDbArc
 50
0.0
 51
179.9999093863
  0
ARC
  5
84
330
2
100
AcDbEntity
  8
0
 62
     3
100
AcDbCircle
 10
63.51234871579999
 20
171.1194000244
 30
0.0
 40
0.065699875355
100
AcDbArc
 50
270.0001819106
 51
0.0
  0
LINE
  5
85
330
2
100
AcDbEntity
  8
0
 62
     3
100
AcDbLine
 10
63.57091194819997
 20
166.5000152588
 30
0.0
 11
63.57091194819997
 21
169.5
 31
0.0
  0
ARC
  5
86
330
2
100
AcDbEntity
  8
0
 62
     3
100
AcDbCircle
 10
63.03055245119998
 20
171.1194000244
 30
0.0
 40
0.065699875355
100
AcDbArc
 50
180.0000906136999
 51
270.0001272691
  0
ARC
  5
87
330
2
100
AcDbEntity
  8
0
 62
     3
100
AcDbCircle
 10
62.62099129389998
 20
168.5000152588
 30
0.0
 40
0.1499977112
100
AcDbArc
 50
270.0001272691
 51
89.9999273723999
  0
LINE
  5
88
330
2
100
AcDbEntity
  8
0
 62
     3
100
AcDbLine
 10
63.03055245119998
 20
171.0537109375
 30
0.0
 11
63.51234871579999
 21
171.0537109375
 31
0.0
  0
LINE
  5
89
330
2
100
AcDbEntity
  8
0
 62
     3
100
AcDbLine
 10
62.0707670299
 20
174.199733138
 30
0.0
 11
60.57082575909999
 21
172.1998416416999
 31
0.0
  0
LINE
  5
8A
330
2
100
AcDbEntity
  8
0
 62
     3
100
AcDbLine
 10
60.07080513669999
 20
172.1997833252
 30
0.0
 11
60.57080513669999
 21
172.1997833252
 31
0.0
  0
LINE
  5
8B
330
2
100
AcDbEntity
  8
0
  6
DASH
 62
     3
100
AcDbLine
 10
60.87086922359997
 20
172.1998291015
 30
0.0
 11
60.5708203955
 21
172.1998291015
 31
0.0
  0
LINE
  5
8C
330
2
100
AcDbEntity
  8
0
 62
     3
100
AcDbLine
 10
60.07069832519995
 20
172.1998291015
 30
0.0
 11
60.57069832519996
 21
172.1998291015
 31
0.0
  0
LINE
  5
8D
330
2
100
AcDbEntity
  8
0
 62
     3
100
AcDbLine
 10
62.57095772459999
 20
175.9161529541
 30
0.0
 11
62.57095772459999
 21
176.9853057861
 31
0.0
  0
LINE
  5
8E
330
2
100
AcDbEntity
  8
0
 62
     3
100
AcDbLine
 10
62.07080513669999
 20
174.1997833252
 30
0.0
 11
63.57080513669997
 21
174.1997833252
 31
0.0
  0
LINE
  5
8F
330
2
100
AcDbEntity
  8
0
 62
     3
100
AcDbLine
 10
63.57085091309997
 20
174.1998901366999
 30
0.0
 11
62.07097298339998
 21
174.1998901366999
 31
0.0
  0
LINE
  5
90
330
2
100
AcDbEntity
  8
0
 62
     3
100
AcDbLine
 10
63.37089974119999
 20
174.6998901367
 30
0.0
 11
62.27092415529998
 21
174.6998901367
 31
0.0
  0
LINE
  5
91
330
2
100
AcDbEntity
  8
0
 62
     3
100
AcDbLine
 10
62.27080652529997
 20
174.6999040768999
 30
0.0
 11
62.17080901
 21
174.1999181108
 31
0.0
  0
ARC
  5
92
330
2
100
AcDbEntity
  8
0
 62
     3
100
AcDbCircle
 10
64.08174568849998
 20
172.0392150879
 30
0.0
 40
0.3284996748
100
AcDbArc
 50
89.99992737239997
 51
179.9998001033
  0
ARC
  5
93
330
2
100
AcDbEntity
  8
0
 62
     3
100
AcDbCircle
 10
63.51234871579999
 20
172.6962127684999
 30
0.0
 40
0.065699875355
100
AcDbArc
 50
0.0
 51
89.99987273089997
  0
LINE
  5
94
330
2
100
AcDbEntity
  8
0
 62
     3
100
AcDbLine
 10
63.57805306149998
 20
172.6962127684999
 30
0.0
 11
63.57805306149998
 21
172.4990997313999
 31
0.0
  0
LINE
  5
95
330
2
100
AcDbEntity
  8
0
 62
     3
100
AcDbLine
 10
63.75325447749998
 20
172.0391998291
 30
0.0
 11
63.75325447749998
 21
171.3822021484
 31
0.0
  0
LINE
  5
96
330
2
100
AcDbEntity
  8
0
 62
     3
100
AcDbLine
 10
63.57080513669997
 20
174.1997833252
 30
0.0
 11
63.57080513669997
 21
174.894241333
 31
0.0
  0
LINE
  5
97
330
2
100
AcDbEntity
  8
0
 62
     3
100
AcDbLine
 10
63.37075992359999
 20
174.6997746495999
 30
0.0
 11
63.47075955009995
 21
174.1997735690999
 31
0.0
  0
LINE
  5
98
330
2
100
AcDbEntity
  8
0
 62
     3
100
AcDbLine
 10
63.57069832519997
 20
174.8943786621
 30
0.0
 11
63.57069832519997
 21
174.1998443602999
 31
0.0
  0
ARC
  5
99
330
2
100
AcDbEntity
  8
0
 62
     3
100
AcDbCircle
 10
63.03055245119998
 20
172.6962127684999
 30
0.0
 40
0.065699875355
100
AcDbArc
 50
89.99992737239997
 51
179.9998001033
  0
LINE
  5
9A
330
2
100
AcDbEntity
  8
0
 62
     3
100
AcDbLine
 10
62.96484810549998
 20
172.6962127684999
 30
0.0
 11
62.96484810549998
 21
172.4990997313999
 31
0.0
  0
LINE
  5
9B
330
2
100
AcDbEntity
  8
0
 62
     3
100
AcDbLine
 10
62.96484810549998
 20
172.4990997313999
 30
0.0
 11
63.57805306149998
 21
172.4990997313999
 31
0.0
  0
LINE
  5
9C
330
2
100
AcDbEntity
  8
0
 62
     3
100
AcDbLine
 10
63.03055245119998
 20
172.7619018553999
 30
0.0
 11
63.51234871579999
 21
172.7619018553999
 31
0.0
  0
LINE
  5
9D
330
2
100
AcDbEntity
  8
0
 62
     3
100
AcDbLine
 10
62.96484810549998
 20
172.3677062988
 30
0.0
 11
63.57805306149998
 21
172.3677062988
 31
0.0
  0
LINE
  5
9E
330
2
100
AcDbEntity
  8
0
 62
     3
100
AcDbLine
 10
70.57080513669999
 20
172.1997833252
 30
0.0
 11
71.07080513669998
 21
172.1997833252
 31
0.0
  0
LINE
  5
9F
330
2
100
AcDbEntity
  8
0
 62
     3
100
AcDbLine
 10
70.57069832519997
 20
172.1998291015
 30
0.0
 11
71.07069832519997
 21
172.1998291015
 31
0.0
  0
LINE
  5
A0
330
2
100
AcDbEntity
  8
0
 62
     3
100
AcDbLine
 10
70.57069832519997
 20
164.7999420166
 30
0.0
 11
71.07069832519997
 21
164.7999420166
 31
0.0
  0
LINE
  5
A1
330
2
100
AcDbEntity
  8
0
  6
DASH
 62
     3
100
AcDbLine
 10
70.2707715674
 20
168.9998931884
 30
0.0
 11
70.2707715674
 21
172.1998291015
 31
0.0
  0
ARC
  5
A2
330
2
100
AcDbEntity
  8
0
 62
     3
100
AcDbCircle
 10
67.19153267580001
 20
171.3822174071999
 30
0.0
 40
0.3284996748
100
AcDbArc
 50
180.0000906136999
 51
270.0001272691
  0
LINE
  5
A3
330
2
100
AcDbEntity
  8
0
 62
     3
100
AcDbLine
 10
68.17705208499998
 20
171.5792999267
 30
0.0
 11
68.17705208499998
 21
171.1194000244
 31
0.0
  0
LINE
  5
A4
330
2
100
AcDbEntity
  8
0
 62
     3
100
AcDbLine
 10
66.6878400488
 20
171.4479064941
 30
0.0
 11
66.6878400488
 21
171.1194000244
 31
0.0
  0
LINE
  5
A5
330
2
100
AcDbEntity
  8
0
 62
     3
100
AcDbLine
 10
68.57124764159999
 20
173.1999053955
 30
0.0
 11
68.57124764159999
 21
170.6157073973999
 31
0.0
  0
ARC
  5
A6
330
2
100
AcDbEntity
  8
0
 62
     3
100
AcDbCircle
 10
65.61473519039998
 20
171.3822174071999
 30
0.0
 40
0.3284996748
100
AcDbArc
 50
180.0000906136999
 51
270.0001272691
  0
LINE
  5
A7
330
2
100
AcDbEntity
  8
0
 62
     3
100
AcDbLine
 10
65.11104256349998
 20
172.6962127684999
 30
0.0
 11
65.11104256349998
 21
171.1194000244
 31
0.0
  0
LINE
  5
A8
330
2
100
AcDbEntity
  8
0
 62
     3
100
AcDbLine
 10
67.19154793459998
 20
171.0537109375
 30
0.0
 11
68.11134773929999
 21
171.0537109375
 31
0.0
  0
LINE
  5
A9
330
2
100
AcDbEntity
  8
0
 62
     3
100
AcDbLine
 10
67.57091194819998
 20
166.5000152588
 30
0.0
 11
69.07091194819996
 21
166.5000152588
 31
0.0
  0
LINE
  5
AA
330
2
100
AcDbEntity
  8
0
 62
     3
100
AcDbLine
 10
69.37088448239999
 20
163.0000152588
 30
0.0
 11
67.27090889649996
 21
163.0000152588
 31
0.0
  0
LINE
  5
AB
330
2
100
AcDbEntity
  8
0
 62
     3
100
AcDbLine
 10
67.27080208499998
 20
162.0192260741999
 30
0.0
 11
67.27080208499998
 21
162.9999389648
 31
0.0
  0
LINE
  5
AC
330
2
100
AcDbEntity
  8
0
 62
     3
100
AcDbLine
 10
65.61475044919999
 20
171.0537109375
 30
0.0
 11
66.62215096189999
 21
171.0537109375
 31
0.0
  0
ARC
  5
AD
330
2
100
AcDbEntity
  8
0
 62
     3
100
AcDbCircle
 10
65.04533821779998
 20
171.1194000244
 30
0.0
 40
0.065699875355
100
AcDbArc
 50
270.0001819106
 51
0.0
  0
LINE
  5
AE
330
2
100
AcDbEntity
  8
0
 62
     3
100
AcDbLine
 10
67.57091194819998
 20
169.5
 30
0.0
 11
67.57091194819998
 21
166.5000152588
 31
0.0
  0
ARC
  5
AF
330
2
100
AcDbEntity
  8
0
 62
     3
100
AcDbCircle
 10
66.62213570309997
 20
171.1194152832
 30
0.0
 40
0.065699875355
100
AcDbArc
 50
270.0001819106
 51
0.0
  0
LINE
  5
B0
330
2
100
AcDbEntity
  8
0
  6
DASH
 62
     3
100
AcDbLine
 10
70.2707715674
 20
164.7999420166
 30
0.0
 11
70.2707715674
 21
167.9998931884
 31
0.0
  0
LINE
  5
B1
330
2
100
AcDbEntity
  8
0
 62
     3
100
AcDbLine
 10
69.07091194819996
 20
166.5000152588
 30
0.0
 11
69.07091194819996
 21
164.0000152588
 31
0.0
  0
LINE
  5
B2
330
2
100
AcDbEntity
  8
0
 62
     3
100
AcDbLine
 10
68.87085393609999
 20
162.4999057452999
 30
0.0
 11
68.97085145140001
 21
162.9998917113999
 31
0.0
  0
LINE
  5
B3
330
2
100
AcDbEntity
  8
0
 62
     3
100
AcDbLine
 10
68.57094246579999
 20
160.0147247313999
 30
0.0
 11
68.57094246579999
 21
161.0836486816
 31
0.0
  0
LINE
  5
B4
330
2
100
AcDbEntity
  8
0
 62
     3
100
AcDbLine
 10
67.77080248069998
 20
162.4997879582998
 30
0.0
 11
67.67080285419999
 21
162.9997890388
 31
0.0
  0
LINE
  5
B5
330
2
100
AcDbEntity
  8
0
 62
     3
100
AcDbLine
 10
67.77090889649996
 20
162.4998931883999
 30
0.0
 11
68.87088448239999
 21
162.4998931883999
 31
0.0
  0
LINE
  5
B6
330
2
100
AcDbEntity
  8
0
  6
DASH
 62
     3
100
AcDbLine
 10
70.27095897819997
 20
164.7998880675
 30
0.0
 11
70.57088573599997
 21
164.7998855625
 31
0.0
  0
LINE
  5
B7
330
2
100
AcDbEntity
  8
0
 62
     3
100
AcDbLine
 10
70.57072831809998
 20
164.7998366548
 30
0.0
 11
69.37083664109997
 21
162.9999119132
 31
0.0
  0
LINE
  5
B8
330
2
100
AcDbEntity
  8
0
 62
     3
100
AcDbLine
 10
68.52098519039998
 20
168.6499023437
 30
0.0
 11
70.62096077639998
 21
168.6499023437
 31
0.0
  0
LINE
  5
B9
330
2
100
AcDbEntity
  8
0
 62
     3
100
AcDbLine
 10
68.52098519039998
 20
168.3499908446999
 30
0.0
 11
70.62096077639998
 21
168.3499908446999
 31
0.0
  0
ARC
  5
BA
330
2
100
AcDbEntity
  8
0
 62
     3
100
AcDbCircle
 10
68.11133248049997
 20
171.1194152832
 30
0.0
 40
0.065699875355
100
AcDbArc
 50
270.0001819106
 51
0.0
  0
ARC
  5
BB
330
2
100
AcDbEntity
  8
0
 62
     3
100
AcDbCircle
 10
68.52101570799999
 20
168.5000152588
 30
0.0
 40
0.1499977112
100
AcDbArc
 50
90.00003665540001
 51
269.9998914002
  0
ARC
  5
BC
330
2
100
AcDbEntity
  8
0
 62
     3
100
AcDbCircle
 10
70.62099129389999
 20
168.5000152588
 30
0.0
 40
0.1499977112
100
AcDbArc
 50
270.0001272691
 51
89.9999273723999
  0
LINE
  5
BD
330
2
100
AcDbEntity
  8
0
 62
     3
100
AcDbLine
 10
67.19154793459998
 20
171.7107086181
 30
0.0
 11
68.17705208499998
 21
171.7107086181
 31
0.0
  0
LINE
  5
BE
330
2
100
AcDbEntity
  8
0
 62
     3
100
AcDbLine
 10
67.19154793459998
 20
171.5792999267
 30
0.0
 11
68.17705208499998
 21
171.5792999267
 31
0.0
  0
LINE
  5
BF
330
2
100
AcDbEntity
  8
0
 62
     3
100
AcDbLine
 10
67.19154793459998
 20
172.2363128661999
 30
0.0
 11
68.11134773929999
 21
172.2363128661999
 31
0.0
  0
LINE
  5
C0
330
2
100
AcDbEntity
  8
0
 62
     3
100
AcDbLine
 10
67.57080513669999
 20
174.1997833252
 30
0.0
 11
69.07080513669999
 21
174.1997833252
 31
0.0
  0
LINE
  5
C1
330
2
100
AcDbEntity
  8
0
 62
     3
100
AcDbLine
 10
69.07095772459999
 20
174.1998901366999
 30
0.0
 11
67.57083565429997
 21
174.1998901366999
 31
0.0
  0
LINE
  5
C2
330
2
100
AcDbEntity
  8
0
 62
     3
100
AcDbLine
 10
65.61475044919999
 20
172.2363128661999
 30
0.0
 11
66.62215096189999
 21
172.2363128661999
 31
0.0
  0
ARC
  5
C3
330
2
100
AcDbEntity
  8
0
 62
     3
100
AcDbCircle
 10
65.61473519039998
 20
171.9078063963999
 30
0.0
 40
0.3284996748
100
AcDbArc
 50
89.99992737239997
 51
179.9998001033
  0
ARC
  5
C4
330
2
100
AcDbEntity
  8
0
 62
     3
100
AcDbCircle
 10
65.04533821779998
 20
172.6962127684999
 30
0.0
 40
0.065699875355
100
AcDbArc
 50
0.0
 51
89.99987273089997
  0
LINE
  5
C5
330
2
100
AcDbEntity
  8
0
 62
     3
100
AcDbLine
 10
65.28624397949997
 20
171.9078063963999
 30
0.0
 11
65.28624397949997
 21
171.3822021484
 31
0.0
  0
ARC
  5
C6
330
2
100
AcDbEntity
  8
0
 62
     3
100
AcDbCircle
 10
64.56354195309997
 20
172.6962127684999
 30
0.0
 40
0.065699875355
100
AcDbArc
 50
89.99992737239997
 51
179.9998001033
  0
LINE
  5
C7
330
2
100
AcDbEntity
  8
0
 62
     3
100
AcDbLine
 10
64.3664441748
 20
171.3822021484
 30
0.0
 11
64.49785286619999
 21
171.3822021484
 31
0.0
  0
LINE
  5
C8
330
2
100
AcDbEntity
  8
0
 62
     3
100
AcDbLine
 10
64.49785286619999
 20
172.6962127684999
 30
0.0
 11
64.49785286619999
 21
171.3822021484
 31
0.0
  0
LINE
  5
C9
330
2
100
AcDbEntity
  8
0
 62
     3
100
AcDbLine
 10
64.3664441748
 20
172.3677062988
 30
0.0
 11
64.3664441748
 21
171.3822021484
 31
0.0
  0
LINE
  5
CA
330
2
100
AcDbEntity
  8
0
 62
     3
100
AcDbLine
 10
64.56355721189999
 20
172.7619018553999
 30
0.0
 11
65.04535347659999
 21
172.7619018553999
 31
0.0
  0
ARC
  5
CB
330
2
100
AcDbEntity
  8
0
 62
     3
100
AcDbCircle
 10
67.19153267580001
 20
171.9078216551998
 30
0.0
 40
0.3284996748
100
AcDbArc
 50
89.99992737239997
 51
179.9998001033
  0
LINE
  5
CC
330
2
100
AcDbEntity
  8
0
 62
     3
100
AcDbLine
 10
67.19154793459998
 20
171.7107086181
 30
0.0
 11
67.19154793459998
 21
171.5792999267
 31
0.0
  0
LINE
  5
CD
330
2
100
AcDbEntity
  8
0
 62
     3
100
AcDbLine
 10
66.86304146479996
 20
171.9078063963999
 30
0.0
 11
66.86304146479996
 21
171.3822021484
 31
0.0
  0
LINE
  5
CE
330
2
100
AcDbEntity
  8
0
 62
     3
100
AcDbLine
 10
66.6878400488
 20
172.1706085204999
 30
0.0
 11
66.6878400488
 21
171.5792999267
 31
0.0
  0
LINE
  5
CF
330
2
100
AcDbEntity
  8
0
 62
     3
100
AcDbLine
 10
67.57080513669999
 20
174.1997833252
 30
0.0
 11
67.57080513669999
 21
174.894241333
 31
0.0
  0
LINE
  5
D0
330
2
100
AcDbEntity
  8
0
 62
     3
100
AcDbLine
 10
67.57069832519997
 20
174.8943786621
 30
0.0
 11
67.57069832519997
 21
174.1998443602999
 31
0.0
  0
LINE
  5
D1
330
2
100
AcDbEntity
  8
0
 62
     3
100
AcDbLine
 10
65.94324166019998
 20
171.9078063963999
 30
0.0
 11
66.07465035159998
 21
171.9078063963999
 31
0.0
  0
LINE
  5
D2
330
2
100
AcDbEntity
  8
0
 62
     3
100
AcDbLine
 10
66.07465035159998
 20
171.9078063963999
 30
0.0
 11
66.07465035159998
 21
171.5792999267
 31
0.0
  0
LINE
  5
D3
330
2
100
AcDbEntity
  8
0
 62
     3
100
AcDbLine
 10
65.94324166019998
 20
171.9078063963999
 30
0.0
 11
65.94324166019998
 21
171.4479064941
 31
0.0
  0
ARC
  5
D4
330
2
100
AcDbEntity
  8
0
 62
     3
100
AcDbCircle
 10
66.62213570309997
 20
172.1706085204999
 30
0.0
 40
0.065699875355
100
AcDbArc
 50
0.0
 51
89.99987273089997
  0
LINE
  5
D5
330
2
100
AcDbEntity
  8
0
 62
     3
100
AcDbLine
 10
65.94324166019998
 20
171.4479064941
 30
0.0
 11
66.6878400488
 21
171.4479064941
 31
0.0
  0
LINE
  5
D6
330
2
100
AcDbEntity
  8
0
 62
     3
100
AcDbLine
 10
66.07465035159998
 20
171.5792999267
 30
0.0
 11
66.6878400488
 21
171.5792999267
 31
0.0
  0
LINE
  5
D7
330
2
100
AcDbEntity
  8
0
 62
     3
100
AcDbLine
 10
68.57094246579999
 20
175.9161529541
 30
0.0
 11
68.57094246579999
 21
176.9853057861
 31
0.0
  0
LINE
  5
D8
330
2
100
AcDbEntity
  8
0
 62
     3
100
AcDbLine
 10
69.07045600629999
 20
174.1994526949999
 30
0.0
 11
70.57045561889998
 21
172.1994523672
 31
0.0
  0
LINE
  5
D9
330
2
100
AcDbEntity
  8
0
 62
     3
100
AcDbLine
 10
69.07044443560001
 20
174.1994869373
 30
0.0
 11
70.57042035529997
 21
172.1994688770999
 31
0.0
  0
LINE
  5
DA
330
2
100
AcDbEntity
  8
0
 62
     3
100
AcDbLine
 10
68.9708233513
 20
174.1997795457
 30
0.0
 11
68.87082281309997
 21
174.6997804437999
 31
0.0
  0
ARC
  5
DB
330
2
100
AcDbEntity
  8
0
 62
     3
100
AcDbCircle
 10
68.11133248049997
 20
172.1706085204999
 30
0.0
 40
0.065699875355
100
AcDbArc
 50
0.0
 51
89.99987273089997
  0
LINE
  5
DC
330
2
100
AcDbEntity
  8
0
 62
     3
100
AcDbLine
 10
68.17705208499998
 20
172.1706085204999
 30
0.0
 11
68.17705208499998
 21
171.7107086181
 31
0.0
  0
LINE
  5
DD
330
2
100
AcDbEntity
  8
0
 62
     3
100
AcDbLine
 10
67.67086708289998
 20
174.1999006059999
 30
0.0
 11
67.77086368649998
 21
174.6998867543999
 31
0.0
  0
LINE
  5
DE
330
2
100
AcDbEntity
  8
0
 62
     3
100
AcDbLine
 10
68.87088448239999
 20
174.6998901367
 30
0.0
 11
67.77090889649996
 21
174.6998901367
 31
0.0
  0
LINE
  5
DF
330
2
100
AcDbEntity
  8
0
  6
DASH
 62
     3
100
AcDbLine
 10
70.27083209469997
 20
172.1997892661
 30
0.0
 11
70.57075885259997
 21
172.1997846013
 31
0.0
  0
LINE
  5
E0
330
2
100
AcDbEntity
  8
0
 62
     3
100
AcDbLine
 10
71.07076866769998
 20
172.1997052258999
 30
0.0
 11
71.57076332299998
 21
170.9997162555
 31
0.0
  0
LINE
  5
E1
330
2
100
AcDbEntity
  8
0
 62
     3
100
AcDbLine
 10
71.07067127669998
 20
172.1996930238
 30
0.0
 11
71.57066624199998
 21
170.9997041309
 31
0.0
  0
LINE
  5
E2
330
2
100
AcDbEntity
  8
0
 62
     3
100
AcDbLine
 10
72.97084480959998
 20
165.4603271484
 30
0.0
 11
72.97084480959998
 21
171.5397949218
 31
0.0
  0
LINE
  5
E3
330
2
100
AcDbEntity
  8
0
 62
     3
100
AcDbLine
 10
71.57077967229999
 20
165.9997707141999
 30
0.0
 11
71.07087976899999
 21
164.7999406151
 31
0.0
  0
LINE
  5
E4
330
2
100
AcDbEntity
  8
0
 62
     3
100
AcDbLine
 10
71.07080833359998
 20
164.7998241354999
 30
0.0
 11
71.57082692889996
 21
165.999869291
 31
0.0
  0
LINE
  5
E5
330
2
100
AcDbEntity
  8
0
 62
     3
100
AcDbLine
 10
72.24494067319999
 20
160.0499836785
 30
0.0
 11
74.07100454879998
 21
161.8438795149
 31
0.0
  0
ARC
  5
E6
330
2
100
AcDbEntity
  8
0
 62
     3
100
AcDbCircle
 10
65.57094246579999
 20
168.5000152588
 30
0.0
 40
7.399990081799999
100
AcDbArc
 50
340.2545105058
 51
19.74479964510003
  0
LINE
  5
E7
330
2
100
AcDbEntity
  8
0
 62
     3
100
AcDbLine
 10
71.57080513669999
 20
170.9997100829999
 30
0.0
 11
72.53577095699998
 21
170.9997100829999
 31
0.0
  0
LINE
  5
E8
330
2
100
AcDbEntity
  8
0
 62
     3
100
AcDbLine
 10
72.53578621579997
 20
170.9998474120999
 30
0.0
 11
71.57069832519997
 21
170.9998474120999
 31
0.0
  0
LINE
  5
E9
330
2
100
AcDbEntity
  8
0
 62
     3
100
AcDbLine
 10
72.2708783789
 20
167.7998199462999
 30
0.0
 11
72.2708783789
 21
169.1998291014999
 31
0.0
  0
LINE
  5
EA
330
2
100
AcDbEntity
  8
0
 62
     3
100
AcDbLine
 10
71.92090279299998
 20
167.7998199462999
 30
0.0
 11
72.2708783789
 21
167.7998199462999
 31
0.0
  0
LINE
  5
EB
330
2
100
AcDbEntity
  8
0
 62
     3
100
AcDbLine
 10
71.92090279299998
 20
169.1998291014999
 30
0.0
 11
72.2708783789
 21
169.1998291014999
 31
0.0
  0
LINE
  5
EC
330
2
100
AcDbEntity
  8
0
 62
     3
100
AcDbLine
 10
71.92067391109998
 20
167.7999420166
 30
0.0
 11
72.27064949709998
 21
167.7999420166
 31
0.0
  0
LINE
  5
ED
330
2
100
AcDbEntity
  8
0
 62
     3
100
AcDbLine
 10
71.92067391109998
 20
169.1999664306
 30
0.0
 11
72.27064949709998
 21
169.1999664306
 31
0.0
  0
LINE
  5
EE
330
2
100
AcDbEntity
  8
0
 62
     3
100
AcDbLine
 10
72.27064949709998
 20
167.7999420166
 30
0.0
 11
72.27064949709998
 21
169.1999664306
 31
0.0
  0
LINE
  5
EF
330
2
100
AcDbEntity
  8
0
 62
     3
100
AcDbLine
 10
71.92067391109998
 20
167.0998687743999
 30
0.0
 11
71.92067391109998
 21
169.8999176025
 31
0.0
  0
LINE
  5
F0
330
2
100
AcDbEntity
  8
0
  6
DASH
 62
     3
100
AcDbLine
 10
71.57069832519997
 20
165.9998931884
 30
0.0
 11
71.57069832519997
 21
167.0998687743999
 31
0.0
  0
LINE
  5
F1
330
2
100
AcDbEntity
  8
0
 62
     3
100
AcDbLine
 10
71.42067391109998
 20
167.0998687743999
 30
0.0
 11
71.42067391109998
 21
169.8999176025
 31
0.0
  0
LINE
  5
F2
330
2
100
AcDbEntity
  8
0
 62
     3
100
AcDbLine
 10
71.57080513669999
 20
165.9997711181
 30
0.0
 11
72.53577095699998
 21
165.9997711181
 31
0.0
  0
LINE
  5
F3
330
2
100
AcDbEntity
  8
0
 62
     3
100
AcDbLine
 10
72.53578621579997
 20
165.9998931884
 30
0.0
 11
71.57069832519997
 21
165.9998931884
 31
0.0
  0
LINE
  5
F4
330
2
100
AcDbEntity
  8
0
 62
     3
100
AcDbLine
 10
71.42067391109998
 20
167.0998687743999
 30
0.0
 11
71.92067391109998
 21
167.0998687743999
 31
0.0
  0
LINE
  5
F5
330
2
100
AcDbEntity
  8
0
 62
     3
100
AcDbLine
 10
71.42067391109998
 20
169.8999176025
 30
0.0
 11
71.92067391109998
 21
169.8999176025
 31
0.0
  0
LINE
  5
F6
330
2
100
AcDbEntity
  8
0
  6
DASH
 62
     3
100
AcDbLine
 10
71.57069832519997
 20
169.8999176025
 30
0.0
 11
71.57069832519997
 21
170.9998474120999
 31
0.0
  0
LINE
  5
F7
330
2
100
AcDbEntity
  8
0
 62
     3
100
AcDbLine
 10
72.98697334959998
 20
165.5000152588
 30
0.0
 11
74.05620247559999
 21
165.5000152588
 31
0.0
  0
LINE
  5
F8
330
2
100
AcDbEntity
  8
0
 62
     3
100
AcDbLine
 10
74.0709834367
 20
175.1560511842998
 30
0.0
 11
72.24490155349997
 21
176.9499942058
 31
0.0
  0
LINE
  5
F9
330
2
100
AcDbEntity
  8
0
 62
     3
100
AcDbLine
 10
72.98697334959998
 20
171.5
 30
0.0
 11
74.05620247559999
 21
171.5
 31
0.0
  0
LINE
  5
FA
330
2
100
AcDbEntity
  8
0
 62
     3
100
AcDbLine
 10
121.7115915726999
 20
159.5499741383999
 30
0.0
 11
122.6586460512999
 21
159.8709994394
 31
0.0
  0
LINE
  5
FB
330
2
100
AcDbEntity
  8
0
 62
     3
100
AcDbLine
 10
120.7675148761999
 20
162.3350692985
 30
0.0
 11
121.7116004159999
 21
159.5499654577
 31
0.0
  0
LINE
  5
FC
330
2
100
AcDbEntity
  8
0
 62
     3
100
AcDbLine
 10
116.9675054434996
 20
159.6000261318
 30
0.0
 11
116.9675207022998
 21
160.1209154141
 31
0.0
  0
LINE
  5
FD
330
2
100
AcDbEntity
  8
0
 62
     3
100
AcDbLine
 10
120.7674356145999
 20
177.3999176025
 30
0.0
 11
120.7674356145999
 21
159.5999450683
 31
0.0
  0
LINE
  5
FE
330
2
100
AcDbEntity
  8
0
 62
     3
100
AcDbLine
 10
124.5676675481999
 20
159.5500152587999
 30
0.0
 11
124.5676675481999
 21
177.4500152588
 31
0.0
  0
LINE
  5
FF
330
2
100
AcDbEntity
  8
0
 62
     3
100
AcDbLine
 10
120.7674966497998
 20
159.5999603270999
 30
0.0
 11
120.7674966497998
 21
177.3999176025
 31
0.0
  0
LINE
  5
100
330
2
100
AcDbEntity
  8
0
 62
     3
100
AcDbLine
 10
120.7674966497998
 20
159.6000213623
 30
0.0
 11
116.9675241155998
 21
159.6000213623
 31
0.0
  0
LINE
  5
101
330
2
100
AcDbEntity
  8
0
 62
     3
100
AcDbLine
 10
120.7674966497998
 20
159.5500030516999
 30
0.0
 11
121.7115884467
 21
159.5500030516999
 31
0.0
  0
LINE
  5
102
330
2
100
AcDbEntity
  8
0
 62
     3
100
AcDbLine
 10
104.0676980657996
 20
207.0000152588
 30
0.0
 11
105.5676980657999
 21
207.0000152588
 31
0.0
  0
LINE
  5
103
330
2
100
AcDbEntity
  8
0
 62
     3
100
AcDbLine
 10
104.0675759954998
 20
205.5000152588
 30
0.0
 11
105.5676980657999
 21
205.5000152588
 31
0.0
  0
LINE
  5
104
330
2
100
AcDbEntity
  8
0
 62
     3
100
AcDbLine
 10
104.0676980657996
 20
205.2002105713
 30
0.0
 11
105.5676980657999
 21
205.2002105713
 31
0.0
  0
LINE
  5
105
330
2
100
AcDbEntity
  8
0
 62
     3
100
AcDbLine
 10
104.0676980657996
 20
201.8001861572
 30
0.0
 11
105.5676980657999
 21
201.8001861572
 31
0.0
  0
LINE
  5
106
330
2
100
AcDbEntity
  8
0
 62
     3
100
AcDbLine
 10
104.0676980657996
 20
200.0000152588
 30
0.0
 11
105.5676980657999
 21
200.0000152588
 31
0.0
  0
LINE
  5
107
330
2
100
AcDbEntity
  8
0
 62
     3
100
AcDbLine
 10
104.0676980657996
 20
201.5000152588
 30
0.0
 11
105.5676980657999
 21
201.5000152588
 31
0.0
  0
LINE
  5
108
330
2
100
AcDbEntity
  8
0
 62
     3
100
AcDbLine
 10
112.5676980657999
 20
175.8997955322
 30
0.0
 11
102.5676980657999
 21
175.8997955322
 31
0.0
  0
LINE
  5
109
330
2
100
AcDbEntity
  8
0
 62
     3
100
AcDbLine
 10
102.5676980657999
 20
161.1004943846999
 30
0.0
 11
112.5676980657999
 21
161.1004943846999
 31
0.0
  0
LINE
  5
10A
330
2
100
AcDbEntity
  8
0
 62
     3
100
AcDbLine
 10
102.5675149602999
 20
210.8496093749999
 30
0.0
 11
107.5675149602999
 21
210.8496093749999
 31
0.0
  0
LINE
  5
10B
330
2
100
AcDbEntity
  8
0
 62
     3
100
AcDbLine
 10
102.5675149602999
 20
196.1499938963999
 30
0.0
 11
107.5675149602999
 21
196.1499938963999
 31
0.0
  0
LINE
  5
10C
330
2
100
AcDbEntity
  8
0
 62
     3
100
AcDbLine
 10
102.5675149602999
 20
210.4992675780998
 30
0.0
 11
107.5675149602999
 21
210.4992675780998
 31
0.0
  0
LINE
  5
10D
330
2
100
AcDbEntity
  8
0
 62
     3
100
AcDbLine
 10
102.5675149602999
 20
196.4997253417999
 30
0.0
 11
107.5675149602999
 21
196.4997253417999
 31
0.0
  0
LINE
  5
10E
330
2
100
AcDbEntity
  8
0
 62
     3
100
AcDbLine
 10
102.5672929898999
 20
170.9994441757
 30
0.0
 11
107.5672891630998
 21
170.9496395487
 31
0.0
  0
LINE
  5
10F
330
2
100
AcDbEntity
  8
0
 62
     3
100
AcDbLine
 10
107.5674352495999
 20
166.050153005
 30
0.0
 11
102.5674429508999
 21
165.9999821827
 31
0.0
  0
LINE
  5
110
330
2
100
AcDbEntity
  8
0
 62
     3
100
AcDbLine
 10
104.0676980657996
 20
205.5000152588
 30
0.0
 11
104.0676980657996
 21
207.0000152588
 31
0.0
  0
LINE
  5
111
330
2
100
AcDbEntity
  8
0
 62
     3
100
AcDbLine
 10
102.5676980657999
 20
196.1500396727999
 30
0.0
 11
102.5676980657999
 21
210.8499908447
 31
0.0
  0
LINE
  5
112
330
2
100
AcDbEntity
  8
0
 62
     3
100
AcDbLine
 10
96.17066437440001
 20
169.0999450682999
 30
0.0
 11
97.57062775329998
 21
169.0999450682999
 31
0.0
  0
LINE
  5
113
330
2
100
AcDbEntity
  8
0
 62
     3
100
AcDbLine
 10
96.17066437440001
 20
167.8999633789
 30
0.0
 11
97.57062775329998
 21
167.8999633789
 31
0.0
  0
LINE
  5
114
330
2
100
AcDbEntity
  8
0
 62
     3
100
AcDbLine
 10
102.2706247014999
 20
169.8999481200999
 30
0.0
 11
95.07062775329996
 21
169.8999481200999
 31
0.0
  0
LINE
  5
115
330
2
100
AcDbEntity
  8
0
 62
     3
100
AcDbLine
 10
95.46689290479999
 20
167.2858164908999
 30
0.0
 11
97.46678037349994
 21
167.7143647199
 31
0.0
  0
LINE
  5
116
330
2
100
AcDbEntity
  8
0
 62
     3
100
AcDbLine
 10
97.46715400349998
 20
169.2852137794
 30
0.0
 11
95.46714705219999
 21
169.7137869762
 31
0.0
  0
LINE
  5
117
330
2
100
AcDbEntity
  8
0
 62
     3
100
AcDbLine
 10
95.26732880309998
 20
169.1497344969999
 30
0.0
 11
97.89623505309997
 21
169.1497344969999
 31
0.0
  0
LINE
  5
118
330
2
100
AcDbEntity
  8
0
 62
     3
100
AcDbLine
 10
95.26732880309998
 20
167.8499298094999
 30
0.0
 11
97.89623505309997
 21
167.8499298094999
 31
0.0
  0
LINE
  5
119
330
2
100
AcDbEntity
  8
0
 62
     3
100
AcDbLine
 10
95.06737763119998
 20
169.8997344969999
 30
0.0
 11
102.5676828069999
 21
169.8997344969999
 31
0.0
  0
LINE
  5
11A
330
2
100
AcDbEntity
  8
0
  6
DASH
 62
     3
100
AcDbLine
 10
95.06737763119998
 20
169.7997589111
 30
0.0
 11
102.5676828069999
 21
169.7997589111
 31
0.0
  0
LINE
  5
11B
330
2
100
AcDbEntity
  8
0
 62
     3
100
AcDbLine
 10
96.1673532172
 20
169.0998077392
 30
0.0
 11
97.56725556089998
 21
169.0998077392
 31
0.0
  0
LINE
  5
11C
330
2
100
AcDbEntity
  8
0
 62
     3
100
AcDbLine
 10
96.1673532172
 20
167.8998565672999
 30
0.0
 11
97.56725556089998
 21
167.8998565672999
 31
0.0
  0
LINE
  5
11D
330
2
100
AcDbEntity
  8
0
  6
DASH
 62
     3
100
AcDbLine
 10
102.5676828069999
 20
167.1999053955
 30
0.0
 11
95.06737763119998
 21
167.1999053955
 31
0.0
  0
LINE
  5
11E
330
2
100
AcDbEntity
  8
0
 62
     3
100
AcDbLine
 10
102.5676828069999
 20
167.1000518797999
 30
0.0
 11
95.06737763119998
 21
167.1000518797999
 31
0.0
  0
ARC
  5
11F
330
2
100
AcDbEntity
  8
0
 62
     3
100
AcDbCircle
 10
96.16742951109998
 20
168.5000152588
 30
0.0
 40
0.5999994278000002
100
AcDbArc
 50
90.00003665540001
 51
269.9998914002
  0
ARC
  5
120
330
2
100
AcDbEntity
  8
0
 62
     3
100
AcDbCircle
 10
95.26740509699996
 20
169.3498687743999
 30
0.0
 40
0.1999999285
100
AcDbArc
 50
179.9999640277999
 51
269.9999460416999
  0
ARC
  5
121
330
2
100
AcDbEntity
  8
0
 62
     3
100
AcDbCircle
 10
95.26740509699996
 20
167.6499176025
 30
0.0
 40
0.1999999285
100
AcDbArc
 50
90.00003665540001
 51
179.9999640277999
  0
LINE
  5
122
330
2
100
AcDbEntity
  8
0
 62
     3
100
AcDbLine
 10
95.06737763119998
 20
169.8997344969999
 30
0.0
 11
95.06737763119998
 21
169.3498077392
 31
0.0
  0
LINE
  5
123
330
2
100
AcDbEntity
  8
0
 62
     3
100
AcDbLine
 10
95.06737763119998
 20
167.6498565673
 30
0.0
 11
95.06737763119998
 21
167.1000518797999
 31
0.0
  0
ARC
  5
124
330
2
100
AcDbEntity
  8
0
 62
     3
100
AcDbCircle
 10
96.46735626889999
 20
168.5000152588
 30
0.0
 40
1.899999618499998
100
AcDbArc
 50
137.4630758394
 51
222.5368522162999
  0
LINE
  5
125
330
2
100
AcDbEntity
  8
0
 62
     3
100
AcDbLine
 10
95.58639618209999
 20
168.6495621154
 30
0.0
 11
94.57321258839995
 21
168.6495600529999
 31
0.0
  0
LINE
  5
126
330
2
100
AcDbEntity
  8
0
 62
     3
100
AcDbLine
 10
95.58626801209999
 20
168.3499145506999
 30
0.0
 11
94.57320648859996
 21
168.3499145506999
 31
0.0
  0
LINE
  5
127
330
2
100
AcDbEntity
  8
0
 62
     3
100
AcDbLine
 10
102.5676980657999
 20
161.1004943846999
 30
0.0
 11
102.5676980657999
 21
175.8997955322
 31
0.0
  0
LINE
  5
128
330
2
100
AcDbEntity
  8
0
 62
     3
100
AcDbLine
 10
98.2137399359
 20
168.3998565672999
 30
0.0
 11
102.5676828069999
 21
168.3998565672999
 31
0.0
  0
LINE
  5
129
330
2
100
AcDbEntity
  8
0
 62
     3
100
AcDbLine
 10
98.2137399359
 20
168.5999298095
 30
0.0
 11
102.5676828069999
 21
168.5999298095
 31
0.0
  0
ARC
  5
12A
330
2
100
AcDbEntity
  8
0
 62
     3
100
AcDbCircle
 10
97.5673318549
 20
168.5000152588
 30
0.0
 40
0.5999994278000002
100
AcDbArc
 50
270.0000726275999
 51
89.99998201389994
  0
LINE
  5
12B
330
2
100
AcDbEntity
  8
0
 62
     3
100
AcDbLine
 10
97.89538280899998
 20
169.1497250877
 30
0.0
 11
98.21288769179998
 21
168.5997905088999
 31
0.0
  0
LINE
  5
12C
330
2
100
AcDbEntity
  8
0
 62
     3
100
AcDbLine
 10
98.21303556010001
 20
168.3993342879
 30
0.0
 11
97.89546971779998
 21
167.8492939552
 31
0.0
  0
LINE
  5
12D
330
2
100
AcDbEntity
  8
0
 62
     3
100
AcDbLine
 10
97.86773750439998
 20
197.1500271314999
 30
0.0
 11
95.06773389609998
 21
197.4000248655
 31
0.0
  0
LINE
  5
12E
330
2
100
AcDbEntity
  8
0
  6
DASH
 62
     3
100
AcDbLine
 10
102.5676980657999
 20
197.5500335693
 30
0.0
 11
95.06769806580001
 21
197.5500335693
 31
0.0
  0
LINE
  5
12F
330
2
100
AcDbEntity
  8
0
 62
     3
100
AcDbLine
 10
102.5676980657999
 20
197.6500091551998
 30
0.0
 11
94.56769806579996
 21
197.6500091551998
 31
0.0
  0
LINE
  5
130
330
2
100
AcDbEntity
  8
0
 62
     3
100
AcDbLine
 10
95.06769806580001
 20
197.6500091551998
 30
0.0
 11
95.06769806580001
 21
197.4000091551998
 31
0.0
  0
LINE
  5
131
330
2
100
AcDbEntity
  8
0
 62
     3
100
AcDbLine
 10
94.56769806579996
 20
197.6500091551998
 30
0.0
 11
94.56769806579996
 21
197.4000091551998
 31
0.0
  0
LINE
  5
132
330
2
100
AcDbEntity
  8
0
 62
     3
100
AcDbLine
 10
95.06769806580001
 20
197.4000091551998
 30
0.0
 11
94.56769806579996
 21
197.4000091551998
 31
0.0
  0
LINE
  5
133
330
2
100
AcDbEntity
  8
0
 62
     3
100
AcDbLine
 10
95.06769806580001
 20
197.5500335693
 30
0.0
 11
94.56769806579996
 21
197.5500335693
 31
0.0
  0
LINE
  5
134
330
2
100
AcDbEntity
  8
0
 62
     3
100
AcDbLine
 10
102.5676980657999
 20
197.1500091552
 30
0.0
 11
97.8677468939
 21
197.1500091552
 31
0.0
  0
LINE
  5
135
330
2
100
AcDbEntity
  8
0
 62
     3
100
AcDbLine
 10
104.0675149602999
 20
205.1994628905998
 30
0.0
 11
104.0675149602999
 21
201.7995605468
 31
0.0
  0
LINE
  5
136
330
2
100
AcDbEntity
  8
0
 62
     3
100
AcDbLine
 10
104.0676980657996
 20
200.0000152588
 30
0.0
 11
104.0676980657996
 21
201.5000152588
 31
0.0
  0
LINE
  5
137
330
2
100
AcDbEntity
  8
0
 62
     3
100
AcDbLine
 10
95.06764917219999
 20
209.6003321816
 30
0.0
 11
97.86766797889999
 21
209.8503312725
 31
0.0
  0
LINE
  5
138
330
2
100
AcDbEntity
  8
0
  6
DASH
 62
     3
100
AcDbLine
 10
95.06769806580001
 20
209.4499816893999
 30
0.0
 11
102.5676980657999
 21
209.4499816893999
 31
0.0
  0
LINE
  5
139
330
2
100
AcDbEntity
  8
0
 62
     3
100
AcDbLine
 10
94.56769806579996
 20
209.3500061034998
 30
0.0
 11
102.5676980657999
 21
209.3500061034998
 31
0.0
  0
LINE
  5
13A
330
2
100
AcDbEntity
  8
0
 62
     3
100
AcDbLine
 10
95.06769806580001
 20
209.6000061034998
 30
0.0
 11
95.06769806580001
 21
209.3500061034998
 31
0.0
  0
LINE
  5
13B
330
2
100
AcDbEntity
  8
0
 62
     3
100
AcDbLine
 10
94.56769806579996
 20
209.6000061034998
 30
0.0
 11
94.56769806579996
 21
209.3500061034998
 31
0.0
  0
LINE
  5
13C
330
2
100
AcDbEntity
  8
0
 62
     3
100
AcDbLine
 10
94.56769806579996
 20
209.6000061034998
 30
0.0
 11
95.06769806580001
 21
209.6000061034998
 31
0.0
  0
LINE
  5
13D
330
2
100
AcDbEntity
  8
0
 62
     3
100
AcDbLine
 10
94.56769806579996
 20
209.4499816893999
 30
0.0
 11
95.06769806580001
 21
209.4499816893999
 31
0.0
  0
LINE
  5
13E
330
2
100
AcDbEntity
  8
0
 62
     3
100
AcDbLine
 10
97.8677468939
 20
209.8500061034999
 30
0.0
 11
102.5676980657999
 21
209.8500061034999
 31
0.0
  0
LINE
  5
13F
330
2
100
AcDbEntity
  8
0
 62
     3
100
AcDbLine
 10
129.9668374700999
 20
197.0253753661999
 30
0.0
 11
129.9668374700999
 21
209.9736328125
 31
0.0
  0
LINE
  5
140
330
2
100
AcDbEntity
  8
0
 62
     3
100
AcDbLine
 10
130.2668862981998
 20
197.149520874
 30
0.0
 11
130.2668862981998
 21
209.8493652342998
 31
0.0
  0
LINE
  5
141
330
2
100
AcDbEntity
  8
0
 62
     3
100
AcDbLine
 10
116.9671426458999
 20
206.5000305174999
 30
0.0
 11
116.9671426458999
 21
200.5000457762999
 31
0.0
  0
LINE
  5
142
330
2
100
AcDbEntity
  8
0
 62
     3
100
AcDbLine
 10
113.4719593003999
 20
210.9002607322998
 30
0.0
 11
113.9246629396998
 21
204.2002356624
 31
0.0
  0
LINE
  5
143
330
2
100
AcDbEntity
  8
0
 62
     3
100
AcDbLine
 10
113.9671855697999
 20
210.9006418956997
 30
0.0
 11
114.4199149253999
 21
204.2002362238998
 31
0.0
  0
LINE
  5
144
330
2
100
AcDbEntity
  8
0
 62
     3
100
AcDbLine
 10
112.9234994397998
 20
204.2002331006
 30
0.0
 11
112.5676804317999
 21
209.466363227
 31
0.0
  0
LINE
  5
145
330
2
100
AcDbEntity
  8
0
 62
     3
100
AcDbLine
 10
113.4246394401999
 20
204.2002338670999
 30
0.0
 11
112.9719069985999
 21
210.9006852111
 31
0.0
  0
LINE
  5
146
330
2
100
AcDbEntity
  8
0
 62
     3
100
AcDbLine
 10
105.5676980657999
 20
205.5000152588
 30
0.0
 11
105.5676980657999
 21
207.0000152588
 31
0.0
  0
LINE
  5
147
330
2
100
AcDbEntity
  8
0
 62
     3
100
AcDbLine
 10
120.7670236272999
 20
212.3999328613
 30
0.0
 11
120.7670236272999
 21
194.5999450682999
 31
0.0
  0
LINE
  5
148
330
2
100
AcDbEntity
  8
0
 62
     3
100
AcDbLine
 10
121.7670999212999
 20
197.5002441405998
 30
0.0
 11
121.7670999212999
 21
209.5002288817997
 31
0.0
  0
LINE
  5
149
330
2
100
AcDbEntity
  8
0
 62
     3
100
AcDbLine
 10
123.9676614446999
 20
194.8002624511
 30
0.0
 11
123.9676614446999
 21
212.2002563475999
 31
0.0
  0
LINE
  5
14A
330
2
100
AcDbEntity
  8
0
 62
     3
100
AcDbLine
 10
112.5676980657999
 20
196.1003723143999
 30
0.0
 11
112.5676980657999
 21
210.9002990721999
 31
0.0
  0
LINE
  5
14B
330
2
100
AcDbEntity
  8
0
 62
     3
100
AcDbLine
 10
120.7670999212999
 20
194.6002349852999
 30
0.0
 11
120.7670999212999
 21
212.3997802734
 31
0.0
  0
LINE
  5
14C
330
2
100
AcDbEntity
  8
0
 62
     3
100
AcDbLine
 10
124.5676675481999
 20
194.5500152588
 30
0.0
 11
124.5676675481999
 21
212.4500152588
 31
0.0
  0
LINE
  5
14D
330
2
100
AcDbEntity
  8
0
 62
     3
100
AcDbLine
 10
120.7670999212999
 20
194.6000366211
 30
0.0
 11
116.9671273870999
 21
194.6000366211
 31
0.0
  0
LINE
  5
14E
330
2
100
AcDbEntity
  8
0
 62
     3
100
AcDbLine
 10
116.9675393743996
 20
177.4000091551998
 30
0.0
 11
120.7675119085999
 21
177.4000091551998
 31
0.0
  0
LINE
  5
14F
330
2
100
AcDbEntity
  8
0
 62
     3
100
AcDbLine
 10
107.5672555608999
 20
169.2997589111
 30
0.0
 11
107.5672555608999
 21
168.8997344969999
 31
0.0
  0
LINE
  5
150
330
2
100
AcDbEntity
  8
0
 62
     3
100
AcDbLine
 10
107.5672555608999
 20
168.0999298094999
 30
0.0
 11
107.5672555608999
 21
167.6999053954999
 31
0.0
  0
LINE
  5
151
330
2
100
AcDbEntity
  8
0
 62
     3
100
AcDbLine
 10
107.5674997014999
 20
170.9497833252
 30
0.0
 11
107.5674997014999
 21
166.0500793456999
 31
0.0
  0
LINE
  5
152
330
2
100
AcDbEntity
  8
0
 62
     3
100
AcDbLine
 10
116.9675393743996
 20
171.5000152588
 30
0.0
 11
116.9675393743996
 21
165.5000305175
 31
0.0
  0
ARC
  5
153
330
2
100
AcDbEntity
  8
0
 62
     3
100
AcDbCircle
 10
132.7676187200999
 20
168.4997711180998
 30
0.0
 40
20.200012207
100
AcDbArc
 50
168.5787949053
 51
191.4211331503
  0
LINE
  5
154
330
2
100
AcDbEntity
  8
0
 62
     3
100
AcDbLine
 10
112.5676828069999
 20
161.1004943846999
 30
0.0
 11
112.5676828069999
 21
175.8997955322
 31
0.0
  0
LINE
  5
155
330
2
100
AcDbEntity
  8
0
 62
     3
100
AcDbLine
 10
115.7675271673999
 20
161.1004943846999
 30
0.0
 11
112.5676828069999
 21
161.1004943846999
 31
0.0
  0
LINE
  5
156
330
2
100
AcDbEntity
  8
0
 62
     3
100
AcDbLine
 10
115.7675271673999
 20
164.5004272461
 30
0.0
 11
112.9675851507996
 21
164.5004272461
 31
0.0
  0
LINE
  5
157
330
2
100
AcDbEntity
  8
0
 62
     3
100
AcDbLine
 10
115.7675271673999
 20
160.5005187987999
 30
0.0
 11
112.9675851507996
 21
160.5005187987999
 31
0.0
  0
LINE
  5
158
330
2
100
AcDbEntity
  8
0
 62
     3
100
AcDbLine
 10
112.9658276701999
 20
160.4993124381
 30
0.0
 11
112.5658505402999
 21
161.0992784983
 31
0.0
  0
LINE
  5
159
330
2
100
AcDbEntity
  8
0
 62
     3
100
AcDbLine
 10
112.9675851507996
 20
160.5005187987999
 30
0.0
 11
112.9675851507996
 21
164.5004272461
 31
0.0
  0
LINE
  5
15A
330
2
100
AcDbEntity
  8
0
 62
     3
100
AcDbLine
 10
115.7675424260999
 20
165.5000305175
 30
0.0
 11
115.7675424260999
 21
160.1209106445
 31
0.0
  0
LINE
  5
15B
330
2
100
AcDbEntity
  8
0
 62
     3
100
AcDbLine
 10
115.7675424260999
 20
160.1209106445
 30
0.0
 11
116.9675393743996
 21
160.1209106445
 31
0.0
  0
LINE
  5
15C
330
2
100
AcDbEntity
  8
0
 62
     3
100
AcDbLine
 10
116.9675393743996
 20
165.5000305175
 30
0.0
 11
115.7675424260999
 21
165.5000305175
 31
0.0
  0
LINE
  5
15D
330
2
100
AcDbEntity
  8
0
 62
     3
100
AcDbLine
 10
112.9675851507996
 20
172.4998931883999
 30
0.0
 11
115.7675271673999
 21
172.4998931883999
 31
0.0
  0
LINE
  5
15E
330
2
100
AcDbEntity
  8
0
 62
     3
100
AcDbLine
 10
112.5676828069999
 20
175.8997955322
 30
0.0
 11
115.7675271673999
 21
175.8997955322
 31
0.0
  0
LINE
  5
15F
330
2
100
AcDbEntity
  8
0
 62
     3
100
AcDbLine
 10
112.9675851507996
 20
176.4998931884
 30
0.0
 11
115.7675271673999
 21
176.4998931884
 31
0.0
  0
LINE
  5
160
330
2
100
AcDbEntity
  8
0
 62
     3
100
AcDbLine
 10
112.5665296214998
 20
175.8992723245
 30
0.0
 11
112.9665744637999
 21
176.4993399534
 31
0.0
  0
LINE
  5
161
330
2
100
AcDbEntity
  8
0
 62
     3
100
AcDbLine
 10
112.9675851507996
 20
172.4998931883999
 30
0.0
 11
112.9675851507996
 21
176.4998931884
 31
0.0
  0
LINE
  5
162
330
2
100
AcDbEntity
  8
0
 62
     3
100
AcDbLine
 10
116.9675393743996
 20
177.4000091551998
 30
0.0
 11
116.9675393743996
 21
176.8791809082
 31
0.0
  0
LINE
  5
163
330
2
100
AcDbEntity
  8
0
 62
     3
100
AcDbLine
 10
115.7675424260999
 20
176.8791809082
 30
0.0
 11
115.7675424260999
 21
171.5000152588
 31
0.0
  0
LINE
  5
164
330
2
100
AcDbEntity
  8
0
 62
     3
100
AcDbLine
 10
115.7675424260999
 20
171.5000152588
 30
0.0
 11
116.9675393743996
 21
171.5000152588
 31
0.0
  0
LINE
  5
165
330
2
100
AcDbEntity
  8
0
 62
     3
100
AcDbLine
 10
116.9675393743996
 20
176.8791809082
 30
0.0
 11
115.7675424260999
 21
176.8791809082
 31
0.0
  0
LINE
  5
166
330
2
100
AcDbEntity
  8
0
 62
     3
100
AcDbLine
 10
107.5675759954998
 20
196.1002502440999
 30
0.0
 11
115.7671304387999
 21
196.1002502440999
 31
0.0
  0
LINE
  5
167
330
2
100
AcDbEntity
  8
0
 62
     3
100
AcDbLine
 10
105.5675149602999
 20
205.1994628905998
 30
0.0
 11
105.5675149602999
 21
201.7995605468
 31
0.0
  0
LINE
  5
168
330
2
100
AcDbEntity
  8
0
 62
     3
100
AcDbLine
 10
105.5676980657999
 20
200.0000152588
 30
0.0
 11
105.5676980657999
 21
201.5000152588
 31
0.0
  0
LINE
  5
169
330
2
100
AcDbEntity
  8
0
 62
     3
100
AcDbLine
 10
107.5675149602999
 20
196.4997406005998
 30
0.0
 11
107.5675149602999
 21
196.0997161865
 31
0.0
  0
LINE
  5
16A
330
2
100
AcDbEntity
  8
0
 62
     3
100
AcDbLine
 10
113.0200601262999
 20
202.8002624511
 30
0.0
 11
116.9671273870999
 21
202.8002624511
 31
0.0
  0
LINE
  5
16B
330
2
100
AcDbEntity
  8
0
 62
     3
100
AcDbLine
 10
112.5676980657999
 20
204.2002716063999
 30
0.0
 11
116.9671273870999
 21
204.2002716063999
 31
0.0
  0
LINE
  5
16C
330
2
100
AcDbEntity
  8
0
 62
     3
100
AcDbLine
 10
112.9736641217
 20
196.0639966149999
 30
0.0
 11
112.6162126427999
 21
201.3542873520999
 31
0.0
  0
LINE
  5
16D
330
2
100
AcDbEntity
  8
0
 62
     3
100
AcDbLine
 10
114.0195734554998
 20
196.1346660463
 30
0.0
 11
113.5692007418999
 21
202.8001933571
 31
0.0
  0
LINE
  5
16E
330
2
100
AcDbEntity
  8
0
 62
     3
100
AcDbLine
 10
113.4707444409999
 20
196.1009935352999
 30
0.0
 11
113.1528909265999
 21
200.8052334172
 31
0.0
  0
LINE
  5
16F
330
2
100
AcDbEntity
  8
0
 62
     3
100
AcDbLine
 10
113.6139645662999
 20
201.4219982420999
 30
0.0
 11
113.1545942620999
 21
200.8037061823999
 31
0.0
  0
LINE
  5
170
330
2
100
AcDbEntity
  8
0
 62
     3
100
AcDbLine
 10
113.0196788268999
 20
202.7987845825999
 30
0.0
 11
112.6161511852999
 21
201.3539552966999
 31
0.0
  0
LINE
  5
171
330
2
100
AcDbEntity
  8
0
 62
     3
100
AcDbLine
 10
113.1547394447999
 20
200.8033370389998
 30
0.0
 11
112.6164231501999
 21
201.3540730159
 31
0.0
  0
LINE
  5
172
330
2
100
AcDbEntity
  8
0
 62
     3
100
AcDbLine
 10
113.6145691685999
 20
201.422048437
 30
0.0
 11
113.0203800313998
 21
202.7993426495
 31
0.0
  0
LINE
  5
173
330
2
100
AcDbEntity
  8
0
 62
     3
100
AcDbLine
 10
115.7671456975996
 20
200.5000457762999
 30
0.0
 11
115.7671456975996
 21
195.1209259033
 31
0.0
  0
LINE
  5
174
330
2
100
AcDbEntity
  8
0
 62
     3
100
AcDbLine
 10
114.0692252699996
 20
202.8001799282999
 30
0.0
 11
114.5219175941999
 21
196.1003223233
 31
0.0
  0
LINE
  5
175
330
2
100
AcDbEntity
  8
0
 62
     3
100
AcDbLine
 10
114.5644772557999
 20
202.8001804897999
 30
0.0
 11
115.0171747231998
 21
196.1002467644
 31
0.0
  0
LINE
  5
176
330
2
100
AcDbEntity
  8
0
 62
     3
100
AcDbLine
 10
116.9670963994999
 20
194.6000261738
 30
0.0
 11
116.9671116583999
 21
195.1209154560999
 31
0.0
  0
LINE
  5
177
330
2
100
AcDbEntity
  8
0
 62
     3
100
AcDbLine
 10
115.7671456975996
 20
195.1209259033
 30
0.0
 11
116.9671426458999
 21
195.1209259033
 31
0.0
  0
LINE
  5
178
330
2
100
AcDbEntity
  8
0
 62
     3
100
AcDbLine
 10
116.9671426458999
 20
200.5000457762999
 30
0.0
 11
115.7671456975996
 21
200.5000457762999
 31
0.0
  0
LINE
  5
179
330
2
100
AcDbEntity
  8
0
 62
     3
100
AcDbLine
 10
123.9676614446999
 20
177.200012207
 30
0.0
 11
124.5676675481999
 21
177.200012207
 31
0.0
  0
LINE
  5
17A
330
2
100
AcDbEntity
  8
0
 62
     3
100
AcDbLine
 10
123.9676614446999
 20
159.8000030517
 30
0.0
 11
124.5676675481999
 21
159.8000030517
 31
0.0
  0
LINE
  5
17B
330
2
100
AcDbEntity
  8
0
 62
     3
100
AcDbLine
 10
121.7674966497998
 20
162.4999847411999
 30
0.0
 11
121.7674966497998
 21
174.4999694824
 31
0.0
  0
LINE
  5
17C
330
2
100
AcDbEntity
  8
0
 62
     3
100
AcDbLine
 10
123.9676614446999
 20
177.200012207
 30
0.0
 11
123.9676614446999
 21
159.8000030517
 31
0.0
  0
LINE
  5
17D
330
2
100
AcDbEntity
  8
0
 62
     3
100
AcDbLine
 10
117.7675271673999
 20
169.1000213623
 30
0.0
 11
120.7675119085999
 21
169.1000213623
 31
0.0
  0
LINE
  5
17E
330
2
100
AcDbEntity
  8
0
 62
     3
100
AcDbLine
 10
117.7675271673999
 20
170.1924743652
 30
0.0
 11
120.7675119085999
 21
170.1924743652
 31
0.0
  0
LINE
  5
17F
330
2
100
AcDbEntity
  8
0
 62
     3
100
AcDbLine
 10
120.7675119085999
 20
167.9000091552
 30
0.0
 11
117.7675271673999
 21
167.9000091552
 31
0.0
  0
LINE
  5
180
330
2
100
AcDbEntity
  8
0
 62
     3
100
AcDbLine
 10
120.7675119085999
 20
166.8075561523
 30
0.0
 11
117.7675271673999
 21
166.8075561523
 31
0.0
  0
LINE
  5
181
330
2
100
AcDbEntity
  8
0
 62
     3
100
AcDbLine
 10
120.7675119085999
 20
165.6221923828
 30
0.0
 11
117.7675271673999
 21
165.6221923828
 31
0.0
  0
LINE
  5
182
330
2
100
AcDbEntity
  8
0
 62
     3
100
AcDbLine
 10
120.7675119085999
 20
164.5797424316
 30
0.0
 11
117.7675271673999
 21
164.5797424316
 31
0.0
  0
LINE
  5
183
330
2
100
AcDbEntity
  8
0
 62
     3
100
AcDbLine
 10
120.7675119085999
 20
163.5405273437
 30
0.0
 11
117.7675271673999
 21
163.5405273437
 31
0.0
  0
LINE
  5
184
330
2
100
AcDbEntity
  8
0
 62
     3
100
AcDbLine
 10
120.7675119085999
 20
162.6655120849
 30
0.0
 11
117.7675271673999
 21
162.6655120849
 31
0.0
  0
LINE
  5
185
330
2
100
AcDbEntity
  8
0
 62
     3
100
AcDbLine
 10
120.7675119085999
 20
161.7968139648
 30
0.0
 11
117.7675271673999
 21
161.7968139648
 31
0.0
  0
LINE
  5
186
330
2
100
AcDbEntity
  8
0
 62
     3
100
AcDbLine
 10
120.7675119085999
 20
161.1099243164
 30
0.0
 11
117.7675271673999
 21
161.1099243164
 31
0.0
  0
LINE
  5
187
330
2
100
AcDbEntity
  8
0
 62
     3
100
AcDbLine
 10
120.7675119085999
 20
160.5099334715999
 30
0.0
 11
117.7675271673999
 21
160.5099334715999
 31
0.0
  0
LINE
  5
188
330
2
100
AcDbEntity
  8
0
 62
     3
100
AcDbLine
 10
120.7675119085999
 20
160.0868072508999
 30
0.0
 11
117.7675271673999
 21
160.0868072508999
 31
0.0
  0
LINE
  5
189
330
2
100
AcDbEntity
  8
0
 62
     3
100
AcDbLine
 10
117.7675271673999
 20
165.6221923828
 30
0.0
 11
117.7675271673999
 21
164.5797424316
 31
0.0
  0
LINE
  5
18A
330
2
100
AcDbEntity
  8
0
 62
     3
100
AcDbLine
 10
117.7675271673999
 20
162.6655120849
 30
0.0
 11
117.7675271673999
 21
163.5405273437
 31
0.0
  0
LINE
  5
18B
330
2
100
AcDbEntity
  8
0
 62
     3
100
AcDbLine
 10
117.7675271673999
 20
161.1099243164
 30
0.0
 11
117.7675271673999
 21
161.7968139648
 31
0.0
  0
LINE
  5
18C
330
2
100
AcDbEntity
  8
0
 62
     3
100
AcDbLine
 10
117.7674508733999
 20
160.5098419188999
 30
0.0
 11
117.7674508733999
 21
160.086730957
 31
0.0
  0
LINE
  5
18D
330
2
100
AcDbEntity
  8
0
 62
     3
100
AcDbLine
 10
117.7675271673999
 20
170.1924743652
 30
0.0
 11
117.7675271673999
 21
169.1000213623
 31
0.0
  0
LINE
  5
18E
330
2
100
AcDbEntity
  8
0
 62
     3
100
AcDbLine
 10
117.7675271673999
 20
167.9000091552
 30
0.0
 11
117.7675271673999
 21
166.8075561523
 31
0.0
  0
LINE
  5
18F
330
2
100
AcDbEntity
  8
0
 62
     3
100
AcDbLine
 10
121.767506914
 20
162.4999735047
 30
0.0
 11
122.6586680939999
 21
159.8709994124
 31
0.0
  0
LINE
  5
190
330
2
100
AcDbEntity
  8
0
 62
     3
100
AcDbLine
 10
123.9676614446999
 20
161.1004943846999
 30
0.0
 11
122.2418924017
 21
161.1004943846999
 31
0.0
  0
LINE
  5
191
330
2
100
AcDbEntity
  8
0
 62
     3
100
AcDbLine
 10
123.9676614446999
 20
164.5004272461
 30
0.0
 11
121.7674966497998
 21
164.5004272461
 31
0.0
  0
LINE
  5
192
330
2
100
AcDbEntity
  8
0
 62
     3
100
AcDbLine
 10
123.9694030444999
 20
161.0998438969
 30
0.0
 11
123.6694166199999
 21
160.4998863207999
 31
0.0
  0
LINE
  5
193
330
2
100
AcDbEntity
  8
0
 62
     3
100
AcDbLine
 10
123.6697030706998
 20
160.5005187987999
 30
0.0
 11
122.4452615423997
 21
160.5005187987999
 31
0.0
  0
LINE
  5
194
330
2
100
AcDbEntity
  8
0
 62
     3
100
AcDbLine
 10
117.7675271673999
 20
176.9132232665999
 30
0.0
 11
120.7675119085999
 21
176.9132232665999
 31
0.0
  0
LINE
  5
195
330
2
100
AcDbEntity
  8
0
 62
     3
100
AcDbLine
 10
117.7675271673999
 20
171.3778381346999
 30
0.0
 11
120.7675119085999
 21
171.3778381346999
 31
0.0
  0
LINE
  5
196
330
2
100
AcDbEntity
  8
0
 62
     3
100
AcDbLine
 10
117.7675271673999
 20
172.4202880859
 30
0.0
 11
120.7675119085999
 21
172.4202880859
 31
0.0
  0
LINE
  5
197
330
2
100
AcDbEntity
  8
0
 62
     3
100
AcDbLine
 10
117.7675271673999
 20
173.4595031738
 30
0.0
 11
120.7675119085999
 21
173.4595031738
 31
0.0
  0
LINE
  5
198
330
2
100
AcDbEntity
  8
0
 62
     3
100
AcDbLine
 10
117.7675271673999
 20
174.3345184325999
 30
0.0
 11
120.7675119085999
 21
174.3345184325999
 31
0.0
  0
LINE
  5
199
330
2
100
AcDbEntity
  8
0
 62
     3
100
AcDbLine
 10
117.7675271673999
 20
175.2032165527
 30
0.0
 11
120.7675119085999
 21
175.2032165527
 31
0.0
  0
LINE
  5
19A
330
2
100
AcDbEntity
  8
0
 62
     3
100
AcDbLine
 10
117.7675271673999
 20
175.8901062010999
 30
0.0
 11
120.7675119085999
 21
175.8901062010999
 31
0.0
  0
LINE
  5
19B
330
2
100
AcDbEntity
  8
0
 62
     3
100
AcDbLine
 10
117.7675271673999
 20
176.4900970459
 30
0.0
 11
120.7675119085999
 21
176.4900970459
 31
0.0
  0
LINE
  5
19C
330
2
100
AcDbEntity
  8
0
 62
     3
100
AcDbLine
 10
117.7675271673999
 20
172.4202880859
 30
0.0
 11
117.7675271673999
 21
171.3778381346999
 31
0.0
  0
LINE
  5
19D
330
2
100
AcDbEntity
  8
0
 62
     3
100
AcDbLine
 10
117.7675271673999
 20
173.4595031738
 30
0.0
 11
117.7675271673999
 21
174.3345184325999
 31
0.0
  0
LINE
  5
19E
330
2
100
AcDbEntity
  8
0
 62
     3
100
AcDbLine
 10
117.7675271673999
 20
175.2032165527
 30
0.0
 11
117.7675271673999
 21
175.8901062010999
 31
0.0
  0
LINE
  5
19F
330
2
100
AcDbEntity
  8
0
 62
     3
100
AcDbLine
 10
117.7675882024999
 20
176.9132690429
 30
0.0
 11
117.7675882024999
 21
176.4901580809999
 31
0.0
  0
LINE
  5
1A0
330
2
100
AcDbEntity
  8
0
 62
     3
100
AcDbLine
 10
120.7675039046999
 20
174.6648402216
 30
0.0
 11
121.7116085223999
 21
177.4499860133
 31
0.0
  0
LINE
  5
1A1
330
2
100
AcDbEntity
  8
0
 62
     3
100
AcDbLine
 10
121.7675008545999
 20
174.4999971495999
 30
0.0
 11
122.6586563737999
 21
177.1289410161
 31
0.0
  0
LINE
  5
1A2
330
2
100
AcDbEntity
  8
0
 62
     3
100
AcDbLine
 10
122.2419992132999
 20
175.8997955322
 30
0.0
 11
123.9676614446999
 21
175.8997955322
 31
0.0
  0
LINE
  5
1A3
330
2
100
AcDbEntity
  8
0
 62
     3
100
AcDbLine
 10
121.7674966497998
 20
172.4998931883999
 30
0.0
 11
123.9676614446999
 21
172.4998931883999
 31
0.0
  0
LINE
  5
1A4
330
2
100
AcDbEntity
  8
0
 62
     3
100
AcDbLine
 10
123.9686579940999
 20
175.8991866259999
 30
0.0
 11
123.6686658830999
 21
176.4992778177
 31
0.0
  0
LINE
  5
1A5
330
2
100
AcDbEntity
  8
0
 62
     3
100
AcDbLine
 10
122.4454293889998
 20
176.4998931884
 30
0.0
 11
123.6683908147999
 21
176.4998931884
 31
0.0
  0
LINE
  5
1A6
330
2
100
AcDbEntity
  8
0
 62
     3
100
AcDbLine
 10
121.7116273638998
 20
177.4499783015
 30
0.0
 11
122.6586771933999
 21
177.1289392916999
 31
0.0
  0
LINE
  5
1A7
330
2
100
AcDbEntity
  8
0
 62
     3
100
AcDbLine
 10
120.7674966497998
 20
177.450012207
 30
0.0
 11
121.7116037053999
 21
177.450012207
 31
0.0
  0
LINE
  5
1A8
330
2
100
AcDbEntity
  8
0
 62
     3
100
AcDbLine
 10
123.9676614446999
 20
194.8002624511
 30
0.0
 11
124.5676675481999
 21
194.8002624511
 31
0.0
  0
LINE
  5
1A9
330
2
100
AcDbEntity
  8
0
 62
     3
100
AcDbLine
 10
117.7671304387999
 20
204.1000366211
 30
0.0
 11
120.7671151799999
 21
204.1000366211
 31
0.0
  0
LINE
  5
1AA
330
2
100
AcDbEntity
  8
0
 62
     3
100
AcDbLine
 10
117.7671304387999
 20
205.192489624
 30
0.0
 11
120.7671151799999
 21
205.192489624
 31
0.0
  0
LINE
  5
1AB
330
2
100
AcDbEntity
  8
0
 62
     3
100
AcDbLine
 10
120.7671151799999
 20
202.900024414
 30
0.0
 11
117.7671304387999
 21
202.900024414
 31
0.0
  0
LINE
  5
1AC
330
2
100
AcDbEntity
  8
0
 62
     3
100
AcDbLine
 10
120.7671151799999
 20
201.8075714111
 30
0.0
 11
117.7671304387999
 21
201.8075714111
 31
0.0
  0
LINE
  5
1AD
330
2
100
AcDbEntity
  8
0
 62
     3
100
AcDbLine
 10
120.7671151799999
 20
200.6222076415999
 30
0.0
 11
117.7671304387999
 21
200.6222076415999
 31
0.0
  0
LINE
  5
1AE
330
2
100
AcDbEntity
  8
0
 62
     3
100
AcDbLine
 10
120.7671151799999
 20
199.5797576904
 30
0.0
 11
117.7671304387999
 21
199.5797576904
 31
0.0
  0
LINE
  5
1AF
330
2
100
AcDbEntity
  8
0
 62
     3
100
AcDbLine
 10
120.7671151799999
 20
198.5405426025
 30
0.0
 11
117.7671304387999
 21
198.5405426025
 31
0.0
  0
LINE
  5
1B0
330
2
100
AcDbEntity
  8
0
 62
     3
100
AcDbLine
 10
120.7671151799999
 20
197.6655273436999
 30
0.0
 11
117.7671304387999
 21
197.6655273436999
 31
0.0
  0
LINE
  5
1B1
330
2
100
AcDbEntity
  8
0
 62
     3
100
AcDbLine
 10
120.7671151799999
 20
196.7968292236
 30
0.0
 11
117.7671304387999
 21
196.7968292236
 31
0.0
  0
LINE
  5
1B2
330
2
100
AcDbEntity
  8
0
 62
     3
100
AcDbLine
 10
120.7671151799999
 20
196.1099395751999
 30
0.0
 11
117.7671304387999
 21
196.1099395751999
 31
0.0
  0
LINE
  5
1B3
330
2
100
AcDbEntity
  8
0
 62
     3
100
AcDbLine
 10
120.7671151799999
 20
195.5099487304
 30
0.0
 11
117.7671304387999
 21
195.5099487304
 31
0.0
  0
LINE
  5
1B4
330
2
100
AcDbEntity
  8
0
 62
     3
100
AcDbLine
 10
120.7671151799999
 20
195.0868225097
 30
0.0
 11
117.7671304387999
 21
195.0868225097
 31
0.0
  0
LINE
  5
1B5
330
2
100
AcDbEntity
  8
0
 62
     3
100
AcDbLine
 10
117.7671304387999
 20
200.6222076415999
 30
0.0
 11
117.7671304387999
 21
199.5797576904
 31
0.0
  0
LINE
  5
1B6
330
2
100
AcDbEntity
  8
0
 62
     3
100
AcDbLine
 10
117.7671304387999
 20
197.6655273436999
 30
0.0
 11
117.7671304387999
 21
198.5405426025
 31
0.0
  0
LINE
  5
1B7
330
2
100
AcDbEntity
  8
0
 62
     3
100
AcDbLine
 10
117.7671304387999
 20
196.1099395751999
 30
0.0
 11
117.7671304387999
 21
196.7968292236
 31
0.0
  0
LINE
  5
1B8
330
2
100
AcDbEntity
  8
0
 62
     3
100
AcDbLine
 10
117.7670236273
 20
195.5098419188999
 30
0.0
 11
117.7670236273
 21
195.086730957
 31
0.0
  0
LINE
  5
1B9
330
2
100
AcDbEntity
  8
0
 62
     3
100
AcDbLine
 10
117.7671304387999
 20
205.192489624
 30
0.0
 11
117.7671304387999
 21
204.1000366211
 31
0.0
  0
LINE
  5
1BA
330
2
100
AcDbEntity
  8
0
 62
     3
100
AcDbLine
 10
117.7671304387999
 20
202.900024414
 30
0.0
 11
117.7671304387999
 21
201.8075714111
 31
0.0
  0
LINE
  5
1BB
330
2
100
AcDbEntity
  8
0
 62
     3
100
AcDbLine
 10
121.7112001625999
 20
194.5502129266
 30
0.0
 11
122.6582690922999
 21
194.8712431261
 31
0.0
  0
LINE
  5
1BC
330
2
100
AcDbEntity
  8
0
 62
     3
100
AcDbLine
 10
121.7671361739999
 20
197.5002186258
 30
0.0
 11
122.6582973539999
 21
194.8712445334999
 31
0.0
  0
LINE
  5
1BD
330
2
100
AcDbEntity
  8
0
 62
     3
100
AcDbLine
 10
122.2416787786999
 20
196.1002502440999
 30
0.0
 11
123.9676614446999
 21
196.1002502440999
 31
0.0
  0
LINE
  5
1BE
330
2
100
AcDbEntity
  8
0
 62
     3
100
AcDbLine
 10
120.7671151799999
 20
194.5502624511
 30
0.0
 11
121.7112069768999
 21
194.5502624511
 31
0.0
  0
LINE
  5
1BF
330
2
100
AcDbEntity
  8
0
 62
     3
100
AcDbLine
 10
120.7671441361999
 20
197.3353144196
 30
0.0
 11
121.7112296759996
 21
194.5502105788
 31
0.0
  0
LINE
  5
1C0
330
2
100
AcDbEntity
  8
0
 62
     3
100
AcDbLine
 10
121.7671151799999
 20
202.8002624511
 30
0.0
 11
123.9676614446999
 21
202.8002624511
 31
0.0
  0
LINE
  5
1C1
330
2
100
AcDbEntity
  8
0
 62
     3
100
AcDbLine
 10
121.7671151799999
 20
204.2002716063999
 30
0.0
 11
123.9676614446999
 21
204.2002716063999
 31
0.0
  0
LINE
  5
1C2
330
2
100
AcDbEntity
  8
0
 62
     3
100
AcDbLine
 10
129.9657601653999
 20
197.0250409476
 30
0.0
 11
130.2657503363997
 21
197.1493009372
 31
0.0
  0
LINE
  5
1C3
330
2
100
AcDbEntity
  8
0
 62
     3
100
AcDbLine
 10
116.9671426458999
 20
212.4000244139998
 30
0.0
 11
120.7671151799999
 21
212.4000244139998
 31
0.0
  0
LINE
  5
1C4
330
2
100
AcDbEntity
  8
0
 62
     3
100
AcDbLine
 10
115.7671304387999
 20
210.9001770018999
 30
0.0
 11
107.5675759954998
 21
210.9001770018999
 31
0.0
  0
LINE
  5
1C5
330
2
100
AcDbEntity
  8
0
 62
     3
100
AcDbLine
 10
107.5672219734999
 20
210.8996833427998
 30
0.0
 11
107.5672143440999
 21
210.4997809989999
 31
0.0
  0
LINE
  5
1C6
330
2
100
AcDbEntity
  8
0
 62
     3
100
AcDbLine
 10
115.7671456975996
 20
211.8791961669999
 30
0.0
 11
115.7671456975996
 21
206.5000305174999
 31
0.0
  0
LINE
  5
1C7
330
2
100
AcDbEntity
  8
0
 62
     3
100
AcDbLine
 10
115.7671456975996
 20
206.5000305174999
 30
0.0
 11
116.9671426458999
 21
206.5000305174999
 31
0.0
  0
LINE
  5
1C8
330
2
100
AcDbEntity
  8
0
 62
     3
100
AcDbLine
 10
116.9671426458999
 20
212.4000244139998
 30
0.0
 11
116.9671426458999
 21
211.8791961669999
 31
0.0
  0
LINE
  5
1C9
330
2
100
AcDbEntity
  8
0
 62
     3
100
AcDbLine
 10
116.9671426458999
 20
211.8791961669999
 30
0.0
 11
115.7671456975996
 21
211.8791961669999
 31
0.0
  0
LINE
  5
1CA
330
2
100
AcDbEntity
  8
0
 62
     3
100
AcDbLine
 10
123.9676614446999
 20
212.2002563475999
 30
0.0
 11
124.5676675481999
 21
212.2002563475999
 31
0.0
  0
LINE
  5
1CB
330
2
100
AcDbEntity
  8
0
 62
     3
100
AcDbLine
 10
117.7671304387999
 20
211.4901123047
 30
0.0
 11
120.7671151799999
 21
211.4901123047
 31
0.0
  0
LINE
  5
1CC
330
2
100
AcDbEntity
  8
0
 62
     3
100
AcDbLine
 10
117.7671304387999
 20
211.9132385253998
 30
0.0
 11
120.7671151799999
 21
211.9132385253998
 31
0.0
  0
LINE
  5
1CD
330
2
100
AcDbEntity
  8
0
 62
     3
100
AcDbLine
 10
117.7671304387999
 20
206.3778533934999
 30
0.0
 11
120.7671151799999
 21
206.3778533934999
 31
0.0
  0
LINE
  5
1CE
330
2
100
AcDbEntity
  8
0
 62
     3
100
AcDbLine
 10
117.7671304387999
 20
207.4203033447
 30
0.0
 11
120.7671151799999
 21
207.4203033447
 31
0.0
  0
LINE
  5
1CF
330
2
100
AcDbEntity
  8
0
 62
     3
100
AcDbLine
 10
117.7671304387999
 20
208.4595184325999
 30
0.0
 11
120.7671151799999
 21
208.4595184325999
 31
0.0
  0
LINE
  5
1D0
330
2
100
AcDbEntity
  8
0
 62
     3
100
AcDbLine
 10
117.7671304387999
 20
209.3345336913999
 30
0.0
 11
120.7671151799999
 21
209.3345336913999
 31
0.0
  0
LINE
  5
1D1
330
2
100
AcDbEntity
  8
0
 62
     3
100
AcDbLine
 10
117.7671304387999
 20
210.2032318114998
 30
0.0
 11
120.7671151799999
 21
210.2032318114998
 31
0.0
  0
LINE
  5
1D2
330
2
100
AcDbEntity
  8
0
 62
     3
100
AcDbLine
 10
117.7671304387999
 20
210.8901214598999
 30
0.0
 11
120.7671151799999
 21
210.8901214598999
 31
0.0
  0
LINE
  5
1D3
330
2
100
AcDbEntity
  8
0
 62
     3
100
AcDbLine
 10
117.7671304387999
 20
207.4203033447
 30
0.0
 11
117.7671304387999
 21
206.3778533934999
 31
0.0
  0
LINE
  5
1D4
330
2
100
AcDbEntity
  8
0
 62
     3
100
AcDbLine
 10
117.7671304387999
 20
208.4595184325999
 30
0.0
 11
117.7671304387999
 21
209.3345336913999
 31
0.0
  0
LINE
  5
1D5
330
2
100
AcDbEntity
  8
0
 62
     3
100
AcDbLine
 10
117.7671304387999
 20
210.2032318114998
 30
0.0
 11
117.7671304387999
 21
210.8901214598999
 31
0.0
  0
LINE
  5
1D6
330
2
100
AcDbEntity
  8
0
 62
     3
100
AcDbLine
 10
117.7672067327999
 20
211.9132843016999
 30
0.0
 11
117.7672067327999
 21
211.4901733397999
 31
0.0
  0
LINE
  5
1D7
330
2
100
AcDbEntity
  8
0
 62
     3
100
AcDbLine
 10
120.7671186662999
 20
209.6650710901998
 30
0.0
 11
121.7112232840999
 21
212.450216882
 31
0.0
  0
LINE
  5
1D8
330
2
100
AcDbEntity
  8
0
 62
     3
100
AcDbLine
 10
121.7671300673996
 20
209.5002231197
 30
0.0
 11
122.6582855865999
 21
212.1291669861999
 31
0.0
  0
LINE
  5
1D9
330
2
100
AcDbEntity
  8
0
 62
     3
100
AcDbLine
 10
123.9676614446999
 20
210.9001770018999
 30
0.0
 11
122.2416787786999
 21
210.9001770018999
 31
0.0
  0
LINE
  5
1DA
330
2
100
AcDbEntity
  8
0
 62
     3
100
AcDbLine
 10
121.7112515365997
 20
212.4502138342999
 30
0.0
 11
122.6583158170999
 21
212.1291699256999
 31
0.0
  0
LINE
  5
1DB
330
2
100
AcDbEntity
  8
0
 62
     3
100
AcDbLine
 10
120.7671151799999
 20
212.4502716063999
 30
0.0
 11
121.7112222356999
 21
212.4502716063999
 31
0.0
  0
LINE
  5
1DC
330
2
100
AcDbEntity
  8
0
 62
     3
100
AcDbLine
 10
130.2664485780999
 20
209.8483850433999
 30
0.0
 11
129.9663451447998
 21
209.9726906048998
 31
0.0
  0
TEXT
  5
1DD
330
2
100
AcDbEntity
  8
0
 62
     5
100
AcDbText
 10
145.0
 20
10.0
 30
0.0
 40
5.0
  1
ＭＡ４－Ｈ０００５６Ｄ
 41
0.8443967743953097
 72
     5
 11
199.0413935612998
 21
10.0
 31
0.0
100
AcDbText
  0
LINE
  5
1DE
330
2
100
AcDbEntity
  8
0
 62
     3
100
AcDbLine
 10
171.2149188229998
 20
159.5498348808
 30
0.0
 11
171.5149555478999
 21
159.8498721620999
 31
0.0
  0
LINE
  5
1DF
330
2
100
AcDbEntity
  8
0
 62
     3
100
AcDbLine
 10
171.2145048374999
 20
159.5495548224999
 30
0.0
 11
170.9143833047999
 21
159.8494857168
 31
0.0
  0
LINE
  5
1E0
330
2
100
AcDbEntity
  8
0
  6
CENTER
 62
     3
100
AcDbLine
 10
162.5640969915999
 20
179.4501525879
 30
0.0
 11
162.5640969915999
 21
157.5501678466
 31
0.0
  0
LINE
  5
1E1
330
2
100
AcDbEntity
  8
0
 62
     3
100
AcDbLine
 10
154.2146323735998
 20
159.8497372795
 30
0.0
 11
153.9147565283999
 21
159.5498843854999
 31
0.0
  0
LINE
  5
1E2
330
2
100
AcDbEntity
  8
0
 62
     3
100
AcDbLine
 10
153.9147295014998
 20
159.5495024025
 30
0.0
 11
153.6147792449999
 21
159.8494535186
 31
0.0
  0
LINE
  5
1E3
330
2
100
AcDbEntity
  8
0
 62
     3
100
AcDbLine
 10
171.2152517882
 20
159.5501678466
 30
0.0
 11
153.9150003118999
 21
159.5501678466
 31
0.0
  0
LINE
  5
1E4
330
2
100
AcDbEntity
  8
0
 62
     3
100
AcDbLine
 10
170.9143890683999
 20
177.1501037597
 30
0.0
 11
154.2137063665999
 21
177.1501037597
 31
0.0
  0
LINE
  5
1E5
330
2
100
AcDbEntity
  8
0
 62
     3
100
AcDbLine
 10
170.9151062280998
 20
159.8502166748
 30
0.0
 11
154.2151712102999
 21
159.8502166748
 31
0.0
  0
LINE
  5
1E6
330
2
100
AcDbEntity
  8
0
 62
     3
100
AcDbLine
 10
171.2154212322998
 20
177.4501525878999
 30
0.0
 11
153.9137796087999
 21
177.4501525878999
 31
0.0
  0
LINE
  5
1E7
330
2
100
AcDbEntity
  8
0
  6
CENTER
 62
     3
100
AcDbLine
 10
151.6143411322
 20
168.5
 30
0.0
 11
173.5139596624999
 21
168.5
 31
0.0
  0
LINE
  5
1E8
330
2
100
AcDbEntity
  8
0
 62
     3
100
AcDbLine
 10
170.3641305608998
 20
160.7001953124999
 30
0.0
 11
154.7644143743999
 21
160.7001953124999
 31
0.0
  0
LINE
  5
1E9
330
2
100
AcDbEntity
  8
0
 62
     3
100
AcDbLine
 10
170.3641305608998
 20
176.3001556395999
 30
0.0
 11
154.7644143743999
 21
176.3001556395999
 31
0.0
  0
LINE
  5
1EA
330
2
100
AcDbEntity
  8
0
 62
     3
100
AcDbLine
 10
169.7641244573999
 20
176.0001525879
 30
0.0
 11
155.3642678899999
 21
176.0001525879
 31
0.0
  0
LINE
  5
1EB
330
2
100
AcDbEntity
  8
0
 62
     3
100
AcDbLine
 10
169.7641244573999
 20
161.0001831054
 30
0.0
 11
155.3642526311999
 21
161.0001831054
 31
0.0
  0
LINE
  5
1EC
330
2
100
AcDbEntity
  8
0
 62
     3
100
AcDbLine
 10
133.5670571966999
 20
210.8994140625
 30
0.0
 11
133.5670571966999
 21
196.0999450682999
 31
0.0
  0
LINE
  5
1ED
330
2
100
AcDbEntity
  8
0
 62
     3
100
AcDbLine
 10
133.2668862981998
 20
211.1993408202999
 30
0.0
 11
133.2668862981998
 21
195.7997894286999
 31
0.0
  0
LINE
  5
1EE
330
2
100
AcDbEntity
  8
0
 62
     3
100
AcDbLine
 10
133.2677560491999
 20
159.7508450342999
 30
0.0
 11
133.2677560491999
 21
177.2566792778999
 31
0.0
  0
LINE
  5
1EF
330
2
100
AcDbEntity
  8
0
 62
     3
100
AcDbLine
 10
133.5676828069999
 20
160.0507710842
 30
0.0
 11
133.5676828069999
 21
176.9416595368999
 31
0.0
  0
LINE
  5
1F0
330
2
100
AcDbEntity
  8
0
 62
     3
100
AcDbLine
 10
133.2592482140997
 20
159.7423372192
 30
0.0
 11
133.5661907924996
 21
160.0492790731999
 31
0.0
  0
LINE
  5
1F1
330
2
100
AcDbEntity
  8
0
 62
     3
100
AcDbLine
 10
133.5662663203999
 20
176.9431404059
 30
0.0
 11
133.2663874000999
 21
177.2566494750999
 31
0.0
  0
LINE
  5
1F2
330
2
100
AcDbEntity
  8
0
 62
     3
100
AcDbLine
 10
131.3410440130998
 20
195.6497955322
 30
0.0
 11
133.5675607366999
 21
195.6497955322
 31
0.0
  0
LINE
  5
1F3
330
2
100
AcDbEntity
  8
0
 62
     3
100
AcDbLine
 10
131.6162362737999
 20
195.799911499
 30
0.0
 11
133.2669931096999
 21
195.799911499
 31
0.0
  0
LINE
  5
1F4
330
2
100
AcDbEntity
  8
0
 62
     3
100
AcDbLine
 10
133.2592044227
 20
194.7422779027
 30
0.0
 11
133.5659744938997
 21
195.0490472499
 31
0.0
  0
LINE
  5
1F5
330
2
100
AcDbEntity
  8
0
 62
     3
100
AcDbLine
 10
133.2666568039998
 20
195.799127344
 30
0.0
 11
133.5666939840999
 21
196.0991641700998
 31
0.0
  0
LINE
  5
1F6
330
2
100
AcDbEntity
  8
0
 62
     3
100
AcDbLine
 10
133.5675302190999
 20
195.0506029714
 30
0.0
 11
133.5675302190999
 21
195.6497802733999
 31
0.0
  0
LINE
  5
1F7
330
2
100
AcDbEntity
  8
0
 62
     3
100
AcDbLine
 10
131.0676828069999
 20
202.0000152588
 30
0.0
 11
131.0676828069999
 21
205.0000152588
 31
0.0
  0
LINE
  5
1F8
330
2
100
AcDbEntity
  8
0
 62
     3
100
AcDbLine
 10
155.0642800969999
 20
161.3001556395999
 30
0.0
 11
155.0642800969999
 21
175.7001495361
 31
0.0
  0
LINE
  5
1F9
330
2
100
AcDbEntity
  8
0
 62
     3
100
AcDbLine
 10
153.91426789
 20
160.1500428006
 30
0.0
 11
153.91426789
 21
176.8490570927999
 31
0.0
  0
LINE
  5
1FA
330
2
100
AcDbEntity
  8
0
 62
     3
100
AcDbLine
 10
153.6143411322
 20
159.8493703985
 30
0.0
 11
153.6143411322
 21
177.1492753561999
 31
0.0
  0
LINE
  5
1FB
330
2
100
AcDbEntity
  8
0
 62
     3
100
AcDbLine
 10
154.7642923040999
 20
159.8502166748
 30
0.0
 11
154.7642923040999
 21
177.1501037597
 31
0.0
  0
LINE
  5
1FC
330
2
100
AcDbEntity
  8
0
 62
     3
100
AcDbLine
 10
153.9146931661999
 20
160.1496994448
 30
0.0
 11
153.6148173209999
 21
159.8498465508
 31
0.0
  0
LINE
  5
1FD
330
2
100
AcDbEntity
  8
0
 62
     3
100
AcDbLine
 10
155.0642678433999
 20
161.3001574021
 30
0.0
 11
155.3642463215998
 21
161.0001697448
 31
0.0
  0
LINE
  5
1FE
330
2
100
AcDbEntity
  8
0
 62
     3
100
AcDbLine
 10
154.2147356420999
 20
159.8495747192998
 30
0.0
 11
153.9147851073998
 21
160.1495255826
 31
0.0
  0
LINE
  5
1FF
330
2
100
AcDbEntity
  8
0
 62
     3
100
AcDbLine
 10
156.2142434759
 20
160.7001953124999
 30
0.0
 11
156.2142434759
 21
159.8502166748
 31
0.0
  0
LINE
  5
200
330
2
100
AcDbEntity
  8
0
 62
     3
100
AcDbLine
 10
153.9143651799999
 20
176.849121542
 30
0.0
 11
153.6143067507999
 21
177.1493097524999
 31
0.0
  0
LINE
  5
201
330
2
100
AcDbEntity
  8
0
 62
     3
100
AcDbLine
 10
153.6146684880999
 20
177.1497135216999
 30
0.0
 11
153.9145328070999
 21
177.4495779418999
 31
0.0
  0
LINE
  5
202
330
2
100
AcDbEntity
  8
0
 62
     3
100
AcDbLine
 10
153.9146842493998
 20
176.8494734513
 30
0.0
 11
154.2145489728999
 21
177.149337467
 31
0.0
  0
LINE
  5
203
330
2
100
AcDbEntity
  8
0
 62
     3
100
AcDbLine
 10
156.2142434759
 20
176.3000335693
 30
0.0
 11
156.2142434759
 21
177.1501037597
 31
0.0
  0
LINE
  5
204
330
2
100
AcDbEntity
  8
0
 62
     3
100
AcDbLine
 10
155.3642807319999
 20
176.0001344366
 30
0.0
 11
155.0642873676999
 21
175.7001401114
 31
0.0
  0
LINE
  5
205
330
2
100
AcDbEntity
  8
0
 62
     3
100
AcDbLine
 10
154.2144670551
 20
177.1490936731
 30
0.0
 11
153.9144086259
 21
177.4492818836
 31
0.0
  0
LINE
  5
206
330
2
100
AcDbEntity
  8
0
 62
     3
100
AcDbLine
 10
133.5675607366999
 20
211.3499908447
 30
0.0
 11
133.5675607366999
 21
211.9431784974
 31
0.0
  0
LINE
  5
207
330
2
100
AcDbEntity
  8
0
 62
     3
100
AcDbLine
 10
131.342859809
 20
211.3499908447
 30
0.0
 11
133.5676828069999
 21
211.3499908447
 31
0.0
  0
LINE
  5
208
330
2
100
AcDbEntity
  8
0
 62
     3
100
AcDbLine
 10
133.2669931096999
 20
211.1994628905998
 30
0.0
 11
131.6166024846999
 21
211.1994628905998
 31
0.0
  0
LINE
  5
209
330
2
100
AcDbEntity
  8
0
 62
     3
100
AcDbLine
 10
133.5664611998997
 20
210.8989875041999
 30
0.0
 11
133.2664239944999
 21
211.1990243049997
 31
0.0
  0
LINE
  5
20A
330
2
100
AcDbEntity
  8
0
 62
     3
100
AcDbLine
 10
133.5661258381998
 20
211.9428486235999
 30
0.0
 11
133.2661625399996
 21
212.2564459057
 31
0.0
  0
LINE
  5
20B
330
2
100
AcDbEntity
  8
0
 62
     3
100
AcDbLine
 10
170.0641275091999
 20
161.3001708984
 30
0.0
 11
170.0641275091999
 21
175.7001342773
 31
0.0
  0
LINE
  5
20C
330
2
100
AcDbEntity
  8
0
 62
     3
100
AcDbLine
 10
170.3641305608998
 20
159.8502166748
 30
0.0
 11
170.3641305608998
 21
177.1501037597
 31
0.0
  0
LINE
  5
20D
330
2
100
AcDbEntity
  8
0
 62
     3
100
AcDbLine
 10
169.7641300464999
 20
161.0001689593
 30
0.0
 11
170.0641346302999
 21
161.3001736694999
 31
0.0
  0
LINE
  5
20E
330
2
100
AcDbEntity
  8
0
 62
     3
100
AcDbLine
 10
168.9141793889999
 20
160.7001953124999
 30
0.0
 11
168.9141793889999
 21
159.8502166748
 31
0.0
  0
LINE
  5
20F
330
2
100
AcDbEntity
  8
0
 62
     3
100
AcDbLine
 10
168.9141793889999
 20
176.3000335693
 30
0.0
 11
168.9141793889999
 21
177.1501037597
 31
0.0
  0
LINE
  5
210
330
2
100
AcDbEntity
  8
0
 62
     3
100
AcDbLine
 10
169.764128192
 20
176.0001488391
 30
0.0
 11
170.0641268076999
 21
175.7001381861
 31
0.0
  0
LINE
  5
211
330
2
100
AcDbEntity
  8
0
 62
     3
100
AcDbLine
 10
171.2141549749999
 20
160.1499008613998
 30
0.0
 11
171.2141549749999
 21
176.8490758802
 31
0.0
  0
LINE
  5
212
330
2
100
AcDbEntity
  8
0
 62
     3
100
AcDbLine
 10
171.5139596624998
 20
159.8488762748
 30
0.0
 11
171.5139596624998
 21
177.1490178241999
 31
0.0
  0
LINE
  5
213
330
2
100
AcDbEntity
  8
0
 62
     3
100
AcDbLine
 10
171.2144979258999
 20
160.1495583199
 30
0.0
 11
171.5147896897
 21
159.8496251242999
 31
0.0
  0
LINE
  5
214
330
2
100
AcDbEntity
  8
0
 62
     3
100
AcDbLine
 10
170.9145371631999
 20
159.8496476098
 30
0.0
 11
171.2144015327999
 21
160.1495120045999
 31
0.0
  0
LINE
  5
215
330
2
100
AcDbEntity
  8
0
 62
     3
100
AcDbLine
 10
171.5144436666999
 20
177.1495020499999
 30
0.0
 11
171.2146479232998
 21
176.8495690541999
 31
0.0
  0
LINE
  5
216
330
2
100
AcDbEntity
  8
0
 62
     3
100
AcDbLine
 10
171.2147287609999
 20
176.8497644722
 30
0.0
 11
170.9146915554998
 21
177.1498012729999
 31
0.0
  0
LINE
  5
217
330
2
100
AcDbEntity
  8
0
 62
     3
100
AcDbLine
 10
171.5146583575998
 20
177.1496610043
 30
0.0
 11
171.2147078735999
 21
177.4496118929999
 31
0.0
  0
LINE
  5
218
330
2
100
AcDbEntity
  8
0
 62
     3
100
AcDbLine
 10
171.2145196251999
 20
177.4492511875
 30
0.0
 11
170.9146208793
 21
177.1494211941999
 31
0.0
  0
LINE
  5
224
330
2
100
AcDbEntity
  8
0
100
AcDbLine
 10
210.0
 20
297.0
 30
0.0
 11
0.0
 21
297.0
 31
0.0
  0
TEXT
  5
248
330
2
100
AcDbEntity
  8
0
 62
     7
100
AcDbText
 10
146.0
 20
105.0000029552499
 30
0.0
 40
2.999994089499998
  1
AL6Q-P3P*
 11
146.0
 21
106.4999999999999
 31
0.0
100
AcDbText
 73
     2
  0
TEXT
  5
249
330
2
100
AcDbEntity
  8
0
 62
     7
100
AcDbText
 10
146.0
 20
95.00000295524989
 30
0.0
 40
2.999994089499998
  1
AL6Q-P4P*
 11
146.0
 21
96.49999999999989
 31
0.0
100
AcDbText
 73
     2
  0
TEXT
  5
24A
330
2
100
AcDbEntity
  8
0
 62
     7
100
AcDbText
 10
146.0
 20
100.0000029552498
 30
0.0
 40
2.999994089499998
  1
AL6Q-P3*
 11
146.0
 21
101.4999999999998
 31
0.0
100
AcDbText
 73
     2
  0
TEXT
  5
24B
330
2
100
AcDbEntity
  8
0
 62
     7
100
AcDbText
 10
146.0
 20
90.00000295524989
 30
0.0
 40
2.999994089499998
  1
AL6Q-P4*
 11
146.0
 21
91.49999999999989
 31
0.0
100
AcDbText
 73
     2
  0
TEXT
  5
24C
330
2
100
AcDbEntity
  8
0
 62
     7
100
AcDbText
 10
146.0
 20
115.0000029552499
 30
0.0
 40
2.999994089499998
  1
AL6Q-P1P*
 11
146.0
 21
116.5
 31
0.0
100
AcDbText
 73
     2
  0
TEXT
  5
24E
330
2
100
AcDbEntity
  8
0
 62
     7
100
AcDbText
 10
146.0
 20
110.0000029552498
 30
0.0
 40
2.999994089499998
  1
AL6Q-P1*
 11
146.0
 21
111.4999999999999
 31
0.0
100
AcDbText
 73
     2
  0
ENDSEC
  0
SECTION
  2
OBJECTS
  0
DICTIONARY
  5
7
330
0
100
AcDbDictionary
281
     1
  3
ACAD_GROUP
350
1F
  3
ACAD_LAYOUT
350
B
  3
ACAD_MLINESTYLE
350
20
  3
ACAD_PLOTSETTINGS
350
21
  3
ACAD_PLOTSTYLENAME
350
6
  3
AcDbVariableDictionary
350
24F
  3
ASE_INDEX_DICTIONARY
350
258
  0
DICTIONARY
  5
1F
102
{ACAD_REACTORS
330
7
102
}
330
7
100
AcDbDictionary
281
     1
  0
DICTIONARY
  5
B
102
{ACAD_REACTORS
330
7
102
}
330
7
100
AcDbDictionary
281
     1
  3
Model
350
A
  3
ﾚｲｱｳﾄ1
350
F
  0
DICTIONARY
  5
20
102
{ACAD_REACTORS
330
7
102
}
330
7
100
AcDbDictionary
281
     1
  3
Standard
350
22
  0
DICTIONARY
  5
21
102
{ACAD_REACTORS
330
7
102
}
330
7
100
AcDbDictionary
281
     1
  0
ACDBDICTIONARYWDFLT
  5
6
102
{ACAD_REACTORS
330
7
102
}
330
7
100
AcDbDictionary
281
     1
  3
Normal
350
5
100
AcDbDictionaryWithDefault
340
5
  0
DICTIONARY
  5
24F
102
{ACAD_REACTORS
330
7
102
}
330
7
100
AcDbDictionary
281
     1
  3
DIMASSOC
350
250
  0
DICTIONARY
  5
258
102
{ACAD_REACTORS
330
7
102
}
330
7
100
AcDbDictionary
281
     1
  3
ASEBlockHierarchyIndexRecord
350
25A
1001
DCO15
1040
1518869684.953
  0
LAYOUT
  5
A
102
{ACAD_REACTORS
330
B
102
}
330
B
100
AcDbPlotSettings
  1

  2
C:\Program Files\AutoCAD 2000i\plotters\DWF Classic.pc3
  4

  6

 40
0.0
 41
0.0
 42
0.0
 43
0.0
 44
0.0
 45
0.0
 46
0.0
 47
0.0
 48
0.0
 49
0.0
140
0.0
141
0.0
142
1.0
143
1.0
 70
  1712
 72
     0
 73
     0
 74
     0
  7

 75
     0
147
1.0
148
0.0
149
0.0
100
AcDbLayout
  1
Model
 70
     1
 71
     0
 10
0.0
 20
0.0
 11
12.0
 21
9.0
 12
0.0
 22
0.0
 32
0.0
 14
0.0
 24
0.0
 34
0.0
 15
0.0
 25
0.0
 35
0.0
146
0.0
 13
0.0
 23
0.0
 33
0.0
 16
1.0
 26
0.0
 36
0.0
 17
0.0
 27
1.0
 37
0.0
 76
     0
330
2
  0
LAYOUT
  5
F
102
{ACAD_REACTORS
330
B
102
}
330
B
100
AcDbPlotSettings
  1

  2
C:\Program Files\AutoCAD 2000i\plotters\DWF Classic.pc3
  4

  6

 40
0.0
 41
0.0
 42
0.0
 43
0.0
 44
0.0
 45
0.0
 46
0.0
 47
0.0
 48
0.0
 49
0.0
140
0.0
141
0.0
142
1.0
143
1.0
 70
   688
 72
     0
 73
     0
 74
     5
  7

 75
    16
147
1.0
148
0.0
149
0.0
100
AcDbLayout
  1
ﾚｲｱｳﾄ1
 70
     1
 71
     1
 10
0.0
 20
0.0
 11
12.0
 21
9.0
 12
0.0
 22
0.0
 32
0.0
 14
1.000000000000000E+20
 24
1.000000000000000E+20
 34
1.000000000000000E+20
 15
-1.000000000000000E+20
 25
-1.000000000000000E+20
 35
-1.000000000000000E+20
146
0.0
 13
0.0
 23
0.0
 33
0.0
 16
1.0
 26
0.0
 36
0.0
 17
0.0
 27
1.0
 37
0.0
 76
     0
330
C
  0
MLINESTYLE
  5
22
102
{ACAD_REACTORS
330
20
102
}
330
20
100
AcDbMlineStyle
  2
STANDARD
 70
     0
  3

 62
   256
 51
90.0
 52
90.0
 71
     2
 49
0.5
 62
   256
  6
BYLAYER
 49
-0.5
 62
   256
  6
BYLAYER
  0
ACDBPLACEHOLDER
  5
5
102
{ACAD_REACTORS
330
6
102
}
330
6
  0
DICTIONARYVAR
  5
250
102
{ACAD_REACTORS
330
24F
102
}
330
24F
100
DictionaryVariables
280
     0
  1
1
  0
XRECORD
  5
25A
102
{ACAD_REACTORS
330
258
102
}
330
258
100
AcDbXrecord
280
     1
  0
ENDSEC
  0
EOF
