  0
SECTION
  2
HEADER
  9
$ACADVER
  1
AC1015
  9
$ACADMAINTVER
 70
    13
  9
$DWGCODEPAGE
  3
ANSI_932
  9
$INSBASE
 10
0.0
 20
0.0
 30
0.0
  9
$EXTMIN
 10
-0.0015381899841032
 20
-0.0006861695501357
 30
-0.0000000000112498
  9
$EXTMAX
 10
210.0021730585651
 20
297.0014252377497
 30
0.0000000000002956
  9
$LIMMIN
 10
-166.7855957031
 20
-3.174999999999998
  9
$LIMMAX
 10
3.174999999999998
 20
291.2585876465
  9
$ORTHOMODE
 70
     0
  9
$REGENMODE
 70
     1
  9
$FILLMODE
 70
     1
  9
$QTEXTMODE
 70
     0
  9
$MIRRTEXT
 70
     0
  9
$LTSCALE
 40
1.0
  9
$ATTMODE
 70
     1
  9
$TEXTSIZE
 40
2.999994039499997
  9
$TRACEWID
 40
0.05
  9
$TEXTSTYLE
  7
STANDARD
  9
$CLAYER
  8
0
  9
$CELTYPE
  6
ByLayer
  9
$CECOLOR
 62
   256
  9
$CELTSCALE
 40
1.0
  9
$DISPSILH
 70
     0
  9
$DIMSCALE
 40
1.0
  9
$DIMASZ
 40
1.9727878465
  9
$DIMEXO
 40
2.539999961899999
  9
$DIMDLI
 40
0.38
  9
$DIMRND
 40
0.0
  9
$DIMDLE
 40
0.0
  9
$DIMEXE
 40
3.809999942799997
  9
$DIMTP
 40
0.0
  9
$DIMTM
 40
0.0
  9
$DIMTXT
 40
2.999994039499997
  9
$DIMCEN
 40
0.09
  9
$DIMTSZ
 40
0.0
  9
$DIMTOL
 70
     0
  9
$DIMLIM
 70
     0
  9
$DIMTIH
 70
     0
  9
$DIMTOH
 70
     1
  9
$DIMSE1
 70
     0
  9
$DIMSE2
 70
     0
  9
$DIMTAD
 70
     0
  9
$DIMZIN
 70
     0
  9
$DIMBLK
  1

  9
$DIMASO
 70
     1
  9
$DIMSHO
 70
     0
  9
$DIMPOST
  1

  9
$DIMAPOST
  1

  9
$DIMALT
 70
     0
  9
$DIMALTD
 70
     2
  9
$DIMALTF
 40
25.4
  9
$DIMLFAC
 40
1.0
  9
$DIMTOFL
 70
     0
  9
$DIMTVP
 40
0.0
  9
$DIMTIX
 70
     0
  9
$DIMSOXD
 70
     0
  9
$DIMSAH
 70
     0
  9
$DIMBLK1
  1

  9
$DIMBLK2
  1

  9
$DIMSTYLE
  2
Standard
  9
$DIMCLRD
 70
     0
  9
$DIMCLRE
 70
     0
  9
$DIMCLRT
 70
     0
  9
$DIMTFAC
 40
1.0
  9
$DIMGAP
 40
0.09
  9
$DIMJUST
 70
     0
  9
$DIMSD1
 70
     0
  9
$DIMSD2
 70
     0
  9
$DIMTOLJ
 70
     1
  9
$DIMTZIN
 70
     0
  9
$DIMALTZ
 70
     0
  9
$DIMALTTZ
 70
     0
  9
$DIMUPT
 70
     0
  9
$DIMDEC
 70
     4
  9
$DIMTDEC
 70
     4
  9
$DIMALTU
 70
     2
  9
$DIMALTTD
 70
     2
  9
$DIMTXSTY
  7
STANDARD
  9
$DIMAUNIT
 70
     0
  9
$DIMADEC
 70
     0
  9
$DIMALTRND
 40
0.0
  9
$DIMAZIN
 70
     0
  9
$DIMDSEP
 70
    46
  9
$DIMATFIT
 70
     3
  9
$DIMFRAC
 70
     0
  9
$DIMLDRBLK
  1

  9
$DIMLUNIT
 70
     2
  9
$DIMLWD
 70
    -2
  9
$DIMLWE
 70
    -2
  9
$DIMTMOVE
 70
     0
  9
$LUNITS
 70
     2
  9
$LUPREC
 70
     3
  9
$SKETCHINC
 40
0.1
  9
$FILLETRAD
 40
0.0625
  9
$AUNITS
 70
     0
  9
$AUPREC
 70
     0
  9
$MENU
  1
ACAD
  9
$ELEVATION
 40
0.0
  9
$PELEVATION
 40
0.0
  9
$THICKNESS
 40
0.0
  9
$LIMCHECK
 70
     0
  9
$CHAMFERA
 40
0.0
  9
$CHAMFERB
 40
0.0
  9
$CHAMFERC
 40
0.0
  9
$CHAMFERD
 40
0.0
  9
$SKPOLY
 70
     0
  9
$TDCREATE
 40
2452272.487395833
  9
$TDUCREATE
 40
2452272.112395833
  9
$TDUPDATE
 40
2453382.721183449
  9
$TDUUPDATE
 40
2453382.346183449
  9
$TDINDWG
 40
0.0032714931
  9
$TDUSRTIMER
 40
0.0032713079
  9
$USRTIMER
 70
     1
  9
$ANGBASE
 50
0.0
  9
$ANGDIR
 70
     0
  9
$PDMODE
 70
     0
  9
$PDSIZE
 40
0.0
  9
$PLINEWID
 40
0.0
  9
$SPLFRAME
 70
     0
  9
$SPLINETYPE
 70
     6
  9
$SPLINESEGS
 70
     8
  9
$HANDSEED
  5
25C
  9
$SURFTAB1
 70
     6
  9
$SURFTAB2
 70
     6
  9
$SURFTYPE
 70
     6
  9
$SURFU
 70
     6
  9
$SURFV
 70
     6
  9
$UCSBASE
  2

  9
$UCSNAME
  2

  9
$UCSORG
 10
0.0
 20
0.0
 30
0.0
  9
$UCSXDIR
 10
1.0
 20
0.0
 30
0.0
  9
$UCSYDIR
 10
0.0
 20
1.0
 30
0.0
  9
$UCSORTHOREF
  2

  9
$UCSORTHOVIEW
 70
     0
  9
$UCSORGTOP
 10
0.0
 20
0.0
 30
0.0
  9
$UCSORGBOTTOM
 10
0.0
 20
0.0
 30
0.0
  9
$UCSORGLEFT
 10
0.0
 20
0.0
 30
0.0
  9
$UCSORGRIGHT
 10
0.0
 20
0.0
 30
0.0
  9
$UCSORGFRONT
 10
0.0
 20
0.0
 30
0.0
  9
$UCSORGBACK
 10
0.0
 20
0.0
 30
0.0
  9
$PUCSBASE
  2

  9
$PUCSNAME
  2

  9
$PUCSORG
 10
0.0
 20
0.0
 30
0.0
  9
$PUCSXDIR
 10
1.0
 20
0.0
 30
0.0
  9
$PUCSYDIR
 10
0.0
 20
1.0
 30
0.0
  9
$PUCSORTHOREF
  2

  9
$PUCSORTHOVIEW
 70
     0
  9
$PUCSORGTOP
 10
0.0
 20
0.0
 30
0.0
  9
$PUCSORGBOTTOM
 10
0.0
 20
0.0
 30
0.0
  9
$PUCSORGLEFT
 10
0.0
 20
0.0
 30
0.0
  9
$PUCSORGRIGHT
 10
0.0
 20
0.0
 30
0.0
  9
$PUCSORGFRONT
 10
0.0
 20
0.0
 30
0.0
  9
$PUCSORGBACK
 10
0.0
 20
0.0
 30
0.0
  9
$USERI1
 70
     9
  9
$USERI2
 70
     0
  9
$USERI3
 70
     0
  9
$USERI4
 70
     0
  9
$USERI5
 70
     0
  9
$USERR1
 40
0.0
  9
$USERR2
 40
0.0
  9
$USERR3
 40
0.0
  9
$USERR4
 40
0.0
  9
$USERR5
 40
0.0
  9
$WORLDVIEW
 70
     1
  9
$SHADEDGE
 70
     3
  9
$SHADEDIF
 70
    70
  9
$TILEMODE
 70
     1
  9
$MAXACTVP
 70
    64
  9
$PINSBASE
 10
0.0
 20
0.0
 30
0.0
  9
$PLIMCHECK
 70
     0
  9
$PEXTMIN
 10
1.000000000000000E+20
 20
1.000000000000000E+20
 30
1.000000000000000E+20
  9
$PEXTMAX
 10
-1.000000000000000E+20
 20
-1.000000000000000E+20
 30
-1.000000000000000E+20
  9
$PLIMMIN
 10
0.0
 20
0.0
  9
$PLIMMAX
 10
12.0
 20
9.0
  9
$UNITMODE
 70
     0
  9
$VISRETAIN
 70
     1
  9
$PLINEGEN
 70
     0
  9
$PSLTSCALE
 70
     1
  9
$TREEDEPTH
 70
  3020
  9
$CMLSTYLE
  2
Standard
  9
$CMLJUST
 70
     0
  9
$CMLSCALE
 40
1.0
  9
$PROXYGRAPHICS
 70
     1
  9
$MEASUREMENT
 70
     0
  9
$CELWEIGHT
370
    -1
  9
$ENDCAPS
280
     0
  9
$JOINSTYLE
280
     0
  9
$LWDISPLAY
290
     0
  9
$INSUNITS
 70
     0
  9
$HYPERLINKBASE
  1

  9
$STYLESHEET
  1
00ものくろ0.2.CTB
  9
$XEDIT
290
     1
  9
$CEPSNTYPE
380
     0
  9
$PSTYLEMODE
290
     1
  9
$FINGERPRINTGUID
  2
{2464A8DF-FACE-4F9A-B734-9668DB17B053}
  9
$VERSIONGUID
  2
{84C92008-6912-4031-980D-AC45C2A71385}
  9
$EXTNAMES
290
     1
  9
$PSVPSCALE
 40
0.0
  9
$OLESTARTUP
290
     0
  0
ENDSEC
  0
SECTION
  2
CLASSES
  0
CLASS
  1
ACDBDICTIONARYWDFLT
  2
AcDbDictionaryWithDefault
  3
AutoCAD 2000
 90
        0
280
     0
281
     0
  0
CLASS
  1
ACDBPLACEHOLDER
  2
AcDbPlaceHolder
  3
AutoCAD 2000
 90
        0
280
     0
281
     0
  0
CLASS
  1
LAYOUT
  2
AcDbLayout
  3
AutoCAD 2000
 90
        0
280
     0
281
     0
  0
CLASS
  1
DICTIONARYVAR
  2
AcDbDictionaryVar
  3
AutoCAD 2000
 90
        0
280
     0
281
     0
  0
ENDSEC
  0
SECTION
  2
TABLES
  0
TABLE
  2
VPORT
  5
19
330
0
100
AcDbSymbolTable
 70
     2
  0
VPORT
  5
25B
330
19
100
AcDbSymbolTableRecord
100
AcDbViewportTableRecord
  2
*Active
 70
     0
 10
0.0
 20
0.0
 11
1.0
 21
1.0
 12
105.0003174342905
 22
148.5003695340997
 13
0.0
 23
0.0
 14
1.0
 24
1.0
 15
0.0
 25
0.0
 16
0.0
 26
0.0
 36
1.0
 17
0.0
 27
0.0
 37
0.0
 40
301.3379086541217
 41
2.407317073170731
 42
50.0
 43
0.0
 44
0.0
 50
0.0
 51
0.0
 71
     0
 72
   100
 73
     1
 74
     1
 75
     0
 76
     0
 77
     0
 78
     0
281
     0
 65
     1
110
0.0
120
0.0
130
0.0
111
1.0
121
0.0
131
0.0
112
0.0
122
1.0
132
0.0
 79
     0
146
0.0
  0
ENDTAB
  0
TABLE
  2
LTYPE
  5
14
330
0
100
AcDbSymbolTable
 70
     3
  0
LTYPE
  5
15
330
14
100
AcDbSymbolTableRecord
100
AcDbLinetypeTableRecord
  2
ByBlock
 70
     0
  3

 72
    65
 73
     0
 40
0.0
  0
LTYPE
  5
16
330
14
100
AcDbSymbolTableRecord
100
AcDbLinetypeTableRecord
  2
ByLayer
 70
     0
  3

 72
    65
 73
     0
 40
0.0
  0
LTYPE
  5
8
330
14
100
AcDbSymbolTableRecord
100
AcDbLinetypeTableRecord
  2
Continuous
 70
     0
  3
Solid line
 72
    65
 73
     0
 40
0.0
  0
LTYPE
  5
43
330
14
100
AcDbSymbolTableRecord
100
AcDbLinetypeTableRecord
  2
DASH
 70
     0
  3
Dash
 72
    65
 73
     2
 40
1.9999960661
 49
0.9999980329999999
 74
     0
 49
-0.9999980329999999
 74
     0
  0
LTYPE
  5
2E
330
14
100
AcDbSymbolTableRecord
100
AcDbLinetypeTableRecord
  2
CENTER
 70
     0
  3
Center
 72
    65
 73
     4
 40
9.100006759199999
 49
6.5000119209
 74
     0
 49
-0.7999984026000001
 74
     0
 49
0.9999980329999999
 74
     0
 49
-0.7999984026000001
 74
     0
  0
ENDTAB
  0
TABLE
  2
LAYER
  5
10
330
0
100
AcDbSymbolTable
 70
     1
  0
LAYER
  5
4
330
10
100
AcDbSymbolTableRecord
100
AcDbLayerTableRecord
  2
0
 70
     0
 62
     7
  6
Continuous
370
    -3
390
5
  0
ENDTAB
  0
TABLE
  2
STYLE
  5
11
330
0
100
AcDbSymbolTable
 70
     1
  0
STYLE
  5
12
330
11
100
AcDbSymbolTableRecord
100
AcDbTextStyleTableRecord
  2
STANDARD
 70
     0
 40
0.0
 41
1.0
 50
0.0
 71
     0
 42
2.999994039499997
  3
romans.shx
  4
bigfont.shx
  0
ENDTAB
  0
TABLE
  2
VIEW
  5
17
330
0
100
AcDbSymbolTable
 70
     0
  0
ENDTAB
  0
TABLE
  2
UCS
  5
18
330
0
100
AcDbSymbolTable
 70
     0
  0
ENDTAB
  0
TABLE
  2
APPID
  5
1B
330
0
100
AcDbSymbolTable
 70
     2
  0
APPID
  5
1C
330
1B
100
AcDbSymbolTableRecord
100
AcDbRegAppTableRecord
  2
ACAD
 70
     0
  0
APPID
  5
259
330
1B
100
AcDbSymbolTableRecord
100
AcDbRegAppTableRecord
  2
DCO15
 70
     0
  0
ENDTAB
  0
TABLE
  2
DIMSTYLE
  5
1D
330
0
100
AcDbSymbolTable
 70
     1
100
AcDbDimStyleTable
 71
     0
  0
DIMSTYLE
105
23
330
1D
100
AcDbSymbolTableRecord
100
AcDbDimStyleTableRecord
  2
Standard
 70
     0
340
12
  0
ENDTAB
  0
TABLE
  2
BLOCK_RECORD
  5
1
330
0
100
AcDbSymbolTable
 70
     0
  0
BLOCK_RECORD
  5
2
330
1
100
AcDbSymbolTableRecord
100
AcDbBlockTableRecord
  2
*Model_Space
340
A
  0
BLOCK_RECORD
  5
C
330
1
100
AcDbSymbolTableRecord
100
AcDbBlockTableRecord
  2
*Paper_Space
340
F
  0
ENDTAB
  0
ENDSEC
  0
SECTION
  2
BLOCKS
  0
BLOCK
  5
3
330
2
100
AcDbEntity
  8
0
100
AcDbBlockBegin
  2
*Model_Space
 70
     2
 10
0.0
 20
0.0
 30
0.0
  3
*Model_Space
  1

  0
ENDBLK
  5
9
330
2
100
AcDbEntity
  8
0
100
AcDbBlockEnd
  0
BLOCK
  5
D
330
C
100
AcDbEntity
 67
     1
  8
0
100
AcDbBlockBegin
  2
*Paper_Space
 70
     0
 10
0.0
 20
0.0
 30
0.0
  3
*Paper_Space
  1

  0
ENDBLK
  5
E
330
C
100
AcDbEntity
 67
     1
  8
0
100
AcDbBlockEnd
  0
ENDSEC
  0
SECTION
  2
ENTITIES
  0
LINE
  5
24
330
2
100
AcDbEntity
  8
0
100
AcDbLine
 10
210.0
 20
0.0
 30
0.0
 11
210.0
 21
297.0
 31
0.0
  0
LINE
  5
25
330
2
100
AcDbEntity
  8
0
100
AcDbLine
 10
0.0
 20
297.0
 30
0.0
 11
0.0
 21
0.0
 31
0.0
  0
LINE
  5
26
330
2
100
AcDbEntity
  8
0
 62
     3
100
AcDbLine
 10
130.2671914739998
 20
211.9999847412
 30
0.0
 11
132.0672097844999
 21
211.9999847412
 31
0.0
  0
LINE
  5
27
330
2
100
AcDbEntity
  8
0
 62
     3
100
AcDbLine
 10
132.0672097844999
 20
214.9999847411999
 30
0.0
 11
130.2671914739998
 21
214.9999847411999
 31
0.0
  0
LINE
  5
28
330
2
100
AcDbEntity
  8
0
 62
     3
100
AcDbLine
 10
133.2672067327999
 20
221.1999969482
 30
0.0
 11
130.2671914739998
 21
221.1999969482
 31
0.0
  0
LINE
  5
29
330
2
100
AcDbEntity
  8
0
 62
     3
100
AcDbLine
 10
130.2671914739998
 20
205.8000030516999
 30
0.0
 11
133.2672067327999
 21
205.8000030516999
 31
0.0
  0
LINE
  5
2A
330
2
100
AcDbEntity
  8
0
 62
     3
100
AcDbLine
 10
133.2676797551999
 20
176.1999969482
 30
0.0
 11
130.2676797551999
 21
176.1999969482
 31
0.0
  0
LINE
  5
2B
330
2
100
AcDbEntity
  8
0
 62
     3
100
AcDbLine
 10
130.2676797551999
 20
160.7999877929
 30
0.0
 11
133.2676797551999
 21
160.7999877929
 31
0.0
  0
LINE
  5
2C
330
2
100
AcDbEntity
  8
0
100
AcDbLine
 10
0.0
 20
0.0
 30
0.0
 11
210.0
 21
0.0
 31
0.0
  0
LINE
  5
2D
330
2
100
AcDbEntity
  8
0
  6
CENTER
 62
     3
100
AcDbLine
 10
135.0672097844999
 20
213.4999999999999
 30
0.0
 11
128.0672097844999
 21
213.4999999999999
 31
0.0
  0
LINE
  5
2F
330
2
100
AcDbEntity
  8
0
  6
CENTER
 62
     3
100
AcDbLine
 10
93.5676980658
 20
213.5000152588
 30
0.0
 11
135.3075509711
 21
213.5000152588
 31
0.0
  0
LINE
  5
30
330
2
100
AcDbEntity
  8
0
  6
CENTER
 62
     3
100
AcDbLine
 10
92.06734711359995
 20
168.5
 30
0.0
 11
136.0676828069999
 21
168.5
 31
0.0
  0
LINE
  5
31
330
2
100
AcDbEntity
  8
0
  6
CENTER
 62
     3
100
AcDbLine
 10
52.97094818789997
 20
168.5
 30
0.0
 11
78.1709481879
 21
168.5
 31
0.0
  0
LINE
  5
32
330
2
100
AcDbEntity
  8
0
 62
     3
100
AcDbLine
 10
74.57094818789997
 20
177.4499969482
 30
0.0
 11
74.57094818789997
 21
159.5499877928999
 31
0.0
  0
LINE
  5
33
330
2
100
AcDbEntity
  8
0
  6
CENTER
 62
     3
100
AcDbLine
 10
65.5709329291
 20
155.9499877929
 30
0.0
 11
65.5709329291
 21
181.0499969482
 31
0.0
  0
LINE
  5
34
330
2
100
AcDbEntity
  8
0
 62
     3
100
AcDbLine
 10
56.57094818789997
 20
177.4499969482
 30
0.0
 11
56.57094818789997
 21
159.5499877928999
 31
0.0
  0
CIRCLE
  5
35
330
2
100
AcDbEntity
  8
0
 62
     3
100
AcDbCircle
 10
65.5709329291
 20
168.5
 30
0.0
 40
9.0
  0
LINE
  5
36
330
2
100
AcDbEntity
  8
0
 62
     3
100
AcDbLine
 10
56.57094818789997
 20
159.5499877928999
 30
0.0
 11
74.57094818789997
 21
159.5499877928999
 31
0.0
  0
LINE
  5
37
330
2
100
AcDbEntity
  8
0
 62
     3
100
AcDbLine
 10
64.08173615169999
 20
172.3677062988
 30
0.0
 11
64.36643463809996
 21
172.3677062988
 31
0.0
  0
LINE
  5
38
330
2
100
AcDbEntity
  8
0
 62
     3
100
AcDbLine
 10
64.08173615169999
 20
171.0537109375
 30
0.0
 11
65.04534393979998
 21
171.0537109375
 31
0.0
  0
ARC
  5
39
330
2
100
AcDbEntity
  8
0
 62
     3
100
AcDbCircle
 10
65.5709329291
 20
168.5000152588
 30
0.0
 40
6.699999809299999
100
AcDbArc
 50
72.6319584263
 51
107.3679509599999
  0
LINE
  5
3A
330
2
100
AcDbEntity
  8
0
 62
     3
100
AcDbLine
 10
63.57090241149998
 20
169.5
 30
0.0
 11
67.5709024115
 21
169.5
 31
0.0
  0
ARC
  5
3B
330
2
100
AcDbEntity
  8
0
 62
     3
100
AcDbCircle
 10
65.5709329291
 20
168.5000152588
 30
0.0
 40
6.699999809299999
100
AcDbArc
 50
255.3012869677
 51
284.6984757969
  0
CIRCLE
  5
3C
330
2
100
AcDbEntity
  8
0
 62
     3
100
AcDbCircle
 10
65.5709329291
 20
168.5
 30
0.0
 40
8.0
  0
CIRCLE
  5
3D
330
2
100
AcDbEntity
  8
0
 62
     3
100
AcDbCircle
 10
65.5709329291
 20
168.5
 30
0.0
 40
7.399999618499996
  0
LINE
  5
3E
330
2
100
AcDbEntity
  8
0
 62
     3
100
AcDbLine
 10
56.57094818789997
 20
177.4499969482
 30
0.0
 11
74.57094818789997
 21
177.4499969482
 31
0.0
  0
LINE
  5
3F
330
2
100
AcDbEntity
  8
0
 62
     3
100
AcDbLine
 10
68.5712381049
 20
170.6157073973999
 30
0.0
 11
62.57064301209999
 21
170.6157073973999
 31
0.0
  0
LINE
  5
40
330
2
100
AcDbEntity
  8
0
 62
     3
100
AcDbLine
 10
62.57064301209999
 20
173.1999053955
 30
0.0
 11
68.5712381049
 21
173.1999053955
 31
0.0
  0
LINE
  5
41
330
2
100
AcDbEntity
  8
0
 62
     3
100
AcDbLine
 10
62.07090241149998
 20
164.0000152588
 30
0.0
 11
69.07090241149997
 21
164.0000152588
 31
0.0
  0
LINE
  5
42
330
2
100
AcDbEntity
  8
0
  6
DASH
 62
     3
100
AcDbLine
 10
60.87082916929997
 20
167.9998931884
 30
0.0
 11
70.27085358339997
 21
167.9998931884
 31
0.0
  0
LINE
  5
44
330
2
100
AcDbEntity
  8
0
  6
DASH
 62
     3
100
AcDbLine
 10
60.87082916929997
 20
168.9998779297
 30
0.0
 11
70.27085358339997
 21
168.9998779297
 31
0.0
  0
LINE
  5
45
330
2
100
AcDbEntity
  8
0
 62
     3
100
AcDbLine
 10
57.0856424017
 20
171.5
 30
0.0
 11
58.15465790469996
 21
171.5
 31
0.0
  0
LINE
  5
46
330
2
100
AcDbEntity
  8
0
 62
     3
100
AcDbLine
 10
57.0856424017
 20
165.5000152588
 30
0.0
 11
58.15465790469996
 21
165.5000152588
 31
0.0
  0
LINE
  5
47
330
2
100
AcDbEntity
  8
0
 62
     3
100
AcDbLine
 10
57.0709775282
 20
161.843913803
 30
0.0
 11
58.89716581519997
 21
160.0499922451
 31
0.0
  0
LINE
  5
48
330
2
100
AcDbEntity
  8
0
 62
     3
100
AcDbLine
 10
58.89717533129999
 20
176.9499602624
 30
0.0
 11
57.0709799217
 21
175.1560022127
 31
0.0
  0
LINE
  5
49
330
2
100
AcDbEntity
  8
0
 62
     3
100
AcDbLine
 10
63.57804352479999
 20
172.3677062988
 30
0.0
 11
63.57804352479999
 21
171.1194000244
 31
0.0
  0
ARC
  5
4A
330
2
100
AcDbEntity
  8
0
 62
     3
100
AcDbCircle
 10
64.08173615169999
 20
171.3822021484
 30
0.0
 40
0.3284996748
100
AcDbArc
 50
180.0000906136999
 51
270.0001272691
  0
LINE
  5
4B
330
2
100
AcDbEntity
  8
0
 62
     3
100
AcDbLine
 10
62.96483856869997
 20
172.3677062988
 30
0.0
 11
62.96483856869997
 21
171.1194000244
 31
0.0
  0
LINE
  5
4C
330
2
100
AcDbEntity
  8
0
 62
     3
100
AcDbLine
 10
62.57064301209999
 20
170.6157073973999
 30
0.0
 11
62.57064301209999
 21
173.1999053955
 31
0.0
  0
LINE
  5
4D
330
2
100
AcDbEntity
  8
0
  6
DASH
 62
     3
100
AcDbLine
 10
60.8707376166
 20
168.9998931884
 30
0.0
 11
60.8707376166
 21
172.1998291015
 31
0.0
  0
LINE
  5
4E
330
2
100
AcDbEntity
  8
0
 62
     3
100
AcDbLine
 10
58.17092377379997
 20
165.4603271484
 30
0.0
 11
58.17092377379997
 21
171.5397949218
 31
0.0
  0
LINE
  5
4F
330
2
100
AcDbEntity
  8
0
 62
     3
100
AcDbLine
 10
59.57098028809998
 20
170.9998149347999
 30
0.0
 11
60.07095185569999
 21
172.1997474100999
 31
0.0
  0
LINE
  5
50
330
2
100
AcDbEntity
  8
0
 62
     3
100
AcDbLine
 10
59.57087654969999
 20
170.9997010182
 30
0.0
 11
60.07089475749999
 21
172.1997463287
 31
0.0
  0
LINE
  5
51
330
2
100
AcDbEntity
  8
0
 62
     3
100
AcDbLine
 10
60.52097565369999
 20
168.3499908446999
 30
0.0
 11
61.42100006769997
 21
168.3499908446999
 31
0.0
  0
LINE
  5
52
330
2
100
AcDbEntity
  8
0
 62
     3
100
AcDbLine
 10
60.52097565369999
 20
168.6499023437
 30
0.0
 11
61.42100006769997
 21
168.6499023437
 31
0.0
  0
LINE
  5
53
330
2
100
AcDbEntity
  8
0
 62
     3
100
AcDbLine
 10
60.570899328
 20
164.7998385628999
 30
0.0
 11
61.77096629199997
 21
162.9998473344
 31
0.0
  0
LINE
  5
54
330
2
100
AcDbEntity
  8
0
 62
     3
100
AcDbLine
 10
60.57080468229997
 20
164.7998271349999
 30
0.0
 11
61.77079935389997
 21
162.9998060503
 31
0.0
  0
LINE
  5
55
330
2
100
AcDbEntity
  8
0
 62
     3
100
AcDbLine
 10
59.57087109429997
 20
165.9996951302
 30
0.0
 11
60.0708747006
 21
164.7998090328
 31
0.0
  0
LINE
  5
56
330
2
100
AcDbEntity
  8
0
  6
DASH
 62
     3
100
AcDbLine
 10
60.8707376166
 20
164.7999420166
 30
0.0
 11
60.8707376166
 21
167.9998931884
 31
0.0
  0
LINE
  5
57
330
2
100
AcDbEntity
  8
0
 62
     3
100
AcDbLine
 10
59.57079375789999
 20
165.9997649215
 30
0.0
 11
60.0707949793
 21
164.7997620985
 31
0.0
  0
LINE
  5
58
330
2
100
AcDbEntity
  8
0
  6
DASH
 62
     3
100
AcDbLine
 10
60.87090861619998
 20
164.7999663033
 30
0.0
 11
60.57085978809999
 21
164.7999688211
 31
0.0
  0
LINE
  5
59
330
2
100
AcDbEntity
  8
0
 62
     3
100
AcDbLine
 10
60.07068878839996
 20
164.7999420166
 30
0.0
 11
60.5707956
 21
164.7999420166
 31
0.0
  0
LINE
  5
5A
330
2
100
AcDbEntity
  8
0
 62
     3
100
AcDbLine
 10
58.60595185
 20
170.9997100829999
 30
0.0
 11
59.5707956
 21
170.9997100829999
 31
0.0
  0
LINE
  5
5B
330
2
100
AcDbEntity
  8
0
 62
     3
100
AcDbLine
 10
59.57068878839996
 20
170.9998474120999
 30
0.0
 11
58.60596710879997
 21
170.9998474120999
 31
0.0
  0
LINE
  5
5C
330
2
100
AcDbEntity
  8
0
 62
     3
100
AcDbLine
 10
58.60595185
 20
165.9997711181
 30
0.0
 11
59.5707956
 21
165.9997711181
 31
0.0
  0
LINE
  5
5D
330
2
100
AcDbEntity
  8
0
 62
     3
100
AcDbLine
 10
59.57068878839996
 20
165.9998931884
 30
0.0
 11
58.60596710879997
 21
165.9998931884
 31
0.0
  0
LINE
  5
5E
330
2
100
AcDbEntity
  8
0
 62
     3
100
AcDbLine
 10
59.22071320249997
 20
167.0998687743999
 30
0.0
 11
59.72071320249998
 21
167.0998687743999
 31
0.0
  0
LINE
  5
5F
330
2
100
AcDbEntity
  8
0
 62
     3
100
AcDbLine
 10
59.22071320249997
 20
169.8999176025
 30
0.0
 11
59.72071320249998
 21
169.8999176025
 31
0.0
  0
LINE
  5
60
330
2
100
AcDbEntity
  8
0
 62
     3
100
AcDbLine
 10
58.87084442809999
 20
169.1998291014999
 30
0.0
 11
58.87084442809999
 21
167.7998199462999
 31
0.0
  0
LINE
  5
61
330
2
100
AcDbEntity
  8
0
 62
     3
100
AcDbLine
 10
58.87084442809999
 20
167.7998199462999
 30
0.0
 11
59.22082001399999
 21
167.7998199462999
 31
0.0
  0
LINE
  5
62
330
2
100
AcDbEntity
  8
0
 62
     3
100
AcDbLine
 10
58.87084442809999
 20
169.1998291014999
 30
0.0
 11
59.22082001399999
 21
169.1998291014999
 31
0.0
  0
LINE
  5
63
330
2
100
AcDbEntity
  8
0
 62
     3
100
AcDbLine
 10
58.87073761659999
 20
167.7999420166
 30
0.0
 11
59.22071320249997
 21
167.7999420166
 31
0.0
  0
LINE
  5
64
330
2
100
AcDbEntity
  8
0
 62
     3
100
AcDbLine
 10
58.87073761659999
 20
169.1999664306
 30
0.0
 11
59.22071320249997
 21
169.1999664306
 31
0.0
  0
LINE
  5
65
330
2
100
AcDbEntity
  8
0
 62
     3
100
AcDbLine
 10
58.87073761659999
 20
169.1999664306
 30
0.0
 11
58.87073761659999
 21
167.7999420166
 31
0.0
  0
LINE
  5
66
330
2
100
AcDbEntity
  8
0
 62
     3
100
AcDbLine
 10
59.22071320249997
 20
169.8999176025
 30
0.0
 11
59.22071320249997
 21
167.0998687743999
 31
0.0
  0
ARC
  5
67
330
2
100
AcDbEntity
  8
0
 62
     3
100
AcDbCircle
 10
65.5709329291
 20
168.5000152588
 30
0.0
 40
7.399990081799999
100
AcDbArc
 50
160.2551438921
 51
199.7454398616999
  0
ARC
  5
68
330
2
100
AcDbEntity
  8
0
 62
     3
100
AcDbCircle
 10
60.52100617129998
 20
168.5000152588
 30
0.0
 40
0.1499977112
100
AcDbArc
 50
90.00003665540001
 51
269.9998914002
  0
LINE
  5
69
330
2
100
AcDbEntity
  8
0
  6
DASH
 62
     3
100
AcDbLine
 10
59.57068878839996
 20
167.0998687743999
 30
0.0
 11
59.57068878839996
 21
165.9998931884
 31
0.0
  0
LINE
  5
6A
330
2
100
AcDbEntity
  8
0
 62
     3
100
AcDbLine
 10
59.72071320249998
 20
169.8999176025
 30
0.0
 11
59.72071320249998
 21
167.0998687743999
 31
0.0
  0
LINE
  5
6B
330
2
100
AcDbEntity
  8
0
  6
DASH
 62
     3
100
AcDbLine
 10
59.57068878839996
 20
170.9998474120999
 30
0.0
 11
59.57068878839996
 21
169.8999176025
 31
0.0
  0
LINE
  5
6C
330
2
100
AcDbEntity
  8
0
 62
     3
100
AcDbLine
 10
62.07090241149998
 20
166.5000152588
 30
0.0
 11
62.07090241149998
 21
164.0000152588
 31
0.0
  0
LINE
  5
6D
330
2
100
AcDbEntity
  8
0
 62
     3
100
AcDbLine
 10
61.77086884219996
 20
162.9998931883999
 30
0.0
 11
63.87084442809999
 21
162.9998931883999
 31
0.0
  0
LINE
  5
6E
330
2
100
AcDbEntity
  8
0
 62
     3
100
AcDbLine
 10
62.27091461849997
 20
162.4998931883999
 30
0.0
 11
63.37089020449997
 21
162.4998931883999
 31
0.0
  0
LINE
  5
6F
330
2
100
AcDbEntity
  8
0
 62
     3
100
AcDbLine
 10
63.87089020449997
 20
163.0000152588
 30
0.0
 11
61.77091461849997
 21
163.0000152588
 31
0.0
  0
LINE
  5
70
330
2
100
AcDbEntity
  8
0
 62
     3
100
AcDbLine
 10
62.17077275039997
 20
162.9997815202
 30
0.0
 11
62.27077328859997
 21
162.4997806220999
 31
0.0
  0
LINE
  5
71
330
2
100
AcDbEntity
  8
0
 62
     3
100
AcDbLine
 10
62.57094818789997
 20
160.0147247313999
 30
0.0
 11
62.57094818789997
 21
161.0836486816
 31
0.0
  0
LINE
  5
72
330
2
100
AcDbEntity
  8
0
 62
     3
100
AcDbLine
 10
63.87084442809999
 20
162.9998168945
 30
0.0
 11
63.87084442809999
 21
162.0189819335999
 31
0.0
  0
LINE
  5
73
330
2
100
AcDbEntity
  8
0
 62
     3
100
AcDbLine
 10
63.4708239421
 20
162.9999496163999
 30
0.0
 11
63.37082733849996
 21
162.4999634679998
 31
0.0
  0
LINE
  5
74
330
2
100
AcDbEntity
  8
0
 62
     3
100
AcDbLine
 10
61.72092682559997
 20
168.6499023437
 30
0.0
 11
62.62095123959998
 21
168.6499023437
 31
0.0
  0
LINE
  5
75
330
2
100
AcDbEntity
  8
0
 62
     3
100
AcDbLine
 10
61.72092682559997
 20
168.3499908446999
 30
0.0
 11
62.62095123959998
 21
168.3499908446999
 31
0.0
  0
LINE
  5
76
330
2
100
AcDbEntity
  8
0
 62
     3
100
AcDbLine
 10
62.07090241149998
 20
166.5000152588
 30
0.0
 11
63.57090241149998
 21
166.5000152588
 31
0.0
  0
LINE
  5
77
330
2
100
AcDbEntity
  8
0
 62
     3
100
AcDbLine
 10
61.72092682559997
 20
168.3499908446999
 30
0.0
 11
61.72092682559997
 21
167.4499664305998
 31
0.0
  0
LINE
  5
78
330
2
100
AcDbEntity
  8
0
 62
     3
100
AcDbLine
 10
61.72092682559997
 20
169.5499267578
 30
0.0
 11
61.72092682559997
 21
168.650024414
 31
0.0
  0
LINE
  5
79
330
2
100
AcDbEntity
  8
0
 62
     3
100
AcDbLine
 10
61.42100006769997
 20
168.3499908446999
 30
0.0
 11
61.42100006769997
 21
167.4499664305998
 31
0.0
  0
LINE
  5
7A
330
2
100
AcDbEntity
  8
0
 62
     3
100
AcDbLine
 10
61.42100006769997
 20
169.5499267578
 30
0.0
 11
61.42100006769997
 21
168.650024414
 31
0.0
  0
ARC
  5
7B
330
2
100
AcDbEntity
  8
0
 62
     3
100
AcDbCircle
 10
61.57094818789997
 20
167.4499664305998
 30
0.0
 40
0.1499977112
100
AcDbArc
 50
180.0000906136999
 51
359.9999273724998
  0
ARC
  5
7C
330
2
100
AcDbEntity
  8
0
 62
     3
100
AcDbCircle
 10
61.57093292909999
 20
169.5499420166
 30
0.0
 40
0.1499977112
100
AcDbArc
 50
0.0
 51
179.9999093863
  0
ARC
  5
7D
330
2
100
AcDbEntity
  8
0
 62
     3
100
AcDbCircle
 10
63.5123391791
 20
171.1194000244
 30
0.0
 40
0.065699875355
100
AcDbArc
 50
270.0001819106
 51
0.0
  0
LINE
  5
7E
330
2
100
AcDbEntity
  8
0
 62
     3
100
AcDbLine
 10
63.57090241149998
 20
166.5000152588
 30
0.0
 11
63.57090241149998
 21
169.5
 31
0.0
  0
ARC
  5
7F
330
2
100
AcDbEntity
  8
0
 62
     3
100
AcDbCircle
 10
63.03054291439996
 20
171.1194000244
 30
0.0
 40
0.065699875355
100
AcDbArc
 50
180.0000906136999
 51
270.0001272691
  0
ARC
  5
80
330
2
100
AcDbEntity
  8
0
 62
     3
100
AcDbCircle
 10
62.62098175719995
 20
168.5000152588
 30
0.0
 40
0.1499977112
100
AcDbArc
 50
270.0001272691
 51
89.9999273723999
  0
LINE
  5
81
330
2
100
AcDbEntity
  8
0
 62
     3
100
AcDbLine
 10
63.03054291439996
 20
171.0537109375
 30
0.0
 11
63.5123391791
 21
171.0537109375
 31
0.0
  0
LINE
  5
82
330
2
100
AcDbEntity
  8
0
 62
     3
100
AcDbLine
 10
62.07076001979999
 20
174.1997347236999
 30
0.0
 11
60.57081874899997
 21
172.1998432274
 31
0.0
  0
LINE
  5
83
330
2
100
AcDbEntity
  8
0
 62
     3
100
AcDbLine
 10
60.07079560000001
 20
172.1997833252
 30
0.0
 11
60.5707956
 21
172.1997833252
 31
0.0
  0
LINE
  5
84
330
2
100
AcDbEntity
  8
0
  6
DASH
 62
     3
100
AcDbLine
 10
60.8708596869
 20
172.1998291015
 30
0.0
 11
60.57081085879997
 21
172.1998291015
 31
0.0
  0
LINE
  5
85
330
2
100
AcDbEntity
  8
0
 62
     3
100
AcDbLine
 10
60.07068878839996
 20
172.1998291015
 30
0.0
 11
60.57068878839996
 21
172.1998291015
 31
0.0
  0
LINE
  5
86
330
2
100
AcDbEntity
  8
0
 62
     3
100
AcDbLine
 10
62.57094818789997
 20
175.9161529541
 30
0.0
 11
62.57094818789997
 21
176.9853057861
 31
0.0
  0
LINE
  5
87
330
2
100
AcDbEntity
  8
0
 62
     3
100
AcDbLine
 10
62.0707956
 20
174.1997833252
 30
0.0
 11
63.57079559999998
 21
174.1997833252
 31
0.0
  0
LINE
  5
88
330
2
100
AcDbEntity
  8
0
 62
     3
100
AcDbLine
 10
63.5708413763
 20
174.1998901366999
 30
0.0
 11
62.0709634467
 21
174.1998901366999
 31
0.0
  0
LINE
  5
89
330
2
100
AcDbEntity
  8
0
 62
     3
100
AcDbLine
 10
63.37089020449997
 20
174.6998901367
 30
0.0
 11
62.27091461849997
 21
174.6998901367
 31
0.0
  0
LINE
  5
8A
330
2
100
AcDbEntity
  8
0
 62
     3
100
AcDbLine
 10
62.27080324739998
 20
174.6999004685999
 30
0.0
 11
62.17080573199999
 21
174.1999145025999
 31
0.0
  0
LINE
  5
8B
330
2
100
AcDbEntity
  8
0
 62
     3
100
AcDbLine
 10
63.57804352479999
 20
172.6962127684999
 30
0.0
 11
63.57804352479999
 21
172.4990997313999
 31
0.0
  0
LINE
  5
8C
330
2
100
AcDbEntity
  8
0
 62
     3
100
AcDbLine
 10
63.75324494079999
 20
172.0391998291
 30
0.0
 11
63.75324494079999
 21
171.3822021484
 31
0.0
  0
LINE
  5
8D
330
2
100
AcDbEntity
  8
0
 62
     3
100
AcDbLine
 10
63.57079559999998
 20
174.1997833252
 30
0.0
 11
63.57079559999998
 21
174.894241333
 31
0.0
  0
LINE
  5
8E
330
2
100
AcDbEntity
  8
0
 62
     3
100
AcDbLine
 10
63.37075379349997
 20
174.6997769795
 30
0.0
 11
63.47075342
 21
174.1997758990999
 31
0.0
  0
LINE
  5
8F
330
2
100
AcDbEntity
  8
0
 62
     3
100
AcDbLine
 10
63.57068878839996
 20
174.8943786621
 30
0.0
 11
63.57068878839996
 21
174.1998443602999
 31
0.0
  0
ARC
  5
90
330
2
100
AcDbEntity
  8
0
 62
     3
100
AcDbCircle
 10
64.08173615169999
 20
172.0392150879
 30
0.0
 40
0.3284996748
100
AcDbArc
 50
89.99992737239997
 51
179.9998001033
  0
ARC
  5
91
330
2
100
AcDbEntity
  8
0
 62
     3
100
AcDbCircle
 10
63.5123391791
 20
172.6962127684999
 30
0.0
 40
0.065699875355
100
AcDbArc
 50
0.0
 51
89.99987273089997
  0
LINE
  5
92
330
2
100
AcDbEntity
  8
0
 62
     3
100
AcDbLine
 10
62.96483856869997
 20
172.6962127684999
 30
0.0
 11
62.96483856869997
 21
172.4990997313999
 31
0.0
  0
ARC
  5
93
330
2
100
AcDbEntity
  8
0
 62
     3
100
AcDbCircle
 10
63.03054291439996
 20
172.6962127684999
 30
0.0
 40
0.065699875355
100
AcDbArc
 50
89.99992737239997
 51
179.9998001033
  0
LINE
  5
94
330
2
100
AcDbEntity
  8
0
 62
     3
100
AcDbLine
 10
62.96483856869997
 20
172.4990997313999
 30
0.0
 11
63.57804352479999
 21
172.4990997313999
 31
0.0
  0
LINE
  5
95
330
2
100
AcDbEntity
  8
0
 62
     3
100
AcDbLine
 10
63.03054291439996
 20
172.7619018553999
 30
0.0
 11
63.5123391791
 21
172.7619018553999
 31
0.0
  0
LINE
  5
96
330
2
100
AcDbEntity
  8
0
 62
     3
100
AcDbLine
 10
62.96483856869997
 20
172.3677062988
 30
0.0
 11
63.57804352479999
 21
172.3677062988
 31
0.0
  0
LINE
  5
97
330
2
100
AcDbEntity
  8
0
 62
     3
100
AcDbLine
 10
70.57079559999998
 20
172.1997833252
 30
0.0
 11
71.07079559999998
 21
172.1997833252
 31
0.0
  0
LINE
  5
98
330
2
100
AcDbEntity
  8
0
 62
     3
100
AcDbLine
 10
70.57068878839995
 20
172.1998291015
 30
0.0
 11
71.07068878839995
 21
172.1998291015
 31
0.0
  0
LINE
  5
99
330
2
100
AcDbEntity
  8
0
 62
     3
100
AcDbLine
 10
70.57068878839995
 20
164.7999420166
 30
0.0
 11
71.07068878839995
 21
164.7999420166
 31
0.0
  0
LINE
  5
9A
330
2
100
AcDbEntity
  8
0
  6
DASH
 62
     3
100
AcDbLine
 10
70.27076203060001
 20
168.9998931884
 30
0.0
 11
70.27076203060001
 21
172.1998291015
 31
0.0
  0
LINE
  5
9B
330
2
100
AcDbEntity
  8
0
 62
     3
100
AcDbLine
 10
68.17704254819997
 20
171.5792999267
 30
0.0
 11
68.17704254819997
 21
171.1194000244
 31
0.0
  0
LINE
  5
9C
330
2
100
AcDbEntity
  8
0
 62
     3
100
AcDbLine
 10
66.68783051209999
 20
171.4479064941
 30
0.0
 11
66.68783051209999
 21
171.1194000244
 31
0.0
  0
ARC
  5
9D
330
2
100
AcDbEntity
  8
0
 62
     3
100
AcDbCircle
 10
67.191523139
 20
171.3822174071999
 30
0.0
 40
0.3284996748
100
AcDbArc
 50
180.0000906136999
 51
270.0001272691
  0
LINE
  5
9E
330
2
100
AcDbEntity
  8
0
 62
     3
100
AcDbLine
 10
68.5712381049
 20
173.1999053955
 30
0.0
 11
68.5712381049
 21
170.6157073973999
 31
0.0
  0
LINE
  5
9F
330
2
100
AcDbEntity
  8
0
 62
     3
100
AcDbLine
 10
65.1110330267
 20
172.6962127684999
 30
0.0
 11
65.1110330267
 21
171.1194000244
 31
0.0
  0
ARC
  5
A0
330
2
100
AcDbEntity
  8
0
 62
     3
100
AcDbCircle
 10
65.61472565369999
 20
171.3822174071999
 30
0.0
 40
0.3284996748
100
AcDbArc
 50
180.0000906136999
 51
270.0001272691
  0
LINE
  5
A1
330
2
100
AcDbEntity
  8
0
 62
     3
100
AcDbLine
 10
67.19153839779997
 20
171.0537109375
 30
0.0
 11
68.11133820249998
 21
171.0537109375
 31
0.0
  0
LINE
  5
A2
330
2
100
AcDbEntity
  8
0
 62
     3
100
AcDbLine
 10
67.5709024115
 20
166.5000152588
 30
0.0
 11
69.07090241149997
 21
166.5000152588
 31
0.0
  0
LINE
  5
A3
330
2
100
AcDbEntity
  8
0
 62
     3
100
AcDbLine
 10
69.3708749457
 20
163.0000152588
 30
0.0
 11
67.27089935969999
 21
163.0000152588
 31
0.0
  0
LINE
  5
A4
330
2
100
AcDbEntity
  8
0
 62
     3
100
AcDbLine
 10
67.27079254819996
 20
162.0192260741999
 30
0.0
 11
67.27079254819996
 21
162.9999389648
 31
0.0
  0
LINE
  5
A5
330
2
100
AcDbEntity
  8
0
 62
     3
100
AcDbLine
 10
65.6147409125
 20
171.0537109375
 30
0.0
 11
66.62214142519997
 21
171.0537109375
 31
0.0
  0
ARC
  5
A6
330
2
100
AcDbEntity
  8
0
 62
     3
100
AcDbCircle
 10
65.04532868099997
 20
171.1194000244
 30
0.0
 40
0.065699875355
100
AcDbArc
 50
270.0001819106
 51
0.0
  0
LINE
  5
A7
330
2
100
AcDbEntity
  8
0
 62
     3
100
AcDbLine
 10
67.5709024115
 20
169.5
 30
0.0
 11
67.5709024115
 21
166.5000152588
 31
0.0
  0
ARC
  5
A8
330
2
100
AcDbEntity
  8
0
 62
     3
100
AcDbCircle
 10
66.62212616639999
 20
171.1194152832
 30
0.0
 40
0.065699875355
100
AcDbArc
 50
270.0001819106
 51
0.0
  0
LINE
  5
A9
330
2
100
AcDbEntity
  8
0
  6
DASH
 62
     3
100
AcDbLine
 10
70.27076203060001
 20
164.7999420166
 30
0.0
 11
70.27076203060001
 21
167.9998931884
 31
0.0
  0
LINE
  5
AA
330
2
100
AcDbEntity
  8
0
 62
     3
100
AcDbLine
 10
69.07090241149997
 20
166.5000152588
 30
0.0
 11
69.07090241149997
 21
164.0000152588
 31
0.0
  0
LINE
  5
AB
330
2
100
AcDbEntity
  8
0
 62
     3
100
AcDbLine
 10
68.8708506582
 20
162.499902137
 30
0.0
 11
68.97084817349996
 21
162.9998881030998
 31
0.0
  0
LINE
  5
AC
330
2
100
AcDbEntity
  8
0
 62
     3
100
AcDbLine
 10
68.5709329291
 20
160.0147247313999
 30
0.0
 11
68.5709329291
 21
161.0836486816
 31
0.0
  0
LINE
  5
AD
330
2
100
AcDbEntity
  8
0
 62
     3
100
AcDbLine
 10
67.77078138809996
 20
162.4997872957999
 30
0.0
 11
67.67078176159998
 21
162.9997883763
 31
0.0
  0
LINE
  5
AE
330
2
100
AcDbEntity
  8
0
 62
     3
100
AcDbLine
 10
67.7708993597
 20
162.4998931883999
 30
0.0
 11
68.8708749457
 21
162.4998931883999
 31
0.0
  0
LINE
  5
AF
330
2
100
AcDbEntity
  8
0
  6
DASH
 62
     3
100
AcDbLine
 10
70.27094542489999
 20
164.7998814819
 30
0.0
 11
70.57087218269998
 21
164.7998789769
 31
0.0
  0
LINE
  5
B0
330
2
100
AcDbEntity
  8
0
 62
     3
100
AcDbLine
 10
70.57071626489999
 20
164.7998390464
 30
0.0
 11
69.37082458789999
 21
162.9999143048
 31
0.0
  0
LINE
  5
B1
330
2
100
AcDbEntity
  8
0
 62
     3
100
AcDbLine
 10
68.52097565369999
 20
168.6499023437
 30
0.0
 11
70.62095123959998
 21
168.6499023437
 31
0.0
  0
LINE
  5
B2
330
2
100
AcDbEntity
  8
0
 62
     3
100
AcDbLine
 10
68.52097565369999
 20
168.3499908446999
 30
0.0
 11
70.62095123959998
 21
168.3499908446999
 31
0.0
  0
ARC
  5
B3
330
2
100
AcDbEntity
  8
0
 62
     3
100
AcDbCircle
 10
68.11132294369997
 20
171.1194152832
 30
0.0
 40
0.065699875355
100
AcDbArc
 50
270.0001819106
 51
0.0
  0
ARC
  5
B4
330
2
100
AcDbEntity
  8
0
 62
     3
100
AcDbCircle
 10
68.52100617129997
 20
168.5000152588
 30
0.0
 40
0.1499977112
100
AcDbArc
 50
90.00003665540001
 51
269.9998914002
  0
ARC
  5
B5
330
2
100
AcDbEntity
  8
0
 62
     3
100
AcDbCircle
 10
70.62098175719999
 20
168.5000152588
 30
0.0
 40
0.1499977112
100
AcDbArc
 50
270.0001272691
 51
89.9999273723999
  0
LINE
  5
B6
330
2
100
AcDbEntity
  8
0
 62
     3
100
AcDbLine
 10
67.19153839779997
 20
171.7107086181
 30
0.0
 11
68.17704254819997
 21
171.7107086181
 31
0.0
  0
LINE
  5
B7
330
2
100
AcDbEntity
  8
0
 62
     3
100
AcDbLine
 10
67.19153839779997
 20
171.5792999267
 30
0.0
 11
68.17704254819997
 21
171.5792999267
 31
0.0
  0
LINE
  5
B8
330
2
100
AcDbEntity
  8
0
 62
     3
100
AcDbLine
 10
67.19153839779997
 20
172.2363128661999
 30
0.0
 11
68.11133820249998
 21
172.2363128661999
 31
0.0
  0
LINE
  5
B9
330
2
100
AcDbEntity
  8
0
 62
     3
100
AcDbLine
 10
67.57079559999998
 20
174.1997833252
 30
0.0
 11
69.07079559999999
 21
174.1997833252
 31
0.0
  0
LINE
  5
BA
330
2
100
AcDbEntity
  8
0
 62
     3
100
AcDbLine
 10
69.07094818789997
 20
174.1998901366999
 30
0.0
 11
67.57082611749999
 21
174.1998901366999
 31
0.0
  0
LINE
  5
BB
330
2
100
AcDbEntity
  8
0
 62
     3
100
AcDbLine
 10
65.6147409125
 20
172.2363128661999
 30
0.0
 11
66.62214142519997
 21
172.2363128661999
 31
0.0
  0
LINE
  5
BC
330
2
100
AcDbEntity
  8
0
 62
     3
100
AcDbLine
 10
65.28623444269995
 20
171.9078063963999
 30
0.0
 11
65.28623444269995
 21
171.3822021484
 31
0.0
  0
ARC
  5
BD
330
2
100
AcDbEntity
  8
0
 62
     3
100
AcDbCircle
 10
65.61472565369999
 20
171.9078063963999
 30
0.0
 40
0.3284996748
100
AcDbArc
 50
89.99992737239997
 51
179.9998001033
  0
ARC
  5
BE
330
2
100
AcDbEntity
  8
0
 62
     3
100
AcDbCircle
 10
65.04532868099997
 20
172.6962127684999
 30
0.0
 40
0.065699875355
100
AcDbArc
 50
0.0
 51
89.99987273089997
  0
LINE
  5
BF
330
2
100
AcDbEntity
  8
0
 62
     3
100
AcDbLine
 10
64.36643463809996
 20
171.3822021484
 30
0.0
 11
64.49784332949997
 21
171.3822021484
 31
0.0
  0
LINE
  5
C0
330
2
100
AcDbEntity
  8
0
 62
     3
100
AcDbLine
 10
64.49784332949997
 20
172.6962127684999
 30
0.0
 11
64.49784332949997
 21
171.3822021484
 31
0.0
  0
LINE
  5
C1
330
2
100
AcDbEntity
  8
0
 62
     3
100
AcDbLine
 10
64.36643463809996
 20
172.3677062988
 30
0.0
 11
64.36643463809996
 21
171.3822021484
 31
0.0
  0
ARC
  5
C2
330
2
100
AcDbEntity
  8
0
 62
     3
100
AcDbCircle
 10
64.56353241639999
 20
172.6962127684999
 30
0.0
 40
0.065699875355
100
AcDbArc
 50
89.99992737239997
 51
179.9998001033
  0
LINE
  5
C3
330
2
100
AcDbEntity
  8
0
 62
     3
100
AcDbLine
 10
64.56354767519997
 20
172.7619018553999
 30
0.0
 11
65.04534393979998
 21
172.7619018553999
 31
0.0
  0
LINE
  5
C4
330
2
100
AcDbEntity
  8
0
 62
     3
100
AcDbLine
 10
67.19153839779997
 20
171.7107086181
 30
0.0
 11
67.19153839779997
 21
171.5792999267
 31
0.0
  0
LINE
  5
C5
330
2
100
AcDbEntity
  8
0
 62
     3
100
AcDbLine
 10
66.86303192809997
 20
171.9078063963999
 30
0.0
 11
66.86303192809997
 21
171.3822021484
 31
0.0
  0
LINE
  5
C6
330
2
100
AcDbEntity
  8
0
 62
     3
100
AcDbLine
 10
66.68783051209999
 20
172.1706085204999
 30
0.0
 11
66.68783051209999
 21
171.5792999267
 31
0.0
  0
LINE
  5
C7
330
2
100
AcDbEntity
  8
0
 62
     3
100
AcDbLine
 10
67.57079559999998
 20
174.1997833252
 30
0.0
 11
67.57079559999998
 21
174.894241333
 31
0.0
  0
LINE
  5
C8
330
2
100
AcDbEntity
  8
0
 62
     3
100
AcDbLine
 10
67.57068878839996
 20
174.8943786621
 30
0.0
 11
67.57068878839996
 21
174.1998443602999
 31
0.0
  0
ARC
  5
C9
330
2
100
AcDbEntity
  8
0
 62
     3
100
AcDbCircle
 10
67.191523139
 20
171.9078216551998
 30
0.0
 40
0.3284996748
100
AcDbArc
 50
89.99992737239997
 51
179.9998001033
  0
LINE
  5
CA
330
2
100
AcDbEntity
  8
0
 62
     3
100
AcDbLine
 10
65.94323212339997
 20
171.9078063963999
 30
0.0
 11
66.07464081479998
 21
171.9078063963999
 31
0.0
  0
LINE
  5
CB
330
2
100
AcDbEntity
  8
0
 62
     3
100
AcDbLine
 10
66.07464081479998
 20
171.9078063963999
 30
0.0
 11
66.07464081479998
 21
171.5792999267
 31
0.0
  0
LINE
  5
CC
330
2
100
AcDbEntity
  8
0
 62
     3
100
AcDbLine
 10
65.94323212339997
 20
171.9078063963999
 30
0.0
 11
65.94323212339997
 21
171.4479064941
 31
0.0
  0
LINE
  5
CD
330
2
100
AcDbEntity
  8
0
 62
     3
100
AcDbLine
 10
65.94323212339997
 20
171.4479064941
 30
0.0
 11
66.68783051209999
 21
171.4479064941
 31
0.0
  0
LINE
  5
CE
330
2
100
AcDbEntity
  8
0
 62
     3
100
AcDbLine
 10
66.07464081479998
 20
171.5792999267
 30
0.0
 11
66.68783051209999
 21
171.5792999267
 31
0.0
  0
ARC
  5
CF
330
2
100
AcDbEntity
  8
0
 62
     3
100
AcDbCircle
 10
66.62212616639999
 20
172.1706085204999
 30
0.0
 40
0.065699875355
100
AcDbArc
 50
0.0
 51
89.99987273089997
  0
LINE
  5
D0
330
2
100
AcDbEntity
  8
0
 62
     3
100
AcDbLine
 10
68.5709329291
 20
175.9161529541
 30
0.0
 11
68.5709329291
 21
176.9853057861
 31
0.0
  0
LINE
  5
D1
330
2
100
AcDbEntity
  8
0
 62
     3
100
AcDbLine
 10
69.07044428809999
 20
174.1994490829999
 30
0.0
 11
70.57044390059998
 21
172.1994487550999
 31
0.0
  0
LINE
  5
D2
330
2
100
AcDbEntity
  8
0
 62
     3
100
AcDbLine
 10
69.07044016619997
 20
174.1994910388
 30
0.0
 11
70.57041608589997
 21
172.1994729786
 31
0.0
  0
LINE
  5
D3
330
2
100
AcDbEntity
  8
0
 62
     3
100
AcDbLine
 10
68.97082007339998
 20
174.1997779479999
 30
0.0
 11
68.87081953509997
 21
174.6997788460998
 31
0.0
  0
LINE
  5
D4
330
2
100
AcDbEntity
  8
0
 62
     3
100
AcDbLine
 10
68.17704254819997
 20
172.1706085204999
 30
0.0
 11
68.17704254819997
 21
171.7107086181
 31
0.0
  0
LINE
  5
D5
330
2
100
AcDbEntity
  8
0
 62
     3
100
AcDbLine
 10
67.67086067219998
 20
174.19990504
 30
0.0
 11
67.77085727579998
 21
174.6998911883999
 31
0.0
  0
ARC
  5
D6
330
2
100
AcDbEntity
  8
0
 62
     3
100
AcDbCircle
 10
68.11132294369997
 20
172.1706085204999
 30
0.0
 40
0.065699875355
100
AcDbArc
 50
0.0
 51
89.99987273089997
  0
LINE
  5
D7
330
2
100
AcDbEntity
  8
0
 62
     3
100
AcDbLine
 10
68.8708749457
 20
174.6998901367
 30
0.0
 11
67.7708993597
 21
174.6998901367
 31
0.0
  0
LINE
  5
D8
330
2
100
AcDbEntity
  8
0
  6
DASH
 62
     3
100
AcDbLine
 10
70.27082402609997
 20
172.1997927974
 30
0.0
 11
70.57075078389998
 21
172.1997881327
 31
0.0
  0
LINE
  5
D9
330
2
100
AcDbEntity
  8
0
 62
     3
100
AcDbLine
 10
71.07075267529999
 20
172.1997126672999
 30
0.0
 11
71.57074733059999
 21
170.9997236968999
 31
0.0
  0
LINE
  5
DA
330
2
100
AcDbEntity
  8
0
 62
     3
100
AcDbLine
 10
71.0706536292
 20
172.1996977325999
 30
0.0
 11
71.57064859439998
 21
170.9997088396999
 31
0.0
  0
LINE
  5
DB
330
2
100
AcDbEntity
  8
0
 62
     3
100
AcDbLine
 10
72.97083527279998
 20
165.4603271484
 30
0.0
 11
72.97083527279998
 21
171.5397949218
 31
0.0
  0
LINE
  5
DC
330
2
100
AcDbEntity
  8
0
 62
     3
100
AcDbLine
 10
71.57077004319998
 20
165.9997700423
 30
0.0
 11
71.07087013999998
 21
164.7999399433
 31
0.0
  0
LINE
  5
DD
330
2
100
AcDbEntity
  8
0
 62
     3
100
AcDbLine
 10
71.07079869599997
 20
164.7998240484
 30
0.0
 11
71.57081729129998
 21
165.9998692039
 31
0.0
  0
LINE
  5
DE
330
2
100
AcDbEntity
  8
0
 62
     3
100
AcDbLine
 10
72.2448746849
 20
160.0500012301
 30
0.0
 11
74.07092767549997
 21
161.8438863730999
 31
0.0
  0
ARC
  5
DF
330
2
100
AcDbEntity
  8
0
 62
     3
100
AcDbCircle
 10
65.5709329291
 20
168.5000152588
 30
0.0
 40
7.399990081799999
100
AcDbArc
 50
340.2545105058
 51
19.74479964510003
  0
LINE
  5
E0
330
2
100
AcDbEntity
  8
0
 62
     3
100
AcDbLine
 10
71.57079559999998
 20
170.9997100829999
 30
0.0
 11
72.53576142029999
 21
170.9997100829999
 31
0.0
  0
LINE
  5
E1
330
2
100
AcDbEntity
  8
0
 62
     3
100
AcDbLine
 10
72.5357766791
 20
170.9998474120999
 30
0.0
 11
71.57068878839995
 21
170.9998474120999
 31
0.0
  0
LINE
  5
E2
330
2
100
AcDbEntity
  8
0
 62
     3
100
AcDbLine
 10
72.27086884219996
 20
167.7998199462999
 30
0.0
 11
72.27086884219996
 21
169.1998291014999
 31
0.0
  0
LINE
  5
E3
330
2
100
AcDbEntity
  8
0
 62
     3
100
AcDbLine
 10
71.92089325619997
 20
167.7998199462999
 30
0.0
 11
72.27086884219996
 21
167.7998199462999
 31
0.0
  0
LINE
  5
E4
330
2
100
AcDbEntity
  8
0
 62
     3
100
AcDbLine
 10
71.92089325619997
 20
169.1998291014999
 30
0.0
 11
72.27086884219996
 21
169.1998291014999
 31
0.0
  0
LINE
  5
E5
330
2
100
AcDbEntity
  8
0
 62
     3
100
AcDbLine
 10
71.92066437439999
 20
167.7999420166
 30
0.0
 11
72.27063996029997
 21
167.7999420166
 31
0.0
  0
LINE
  5
E6
330
2
100
AcDbEntity
  8
0
 62
     3
100
AcDbLine
 10
71.92066437439999
 20
169.1999664306
 30
0.0
 11
72.27063996029997
 21
169.1999664306
 31
0.0
  0
LINE
  5
E7
330
2
100
AcDbEntity
  8
0
 62
     3
100
AcDbLine
 10
72.27063996029997
 20
167.7999420166
 30
0.0
 11
72.27063996029997
 21
169.1999664306
 31
0.0
  0
LINE
  5
E8
330
2
100
AcDbEntity
  8
0
 62
     3
100
AcDbLine
 10
71.92066437439999
 20
167.0998687743999
 30
0.0
 11
71.92066437439999
 21
169.8999176025
 31
0.0
  0
LINE
  5
E9
330
2
100
AcDbEntity
  8
0
  6
DASH
 62
     3
100
AcDbLine
 10
71.57068878839995
 20
165.9998931884
 30
0.0
 11
71.57068878839995
 21
167.0998687743999
 31
0.0
  0
LINE
  5
EA
330
2
100
AcDbEntity
  8
0
 62
     3
100
AcDbLine
 10
71.42066437439999
 20
167.0998687743999
 30
0.0
 11
71.42066437439999
 21
169.8999176025
 31
0.0
  0
LINE
  5
EB
330
2
100
AcDbEntity
  8
0
 62
     3
100
AcDbLine
 10
71.57079559999998
 20
165.9997711181
 30
0.0
 11
72.53576142029999
 21
165.9997711181
 31
0.0
  0
LINE
  5
EC
330
2
100
AcDbEntity
  8
0
 62
     3
100
AcDbLine
 10
72.5357766791
 20
165.9998931884
 30
0.0
 11
71.57068878839995
 21
165.9998931884
 31
0.0
  0
LINE
  5
ED
330
2
100
AcDbEntity
  8
0
 62
     3
100
AcDbLine
 10
71.42066437439999
 20
167.0998687743999
 30
0.0
 11
71.92066437439999
 21
167.0998687743999
 31
0.0
  0
LINE
  5
EE
330
2
100
AcDbEntity
  8
0
 62
     3
100
AcDbLine
 10
71.42066437439999
 20
169.8999176025
 30
0.0
 11
71.92066437439999
 21
169.8999176025
 31
0.0
  0
LINE
  5
EF
330
2
100
AcDbEntity
  8
0
  6
DASH
 62
     3
100
AcDbLine
 10
71.57068878839995
 20
169.8999176025
 30
0.0
 11
71.57068878839995
 21
170.9998474120999
 31
0.0
  0
LINE
  5
F0
330
2
100
AcDbEntity
  8
0
 62
     3
100
AcDbLine
 10
72.98696381289997
 20
165.5000152588
 30
0.0
 11
74.0561929388
 21
165.5000152588
 31
0.0
  0
LINE
  5
F1
330
2
100
AcDbEntity
  8
0
 62
     3
100
AcDbLine
 10
74.07094056209998
 20
175.1560629506
 30
0.0
 11
72.24486956379998
 21
176.9499952788
 31
0.0
  0
LINE
  5
F2
330
2
100
AcDbEntity
  8
0
 62
     3
100
AcDbLine
 10
72.98696381289997
 20
171.5
 30
0.0
 11
74.0561929388
 21
171.5
 31
0.0
  0
LINE
  5
F3
330
2
100
AcDbEntity
  8
0
 62
     3
100
AcDbLine
 10
121.7115915726999
 20
159.5499741383999
 30
0.0
 11
122.6586460512999
 21
159.8709994394
 31
0.0
  0
LINE
  5
F4
330
2
100
AcDbEntity
  8
0
 62
     3
100
AcDbLine
 10
120.7675148761999
 20
162.3350692985
 30
0.0
 11
121.7116004159999
 21
159.5499654577
 31
0.0
  0
LINE
  5
F5
330
2
100
AcDbEntity
  8
0
 62
     3
100
AcDbLine
 10
116.9675054434996
 20
159.6000261318
 30
0.0
 11
116.9675207022998
 21
160.1209154141
 31
0.0
  0
LINE
  5
F6
330
2
100
AcDbEntity
  8
0
 62
     3
100
AcDbLine
 10
120.7674356145999
 20
177.3999176025
 30
0.0
 11
120.7674356145999
 21
159.5999450683
 31
0.0
  0
LINE
  5
F7
330
2
100
AcDbEntity
  8
0
 62
     3
100
AcDbLine
 10
124.5676675481999
 20
159.5500662641
 30
0.0
 11
124.5676675481999
 21
177.4499834002
 31
0.0
  0
LINE
  5
F8
330
2
100
AcDbEntity
  8
0
 62
     3
100
AcDbLine
 10
120.7674966497998
 20
159.5999603270999
 30
0.0
 11
120.7674966497998
 21
177.3999176025
 31
0.0
  0
LINE
  5
F9
330
2
100
AcDbEntity
  8
0
 62
     3
100
AcDbLine
 10
124.5676619862999
 20
159.5500660227999
 30
0.0
 11
129.9509660562
 21
159.7835873439999
 31
0.0
  0
LINE
  5
FA
330
2
100
AcDbEntity
  8
0
 62
     3
100
AcDbLine
 10
120.7674966497998
 20
159.6000213623
 30
0.0
 11
116.9675241155998
 21
159.6000213623
 31
0.0
  0
LINE
  5
FB
330
2
100
AcDbEntity
  8
0
 62
     3
100
AcDbLine
 10
120.7674966497998
 20
159.5500030516999
 30
0.0
 11
121.7115884467
 21
159.5500030516999
 31
0.0
  0
LINE
  5
FC
330
2
100
AcDbEntity
  8
0
 62
     3
100
AcDbLine
 10
104.0676980657996
 20
217.0000152587999
 30
0.0
 11
105.5676980657999
 21
217.0000152587999
 31
0.0
  0
LINE
  5
FD
330
2
100
AcDbEntity
  8
0
 62
     3
100
AcDbLine
 10
104.0676980657996
 20
215.2002105713
 30
0.0
 11
105.5676980657999
 21
215.2002105713
 31
0.0
  0
LINE
  5
FE
330
2
100
AcDbEntity
  8
0
 62
     3
100
AcDbLine
 10
104.0676980657996
 20
211.8001861571999
 30
0.0
 11
105.5676980657999
 21
211.8001861571999
 31
0.0
  0
LINE
  5
FF
330
2
100
AcDbEntity
  8
0
 62
     3
100
AcDbLine
 10
104.0676980657996
 20
211.5000152588
 30
0.0
 11
105.5676980657999
 21
211.5000152588
 31
0.0
  0
LINE
  5
100
330
2
100
AcDbEntity
  8
0
 62
     3
100
AcDbLine
 10
104.0675759954998
 20
215.5000152587998
 30
0.0
 11
105.5676980657999
 21
215.5000152587998
 31
0.0
  0
LINE
  5
101
330
2
100
AcDbEntity
  8
0
 62
     3
100
AcDbLine
 10
104.0676980657996
 20
210.0000152588
 30
0.0
 11
105.5676980657999
 21
210.0000152588
 31
0.0
  0
LINE
  5
102
330
2
100
AcDbEntity
  8
0
 62
     3
100
AcDbLine
 10
102.5675302190999
 20
220.8495941161999
 30
0.0
 11
107.5675302190999
 21
220.8495941161999
 31
0.0
  0
LINE
  5
103
330
2
100
AcDbEntity
  8
0
 62
     3
100
AcDbLine
 10
102.5675302190999
 20
206.1499938963999
 30
0.0
 11
107.5675302190999
 21
206.1499938963999
 31
0.0
  0
LINE
  5
104
330
2
100
AcDbEntity
  8
0
 62
     3
100
AcDbLine
 10
102.5675302190999
 20
220.4992523193
 30
0.0
 11
107.5675302190999
 21
220.4992523193
 31
0.0
  0
LINE
  5
105
330
2
100
AcDbEntity
  8
0
 62
     3
100
AcDbLine
 10
102.5675302190999
 20
206.4997253417999
 30
0.0
 11
107.5675302190999
 21
206.4997253417999
 31
0.0
  0
LINE
  5
106
330
2
100
AcDbEntity
  8
0
 62
     3
100
AcDbLine
 10
102.5672932937999
 20
170.9994746918
 30
0.0
 11
107.5672894669999
 21
170.9496700647999
 31
0.0
  0
LINE
  5
107
330
2
100
AcDbEntity
  8
0
 62
     3
100
AcDbLine
 10
107.5674503544999
 20
166.0501684161999
 30
0.0
 11
102.5674580557996
 21
165.9999975937999
 31
0.0
  0
LINE
  5
108
330
2
100
AcDbEntity
  8
0
 62
     3
100
AcDbLine
 10
112.5676980657999
 20
175.8997802734
 30
0.0
 11
102.5676980657999
 21
175.8997802734
 31
0.0
  0
LINE
  5
109
330
2
100
AcDbEntity
  8
0
 62
     3
100
AcDbLine
 10
102.5676980657999
 20
161.1004791258999
 30
0.0
 11
112.5676980657999
 21
161.1004791258999
 31
0.0
  0
LINE
  5
10A
330
2
100
AcDbEntity
  8
0
 62
     3
100
AcDbLine
 10
96.17066437440001
 20
169.0999450682999
 30
0.0
 11
97.57062775329998
 21
169.0999450682999
 31
0.0
  0
LINE
  5
10B
330
2
100
AcDbEntity
  8
0
 62
     3
100
AcDbLine
 10
96.17066437440001
 20
167.8999633789
 30
0.0
 11
97.57062775329998
 21
167.8999633789
 31
0.0
  0
LINE
  5
10C
330
2
100
AcDbEntity
  8
0
 62
     3
100
AcDbLine
 10
102.2706247014999
 20
169.8999481200999
 30
0.0
 11
95.07062775329996
 21
169.8999481200999
 31
0.0
  0
LINE
  5
10D
330
2
100
AcDbEntity
  8
0
 62
     3
100
AcDbLine
 10
95.46689290479999
 20
167.2858164908999
 30
0.0
 11
97.46678037349994
 21
167.7143647199
 31
0.0
  0
LINE
  5
10E
330
2
100
AcDbEntity
  8
0
 62
     3
100
AcDbLine
 10
97.46715400349998
 20
169.2852137794
 30
0.0
 11
95.46714705219999
 21
169.7137869762
 31
0.0
  0
LINE
  5
10F
330
2
100
AcDbEntity
  8
0
 62
     3
100
AcDbLine
 10
95.26732880309998
 20
169.1497344969999
 30
0.0
 11
97.89623505309997
 21
169.1497344969999
 31
0.0
  0
LINE
  5
110
330
2
100
AcDbEntity
  8
0
 62
     3
100
AcDbLine
 10
95.26732880309998
 20
167.8499298094999
 30
0.0
 11
97.89623505309997
 21
167.8499298094999
 31
0.0
  0
LINE
  5
111
330
2
100
AcDbEntity
  8
0
 62
     3
100
AcDbLine
 10
95.06737763119998
 20
169.8997344969999
 30
0.0
 11
102.5676828069999
 21
169.8997344969999
 31
0.0
  0
LINE
  5
112
330
2
100
AcDbEntity
  8
0
  6
DASH
 62
     3
100
AcDbLine
 10
95.06737763119998
 20
169.7997589111
 30
0.0
 11
102.5676828069999
 21
169.7997589111
 31
0.0
  0
LINE
  5
113
330
2
100
AcDbEntity
  8
0
 62
     3
100
AcDbLine
 10
96.1673532172
 20
169.0998077392
 30
0.0
 11
97.56725556089998
 21
169.0998077392
 31
0.0
  0
LINE
  5
114
330
2
100
AcDbEntity
  8
0
 62
     3
100
AcDbLine
 10
96.1673532172
 20
167.8998565672999
 30
0.0
 11
97.56725556089998
 21
167.8998565672999
 31
0.0
  0
LINE
  5
115
330
2
100
AcDbEntity
  8
0
  6
DASH
 62
     3
100
AcDbLine
 10
102.5676828069999
 20
167.1999053955
 30
0.0
 11
95.06737763119998
 21
167.1999053955
 31
0.0
  0
LINE
  5
116
330
2
100
AcDbEntity
  8
0
 62
     3
100
AcDbLine
 10
102.5676828069999
 20
167.1000518797999
 30
0.0
 11
95.06737763119998
 21
167.1000518797999
 31
0.0
  0
ARC
  5
117
330
2
100
AcDbEntity
  8
0
 62
     3
100
AcDbCircle
 10
96.16742951109998
 20
168.5000152588
 30
0.0
 40
0.5999994278000002
100
AcDbArc
 50
90.00003665540001
 51
269.9998914002
  0
ARC
  5
118
330
2
100
AcDbEntity
  8
0
 62
     3
100
AcDbCircle
 10
95.26740509699996
 20
169.3498687743999
 30
0.0
 40
0.1999999285
100
AcDbArc
 50
179.9999640277999
 51
269.9999460416999
  0
ARC
  5
119
330
2
100
AcDbEntity
  8
0
 62
     3
100
AcDbCircle
 10
95.26740509699996
 20
167.6499176025
 30
0.0
 40
0.1999999285
100
AcDbArc
 50
90.00003665540001
 51
179.9999640277999
  0
LINE
  5
11A
330
2
100
AcDbEntity
  8
0
 62
     3
100
AcDbLine
 10
95.06737763119998
 20
169.8997344969999
 30
0.0
 11
95.06737763119998
 21
169.3498077392
 31
0.0
  0
LINE
  5
11B
330
2
100
AcDbEntity
  8
0
 62
     3
100
AcDbLine
 10
95.06737763119998
 20
167.6498565673
 30
0.0
 11
95.06737763119998
 21
167.1000518797999
 31
0.0
  0
ARC
  5
11C
330
2
100
AcDbEntity
  8
0
 62
     3
100
AcDbCircle
 10
96.46735626889999
 20
168.5000152588
 30
0.0
 40
1.899999618499998
100
AcDbArc
 50
137.4630758394
 51
222.5368522162999
  0
LINE
  5
11D
330
2
100
AcDbEntity
  8
0
 62
     3
100
AcDbLine
 10
95.58639618209999
 20
168.6495621154
 30
0.0
 11
94.57321258839995
 21
168.6495600529999
 31
0.0
  0
LINE
  5
11E
330
2
100
AcDbEntity
  8
0
 62
     3
100
AcDbLine
 10
95.58626801209999
 20
168.3499145506999
 30
0.0
 11
94.57320648859996
 21
168.3499145506999
 31
0.0
  0
LINE
  5
11F
330
2
100
AcDbEntity
  8
0
 62
     3
100
AcDbLine
 10
102.5676980657999
 20
161.1004791258999
 30
0.0
 11
102.5676980657999
 21
175.8997802734
 31
0.0
  0
LINE
  5
120
330
2
100
AcDbEntity
  8
0
 62
     3
100
AcDbLine
 10
98.2137399359
 20
168.3998565672999
 30
0.0
 11
102.5676828069999
 21
168.3998565672999
 31
0.0
  0
LINE
  5
121
330
2
100
AcDbEntity
  8
0
 62
     3
100
AcDbLine
 10
98.2137399359
 20
168.5999298095
 30
0.0
 11
102.5676828069999
 21
168.5999298095
 31
0.0
  0
ARC
  5
122
330
2
100
AcDbEntity
  8
0
 62
     3
100
AcDbCircle
 10
97.5673318549
 20
168.5000152588
 30
0.0
 40
0.5999994278000002
100
AcDbArc
 50
270.0000726275999
 51
89.99998201389994
  0
LINE
  5
123
330
2
100
AcDbEntity
  8
0
 62
     3
100
AcDbLine
 10
97.89538280899998
 20
169.1497250877
 30
0.0
 11
98.21288769179998
 21
168.5997905088999
 31
0.0
  0
LINE
  5
124
330
2
100
AcDbEntity
  8
0
 62
     3
100
AcDbLine
 10
98.21303556010001
 20
168.3993342879
 30
0.0
 11
97.89546971779998
 21
167.8492939552
 31
0.0
  0
LINE
  5
125
330
2
100
AcDbEntity
  8
0
 62
     3
100
AcDbLine
 10
97.86774977459998
 20
207.1500210158999
 30
0.0
 11
95.0677461663
 21
207.4000187499
 31
0.0
  0
LINE
  5
126
330
2
100
AcDbEntity
  8
0
 62
     3
100
AcDbLine
 10
102.5676980657999
 20
207.6500091551998
 30
0.0
 11
94.56771332459998
 21
207.6500091551998
 31
0.0
  0
LINE
  5
127
330
2
100
AcDbEntity
  8
0
 62
     3
100
AcDbLine
 10
102.5676980657999
 20
207.5500335692999
 30
0.0
 11
94.56771332459998
 21
207.5500335692999
 31
0.0
  0
LINE
  5
128
330
2
100
AcDbEntity
  8
0
 62
     3
100
AcDbLine
 10
95.06766729869999
 20
219.6003287798999
 30
0.0
 11
97.86768610540001
 21
219.8503278708999
 31
0.0
  0
LINE
  5
129
330
2
100
AcDbEntity
  8
0
 62
     3
100
AcDbLine
 10
94.56771332459998
 20
219.3499908447
 30
0.0
 11
102.5677133245999
 21
219.3499908447
 31
0.0
  0
LINE
  5
12A
330
2
100
AcDbEntity
  8
0
 62
     3
100
AcDbLine
 10
94.56771332459998
 20
219.4499664305999
 30
0.0
 11
102.5677133245999
 21
219.4499664305999
 31
0.0
  0
LINE
  5
12B
330
2
100
AcDbEntity
  8
0
 62
     3
100
AcDbLine
 10
95.06771332459996
 20
207.6500091551998
 30
0.0
 11
95.06771332459996
 21
207.4000091552
 31
0.0
  0
LINE
  5
12C
330
2
100
AcDbEntity
  8
0
 62
     3
100
AcDbLine
 10
94.56771332459998
 20
207.6500091551998
 30
0.0
 11
94.56771332459998
 21
207.4000091552
 31
0.0
  0
LINE
  5
12D
330
2
100
AcDbEntity
  8
0
 62
     3
100
AcDbLine
 10
95.06771332459996
 20
207.4000091552
 30
0.0
 11
94.56771332459998
 21
207.4000091552
 31
0.0
  0
LINE
  5
12E
330
2
100
AcDbEntity
  8
0
 62
     3
100
AcDbLine
 10
95.06771332459996
 20
219.5999908447
 30
0.0
 11
95.06771332459996
 21
219.3499908447
 31
0.0
  0
LINE
  5
12F
330
2
100
AcDbEntity
  8
0
 62
     3
100
AcDbLine
 10
94.56771332459998
 20
219.5999908447
 30
0.0
 11
94.56771332459998
 21
219.3499908447
 31
0.0
  0
LINE
  5
130
330
2
100
AcDbEntity
  8
0
 62
     3
100
AcDbLine
 10
94.56771332459998
 20
219.5999908447
 30
0.0
 11
95.06771332459996
 21
219.5999908447
 31
0.0
  0
LINE
  5
131
330
2
100
AcDbEntity
  8
0
 62
     3
100
AcDbLine
 10
102.5676980657999
 20
206.1500396727999
 30
0.0
 11
102.5676980657999
 21
220.8499908447
 31
0.0
  0
LINE
  5
132
330
2
100
AcDbEntity
  8
0
 62
     3
100
AcDbLine
 10
102.5676980657999
 20
207.1500091552
 30
0.0
 11
97.86776215269998
 21
207.1500091552
 31
0.0
  0
LINE
  5
133
330
2
100
AcDbEntity
  8
0
 62
     3
100
AcDbLine
 10
104.0676980657996
 20
210.0000152588
 30
0.0
 11
104.0676980657996
 21
211.5000152588
 31
0.0
  0
LINE
  5
134
330
2
100
AcDbEntity
  8
0
 62
     3
100
AcDbLine
 10
104.0675302191
 20
215.1994476318
 30
0.0
 11
104.0675302191
 21
211.7995605467998
 31
0.0
  0
LINE
  5
135
330
2
100
AcDbEntity
  8
0
 62
     3
100
AcDbLine
 10
104.0676980657996
 20
215.5000152587998
 30
0.0
 11
104.0676980657996
 21
217.0000152587999
 31
0.0
  0
LINE
  5
136
330
2
100
AcDbEntity
  8
0
 62
     3
100
AcDbLine
 10
97.86776215269998
 20
219.8499908446998
 30
0.0
 11
102.5677133245999
 21
219.8499908446998
 31
0.0
  0
LINE
  5
137
330
2
100
AcDbEntity
  8
0
 62
     3
100
AcDbLine
 10
129.9504877024999
 20
204.7836359558
 30
0.0
 11
129.9505258491999
 21
222.2166651306
 31
0.0
  0
LINE
  5
138
330
2
100
AcDbEntity
  8
0
 62
     3
100
AcDbLine
 10
130.2672067327999
 20
221.8999938963999
 30
0.0
 11
130.2672067327999
 21
205.1002197264998
 31
0.0
  0
LINE
  5
139
330
2
100
AcDbEntity
  8
0
 62
     3
100
AcDbLine
 10
123.9676614446999
 20
204.8002624511
 30
0.0
 11
123.9676614446999
 21
222.2002563475999
 31
0.0
  0
LINE
  5
13A
330
2
100
AcDbEntity
  8
0
 62
     3
100
AcDbLine
 10
124.5676675481999
 20
204.5501084472
 30
0.0
 11
124.5676675481999
 21
222.4499685872999
 31
0.0
  0
LINE
  5
13B
330
2
100
AcDbEntity
  8
0
 62
     3
100
AcDbLine
 10
120.7671432866999
 20
207.3353257044999
 30
0.0
 11
121.7112288264999
 21
204.5502218638
 31
0.0
  0
LINE
  5
13C
330
2
100
AcDbEntity
  8
0
 62
     3
100
AcDbLine
 10
121.7671353244999
 20
207.5002299107
 30
0.0
 11
122.6582965044999
 21
204.8712558183999
 31
0.0
  0
LINE
  5
13D
330
2
100
AcDbEntity
  8
0
 62
     3
100
AcDbLine
 10
120.7670083684996
 20
222.3999328613
 30
0.0
 11
120.7670083684996
 21
204.5999450682999
 31
0.0
  0
LINE
  5
13E
330
2
100
AcDbEntity
  8
0
 62
     3
100
AcDbLine
 10
120.7670999212999
 20
204.6002349853
 30
0.0
 11
120.7670999212999
 21
222.3997802734
 31
0.0
  0
LINE
  5
13F
330
2
100
AcDbEntity
  8
0
 62
     3
100
AcDbLine
 10
115.7671456975996
 20
210.5000457762999
 30
0.0
 11
115.7671456975996
 21
205.1209259033
 31
0.0
  0
LINE
  5
140
330
2
100
AcDbEntity
  8
0
 62
     3
100
AcDbLine
 10
120.7670999212999
 20
204.6000366211
 30
0.0
 11
116.9671273870999
 21
204.6000366211
 31
0.0
  0
LINE
  5
141
330
2
100
AcDbEntity
  8
0
 62
     3
100
AcDbLine
 10
116.9675393743996
 20
177.4000091551998
 30
0.0
 11
120.7675119085999
 21
177.4000091551998
 31
0.0
  0
LINE
  5
142
330
2
100
AcDbEntity
  8
0
 62
     3
100
AcDbLine
 10
107.5672555608999
 20
169.2997741698999
 30
0.0
 11
107.5672555608999
 21
168.8997497557999
 31
0.0
  0
LINE
  5
143
330
2
100
AcDbEntity
  8
0
 62
     3
100
AcDbLine
 10
107.5672555608999
 20
168.0999450683
 30
0.0
 11
107.5672555608999
 21
167.6999206542999
 31
0.0
  0
LINE
  5
144
330
2
100
AcDbEntity
  8
0
 62
     3
100
AcDbLine
 10
107.5674997014999
 20
170.9497985839
 30
0.0
 11
107.5674997014999
 21
166.0500946044999
 31
0.0
  0
LINE
  5
145
330
2
100
AcDbEntity
  8
0
 62
     3
100
AcDbLine
 10
116.9675393743996
 20
171.5000152588
 30
0.0
 11
116.9675393743996
 21
165.5000305175
 31
0.0
  0
ARC
  5
146
330
2
100
AcDbEntity
  8
0
 62
     3
100
AcDbCircle
 10
132.7676187200999
 20
168.4997711180998
 30
0.0
 40
20.200012207
100
AcDbArc
 50
168.5787949053
 51
191.4211331503
  0
LINE
  5
147
330
2
100
AcDbEntity
  8
0
 62
     3
100
AcDbLine
 10
112.5676828069999
 20
161.1004943846999
 30
0.0
 11
112.5676828069999
 21
175.8997955322
 31
0.0
  0
LINE
  5
148
330
2
100
AcDbEntity
  8
0
 62
     3
100
AcDbLine
 10
115.7675271673999
 20
161.1004943846999
 30
0.0
 11
112.5676828069999
 21
161.1004943846999
 31
0.0
  0
LINE
  5
149
330
2
100
AcDbEntity
  8
0
 62
     3
100
AcDbLine
 10
115.7675271673999
 20
164.5004272461
 30
0.0
 11
112.9675851507996
 21
164.5004272461
 31
0.0
  0
LINE
  5
14A
330
2
100
AcDbEntity
  8
0
 62
     3
100
AcDbLine
 10
115.7675271673999
 20
160.5005187987999
 30
0.0
 11
112.9675851507996
 21
160.5005187987999
 31
0.0
  0
LINE
  5
14B
330
2
100
AcDbEntity
  8
0
 62
     3
100
AcDbLine
 10
112.9658276701999
 20
160.4993124381
 30
0.0
 11
112.5658505402999
 21
161.0992784983
 31
0.0
  0
LINE
  5
14C
330
2
100
AcDbEntity
  8
0
 62
     3
100
AcDbLine
 10
112.9675851507996
 20
160.5005187987999
 30
0.0
 11
112.9675851507996
 21
164.5004272461
 31
0.0
  0
LINE
  5
14D
330
2
100
AcDbEntity
  8
0
 62
     3
100
AcDbLine
 10
115.7675424260999
 20
165.5000305175
 30
0.0
 11
115.7675424260999
 21
160.1209106445
 31
0.0
  0
LINE
  5
14E
330
2
100
AcDbEntity
  8
0
 62
     3
100
AcDbLine
 10
115.7675424260999
 20
160.1209106445
 30
0.0
 11
116.9675393743996
 21
160.1209106445
 31
0.0
  0
LINE
  5
14F
330
2
100
AcDbEntity
  8
0
 62
     3
100
AcDbLine
 10
116.9675393743996
 20
165.5000305175
 30
0.0
 11
115.7675424260999
 21
165.5000305175
 31
0.0
  0
LINE
  5
150
330
2
100
AcDbEntity
  8
0
 62
     3
100
AcDbLine
 10
112.9675851507996
 20
172.4998931883999
 30
0.0
 11
115.7675271673999
 21
172.4998931883999
 31
0.0
  0
LINE
  5
151
330
2
100
AcDbEntity
  8
0
 62
     3
100
AcDbLine
 10
112.5676828069999
 20
175.8997955322
 30
0.0
 11
115.7675271673999
 21
175.8997955322
 31
0.0
  0
LINE
  5
152
330
2
100
AcDbEntity
  8
0
 62
     3
100
AcDbLine
 10
112.9675851507996
 20
176.4998931884
 30
0.0
 11
115.7675271673999
 21
176.4998931884
 31
0.0
  0
LINE
  5
153
330
2
100
AcDbEntity
  8
0
 62
     3
100
AcDbLine
 10
112.5665296214998
 20
175.8992723245
 30
0.0
 11
112.9665744637999
 21
176.4993399534
 31
0.0
  0
LINE
  5
154
330
2
100
AcDbEntity
  8
0
 62
     3
100
AcDbLine
 10
112.9675851507996
 20
172.4998931883999
 30
0.0
 11
112.9675851507996
 21
176.4998931884
 31
0.0
  0
LINE
  5
155
330
2
100
AcDbEntity
  8
0
 62
     3
100
AcDbLine
 10
116.9675393743996
 20
177.4000091551998
 30
0.0
 11
116.9675393743996
 21
176.8791809082
 31
0.0
  0
LINE
  5
156
330
2
100
AcDbEntity
  8
0
 62
     3
100
AcDbLine
 10
115.7675424260999
 20
176.8791809082
 30
0.0
 11
115.7675424260999
 21
171.5000152588
 31
0.0
  0
LINE
  5
157
330
2
100
AcDbEntity
  8
0
 62
     3
100
AcDbLine
 10
115.7675424260999
 20
171.5000152588
 30
0.0
 11
116.9675393743996
 21
171.5000152588
 31
0.0
  0
LINE
  5
158
330
2
100
AcDbEntity
  8
0
 62
     3
100
AcDbLine
 10
116.9675393743996
 20
176.8791809082
 30
0.0
 11
115.7675424260999
 21
176.8791809082
 31
0.0
  0
LINE
  5
159
330
2
100
AcDbEntity
  8
0
 62
     3
100
AcDbLine
 10
116.9670994202999
 20
204.6000261822999
 30
0.0
 11
116.9671146790999
 21
205.1209154646
 31
0.0
  0
LINE
  5
15A
330
2
100
AcDbEntity
  8
0
 62
     3
100
AcDbLine
 10
115.7671456975996
 20
205.1209259033
 30
0.0
 11
116.9671426458999
 21
205.1209259033
 31
0.0
  0
LINE
  5
15B
330
2
100
AcDbEntity
  8
0
 62
     3
100
AcDbLine
 10
123.9676614446999
 20
177.200012207
 30
0.0
 11
124.5676675481999
 21
177.200012207
 31
0.0
  0
LINE
  5
15C
330
2
100
AcDbEntity
  8
0
 62
     3
100
AcDbLine
 10
123.9676614446999
 20
159.8000030517
 30
0.0
 11
124.5676675481999
 21
159.8000030517
 31
0.0
  0
LINE
  5
15D
330
2
100
AcDbEntity
  8
0
 62
     3
100
AcDbLine
 10
121.7674966497998
 20
162.4999847411999
 30
0.0
 11
121.7674966497998
 21
174.4999694824
 31
0.0
  0
LINE
  5
15E
330
2
100
AcDbEntity
  8
0
 62
     3
100
AcDbLine
 10
123.9676614446999
 20
177.200012207
 30
0.0
 11
123.9676614446999
 21
159.8000030517
 31
0.0
  0
LINE
  5
15F
330
2
100
AcDbEntity
  8
0
 62
     3
100
AcDbLine
 10
117.7675271673999
 20
169.1000213623
 30
0.0
 11
120.7675119085999
 21
169.1000213623
 31
0.0
  0
LINE
  5
160
330
2
100
AcDbEntity
  8
0
 62
     3
100
AcDbLine
 10
117.7675271673999
 20
170.1924743652
 30
0.0
 11
120.7675119085999
 21
170.1924743652
 31
0.0
  0
LINE
  5
161
330
2
100
AcDbEntity
  8
0
 62
     3
100
AcDbLine
 10
120.7675119085999
 20
167.9000091552
 30
0.0
 11
117.7675271673999
 21
167.9000091552
 31
0.0
  0
LINE
  5
162
330
2
100
AcDbEntity
  8
0
 62
     3
100
AcDbLine
 10
120.7675119085999
 20
166.8075561523
 30
0.0
 11
117.7675271673999
 21
166.8075561523
 31
0.0
  0
LINE
  5
163
330
2
100
AcDbEntity
  8
0
 62
     3
100
AcDbLine
 10
120.7675119085999
 20
165.6221923828
 30
0.0
 11
117.7675271673999
 21
165.6221923828
 31
0.0
  0
LINE
  5
164
330
2
100
AcDbEntity
  8
0
 62
     3
100
AcDbLine
 10
120.7675119085999
 20
164.5797424316
 30
0.0
 11
117.7675271673999
 21
164.5797424316
 31
0.0
  0
LINE
  5
165
330
2
100
AcDbEntity
  8
0
 62
     3
100
AcDbLine
 10
120.7675119085999
 20
163.5405273437
 30
0.0
 11
117.7675271673999
 21
163.5405273437
 31
0.0
  0
LINE
  5
166
330
2
100
AcDbEntity
  8
0
 62
     3
100
AcDbLine
 10
120.7675119085999
 20
162.6655120849
 30
0.0
 11
117.7675271673999
 21
162.6655120849
 31
0.0
  0
LINE
  5
167
330
2
100
AcDbEntity
  8
0
 62
     3
100
AcDbLine
 10
120.7675119085999
 20
161.7968139648
 30
0.0
 11
117.7675271673999
 21
161.7968139648
 31
0.0
  0
LINE
  5
168
330
2
100
AcDbEntity
  8
0
 62
     3
100
AcDbLine
 10
120.7675119085999
 20
161.1099243164
 30
0.0
 11
117.7675271673999
 21
161.1099243164
 31
0.0
  0
LINE
  5
169
330
2
100
AcDbEntity
  8
0
 62
     3
100
AcDbLine
 10
120.7675119085999
 20
160.5099334715999
 30
0.0
 11
117.7675271673999
 21
160.5099334715999
 31
0.0
  0
LINE
  5
16A
330
2
100
AcDbEntity
  8
0
 62
     3
100
AcDbLine
 10
120.7675119085999
 20
160.0868072508999
 30
0.0
 11
117.7675271673999
 21
160.0868072508999
 31
0.0
  0
LINE
  5
16B
330
2
100
AcDbEntity
  8
0
 62
     3
100
AcDbLine
 10
117.7675271673999
 20
165.6221923828
 30
0.0
 11
117.7675271673999
 21
164.5797424316
 31
0.0
  0
LINE
  5
16C
330
2
100
AcDbEntity
  8
0
 62
     3
100
AcDbLine
 10
117.7675271673999
 20
162.6655120849
 30
0.0
 11
117.7675271673999
 21
163.5405273437
 31
0.0
  0
LINE
  5
16D
330
2
100
AcDbEntity
  8
0
 62
     3
100
AcDbLine
 10
117.7675271673999
 20
161.1099243164
 30
0.0
 11
117.7675271673999
 21
161.7968139648
 31
0.0
  0
LINE
  5
16E
330
2
100
AcDbEntity
  8
0
 62
     3
100
AcDbLine
 10
117.7674508733999
 20
160.5098419188999
 30
0.0
 11
117.7674508733999
 21
160.086730957
 31
0.0
  0
LINE
  5
16F
330
2
100
AcDbEntity
  8
0
 62
     3
100
AcDbLine
 10
117.7675271673999
 20
170.1924743652
 30
0.0
 11
117.7675271673999
 21
169.1000213623
 31
0.0
  0
LINE
  5
170
330
2
100
AcDbEntity
  8
0
 62
     3
100
AcDbLine
 10
117.7675271673999
 20
167.9000091552
 30
0.0
 11
117.7675271673999
 21
166.8075561523
 31
0.0
  0
LINE
  5
171
330
2
100
AcDbEntity
  8
0
 62
     3
100
AcDbLine
 10
121.767506914
 20
162.4999735047
 30
0.0
 11
122.6586680939999
 21
159.8709994124
 31
0.0
  0
LINE
  5
172
330
2
100
AcDbEntity
  8
0
 62
     3
100
AcDbLine
 10
123.9676614446999
 20
161.1004943846999
 30
0.0
 11
122.2418924017
 21
161.1004943846999
 31
0.0
  0
LINE
  5
173
330
2
100
AcDbEntity
  8
0
 62
     3
100
AcDbLine
 10
123.9676614446999
 20
164.5004272461
 30
0.0
 11
121.7674966497998
 21
164.5004272461
 31
0.0
  0
LINE
  5
174
330
2
100
AcDbEntity
  8
0
 62
     3
100
AcDbLine
 10
123.9694030444999
 20
161.0998438969
 30
0.0
 11
123.6694166199999
 21
160.4998863207999
 31
0.0
  0
LINE
  5
175
330
2
100
AcDbEntity
  8
0
 62
     3
100
AcDbLine
 10
123.6697030706998
 20
160.5005187987999
 30
0.0
 11
122.4452615423997
 21
160.5005187987999
 31
0.0
  0
LINE
  5
176
330
2
100
AcDbEntity
  8
0
 62
     3
100
AcDbLine
 10
117.7675271673999
 20
176.9132232665999
 30
0.0
 11
120.7675119085999
 21
176.9132232665999
 31
0.0
  0
LINE
  5
177
330
2
100
AcDbEntity
  8
0
 62
     3
100
AcDbLine
 10
117.7675271673999
 20
171.3778381346999
 30
0.0
 11
120.7675119085999
 21
171.3778381346999
 31
0.0
  0
LINE
  5
178
330
2
100
AcDbEntity
  8
0
 62
     3
100
AcDbLine
 10
117.7675271673999
 20
172.4202880859
 30
0.0
 11
120.7675119085999
 21
172.4202880859
 31
0.0
  0
LINE
  5
179
330
2
100
AcDbEntity
  8
0
 62
     3
100
AcDbLine
 10
117.7675271673999
 20
173.4595031738
 30
0.0
 11
120.7675119085999
 21
173.4595031738
 31
0.0
  0
LINE
  5
17A
330
2
100
AcDbEntity
  8
0
 62
     3
100
AcDbLine
 10
117.7675271673999
 20
174.3345184325999
 30
0.0
 11
120.7675119085999
 21
174.3345184325999
 31
0.0
  0
LINE
  5
17B
330
2
100
AcDbEntity
  8
0
 62
     3
100
AcDbLine
 10
117.7675271673999
 20
175.2032165527
 30
0.0
 11
120.7675119085999
 21
175.2032165527
 31
0.0
  0
LINE
  5
17C
330
2
100
AcDbEntity
  8
0
 62
     3
100
AcDbLine
 10
117.7675271673999
 20
175.8901062010999
 30
0.0
 11
120.7675119085999
 21
175.8901062010999
 31
0.0
  0
LINE
  5
17D
330
2
100
AcDbEntity
  8
0
 62
     3
100
AcDbLine
 10
117.7675271673999
 20
176.4900970459
 30
0.0
 11
120.7675119085999
 21
176.4900970459
 31
0.0
  0
LINE
  5
17E
330
2
100
AcDbEntity
  8
0
 62
     3
100
AcDbLine
 10
117.7675271673999
 20
172.4202880859
 30
0.0
 11
117.7675271673999
 21
171.3778381346999
 31
0.0
  0
LINE
  5
17F
330
2
100
AcDbEntity
  8
0
 62
     3
100
AcDbLine
 10
117.7675271673999
 20
173.4595031738
 30
0.0
 11
117.7675271673999
 21
174.3345184325999
 31
0.0
  0
LINE
  5
180
330
2
100
AcDbEntity
  8
0
 62
     3
100
AcDbLine
 10
117.7675271673999
 20
175.2032165527
 30
0.0
 11
117.7675271673999
 21
175.8901062010999
 31
0.0
  0
LINE
  5
181
330
2
100
AcDbEntity
  8
0
 62
     3
100
AcDbLine
 10
117.7675882024999
 20
176.9132690429
 30
0.0
 11
117.7675882024999
 21
176.4901580809999
 31
0.0
  0
LINE
  5
182
330
2
100
AcDbEntity
  8
0
 62
     3
100
AcDbLine
 10
120.7675039046999
 20
174.6648402216
 30
0.0
 11
121.7116085223999
 21
177.4499860133
 31
0.0
  0
LINE
  5
183
330
2
100
AcDbEntity
  8
0
 62
     3
100
AcDbLine
 10
121.7675008545999
 20
174.4999971495999
 30
0.0
 11
122.6586563737999
 21
177.1289410161
 31
0.0
  0
LINE
  5
184
330
2
100
AcDbEntity
  8
0
 62
     3
100
AcDbLine
 10
122.2419992132999
 20
175.8997955322
 30
0.0
 11
123.9676614446999
 21
175.8997955322
 31
0.0
  0
LINE
  5
185
330
2
100
AcDbEntity
  8
0
 62
     3
100
AcDbLine
 10
121.7674966497998
 20
172.4998931883999
 30
0.0
 11
123.9676614446999
 21
172.4998931883999
 31
0.0
  0
LINE
  5
186
330
2
100
AcDbEntity
  8
0
 62
     3
100
AcDbLine
 10
123.9686579940999
 20
175.8991866259999
 30
0.0
 11
123.6686658830999
 21
176.4992778177
 31
0.0
  0
LINE
  5
187
330
2
100
AcDbEntity
  8
0
 62
     3
100
AcDbLine
 10
122.4454293889998
 20
176.4998931884
 30
0.0
 11
123.6683908147999
 21
176.4998931884
 31
0.0
  0
LINE
  5
188
330
2
100
AcDbEntity
  8
0
 62
     3
100
AcDbLine
 10
121.7116273638998
 20
177.4499783015
 30
0.0
 11
122.6586771933999
 21
177.1289392916999
 31
0.0
  0
LINE
  5
189
330
2
100
AcDbEntity
  8
0
 62
     3
100
AcDbLine
 10
120.7674966497998
 20
177.450012207
 30
0.0
 11
121.7116037053999
 21
177.450012207
 31
0.0
  0
LINE
  5
18A
330
2
100
AcDbEntity
  8
0
 62
     3
100
AcDbLine
 10
129.9509843267
 20
159.783605437
 30
0.0
 11
129.9510224734999
 21
177.2166651293
 31
0.0
  0
LINE
  5
18B
330
2
100
AcDbEntity
  8
0
 62
     3
100
AcDbLine
 10
130.2676950139999
 20
176.8999938963999
 30
0.0
 11
130.2676950139999
 21
160.1002197265
 31
0.0
  0
LINE
  5
18C
330
2
100
AcDbEntity
  8
0
 62
     3
100
AcDbLine
 10
129.9509274117999
 20
159.7835398912
 30
0.0
 11
130.2676350301996
 21
160.1002461480999
 31
0.0
  0
LINE
  5
18D
330
2
100
AcDbEntity
  8
0
 62
     3
100
AcDbLine
 10
129.9509866878999
 20
177.2166614902
 30
0.0
 11
124.5676587017999
 21
177.4499837836
 31
0.0
  0
LINE
  5
18E
330
2
100
AcDbEntity
  8
0
 62
     3
100
AcDbLine
 10
129.9509880582999
 20
177.2166688668
 30
0.0
 11
130.2676825912999
 21
176.8999711303998
 31
0.0
  0
LINE
  5
18F
330
2
100
AcDbEntity
  8
0
 62
     3
100
AcDbLine
 10
123.9676614446999
 20
204.8002624511
 30
0.0
 11
124.5676675481999
 21
204.8002624511
 31
0.0
  0
LINE
  5
190
330
2
100
AcDbEntity
  8
0
 62
     3
100
AcDbLine
 10
120.7671151799999
 20
205.5099487304
 30
0.0
 11
117.7671304387999
 21
205.5099487304
 31
0.0
  0
LINE
  5
191
330
2
100
AcDbEntity
  8
0
 62
     3
100
AcDbLine
 10
120.7671151799999
 20
205.0868225097
 30
0.0
 11
117.7671304387999
 21
205.0868225097
 31
0.0
  0
LINE
  5
192
330
2
100
AcDbEntity
  8
0
 62
     3
100
AcDbLine
 10
117.7670083684999
 20
205.5098419189
 30
0.0
 11
117.7670083684999
 21
205.086730957
 31
0.0
  0
LINE
  5
193
330
2
100
AcDbEntity
  8
0
 62
     3
100
AcDbLine
 10
121.7112099924999
 20
204.5502142138
 30
0.0
 11
122.6582789221998
 21
204.8712444133
 31
0.0
  0
LINE
  5
194
330
2
100
AcDbEntity
  8
0
 62
     3
100
AcDbLine
 10
120.7671151799999
 20
204.5502624511
 30
0.0
 11
121.7112069768999
 21
204.5502624511
 31
0.0
  0
LINE
  5
195
330
2
100
AcDbEntity
  8
0
 62
     3
100
AcDbLine
 10
124.5671704769997
 20
204.5500868848999
 30
0.0
 11
129.9504745469999
 21
204.7836082060999
 31
0.0
  0
LINE
  5
196
330
2
100
AcDbEntity
  8
0
 62
     3
100
AcDbLine
 10
129.9504199215999
 20
204.7835464023
 30
0.0
 11
130.2671275399999
 21
205.1002526591999
 31
0.0
  0
LINE
  5
197
330
2
100
AcDbEntity
  8
0
 62
     3
100
AcDbLine
 10
116.9671426458999
 20
222.4000244139999
 30
0.0
 11
120.7671151799999
 21
222.4000244139999
 31
0.0
  0
LINE
  5
198
330
2
100
AcDbEntity
  8
0
 62
     3
100
AcDbLine
 10
107.5675759954998
 20
206.1002502441
 30
0.0
 11
115.7671304387999
 21
206.1002502441
 31
0.0
  0
LINE
  5
199
330
2
100
AcDbEntity
  8
0
 62
     3
100
AcDbLine
 10
115.7671304387999
 20
220.9001770018999
 30
0.0
 11
107.5675759954998
 21
220.9001770018999
 31
0.0
  0
LINE
  5
19A
330
2
100
AcDbEntity
  8
0
 62
     3
100
AcDbLine
 10
105.5676980657999
 20
210.0000152588
 30
0.0
 11
105.5676980657999
 21
211.5000152588
 31
0.0
  0
LINE
  5
19B
330
2
100
AcDbEntity
  8
0
 62
     3
100
AcDbLine
 10
105.5675302190999
 20
215.1994476318
 30
0.0
 11
105.5675302190999
 21
211.7995605467998
 31
0.0
  0
LINE
  5
19C
330
2
100
AcDbEntity
  8
0
 62
     3
100
AcDbLine
 10
105.5676980657999
 20
215.5000152587998
 30
0.0
 11
105.5676980657999
 21
217.0000152587999
 31
0.0
  0
LINE
  5
19D
330
2
100
AcDbEntity
  8
0
 62
     3
100
AcDbLine
 10
107.5675302190999
 20
206.4997253417999
 30
0.0
 11
107.5675302190999
 21
206.0997009277
 31
0.0
  0
LINE
  5
19E
330
2
100
AcDbEntity
  8
0
 62
     3
100
AcDbLine
 10
107.5672449080999
 20
220.899683346
 30
0.0
 11
107.5672372787999
 21
220.4997810022
 31
0.0
  0
LINE
  5
19F
330
2
100
AcDbEntity
  8
0
 62
     3
100
AcDbLine
 10
115.7671456975996
 20
221.8791961669999
 30
0.0
 11
115.7671456975996
 21
216.5000305174999
 31
0.0
  0
LINE
  5
1A0
330
2
100
AcDbEntity
  8
0
 62
     3
100
AcDbLine
 10
113.4719552821999
 20
220.9002587762999
 30
0.0
 11
113.9246589215999
 21
214.2002337063999
 31
0.0
  0
LINE
  5
1A1
330
2
100
AcDbEntity
  8
0
 62
     3
100
AcDbLine
 10
113.9671815515999
 20
220.9006399396999
 30
0.0
 11
114.4199109072999
 21
214.2002342678999
 31
0.0
  0
LINE
  5
1A2
330
2
100
AcDbEntity
  8
0
 62
     3
100
AcDbLine
 10
112.9234954216
 20
214.2002311445999
 30
0.0
 11
112.5676764136999
 21
219.4663612709999
 31
0.0
  0
LINE
  5
1A3
330
2
100
AcDbEntity
  8
0
 62
     3
100
AcDbLine
 10
113.4246354219999
 20
214.2002319110999
 30
0.0
 11
112.9719029803999
 21
220.9006832550999
 31
0.0
  0
LINE
  5
1A4
330
2
100
AcDbEntity
  8
0
 62
     3
100
AcDbLine
 10
112.5676980657999
 20
206.1003723143999
 30
0.0
 11
112.5676980657999
 21
220.9002990721999
 31
0.0
  0
LINE
  5
1A5
330
2
100
AcDbEntity
  8
0
 62
     3
100
AcDbLine
 10
113.0200601262999
 20
212.8002624510998
 30
0.0
 11
116.9671273870999
 21
212.8002624510998
 31
0.0
  0
LINE
  5
1A6
330
2
100
AcDbEntity
  8
0
 62
     3
100
AcDbLine
 10
112.5676980657999
 20
214.2002716063999
 30
0.0
 11
116.9671273870999
 21
214.2002716063999
 31
0.0
  0
LINE
  5
1A7
330
2
100
AcDbEntity
  8
0
 62
     3
100
AcDbLine
 10
113.0196717744999
 20
212.7987836927999
 30
0.0
 11
112.6161441328999
 21
211.3539544068999
 31
0.0
  0
LINE
  5
1A8
330
2
100
AcDbEntity
  8
0
 62
     3
100
AcDbLine
 10
113.6145805843999
 20
211.4220533225998
 30
0.0
 11
113.0203914471999
 21
212.7993475351999
 31
0.0
  0
LINE
  5
1A9
330
2
100
AcDbEntity
  8
0
 62
     3
100
AcDbLine
 10
114.0195694373
 20
206.1346640903999
 30
0.0
 11
113.5691967236999
 21
212.8001914011
 31
0.0
  0
LINE
  5
1AA
330
2
100
AcDbEntity
  8
0
 62
     3
100
AcDbLine
 10
113.4707404227997
 20
206.1009915794
 30
0.0
 11
113.1528869083999
 21
210.8052314613
 31
0.0
  0
LINE
  5
1AB
330
2
100
AcDbEntity
  8
0
 62
     3
100
AcDbLine
 10
112.9736601034999
 20
206.063994659
 30
0.0
 11
112.6162086245999
 21
211.3542853960999
 31
0.0
  0
LINE
  5
1AC
330
2
100
AcDbEntity
  8
0
 62
     3
100
AcDbLine
 10
113.1547278175
 20
210.8033295932998
 30
0.0
 11
112.6164115228999
 21
211.3540655701999
 31
0.0
  0
LINE
  5
1AD
330
2
100
AcDbEntity
  8
0
 62
     3
100
AcDbLine
 10
113.6139673608999
 20
211.4220027937999
 30
0.0
 11
113.1545970566999
 21
210.8037107342
 31
0.0
  0
LINE
  5
1AE
330
2
100
AcDbEntity
  8
0
 62
     3
100
AcDbLine
 10
116.9671426458999
 20
216.5000305174999
 30
0.0
 11
116.9671426458999
 21
210.5000457762999
 31
0.0
  0
LINE
  5
1AF
330
2
100
AcDbEntity
  8
0
 62
     3
100
AcDbLine
 10
114.0692212518999
 20
212.8001779722999
 30
0.0
 11
114.5219135759999
 21
206.1003203672999
 31
0.0
  0
LINE
  5
1B0
330
2
100
AcDbEntity
  8
0
 62
     3
100
AcDbLine
 10
114.5644732375999
 20
212.8001785338
 30
0.0
 11
115.0171707049999
 21
206.1002448083999
 31
0.0
  0
LINE
  5
1B1
330
2
100
AcDbEntity
  8
0
 62
     3
100
AcDbLine
 10
116.9671426458999
 20
210.5000457762999
 30
0.0
 11
115.7671456975996
 21
210.5000457762999
 31
0.0
  0
LINE
  5
1B2
330
2
100
AcDbEntity
  8
0
 62
     3
100
AcDbLine
 10
115.7671456975996
 20
216.5000305174999
 30
0.0
 11
116.9671426458999
 21
216.5000305174999
 31
0.0
  0
LINE
  5
1B3
330
2
100
AcDbEntity
  8
0
 62
     3
100
AcDbLine
 10
116.9671426458999
 20
222.4000244139999
 30
0.0
 11
116.9671426458999
 21
221.8791961669999
 31
0.0
  0
LINE
  5
1B4
330
2
100
AcDbEntity
  8
0
 62
     3
100
AcDbLine
 10
116.9671426458999
 20
221.8791961669999
 30
0.0
 11
115.7671456975996
 21
221.8791961669999
 31
0.0
  0
LINE
  5
1B5
330
2
100
AcDbEntity
  8
0
 62
     3
100
AcDbLine
 10
123.9676614446999
 20
222.2002563475999
 30
0.0
 11
124.5676675481999
 21
222.2002563475999
 31
0.0
  0
LINE
  5
1B6
330
2
100
AcDbEntity
  8
0
 62
     3
100
AcDbLine
 10
117.7671304387999
 20
217.4203033447
 30
0.0
 11
117.7671304387999
 21
216.3778533934999
 31
0.0
  0
LINE
  5
1B7
330
2
100
AcDbEntity
  8
0
 62
     3
100
AcDbLine
 10
121.7670999212999
 20
207.5002441405998
 30
0.0
 11
121.7670999212999
 21
219.5002288818
 31
0.0
  0
LINE
  5
1B8
330
2
100
AcDbEntity
  8
0
 62
     3
100
AcDbLine
 10
117.7671304387999
 20
214.1000366211
 30
0.0
 11
120.7671151799999
 21
214.1000366211
 31
0.0
  0
LINE
  5
1B9
330
2
100
AcDbEntity
  8
0
 62
     3
100
AcDbLine
 10
117.7671304387999
 20
215.1924896239998
 30
0.0
 11
120.7671151799999
 21
215.1924896239998
 31
0.0
  0
LINE
  5
1BA
330
2
100
AcDbEntity
  8
0
 62
     3
100
AcDbLine
 10
117.7671304387999
 20
216.3778533934999
 30
0.0
 11
120.7671151799999
 21
216.3778533934999
 31
0.0
  0
LINE
  5
1BB
330
2
100
AcDbEntity
  8
0
 62
     3
100
AcDbLine
 10
120.7671151799999
 20
212.9000244139998
 30
0.0
 11
117.7671304387999
 21
212.9000244139998
 31
0.0
  0
LINE
  5
1BC
330
2
100
AcDbEntity
  8
0
 62
     3
100
AcDbLine
 10
120.7671151799999
 20
211.8075714110998
 30
0.0
 11
117.7671304387999
 21
211.8075714110998
 31
0.0
  0
LINE
  5
1BD
330
2
100
AcDbEntity
  8
0
 62
     3
100
AcDbLine
 10
120.7671151799999
 20
210.6222076415999
 30
0.0
 11
117.7671304387999
 21
210.6222076415999
 31
0.0
  0
LINE
  5
1BE
330
2
100
AcDbEntity
  8
0
 62
     3
100
AcDbLine
 10
120.7671151799999
 20
209.5797576903998
 30
0.0
 11
117.7671304387999
 21
209.5797576903998
 31
0.0
  0
LINE
  5
1BF
330
2
100
AcDbEntity
  8
0
 62
     3
100
AcDbLine
 10
120.7671151799999
 20
208.5405426025
 30
0.0
 11
117.7671304387999
 21
208.5405426025
 31
0.0
  0
LINE
  5
1C0
330
2
100
AcDbEntity
  8
0
 62
     3
100
AcDbLine
 10
120.7671151799999
 20
207.6655273436999
 30
0.0
 11
117.7671304387999
 21
207.6655273436999
 31
0.0
  0
LINE
  5
1C1
330
2
100
AcDbEntity
  8
0
 62
     3
100
AcDbLine
 10
120.7671151799999
 20
206.7968292236
 30
0.0
 11
117.7671304387999
 21
206.7968292236
 31
0.0
  0
LINE
  5
1C2
330
2
100
AcDbEntity
  8
0
 62
     3
100
AcDbLine
 10
120.7671151799999
 20
206.1099395752
 30
0.0
 11
117.7671304387999
 21
206.1099395752
 31
0.0
  0
LINE
  5
1C3
330
2
100
AcDbEntity
  8
0
 62
     3
100
AcDbLine
 10
117.7671304387999
 20
210.6222076415999
 30
0.0
 11
117.7671304387999
 21
209.5797576903998
 31
0.0
  0
LINE
  5
1C4
330
2
100
AcDbEntity
  8
0
 62
     3
100
AcDbLine
 10
117.7671304387999
 20
207.6655273436999
 30
0.0
 11
117.7671304387999
 21
208.5405426025
 31
0.0
  0
LINE
  5
1C5
330
2
100
AcDbEntity
  8
0
 62
     3
100
AcDbLine
 10
117.7671304387999
 20
206.1099395752
 30
0.0
 11
117.7671304387999
 21
206.7968292236
 31
0.0
  0
LINE
  5
1C6
330
2
100
AcDbEntity
  8
0
 62
     3
100
AcDbLine
 10
117.7671304387999
 20
215.1924896239998
 30
0.0
 11
117.7671304387999
 21
214.1000366211
 31
0.0
  0
LINE
  5
1C7
330
2
100
AcDbEntity
  8
0
 62
     3
100
AcDbLine
 10
117.7671304387999
 20
212.9000244139998
 30
0.0
 11
117.7671304387999
 21
211.8075714110998
 31
0.0
  0
LINE
  5
1C8
330
2
100
AcDbEntity
  8
0
 62
     3
100
AcDbLine
 10
122.2416787786999
 20
206.1002502441
 30
0.0
 11
123.9676614446999
 21
206.1002502441
 31
0.0
  0
LINE
  5
1C9
330
2
100
AcDbEntity
  8
0
 62
     3
100
AcDbLine
 10
121.7671151799999
 20
212.8002624510998
 30
0.0
 11
123.9676614446999
 21
212.8002624510998
 31
0.0
  0
LINE
  5
1CA
330
2
100
AcDbEntity
  8
0
 62
     3
100
AcDbLine
 10
121.7671151799999
 20
214.2002716063999
 30
0.0
 11
123.9676614446999
 21
214.2002716063999
 31
0.0
  0
LINE
  5
1CB
330
2
100
AcDbEntity
  8
0
 62
     3
100
AcDbLine
 10
117.7671304387999
 20
217.4203033447
 30
0.0
 11
120.7671151799999
 21
217.4203033447
 31
0.0
  0
LINE
  5
1CC
330
2
100
AcDbEntity
  8
0
 62
     3
100
AcDbLine
 10
117.7671304387999
 20
218.4595184326
 30
0.0
 11
120.7671151799999
 21
218.4595184326
 31
0.0
  0
LINE
  5
1CD
330
2
100
AcDbEntity
  8
0
 62
     3
100
AcDbLine
 10
117.7671304387999
 20
219.3345336913999
 30
0.0
 11
120.7671151799999
 21
219.3345336913999
 31
0.0
  0
LINE
  5
1CE
330
2
100
AcDbEntity
  8
0
 62
     3
100
AcDbLine
 10
117.7671304387999
 20
220.2032318114998
 30
0.0
 11
120.7671151799999
 21
220.2032318114998
 31
0.0
  0
LINE
  5
1CF
330
2
100
AcDbEntity
  8
0
 62
     3
100
AcDbLine
 10
117.7671304387999
 20
220.8901214598998
 30
0.0
 11
120.7671151799999
 21
220.8901214598998
 31
0.0
  0
LINE
  5
1D0
330
2
100
AcDbEntity
  8
0
 62
     3
100
AcDbLine
 10
117.7671304387999
 20
221.4901123046999
 30
0.0
 11
120.7671151799999
 21
221.4901123046999
 31
0.0
  0
LINE
  5
1D1
330
2
100
AcDbEntity
  8
0
 62
     3
100
AcDbLine
 10
117.7671304387999
 20
221.9132385253999
 30
0.0
 11
120.7671151799999
 21
221.9132385253999
 31
0.0
  0
LINE
  5
1D2
330
2
100
AcDbEntity
  8
0
 62
     3
100
AcDbLine
 10
117.7671304387999
 20
218.4595184326
 30
0.0
 11
117.7671304387999
 21
219.3345336913999
 31
0.0
  0
LINE
  5
1D3
330
2
100
AcDbEntity
  8
0
 62
     3
100
AcDbLine
 10
117.7671304387999
 20
220.2032318114998
 30
0.0
 11
117.7671304387999
 21
220.8901214598998
 31
0.0
  0
LINE
  5
1D4
330
2
100
AcDbEntity
  8
0
 62
     3
100
AcDbLine
 10
117.7672067327999
 20
221.9132843016999
 30
0.0
 11
117.7672067327999
 21
221.4901733398
 31
0.0
  0
LINE
  5
1D5
330
2
100
AcDbEntity
  8
0
 62
     3
100
AcDbLine
 10
121.7112417105999
 20
222.4502158366
 30
0.0
 11
122.6583059910999
 21
222.1291719279999
 31
0.0
  0
LINE
  5
1D6
330
2
100
AcDbEntity
  8
0
 62
     3
100
AcDbLine
 10
121.7671272104998
 20
219.5002251199999
 30
0.0
 11
122.6582827296998
 21
222.1291689863999
 31
0.0
  0
LINE
  5
1D7
330
2
100
AcDbEntity
  8
0
 62
     3
100
AcDbLine
 10
123.9676614446999
 20
220.9001770018999
 30
0.0
 11
122.2416787786999
 21
220.9001770018999
 31
0.0
  0
LINE
  5
1D8
330
2
100
AcDbEntity
  8
0
 62
     3
100
AcDbLine
 10
120.7671151799999
 20
222.4502716063999
 30
0.0
 11
121.7112222356999
 21
222.4502716063999
 31
0.0
  0
LINE
  5
1D9
330
2
100
AcDbEntity
  8
0
 62
     3
100
AcDbLine
 10
120.7671158093999
 20
219.6650730905
 30
0.0
 11
121.7112204270999
 21
222.4502188823
 31
0.0
  0
LINE
  5
1DA
330
2
100
AcDbEntity
  8
0
 62
     3
100
AcDbLine
 10
129.9505108678999
 20
222.2166673000999
 30
0.0
 11
124.5671828817999
 21
222.4499895934999
 31
0.0
  0
LINE
  5
1DB
330
2
100
AcDbEntity
  8
0
 62
     3
100
AcDbLine
 10
129.9504907253999
 20
222.2166606709999
 30
0.0
 11
130.2671852583999
 21
221.8999629344999
 31
0.0
  0
TEXT
  5
1DC
330
2
100
AcDbEntity
  8
0
 62
     5
100
AcDbText
 10
145.0
 20
10.0
 30
0.0
 40
5.0
  1
ＭＡ４－Ｈ０００５５Ｅ
 41
0.848817699915704
 72
     5
 11
199.0413935612998
 21
10.0
 31
0.0
100
AcDbText
  0
LINE
  5
1DD
330
2
100
AcDbEntity
  8
0
 62
     3
100
AcDbLine
 10
171.5262092549999
 20
159.5414487053
 30
0.0
 11
171.4677027585999
 21
162.5507371804
 31
0.0
  0
LINE
  5
1DE
330
2
100
AcDbEntity
  8
0
 62
     3
100
AcDbLine
 10
171.0178569016
 20
160.0501119105999
 30
0.0
 11
171.5261207036999
 21
159.5415429288
 31
0.0
  0
LINE
  5
1DF
330
2
100
AcDbEntity
  8
0
  6
CENTER
 62
     3
100
AcDbLine
 10
162.5640969915999
 20
181.0
 30
0.0
 11
162.5640969915999
 21
156.0
 31
0.0
  0
LINE
  5
1E0
330
2
100
AcDbEntity
  8
0
 62
     3
100
AcDbLine
 10
171.0178562686999
 20
160.0498250103
 30
0.0
 11
168.5169269750999
 21
159.5999968966999
 31
0.0
  0
LINE
  5
1E1
330
2
100
AcDbEntity
  8
0
 62
     3
100
AcDbLine
 10
153.6091936728999
 20
159.5415336059
 30
0.0
 11
154.1174682613998
 21
160.0501133805999
 31
0.0
  0
LINE
  5
1E2
330
2
100
AcDbEntity
  8
0
 62
     3
100
AcDbLine
 10
153.6677141862999
 20
162.5507433032
 30
0.0
 11
153.6092079864999
 21
159.5414700839999
 31
0.0
  0
CIRCLE
  5
1E3
330
2
100
AcDbEntity
  8
0
 62
     3
100
AcDbCircle
 10
162.5640969915999
 20
168.5
 30
0.0
 40
8.949999999999997
  0
LINE
  5
1E4
330
2
100
AcDbEntity
  8
0
 62
     3
100
AcDbLine
 10
156.6184625587998
 20
159.5999692721999
 30
0.0
 11
154.1175332650998
 21
160.0497973857999
 31
0.0
  0
LINE
  5
1E5
330
2
100
AcDbEntity
  8
0
 62
     3
100
AcDbLine
 10
161.6193173122
 20
159.6000061035
 30
0.0
 11
156.6184487981999
 21
159.6000061035
 31
0.0
  0
LINE
  5
1E6
330
2
100
AcDbEntity
  8
0
 62
     3
100
AcDbLine
 10
153.6091887177
 20
159.5414542045
 30
0.0
 11
156.6184619368998
 21
159.5999604043
 31
0.0
  0
LINE
  5
1E7
330
2
100
AcDbEntity
  8
0
 62
     3
100
AcDbLine
 10
168.5169550079998
 20
159.5999665270999
 30
0.0
 11
171.5262129712999
 21
159.5414606239
 31
0.0
  0
LINE
  5
1E8
330
2
100
AcDbEntity
  8
0
 62
     3
100
AcDbLine
 10
168.5169320745998
 20
159.6000061035
 30
0.0
 11
163.5088766708999
 21
159.6000061035
 31
0.0
  0
LINE
  5
1E9
330
2
100
AcDbEntity
  8
0
 62
     3
100
AcDbLine
 10
156.6184487981999
 20
177.4000091551998
 30
0.0
 11
161.6194610637999
 21
177.4000091551998
 31
0.0
  0
CIRCLE
  5
1EA
330
2
100
AcDbEntity
  8
0
 62
     3
100
AcDbCircle
 10
162.5640969915999
 20
168.5
 30
0.0
 40
7.599999427799997
  0
CIRCLE
  5
1EB
330
2
100
AcDbEntity
  8
0
 62
     3
100
AcDbCircle
 10
162.5640969915999
 20
168.5
 30
0.0
 40
8.699999809299999
  0
CIRCLE
  5
1EC
330
2
100
AcDbEntity
  8
0
 62
     3
100
AcDbCircle
 10
162.5640969915999
 20
168.5
 30
0.0
 40
7.899999618499996
  0
LINE
  5
1ED
330
2
100
AcDbEntity
  8
0
  6
CENTER
 62
     3
100
AcDbLine
 10
150.0640969915999
 20
168.5
 30
0.0
 11
175.0640969915999
 21
168.5
 31
0.0
  0
LINE
  5
1EE
330
2
100
AcDbEntity
  8
0
 62
     3
100
AcDbLine
 10
133.2676797551999
 20
160.7999877929
 30
0.0
 11
133.2676797551999
 21
176.1999816893999
 31
0.0
  0
LINE
  5
1EF
330
2
100
AcDbEntity
  8
0
 62
     3
100
AcDbLine
 10
133.5676828069999
 20
161.0999908446999
 30
0.0
 11
133.5676828069999
 21
175.8999786377
 31
0.0
  0
LINE
  5
1F0
330
2
100
AcDbEntity
  8
0
 62
     3
100
AcDbLine
 10
133.5676627552999
 20
161.0999903995
 30
0.0
 11
133.2676691128999
 21
160.7999963524999
 31
0.0
  0
LINE
  5
1F1
330
2
100
AcDbEntity
  8
0
 62
     3
100
AcDbLine
 10
133.2676676173997
 20
176.1999744538999
 30
0.0
 11
133.5676720746997
 21
175.8999696173
 31
0.0
  0
LINE
  5
1F2
330
2
100
AcDbEntity
  8
0
 62
     3
100
AcDbLine
 10
153.6676889104998
 20
169.4779689438999
 30
0.0
 11
153.6676889104998
 21
174.4492492675
 31
0.0
  0
LINE
  5
1F3
330
2
100
AcDbEntity
  8
0
 62
     3
100
AcDbLine
 10
154.1175067916999
 20
160.0498225029
 30
0.0
 11
153.6676786781
 21
162.5507517965
 31
0.0
  0
LINE
  5
1F4
330
2
100
AcDbEntity
  8
0
 62
     3
100
AcDbLine
 10
153.6676889104998
 20
162.5508422851
 30
0.0
 11
153.6676889104998
 21
167.522031056
 31
0.0
  0
LINE
  5
1F5
330
2
100
AcDbEntity
  8
0
 62
     3
100
AcDbLine
 10
156.1184924159999
 20
160.0998771895999
 30
0.0
 11
154.1678850496998
 21
162.0504845558
 31
0.0
  0
LINE
  5
1F6
330
2
100
AcDbEntity
  8
0
 62
     3
100
AcDbLine
 10
154.1174701315999
 20
176.949896614
 30
0.0
 11
153.6091955431998
 21
177.4584763886
 31
0.0
  0
LINE
  5
1F7
330
2
100
AcDbEntity
  8
0
 62
     3
100
AcDbLine
 10
153.6676902776
 20
174.4492071297999
 30
0.0
 11
154.1175183911999
 21
176.9501364234
 31
0.0
  0
LINE
  5
1F8
330
2
100
AcDbEntity
  8
0
 62
     3
100
AcDbLine
 10
156.6184754098999
 20
177.3999691655999
 30
0.0
 11
153.6092021906999
 21
177.4584753654
 31
0.0
  0
LINE
  5
1F9
330
2
100
AcDbEntity
  8
0
 62
     3
100
AcDbLine
 10
153.6091945134999
 20
177.4584594859
 30
0.0
 11
153.6677004166999
 21
174.4492015225999
 31
0.0
  0
LINE
  5
1FA
330
2
100
AcDbEntity
  8
0
 62
     3
100
AcDbLine
 10
154.1175525676998
 20
176.9499035366998
 30
0.0
 11
156.6184818612999
 21
177.3997316504
 31
0.0
  0
LINE
  5
1FB
330
2
100
AcDbEntity
  8
0
 62
     3
100
AcDbLine
 10
154.1678850496998
 20
174.9489682859999
 30
0.0
 11
156.1186434703
 21
176.8997267066
 31
0.0
  0
LINE
  5
1FC
330
2
100
AcDbEntity
  8
0
 62
     3
100
AcDbLine
 10
133.5671945257999
 20
220.9000091551998
 30
0.0
 11
133.5671945257999
 21
206.1000061035
 31
0.0
  0
LINE
  5
1FD
330
2
100
AcDbEntity
  8
0
 62
     3
100
AcDbLine
 10
133.2672067327999
 20
221.1999969482
 30
0.0
 11
133.2672067327999
 21
205.8000030516999
 31
0.0
  0
LINE
  5
1FE
330
2
100
AcDbEntity
  8
0
 62
     3
100
AcDbLine
 10
133.2672129742997
 20
205.7999903374
 30
0.0
 11
133.5672069959999
 21
206.0999840050999
 31
0.0
  0
LINE
  5
1FF
330
2
100
AcDbEntity
  8
0
 62
     3
100
AcDbLine
 10
132.0672097844999
 20
214.9999694823998
 30
0.0
 11
132.0672097844999
 21
211.9999694824
 31
0.0
  0
LINE
  5
200
330
2
100
AcDbEntity
  8
0
 62
     3
100
AcDbLine
 10
133.5671989376999
 20
220.8999799735999
 30
0.0
 11
133.2671941010999
 21
221.1999844055998
 31
0.0
  0
LINE
  5
201
330
2
100
AcDbEntity
  8
0
 62
     3
100
AcDbLine
 10
170.9676482499999
 20
162.0507219269
 30
0.0
 11
169.0168898293999
 21
160.0999635062999
 31
0.0
  0
LINE
  5
202
330
2
100
AcDbEntity
  8
0
 62
     3
100
AcDbLine
 10
168.5169404517999
 20
177.399961692
 30
0.0
 11
171.0178697453999
 21
176.9501335783999
 31
0.0
  0
LINE
  5
203
330
2
100
AcDbEntity
  8
0
 62
     3
100
AcDbLine
 10
171.5261994981998
 20
177.4584689459999
 30
0.0
 11
168.516941535
 21
177.3999630427999
 31
0.0
  0
LINE
  5
204
330
2
100
AcDbEntity
  8
0
 62
     3
100
AcDbLine
 10
169.0171272004998
 20
176.8997267066
 30
0.0
 11
170.9677345667999
 21
174.9491193403
 31
0.0
  0
LINE
  5
205
330
2
100
AcDbEntity
  8
0
 62
     3
100
AcDbLine
 10
163.5087329194
 20
177.4000091551998
 30
0.0
 11
168.5169320745998
 21
177.4000091551998
 31
0.0
  0
LINE
  5
206
330
2
100
AcDbEntity
  8
0
 62
     3
100
AcDbLine
 10
171.4676919622999
 20
174.4492492675
 30
0.0
 11
171.4676919622999
 21
169.4102178846998
 31
0.0
  0
LINE
  5
207
330
2
100
AcDbEntity
  8
0
 62
     3
100
AcDbLine
 10
171.4676919622999
 20
167.5897821151999
 30
0.0
 11
171.4676919622999
 21
162.5507659911999
 31
0.0
  0
LINE
  5
208
330
2
100
AcDbEntity
  8
0
 62
     3
100
AcDbLine
 10
171.4676950139998
 20
162.5507115178
 30
0.0
 11
171.0178669003999
 21
160.0497822241
 31
0.0
  0
LINE
  5
209
330
2
100
AcDbEntity
  8
0
 62
     3
100
AcDbLine
 10
171.5261296197998
 20
177.4584778586
 30
0.0
 11
171.0178550313996
 21
176.949898084
 31
0.0
  0
LINE
  5
20A
330
2
100
AcDbEntity
  8
0
 62
     3
100
AcDbLine
 10
171.4677165281998
 20
174.4492076454
 30
0.0
 11
171.526222728
 21
177.4584808645999
 31
0.0
  0
LINE
  5
20B
330
2
100
AcDbEntity
  8
0
 62
     3
100
AcDbLine
 10
171.0178723318999
 20
176.9500712399
 30
0.0
 11
171.4676923419998
 21
174.4491869996999
 31
0.0
  0
LINE
  5
20C
330
2
100
AcDbEntity
  8
0
100
AcDbLine
 10
210.0
 20
297.0
 30
0.0
 11
0.0
 21
297.0
 31
0.0
  0
TEXT
  5
245
330
2
100
AcDbEntity
  8
0
 62
     7
100
AcDbText
 10
146.0
 20
90.00000295524989
 30
0.0
 40
2.999994089499998
  1
AL6M-P4*
 11
146.0
 21
91.49999999999989
 31
0.0
100
AcDbText
 73
     2
  0
TEXT
  5
246
330
2
100
AcDbEntity
  8
0
 62
     7
100
AcDbText
 10
146.0
 20
95.00000295524989
 30
0.0
 40
2.999994089499998
  1
AL6M-P4P*
 11
146.0
 21
96.49999999999989
 31
0.0
100
AcDbText
 73
     2
  0
TEXT
  5
247
330
2
100
AcDbEntity
  8
0
 62
     7
100
AcDbText
 10
146.0
 20
100.0000029552498
 30
0.0
 40
2.999994089499998
  1
AL6M-P3*
 11
146.0
 21
101.4999999999998
 31
0.0
100
AcDbText
 73
     2
  0
TEXT
  5
248
330
2
100
AcDbEntity
  8
0
 62
     7
100
AcDbText
 10
146.0
 20
105.0000029552499
 30
0.0
 40
2.999994089499998
  1
AL6M-P3P*
 11
146.0
 21
106.4999999999999
 31
0.0
100
AcDbText
 73
     2
  0
TEXT
  5
24A
330
2
100
AcDbEntity
  8
0
 62
     7
100
AcDbText
 10
146.0
 20
110.0000029552498
 30
0.0
 40
2.999994089499998
  1
AL6M-P1*
 11
146.0
 21
111.4999999999999
 31
0.0
100
AcDbText
 73
     2
  0
TEXT
  5
24B
330
2
100
AcDbEntity
  8
0
 62
     7
100
AcDbText
 10
146.0
 20
115.0000029552499
 30
0.0
 40
2.999994089499998
  1
AL6M-P1P*
 11
146.0
 21
116.5
 31
0.0
100
AcDbText
 73
     2
  0
ENDSEC
  0
SECTION
  2
OBJECTS
  0
DICTIONARY
  5
7
330
0
100
AcDbDictionary
281
     1
  3
ACAD_GROUP
350
1F
  3
ACAD_LAYOUT
350
B
  3
ACAD_MLINESTYLE
350
20
  3
ACAD_PLOTSETTINGS
350
21
  3
ACAD_PLOTSTYLENAME
350
6
  3
AcDbVariableDictionary
350
24C
  3
ASE_INDEX_DICTIONARY
350
258
  0
DICTIONARY
  5
1F
102
{ACAD_REACTORS
330
7
102
}
330
7
100
AcDbDictionary
281
     1
  0
DICTIONARY
  5
B
102
{ACAD_REACTORS
330
7
102
}
330
7
100
AcDbDictionary
281
     1
  3
Model
350
A
  3
ﾚｲｱｳﾄ1
350
F
  0
DICTIONARY
  5
20
102
{ACAD_REACTORS
330
7
102
}
330
7
100
AcDbDictionary
281
     1
  3
Standard
350
22
  0
DICTIONARY
  5
21
102
{ACAD_REACTORS
330
7
102
}
330
7
100
AcDbDictionary
281
     1
  0
ACDBDICTIONARYWDFLT
  5
6
102
{ACAD_REACTORS
330
7
102
}
330
7
100
AcDbDictionary
281
     1
  3
Normal
350
5
100
AcDbDictionaryWithDefault
340
5
  0
DICTIONARY
  5
24C
102
{ACAD_REACTORS
330
7
102
}
330
7
100
AcDbDictionary
281
     1
  3
DIMASSOC
350
24D
  0
DICTIONARY
  5
258
102
{ACAD_REACTORS
330
7
102
}
330
7
100
AcDbDictionary
281
     1
  3
ASEBlockHierarchyIndexRecord
350
25A
1001
DCO15
1040
1518869606.25
  0
LAYOUT
  5
A
102
{ACAD_REACTORS
330
B
102
}
330
B
100
AcDbPlotSettings
  1

  2
RICOH IPSiO NX730N RPCS
  4
A4
  6

 40
3.174999999999998
 41
3.174999999999998
 42
3.175002999999998
 43
3.174987999999998
 44
209.9733279999999
 45
296.968323
 46
-3.189999999999998
 47
-3.189999999999998
 48
0.0
 49
0.0
140
210.0
141
297.0
142
1.0
143
1.0
 70
 11940
 72
     1
 73
     0
 74
     4
  7
00ものくろ0.2.ctb
 75
     0
147
1.0
148
0.0
149
0.0
100
AcDbLayout
  1
Model
 70
     1
 71
     0
 10
0.0
 20
0.0
 11
12.0
 21
9.0
 12
0.0
 22
0.0
 32
0.0
 14
0.0
 24
0.0
 34
0.0
 15
0.0
 25
0.0
 35
0.0
146
0.0
 13
0.0
 23
0.0
 33
0.0
 16
1.0
 26
0.0
 36
0.0
 17
0.0
 27
1.0
 37
0.0
 76
     0
330
2
  0
LAYOUT
  5
F
102
{ACAD_REACTORS
330
B
102
}
330
B
100
AcDbPlotSettings
  1

  2
C:\Program Files\AutoCAD 2000i\plotters\DWF Classic.pc3
  4

  6

 40
0.0
 41
0.0
 42
0.0
 43
0.0
 44
0.0
 45
0.0
 46
0.0
 47
0.0
 48
0.0
 49
0.0
140
0.0
141
0.0
142
1.0
143
1.0
 70
   688
 72
     0
 73
     0
 74
     5
  7

 75
    16
147
1.0
148
0.0
149
0.0
100
AcDbLayout
  1
ﾚｲｱｳﾄ1
 70
     1
 71
     1
 10
0.0
 20
0.0
 11
12.0
 21
9.0
 12
0.0
 22
0.0
 32
0.0
 14
1.000000000000000E+20
 24
1.000000000000000E+20
 34
1.000000000000000E+20
 15
-1.000000000000000E+20
 25
-1.000000000000000E+20
 35
-1.000000000000000E+20
146
0.0
 13
0.0
 23
0.0
 33
0.0
 16
1.0
 26
0.0
 36
0.0
 17
0.0
 27
1.0
 37
0.0
 76
     0
330
C
  0
MLINESTYLE
  5
22
102
{ACAD_REACTORS
330
20
102
}
330
20
100
AcDbMlineStyle
  2
STANDARD
 70
     0
  3

 62
   256
 51
90.0
 52
90.0
 71
     2
 49
0.5
 62
   256
  6
BYLAYER
 49
-0.5
 62
   256
  6
BYLAYER
  0
ACDBPLACEHOLDER
  5
5
102
{ACAD_REACTORS
330
6
102
}
330
6
  0
DICTIONARYVAR
  5
24D
102
{ACAD_REACTORS
330
24C
102
}
330
24C
100
DictionaryVariables
280
     0
  1
1
  0
XRECORD
  5
25A
102
{ACAD_REACTORS
330
258
102
}
330
258
100
AcDbXrecord
280
     1
  0
ENDSEC
  0
EOF
