  0
SECTION
  2
HEADER
  9
$ACADVER
  1
AC1015
  9
$ACADMAINTVER
 70
    13
  9
$DWGCODEPAGE
  3
ANSI_932
  9
$INSBASE
 10
0.0
 20
0.0
 30
0.0
  9
$EXTMIN
 10
-0.0228879209935258
 20
-0.000664071078404
 30
-0.0000000000112498
  9
$EXTMAX
 10
210.0158752481638
 20
297.003514961894
 30
0.0000000000002956
  9
$LIMMIN
 10
-184.0728881836
 20
-3.174999999999998
  9
$LIMMAX
 10
3.174999999999998
 20
291.2585876465
  9
$ORTHOMODE
 70
     0
  9
$REGENMODE
 70
     1
  9
$FILLMODE
 70
     1
  9
$QTEXTMODE
 70
     0
  9
$MIRRTEXT
 70
     0
  9
$LTSCALE
 40
1.0
  9
$ATTMODE
 70
     1
  9
$TEXTSIZE
 40
2.999994039499997
  9
$TRACEWID
 40
0.05
  9
$TEXTSTYLE
  7
STANDARD
  9
$CLAYER
  8
0
  9
$CELTYPE
  6
ByLayer
  9
$CECOLOR
 62
   256
  9
$CELTSCALE
 40
1.0
  9
$DISPSILH
 70
     0
  9
$DIMSCALE
 40
1.0
  9
$DIMASZ
 40
1.9727878465
  9
$DIMEXO
 40
2.539999961899999
  9
$DIMDLI
 40
0.38
  9
$DIMRND
 40
0.0
  9
$DIMDLE
 40
0.0
  9
$DIMEXE
 40
3.809999942799997
  9
$DIMTP
 40
0.0
  9
$DIMTM
 40
0.0
  9
$DIMTXT
 40
2.999994039499997
  9
$DIMCEN
 40
0.09
  9
$DIMTSZ
 40
0.0
  9
$DIMTOL
 70
     0
  9
$DIMLIM
 70
     0
  9
$DIMTIH
 70
     0
  9
$DIMTOH
 70
     1
  9
$DIMSE1
 70
     0
  9
$DIMSE2
 70
     0
  9
$DIMTAD
 70
     0
  9
$DIMZIN
 70
     0
  9
$DIMBLK
  1

  9
$DIMASO
 70
     1
  9
$DIMSHO
 70
     0
  9
$DIMPOST
  1

  9
$DIMAPOST
  1

  9
$DIMALT
 70
     0
  9
$DIMALTD
 70
     2
  9
$DIMALTF
 40
25.4
  9
$DIMLFAC
 40
1.0
  9
$DIMTOFL
 70
     0
  9
$DIMTVP
 40
0.0
  9
$DIMTIX
 70
     0
  9
$DIMSOXD
 70
     0
  9
$DIMSAH
 70
     0
  9
$DIMBLK1
  1

  9
$DIMBLK2
  1

  9
$DIMSTYLE
  2
Standard
  9
$DIMCLRD
 70
     0
  9
$DIMCLRE
 70
     0
  9
$DIMCLRT
 70
     0
  9
$DIMTFAC
 40
1.0
  9
$DIMGAP
 40
0.09
  9
$DIMJUST
 70
     0
  9
$DIMSD1
 70
     0
  9
$DIMSD2
 70
     0
  9
$DIMTOLJ
 70
     1
  9
$DIMTZIN
 70
     0
  9
$DIMALTZ
 70
     0
  9
$DIMALTTZ
 70
     0
  9
$DIMUPT
 70
     0
  9
$DIMDEC
 70
     4
  9
$DIMTDEC
 70
     4
  9
$DIMALTU
 70
     2
  9
$DIMALTTD
 70
     2
  9
$DIMTXSTY
  7
STANDARD
  9
$DIMAUNIT
 70
     0
  9
$DIMADEC
 70
     0
  9
$DIMALTRND
 40
0.0
  9
$DIMAZIN
 70
     0
  9
$DIMDSEP
 70
    46
  9
$DIMATFIT
 70
     3
  9
$DIMFRAC
 70
     0
  9
$DIMLDRBLK
  1

  9
$DIMLUNIT
 70
     2
  9
$DIMLWD
 70
    -2
  9
$DIMLWE
 70
    -2
  9
$DIMTMOVE
 70
     0
  9
$LUNITS
 70
     2
  9
$LUPREC
 70
     3
  9
$SKETCHINC
 40
0.1
  9
$FILLETRAD
 40
0.0625
  9
$AUNITS
 70
     0
  9
$AUPREC
 70
     0
  9
$MENU
  1
ACAD
  9
$ELEVATION
 40
0.0
  9
$PELEVATION
 40
0.0
  9
$THICKNESS
 40
0.0
  9
$LIMCHECK
 70
     0
  9
$CHAMFERA
 40
0.0
  9
$CHAMFERB
 40
0.0
  9
$CHAMFERC
 40
0.0
  9
$CHAMFERD
 40
0.0
  9
$SKPOLY
 70
     0
  9
$TDCREATE
 40
2452272.483136574
  9
$TDUCREATE
 40
2452272.108136574
  9
$TDUPDATE
 40
2453382.720756655
  9
$TDUUPDATE
 40
2453382.345756655
  9
$TDINDWG
 40
0.0229649537
  9
$TDUSRTIMER
 40
0.0229647685
  9
$USRTIMER
 70
     1
  9
$ANGBASE
 50
0.0
  9
$ANGDIR
 70
     0
  9
$PDMODE
 70
     0
  9
$PDSIZE
 40
0.0
  9
$PLINEWID
 40
0.0
  9
$SPLFRAME
 70
     0
  9
$SPLINETYPE
 70
     6
  9
$SPLINESEGS
 70
     8
  9
$HANDSEED
  5
33B
  9
$SURFTAB1
 70
     6
  9
$SURFTAB2
 70
     6
  9
$SURFTYPE
 70
     6
  9
$SURFU
 70
     6
  9
$SURFV
 70
     6
  9
$UCSBASE
  2

  9
$UCSNAME
  2

  9
$UCSORG
 10
0.0
 20
0.0
 30
0.0
  9
$UCSXDIR
 10
1.0
 20
0.0
 30
0.0
  9
$UCSYDIR
 10
0.0
 20
1.0
 30
0.0
  9
$UCSORTHOREF
  2

  9
$UCSORTHOVIEW
 70
     0
  9
$UCSORGTOP
 10
0.0
 20
0.0
 30
0.0
  9
$UCSORGBOTTOM
 10
0.0
 20
0.0
 30
0.0
  9
$UCSORGLEFT
 10
0.0
 20
0.0
 30
0.0
  9
$UCSORGRIGHT
 10
0.0
 20
0.0
 30
0.0
  9
$UCSORGFRONT
 10
0.0
 20
0.0
 30
0.0
  9
$UCSORGBACK
 10
0.0
 20
0.0
 30
0.0
  9
$PUCSBASE
  2

  9
$PUCSNAME
  2

  9
$PUCSORG
 10
0.0
 20
0.0
 30
0.0
  9
$PUCSXDIR
 10
1.0
 20
0.0
 30
0.0
  9
$PUCSYDIR
 10
0.0
 20
1.0
 30
0.0
  9
$PUCSORTHOREF
  2

  9
$PUCSORTHOVIEW
 70
     0
  9
$PUCSORGTOP
 10
0.0
 20
0.0
 30
0.0
  9
$PUCSORGBOTTOM
 10
0.0
 20
0.0
 30
0.0
  9
$PUCSORGLEFT
 10
0.0
 20
0.0
 30
0.0
  9
$PUCSORGRIGHT
 10
0.0
 20
0.0
 30
0.0
  9
$PUCSORGFRONT
 10
0.0
 20
0.0
 30
0.0
  9
$PUCSORGBACK
 10
0.0
 20
0.0
 30
0.0
  9
$USERI1
 70
     9
  9
$USERI2
 70
     0
  9
$USERI3
 70
     0
  9
$USERI4
 70
     0
  9
$USERI5
 70
     0
  9
$USERR1
 40
0.0
  9
$USERR2
 40
0.0
  9
$USERR3
 40
0.0
  9
$USERR4
 40
0.0
  9
$USERR5
 40
0.0
  9
$WORLDVIEW
 70
     1
  9
$SHADEDGE
 70
     3
  9
$SHADEDIF
 70
    70
  9
$TILEMODE
 70
     1
  9
$MAXACTVP
 70
    64
  9
$PINSBASE
 10
0.0
 20
0.0
 30
0.0
  9
$PLIMCHECK
 70
     0
  9
$PEXTMIN
 10
1.000000000000000E+20
 20
1.000000000000000E+20
 30
1.000000000000000E+20
  9
$PEXTMAX
 10
-1.000000000000000E+20
 20
-1.000000000000000E+20
 30
-1.000000000000000E+20
  9
$PLIMMIN
 10
0.0
 20
0.0
  9
$PLIMMAX
 10
12.0
 20
9.0
  9
$UNITMODE
 70
     0
  9
$VISRETAIN
 70
     1
  9
$PLINEGEN
 70
     0
  9
$PSLTSCALE
 70
     1
  9
$TREEDEPTH
 70
  3020
  9
$CMLSTYLE
  2
Standard
  9
$CMLJUST
 70
     0
  9
$CMLSCALE
 40
1.0
  9
$PROXYGRAPHICS
 70
     1
  9
$MEASUREMENT
 70
     0
  9
$CELWEIGHT
370
    -1
  9
$ENDCAPS
280
     0
  9
$JOINSTYLE
280
     0
  9
$LWDISPLAY
290
     0
  9
$INSUNITS
 70
     0
  9
$HYPERLINKBASE
  1

  9
$STYLESHEET
  1

  9
$XEDIT
290
     1
  9
$CEPSNTYPE
380
     0
  9
$PSTYLEMODE
290
     1
  9
$FINGERPRINTGUID
  2
{B355BC9D-D98B-46D5-82DA-2895C6CF0542}
  9
$VERSIONGUID
  2
{F7273200-6019-4945-B18B-4F66F7F12EAC}
  9
$EXTNAMES
290
     1
  9
$PSVPSCALE
 40
0.0
  9
$OLESTARTUP
290
     0
  0
ENDSEC
  0
SECTION
  2
CLASSES
  0
CLASS
  1
ACDBDICTIONARYWDFLT
  2
AcDbDictionaryWithDefault
  3
AutoCAD 2000
 90
        0
280
     0
281
     0
  0
CLASS
  1
ACDBPLACEHOLDER
  2
AcDbPlaceHolder
  3
AutoCAD 2000
 90
        0
280
     0
281
     0
  0
CLASS
  1
LAYOUT
  2
AcDbLayout
  3
AutoCAD 2000
 90
        0
280
     0
281
     0
  0
CLASS
  1
DICTIONARYVAR
  2
AcDbDictionaryVar
  3
AutoCAD 2000
 90
        0
280
     0
281
     0
  0
ENDSEC
  0
SECTION
  2
TABLES
  0
TABLE
  2
VPORT
  5
19
330
0
100
AcDbSymbolTable
 70
     2
  0
VPORT
  5
33A
330
19
100
AcDbSymbolTableRecord
100
AcDbViewportTableRecord
  2
*Active
 70
     0
 10
0.0
 20
0.0
 11
1.0
 21
1.0
 12
104.9964936635852
 22
148.5014254454077
 13
0.0
 23
0.0
 14
1.0
 24
1.0
 15
0.0
 25
0.0
 16
0.0
 26
0.0
 36
1.0
 17
0.0
 27
0.0
 37
0.0
 40
301.3400064641106
 41
2.407317073170731
 42
50.0
 43
0.0
 44
0.0
 50
0.0
 51
0.0
 71
     0
 72
   100
 73
     1
 74
     1
 75
     0
 76
     0
 77
     0
 78
     0
281
     0
 65
     1
110
0.0
120
0.0
130
0.0
111
1.0
121
0.0
131
0.0
112
0.0
122
1.0
132
0.0
 79
     0
146
0.0
  0
ENDTAB
  0
TABLE
  2
LTYPE
  5
14
330
0
100
AcDbSymbolTable
 70
     3
  0
LTYPE
  5
15
330
14
100
AcDbSymbolTableRecord
100
AcDbLinetypeTableRecord
  2
ByBlock
 70
     0
  3

 72
    65
 73
     0
 40
0.0
  0
LTYPE
  5
16
330
14
100
AcDbSymbolTableRecord
100
AcDbLinetypeTableRecord
  2
ByLayer
 70
     0
  3

 72
    65
 73
     0
 40
0.0
  0
LTYPE
  5
8
330
14
100
AcDbSymbolTableRecord
100
AcDbLinetypeTableRecord
  2
Continuous
 70
     0
  3
Solid line
 72
    65
 73
     0
 40
0.0
  0
LTYPE
  5
51
330
14
100
AcDbSymbolTableRecord
100
AcDbLinetypeTableRecord
  2
DASH
 70
     0
  3
Dash
 72
    65
 73
     2
 40
1.9999960661
 49
0.9999980329999999
 74
     0
 49
-0.9999980329999999
 74
     0
  0
LTYPE
  5
2C
330
14
100
AcDbSymbolTableRecord
100
AcDbLinetypeTableRecord
  2
CENTER
 70
     0
  3
Center
 72
    65
 73
     4
 40
9.100006759199999
 49
6.5000119209
 74
     0
 49
-0.7999984026000001
 74
     0
 49
0.9999980329999999
 74
     0
 49
-0.7999984026000001
 74
     0
  0
ENDTAB
  0
TABLE
  2
LAYER
  5
10
330
0
100
AcDbSymbolTable
 70
     1
  0
LAYER
  5
4
330
10
100
AcDbSymbolTableRecord
100
AcDbLayerTableRecord
  2
0
 70
     0
 62
     7
  6
Continuous
370
    -3
390
5
  0
ENDTAB
  0
TABLE
  2
STYLE
  5
11
330
0
100
AcDbSymbolTable
 70
     1
  0
STYLE
  5
12
330
11
100
AcDbSymbolTableRecord
100
AcDbTextStyleTableRecord
  2
STANDARD
 70
     0
 40
0.0
 41
1.0
 50
0.0
 71
     0
 42
2.999994039499997
  3
romans.shx
  4
bigfont.shx
  0
ENDTAB
  0
TABLE
  2
VIEW
  5
17
330
0
100
AcDbSymbolTable
 70
     0
  0
ENDTAB
  0
TABLE
  2
UCS
  5
18
330
0
100
AcDbSymbolTable
 70
     0
  0
ENDTAB
  0
TABLE
  2
APPID
  5
1B
330
0
100
AcDbSymbolTable
 70
     2
  0
APPID
  5
1C
330
1B
100
AcDbSymbolTableRecord
100
AcDbRegAppTableRecord
  2
ACAD
 70
     0
  0
APPID
  5
338
330
1B
100
AcDbSymbolTableRecord
100
AcDbRegAppTableRecord
  2
DCO15
 70
     0
  0
ENDTAB
  0
TABLE
  2
DIMSTYLE
  5
1D
330
0
100
AcDbSymbolTable
 70
     1
100
AcDbDimStyleTable
 71
     0
  0
DIMSTYLE
105
23
330
1D
100
AcDbSymbolTableRecord
100
AcDbDimStyleTableRecord
  2
Standard
 70
     0
340
12
  0
ENDTAB
  0
TABLE
  2
BLOCK_RECORD
  5
1
330
0
100
AcDbSymbolTable
 70
     0
  0
BLOCK_RECORD
  5
2
330
1
100
AcDbSymbolTableRecord
100
AcDbBlockTableRecord
  2
*Model_Space
340
A
  0
BLOCK_RECORD
  5
C
330
1
100
AcDbSymbolTableRecord
100
AcDbBlockTableRecord
  2
*Paper_Space
340
F
  0
ENDTAB
  0
ENDSEC
  0
SECTION
  2
BLOCKS
  0
BLOCK
  5
3
330
2
100
AcDbEntity
  8
0
100
AcDbBlockBegin
  2
*Model_Space
 70
     2
 10
0.0
 20
0.0
 30
0.0
  3
*Model_Space
  1

  0
ENDBLK
  5
9
330
2
100
AcDbEntity
  8
0
100
AcDbBlockEnd
  0
BLOCK
  5
D
330
C
100
AcDbEntity
 67
     1
  8
0
100
AcDbBlockBegin
  2
*Paper_Space
 70
     0
 10
0.0
 20
0.0
 30
0.0
  3
*Paper_Space
  1

  0
ENDBLK
  5
E
330
C
100
AcDbEntity
 67
     1
  8
0
100
AcDbBlockEnd
  0
ENDSEC
  0
SECTION
  2
ENTITIES
  0
LINE
  5
24
330
2
100
AcDbEntity
  8
0
100
AcDbLine
 10
210.0
 20
0.0
 30
0.0
 11
210.0
 21
297.0
 31
0.0
  0
LINE
  5
25
330
2
100
AcDbEntity
  8
0
100
AcDbLine
 10
0.0
 20
297.0
 30
0.0
 11
0.0
 21
0.0
 31
0.0
  0
LINE
  5
26
330
2
100
AcDbEntity
  8
0
 62
     3
100
AcDbLine
 10
140.8171704769999
 20
204.5500868848999
 30
0.0
 11
146.2004745469999
 21
204.7836082060999
 31
0.0
  0
LINE
  5
27
330
2
100
AcDbEntity
  8
0
 62
     3
100
AcDbLine
 10
146.2005108679
 20
222.2166673000999
 30
0.0
 11
140.8171828817999
 21
222.4499895934999
 31
0.0
  0
LINE
  5
28
330
2
100
AcDbEntity
  8
0
 62
     3
100
AcDbLine
 10
146.2009866878999
 20
177.2166614902
 30
0.0
 11
140.8176587017998
 21
177.4499837836
 31
0.0
  0
LINE
  5
29
330
2
100
AcDbEntity
  8
0
 62
     3
100
AcDbLine
 10
140.8176619862999
 20
159.5500660227999
 30
0.0
 11
146.2009660562
 21
159.7835873439999
 31
0.0
  0
LINE
  5
2A
330
2
100
AcDbEntity
  8
0
100
AcDbLine
 10
0.0
 20
0.0
 30
0.0
 11
210.0
 21
0.0
 31
0.0
  0
LINE
  5
2B
330
2
100
AcDbEntity
  8
0
  6
CENTER
 62
     3
100
AcDbLine
 10
109.8176980657999
 20
213.5000152588
 30
0.0
 11
151.5575509710999
 21
213.5000152588
 31
0.0
  0
LINE
  5
2D
330
2
100
AcDbEntity
  8
0
  6
CENTER
 62
     3
100
AcDbLine
 10
108.3173471135999
 20
168.5
 30
0.0
 11
152.3176828069999
 21
168.5
 31
0.0
  0
LINE
  5
2E
330
2
100
AcDbEntity
  8
0
 62
     3
100
AcDbLine
 10
85.71407562929998
 20
168.4000091551999
 30
0.0
 11
84.51407868099998
 21
168.4000091551999
 31
0.0
  0
LINE
  5
2F
330
2
100
AcDbEntity
  8
0
 62
     3
100
AcDbLine
 10
85.71407562929998
 20
168.6000213623
 30
0.0
 11
84.51407868099998
 21
168.6000213623
 31
0.0
  0
LINE
  5
30
330
2
100
AcDbEntity
  8
0
 62
     3
100
AcDbLine
 10
83.61417846740001
 20
174.1999179258999
 30
0.0
 11
85.11414190600001
 21
172.1999667241999
 31
0.0
  0
LINE
  5
31
330
2
100
AcDbEntity
  8
0
 62
     3
100
AcDbLine
 10
83.91408536429997
 20
163.0000872983999
 30
0.0
 11
85.1140931884
 21
164.8000996148
 31
0.0
  0
LINE
  5
32
330
2
100
AcDbEntity
  8
0
 62
     3
100
AcDbLine
 10
85.6140695258
 20
172.200012207
 30
0.0
 11
84.31406647400001
 21
172.200012207
 31
0.0
  0
LINE
  5
33
330
2
100
AcDbEntity
  8
0
 62
     3
100
AcDbLine
 10
85.6140695258
 20
164.8000183104999
 30
0.0
 11
84.31406647400001
 21
164.8000183104999
 31
0.0
  0
LINE
  5
34
330
2
100
AcDbEntity
  8
0
  6
CENTER
 62
     3
100
AcDbLine
 10
68.61410004330003
 20
168.5
 30
0.0
 11
91.61410004330004
 21
168.5
 31
0.0
  0
CIRCLE
  5
35
330
2
100
AcDbEntity
  8
0
 62
     3
100
AcDbCircle
 10
80.11408478450002
 20
168.5
 30
0.0
 40
9.0
  0
CIRCLE
  5
36
330
2
100
AcDbEntity
  8
0
 62
     3
100
AcDbCircle
 10
80.11408478450002
 20
168.5
 30
0.0
 40
8.0
  0
CIRCLE
  5
37
330
2
100
AcDbEntity
  8
0
 62
     3
100
AcDbCircle
 10
80.11408478450002
 20
168.5
 30
0.0
 40
7.399999618499996
  0
LINE
  5
38
330
2
100
AcDbEntity
  8
0
 62
     3
100
AcDbLine
 10
71.11770111750002
 20
177.450012207
 30
0.0
 11
89.11770111750003
 21
177.450012207
 31
0.0
  0
LINE
  5
39
330
2
100
AcDbEntity
  8
0
 62
     3
100
AcDbLine
 10
71.11770111750002
 20
159.5500030516999
 30
0.0
 11
89.11770111750003
 21
159.5500030516999
 31
0.0
  0
LINE
  5
3A
330
2
100
AcDbEntity
  8
0
  6
CENTER
 62
     3
100
AcDbLine
 10
80.1141000433
 20
157.2499999999999
 30
0.0
 11
80.1141000433
 21
179.7499847412
 31
0.0
  0
LINE
  5
3B
330
2
100
AcDbEntity
  8
0
 62
     3
100
AcDbLine
 10
71.11770111750002
 20
177.450012207
 30
0.0
 11
71.11770111750002
 21
159.5500030516999
 31
0.0
  0
LINE
  5
3C
330
2
100
AcDbEntity
  8
0
 62
     3
100
AcDbLine
 10
51.11770111750002
 20
177.450012207
 30
0.0
 11
51.11770111750002
 21
159.5500030516999
 31
0.0
  0
LINE
  5
3D
330
2
100
AcDbEntity
  8
0
  6
CENTER
 62
     3
100
AcDbLine
 10
42.1138711615
 20
157.2501068114999
 30
0.0
 11
42.1138711615
 21
179.7500915527
 31
0.0
  0
LINE
  5
3E
330
2
100
AcDbEntity
  8
0
 62
     3
100
AcDbLine
 10
33.11770111749999
 20
177.450012207
 30
0.0
 11
33.11770111749999
 21
159.5500030516999
 31
0.0
  0
CIRCLE
  5
3F
330
2
100
AcDbEntity
  8
0
 62
     3
100
AcDbCircle
 10
42.11385590269997
 20
168.5001068114999
 30
0.0
 40
9.0
  0
LINE
  5
40
330
2
100
AcDbEntity
  8
0
 62
     3
100
AcDbLine
 10
33.11770111749999
 20
159.5500030516999
 30
0.0
 11
51.11770111750002
 21
159.5500030516999
 31
0.0
  0
ARC
  5
41
330
2
100
AcDbEntity
  8
0
 62
     3
100
AcDbCircle
 10
42.11374909120002
 20
168.5001220703
 30
0.0
 40
6.6999959946
100
AcDbArc
 50
72.6320130679
 51
107.3679509599999
  0
ARC
  5
42
330
2
100
AcDbEntity
  8
0
 62
     3
100
AcDbCircle
 10
42.11374909120002
 20
168.5001220703
 30
0.0
 40
6.6999959946
100
AcDbArc
 50
255.3432516499
 51
284.6984757969
  0
CIRCLE
  5
43
330
2
100
AcDbEntity
  8
0
 62
     3
100
AcDbCircle
 10
42.11385590269997
 20
168.5001068114999
 30
0.0
 40
8.0
  0
CIRCLE
  5
44
330
2
100
AcDbEntity
  8
0
 62
     3
100
AcDbCircle
 10
42.11385590269997
 20
168.5001068114999
 30
0.0
 40
7.399999618499996
  0
LINE
  5
45
330
2
100
AcDbEntity
  8
0
  6
CENTER
 62
     3
100
AcDbLine
 10
30.61385590270001
 20
168.5001068114999
 30
0.0
 11
53.61385590269997
 21
168.5001068114999
 31
0.0
  0
LINE
  5
46
330
2
100
AcDbEntity
  8
0
 62
     3
100
AcDbLine
 10
33.11770111749999
 20
177.450012207
 30
0.0
 11
51.11770111750002
 21
177.450012207
 31
0.0
  0
LINE
  5
47
330
2
100
AcDbEntity
  8
0
 62
     3
100
AcDbLine
 10
33.62858063420002
 20
171.5000762938999
 30
0.0
 11
34.69759613709998
 21
171.5000762938999
 31
0.0
  0
LINE
  5
48
330
2
100
AcDbEntity
  8
0
 62
     3
100
AcDbLine
 10
33.62858063420002
 20
165.5001068115
 30
0.0
 11
34.69759613709998
 21
165.5001068115
 31
0.0
  0
LINE
  5
49
330
2
100
AcDbEntity
  8
0
 62
     3
100
AcDbLine
 10
33.61775554159999
 20
161.8439377380999
 30
0.0
 11
35.44394382849997
 21
160.0500161803
 31
0.0
  0
LINE
  5
4A
330
2
100
AcDbEntity
  8
0
 62
     3
100
AcDbLine
 10
35.44395574780003
 20
176.9499990674
 30
0.0
 11
33.61774945299998
 21
175.1560303245999
 31
0.0
  0
LINE
  5
4B
330
2
100
AcDbEntity
  8
0
 62
     3
100
AcDbLine
 10
40.81376129819999
 20
173.2667846678999
 30
0.0
 11
40.81376129819999
 21
163.600112915
 31
0.0
  0
LINE
  5
4C
330
2
100
AcDbEntity
  8
0
 62
     3
100
AcDbLine
 10
36.1138597545
 20
170.9997819243
 30
0.0
 11
36.6138547197
 21
172.1997708172
 31
0.0
  0
LINE
  5
4D
330
2
100
AcDbEntity
  8
0
 62
     3
100
AcDbLine
 10
36.6137710501
 20
172.1999162984999
 30
0.0
 11
36.1137699062
 21
170.9999134755999
 31
0.0
  0
LINE
  5
4E
330
2
100
AcDbEntity
  8
0
 62
     3
100
AcDbLine
 10
34.71386200620003
 20
165.4604034422999
 30
0.0
 11
34.71386200620003
 21
171.539855957
 31
0.0
  0
LINE
  5
4F
330
2
100
AcDbEntity
  8
0
 62
     3
100
AcDbLine
 10
37.91376740170003
 20
173.2667388916
 30
0.0
 11
37.91376740170003
 21
163.6001434325999
 31
0.0
  0
LINE
  5
50
330
2
100
AcDbEntity
  8
0
  6
DASH
 62
     3
100
AcDbLine
 10
37.11374909120002
 20
172.1999969482
 30
0.0
 11
37.11374909120002
 21
164.8000030517
 31
0.0
  0
LINE
  5
52
330
2
100
AcDbEntity
  8
0
 62
     3
100
AcDbLine
 10
37.91375214290002
 20
172.1999969482
 30
0.0
 11
37.91375214290002
 21
164.8000030517
 31
0.0
  0
LINE
  5
53
330
2
100
AcDbEntity
  8
0
 62
     3
100
AcDbLine
 10
37.7137551947
 20
168.3999938963999
 30
0.0
 11
37.2137551947
 21
168.3999938963999
 31
0.0
  0
LINE
  5
54
330
2
100
AcDbEntity
  8
0
 62
     3
100
AcDbLine
 10
37.7137551947
 20
168.6000061034999
 30
0.0
 11
37.2137551947
 21
168.6000061034999
 31
0.0
  0
LINE
  5
55
330
2
100
AcDbEntity
  8
0
 62
     3
100
AcDbLine
 10
38.31382726680002
 20
163.0001013223
 30
0.0
 11
37.1138695824
 21
164.8000370752999
 31
0.0
  0
LINE
  5
56
330
2
100
AcDbEntity
  8
0
 62
     3
100
AcDbLine
 10
37.11387121280003
 20
164.7998474721999
 30
0.0
 11
38.31381712659997
 21
162.9999405926
 31
0.0
  0
LINE
  5
57
330
2
100
AcDbEntity
  8
0
 62
     3
100
AcDbLine
 10
37.91375214290002
 20
164.8000030517
 30
0.0
 11
36.61374909120002
 21
164.8000030517
 31
0.0
  0
LINE
  5
58
330
2
100
AcDbEntity
  8
0
 62
     3
100
AcDbLine
 10
36.11387213950001
 20
165.9998487306999
 30
0.0
 11
36.61381397589996
 21
164.7999865255999
 31
0.0
  0
LINE
  5
59
330
2
100
AcDbEntity
  8
0
 62
     3
100
AcDbLine
 10
36.61382152659999
 20
164.7999922995
 30
0.0
 11
36.11382069260002
 21
165.9999952775
 31
0.0
  0
LINE
  5
5A
330
2
100
AcDbEntity
  8
0
 62
     3
100
AcDbLine
 10
36.6137796088
 20
164.7999725340999
 30
0.0
 11
37.1137796088
 21
164.7999725340999
 31
0.0
  0
LINE
  5
5B
330
2
100
AcDbEntity
  8
0
 62
     3
100
AcDbLine
 10
35.25513703060002
 20
170.9998626708999
 30
0.0
 11
36.11374909120002
 21
170.9998626708999
 31
0.0
  0
LINE
  5
5C
330
2
100
AcDbEntity
  8
0
 62
     3
100
AcDbLine
 10
35.25518280699997
 20
171.0
 30
0.0
 11
36.11374909120002
 21
171.0
 31
0.0
  0
LINE
  5
5D
330
2
100
AcDbEntity
  8
0
 62
     3
100
AcDbLine
 10
35.4137216254
 20
167.7999267577999
 30
0.0
 11
35.76377350519999
 21
167.7999267577999
 31
0.0
  0
LINE
  5
5E
330
2
100
AcDbEntity
  8
0
 62
     3
100
AcDbLine
 10
35.4137216254
 20
169.1999359131
 30
0.0
 11
35.76377350519999
 21
169.1999359131
 31
0.0
  0
LINE
  5
5F
330
2
100
AcDbEntity
  8
0
 62
     3
100
AcDbLine
 10
35.2552285834
 20
165.9998779297
 30
0.0
 11
36.11374909120002
 21
165.9998779297
 31
0.0
  0
LINE
  5
60
330
2
100
AcDbEntity
  8
0
 62
     3
100
AcDbLine
 10
35.7637582465
 20
169.1999969482
 30
0.0
 11
35.41375214290002
 21
169.1999969482
 31
0.0
  0
LINE
  5
61
330
2
100
AcDbEntity
  8
0
 62
     3
100
AcDbLine
 10
35.7637582465
 20
167.8000030516999
 30
0.0
 11
35.41375214290002
 21
167.8000030516999
 31
0.0
  0
LINE
  5
62
330
2
100
AcDbEntity
  8
0
 62
     3
100
AcDbLine
 10
35.25518280699997
 20
166.0
 30
0.0
 11
36.11374909120002
 21
166.0
 31
0.0
  0
LINE
  5
63
330
2
100
AcDbEntity
  8
0
 62
     3
100
AcDbLine
 10
35.4137216254
 20
169.1999359131
 30
0.0
 11
35.4137216254
 21
167.7999267577999
 31
0.0
  0
LINE
  5
64
330
2
100
AcDbEntity
  8
0
 62
     3
100
AcDbLine
 10
35.41375214290002
 20
169.1999969482
 30
0.0
 11
35.41375214290002
 21
167.8000030516999
 31
0.0
  0
ARC
  5
65
330
2
100
AcDbEntity
  8
0
 62
     3
100
AcDbCircle
 10
42.11374909120002
 20
168.5
 30
0.0
 40
7.2999992371
100
AcDbArc
 50
159.9727565511
 51
200.0271168631
  0
LINE
  5
66
330
2
100
AcDbEntity
  8
0
 62
     3
100
AcDbLine
 10
37.2137551947
 20
169.0999908446999
 30
0.0
 11
37.2137551947
 21
168.5999908446999
 31
0.0
  0
LINE
  5
67
330
2
100
AcDbEntity
  8
0
 62
     3
100
AcDbLine
 10
37.0137582465
 20
169.0999908446999
 30
0.0
 11
37.0137582465
 21
168.5999908446999
 31
0.0
  0
LINE
  5
68
330
2
100
AcDbEntity
  8
0
 62
     3
100
AcDbLine
 10
37.0137582465
 20
168.3999938963999
 30
0.0
 11
37.0137582465
 21
167.8999938964
 31
0.0
  0
LINE
  5
69
330
2
100
AcDbEntity
  8
0
 62
     3
100
AcDbLine
 10
37.2137551947
 20
168.3999938963999
 30
0.0
 11
37.2137551947
 21
167.8999938964
 31
0.0
  0
ARC
  5
6A
330
2
100
AcDbEntity
  8
0
 62
     3
100
AcDbCircle
 10
37.11374909120002
 20
169.0999908446999
 30
0.0
 40
0.099999964237
100
AcDbArc
 50
0.0
 51
179.9998547448
  0
ARC
  5
6B
330
2
100
AcDbEntity
  8
0
 62
     3
100
AcDbCircle
 10
37.11374909120002
 20
167.8999938964
 30
0.0
 40
0.099999964237
100
AcDbArc
 50
180.0000906136999
 51
0.0
  0
LINE
  5
6C
330
2
100
AcDbEntity
  8
0
 62
     3
100
AcDbLine
 10
36.2637582465
 20
169.9000091552
 30
0.0
 11
35.7637582465
 21
169.9000091552
 31
0.0
  0
LINE
  5
6D
330
2
100
AcDbEntity
  8
0
 62
     3
100
AcDbLine
 10
36.2637582465
 20
169.8999938964
 30
0.0
 11
36.2637582465
 21
167.1000061034999
 31
0.0
  0
LINE
  5
6E
330
2
100
AcDbEntity
  8
0
 62
     3
100
AcDbLine
 10
35.7637582465
 20
169.8999938964
 30
0.0
 11
35.7637582465
 21
167.1000061034999
 31
0.0
  0
LINE
  5
6F
330
2
100
AcDbEntity
  8
0
 62
     3
100
AcDbLine
 10
36.2637582465
 20
167.1000061034999
 30
0.0
 11
35.7637582465
 21
167.1000061034999
 31
0.0
  0
LINE
  5
70
330
2
100
AcDbEntity
  8
0
  6
DASH
 62
     3
100
AcDbLine
 10
36.11374909120002
 20
167.1000061034999
 30
0.0
 11
36.11374909120002
 21
166.0
 31
0.0
  0
ARC
  5
71
330
2
100
AcDbEntity
  8
0
 62
     3
100
AcDbCircle
 10
36.5137582465
 20
168.5
 30
0.0
 40
0.099999964237
100
AcDbArc
 50
90.00003665540001
 51
270.0000006831999
  0
LINE
  5
72
330
2
100
AcDbEntity
  8
0
  6
DASH
 62
     3
100
AcDbLine
 10
36.11374909120002
 20
171.0
 30
0.0
 11
36.11374909120002
 21
169.8999938964
 31
0.0
  0
LINE
  5
73
330
2
100
AcDbEntity
  8
0
 62
     3
100
AcDbLine
 10
37.0137582465
 20
168.6000061034999
 30
0.0
 11
36.5137582465
 21
168.6000061034999
 31
0.0
  0
LINE
  5
74
330
2
100
AcDbEntity
  8
0
 62
     3
100
AcDbLine
 10
37.0137582465
 20
168.3999938963999
 30
0.0
 11
36.5137582465
 21
168.3999938963999
 31
0.0
  0
LINE
  5
75
330
2
100
AcDbEntity
  8
0
 62
     3
100
AcDbLine
 10
39.36376434999999
 20
164.9001312256
 30
0.0
 11
39.86376435000002
 21
164.9001312256
 31
0.0
  0
LINE
  5
76
330
2
100
AcDbEntity
  8
0
 62
     3
100
AcDbLine
 10
39.36376434999999
 20
162.1002044676999
 30
0.0
 11
39.86376435000002
 21
162.1002044676999
 31
0.0
  0
ARC
  5
77
330
2
100
AcDbEntity
  8
0
 62
     3
100
AcDbCircle
 10
32.90564972589998
 20
163.5002136229998
 30
0.0
 40
6.6081047058
100
AcDbArc
 50
347.7685894419
 51
12.23099050149996
  0
LINE
  5
78
330
2
100
AcDbEntity
  8
0
 62
     3
100
AcDbLine
 10
39.11388642030002
 20
160.0148162840999
 30
0.0
 11
39.11388642030002
 21
161.0837402342999
 31
0.0
  0
LINE
  5
79
330
2
100
AcDbEntity
  8
0
 62
     3
100
AcDbLine
 10
39.36376434999999
 20
164.9001312256
 30
0.0
 11
39.36376434999999
 21
162.1002044676999
 31
0.0
  0
LINE
  5
7A
330
2
100
AcDbEntity
  8
0
 62
     3
100
AcDbLine
 10
38.81377655699997
 20
162.5001525879
 30
0.0
 11
39.36376434999999
 21
162.5001525879
 31
0.0
  0
LINE
  5
7B
330
2
100
AcDbEntity
  8
0
 62
     3
100
AcDbLine
 10
38.71381154859999
 20
163.0000932024
 30
0.0
 11
38.8138120565
 21
162.5000922738999
 31
0.0
  0
LINE
  5
7C
330
2
100
AcDbEntity
  8
0
 62
     3
100
AcDbLine
 10
38.31377655699997
 20
163.0001525879
 30
0.0
 11
39.36376434999999
 21
163.0001525879
 31
0.0
  0
LINE
  5
7D
330
2
100
AcDbEntity
  8
0
 62
     3
100
AcDbLine
 10
40.41375214289998
 20
163.0001220702999
 30
0.0
 11
40.41375214289998
 21
162.0193786620999
 31
0.0
  0
LINE
  5
7E
330
2
100
AcDbEntity
  8
0
 62
     3
100
AcDbLine
 10
39.86376435000002
 20
162.5001525879
 30
0.0
 11
39.91376740170002
 21
162.5001525879
 31
0.0
  0
LINE
  5
7F
330
2
100
AcDbEntity
  8
0
 62
     3
100
AcDbLine
 10
39.86376435000002
 20
163.0001525879
 30
0.0
 11
40.41376740170003
 21
163.0001525879
 31
0.0
  0
LINE
  5
80
330
2
100
AcDbEntity
  8
0
 62
     3
100
AcDbLine
 10
39.86376435000002
 20
164.9001312256
 30
0.0
 11
39.86376435000002
 21
162.1002044676999
 31
0.0
  0
LINE
  5
81
330
2
100
AcDbEntity
  8
0
 62
     3
100
AcDbLine
 10
39.91380002370002
 20
162.5001529616999
 30
0.0
 11
40.0138035241
 21
163.0001688527
 31
0.0
  0
LINE
  5
82
330
2
100
AcDbEntity
  8
0
 62
     3
100
AcDbLine
 10
40.41376740170003
 20
163.0000152588
 30
0.0
 11
40.41376740170003
 21
162.0192718506
 31
0.0
  0
LINE
  5
83
330
2
100
AcDbEntity
  8
0
 62
     3
100
AcDbLine
 10
40.4138131781
 20
162.9998016356998
 30
0.0
 11
40.4138131781
 21
162.0189666747999
 31
0.0
  0
ARC
  5
84
330
2
100
AcDbEntity
  8
0
 62
     3
100
AcDbCircle
 10
46.3218484564
 20
163.5002136229998
 30
0.0
 40
6.6081047058
100
AcDbArc
 50
167.7689530357999
 51
192.2313575105
  0
LINE
  5
85
330
2
100
AcDbEntity
  8
0
 62
     3
100
AcDbLine
 10
40.4137777511
 20
163.0000795039
 30
0.0
 11
40.81378035910001
 21
163.6000836093
 31
0.0
  0
LINE
  5
86
330
2
100
AcDbEntity
  8
0
 62
     3
100
AcDbLine
 10
39.36376434999999
 20
169.9000701904
 30
0.0
 11
39.86376435000002
 21
169.9000701904
 31
0.0
  0
LINE
  5
87
330
2
100
AcDbEntity
  8
0
 62
     3
100
AcDbLine
 10
39.36376434999999
 20
167.1000976562
 30
0.0
 11
39.86376435000002
 21
167.1000976562
 31
0.0
  0
ARC
  5
88
330
2
100
AcDbEntity
  8
0
 62
     3
100
AcDbCircle
 10
32.90542084410001
 20
168.5001220703
 30
0.0
 40
6.608330726599997
100
AcDbArc
 50
347.769026574
 51
12.23099050149996
  0
LINE
  5
89
330
2
100
AcDbEntity
  8
0
 62
     3
100
AcDbLine
 10
39.36376434999999
 20
167.1000976562
 30
0.0
 11
39.36376434999999
 21
169.9000701904
 31
0.0
  0
ARC
  5
8A
330
2
100
AcDbEntity
  8
0
 62
     3
100
AcDbCircle
 10
37.7137551947
 20
168.5
 30
0.0
 40
0.099999964237
100
AcDbArc
 50
270.0000726275999
 51
89.9999273723999
  0
LINE
  5
8B
330
2
100
AcDbEntity
  8
0
 62
     3
100
AcDbLine
 10
39.86376435000002
 20
167.1000976562
 30
0.0
 11
39.86376435000002
 21
169.9000701904
 31
0.0
  0
ARC
  5
8C
330
2
100
AcDbEntity
  8
0
 62
     3
100
AcDbCircle
 10
46.32207733829999
 20
168.5001220703
 30
0.0
 40
6.608330726599997
100
AcDbArc
 50
167.7689530357999
 51
192.2309203783
  0
LINE
  5
8D
330
2
100
AcDbEntity
  8
0
 62
     3
100
AcDbLine
 10
38.61382946430001
 20
174.2000627308
 30
0.0
 11
37.11382895769997
 21
172.200063148
 31
0.0
  0
LINE
  5
8E
330
2
100
AcDbEntity
  8
0
 62
     3
100
AcDbLine
 10
37.11397429969999
 20
172.1998280679
 30
0.0
 11
38.61397421030003
 21
174.1998280977
 31
0.0
  0
LINE
  5
8F
330
2
100
AcDbEntity
  8
0
 62
     3
100
AcDbLine
 10
37.91375214290002
 20
172.1999969482
 30
0.0
 11
36.61374909120002
 21
172.1999969482
 31
0.0
  0
LINE
  5
90
330
2
100
AcDbEntity
  8
0
 62
     3
100
AcDbLine
 10
36.61374909120002
 20
172.1999359131
 30
0.0
 11
37.11374909120002
 21
172.1999359131
 31
0.0
  0
LINE
  5
91
330
2
100
AcDbEntity
  8
0
 62
     3
100
AcDbLine
 10
39.11388642030002
 20
175.9162292479999
 30
0.0
 11
39.11388642030002
 21
176.9853820799999
 31
0.0
  0
LINE
  5
92
330
2
100
AcDbEntity
  8
0
 62
     3
100
AcDbLine
 10
39.36376434999999
 20
174.9000701904
 30
0.0
 11
39.86376435000002
 21
174.9000701904
 31
0.0
  0
LINE
  5
93
330
2
100
AcDbEntity
  8
0
 62
     3
100
AcDbLine
 10
39.36376434999999
 20
172.1000671386
 30
0.0
 11
39.86376435000002
 21
172.1000671386
 31
0.0
  0
ARC
  5
94
330
2
100
AcDbEntity
  8
0
 62
     3
100
AcDbCircle
 10
32.90542084410001
 20
173.5001068115
 30
0.0
 40
6.608330726599997
100
AcDbArc
 50
347.769026574
 51
12.23099050149996
  0
LINE
  5
95
330
2
100
AcDbEntity
  8
0
 62
     3
100
AcDbLine
 10
39.36376434999999
 20
172.1000671386
 30
0.0
 11
39.36376434999999
 21
174.9000701904
 31
0.0
  0
LINE
  5
96
330
2
100
AcDbEntity
  8
0
 62
     3
100
AcDbLine
 10
38.81377655699997
 20
174.7000732422
 30
0.0
 11
39.36376434999999
 21
174.7000732422
 31
0.0
  0
LINE
  5
97
330
2
100
AcDbEntity
  8
0
 62
     3
100
AcDbLine
 10
39.36376434999999
 20
174.2000732422
 30
0.0
 11
38.61376435
 21
174.2000732422
 31
0.0
  0
LINE
  5
98
330
2
100
AcDbEntity
  8
0
 62
     3
100
AcDbLine
 10
38.7137962182
 20
174.2000470564
 30
0.0
 11
38.81379709080002
 21
174.7000478937
 31
0.0
  0
LINE
  5
99
330
2
100
AcDbEntity
  8
0
 62
     3
100
AcDbLine
 10
39.86376435000002
 20
174.7000732422
 30
0.0
 11
39.91376740170002
 21
174.7000732422
 31
0.0
  0
LINE
  5
9A
330
2
100
AcDbEntity
  8
0
 62
     3
100
AcDbLine
 10
39.86376435000002
 20
172.1000671386
 30
0.0
 11
39.86376435000002
 21
174.9000701904
 31
0.0
  0
LINE
  5
9B
330
2
100
AcDbEntity
  8
0
 62
     3
100
AcDbLine
 10
39.91382107780001
 20
174.700074799
 30
0.0
 11
40.01382195029997
 21
174.2000739616999
 31
0.0
  0
LINE
  5
9C
330
2
100
AcDbEntity
  8
0
 62
     3
100
AcDbLine
 10
40.11376434999998
 20
174.2000732422
 30
0.0
 11
39.86376435000002
 21
174.2000732422
 31
0.0
  0
LINE
  5
9D
330
2
100
AcDbEntity
  8
0
 62
     3
100
AcDbLine
 10
40.11376434999998
 20
174.8945159912
 30
0.0
 11
40.11376434999998
 21
174.1999816893999
 31
0.0
  0
LINE
  5
9E
330
2
100
AcDbEntity
  8
0
 62
     3
100
AcDbLine
 10
40.11374909120002
 20
174.1999359131
 30
0.0
 11
40.11374909120002
 21
174.8946380615
 31
0.0
  0
ARC
  5
9F
330
2
100
AcDbEntity
  8
0
 62
     3
100
AcDbCircle
 10
46.32207733829999
 20
173.5001068115
 30
0.0
 40
6.608330726599997
100
AcDbArc
 50
167.7689530357999
 51
192.2309203783
  0
LINE
  5
A0
330
2
100
AcDbEntity
  8
0
 62
     3
100
AcDbLine
 10
40.1139119274
 20
174.1999357179
 30
0.0
 11
40.8138875411
 21
173.2666349227
 31
0.0
  0
LINE
  5
A1
330
2
100
AcDbEntity
  8
0
 62
     3
100
AcDbLine
 10
48.11373383240002
 20
170.9998626708999
 30
0.0
 11
48.97236115170002
 21
170.9998626708999
 31
0.0
  0
LINE
  5
A2
330
2
100
AcDbEntity
  8
0
 62
     3
100
AcDbLine
 10
48.11373383240002
 20
171.0
 30
0.0
 11
48.9723153754
 21
171.0
 31
0.0
  0
LINE
  5
A3
330
2
100
AcDbEntity
  8
0
 62
     3
100
AcDbLine
 10
48.46383148860002
 20
167.7999267577999
 30
0.0
 11
48.81371552179999
 21
167.7999267577999
 31
0.0
  0
LINE
  5
A4
330
2
100
AcDbEntity
  8
0
 62
     3
100
AcDbLine
 10
48.46383148860002
 20
169.1999359131
 30
0.0
 11
48.81371552179999
 21
169.1999359131
 31
0.0
  0
LINE
  5
A5
330
2
100
AcDbEntity
  8
0
 62
     3
100
AcDbLine
 10
48.11373383240002
 20
165.9998779297
 30
0.0
 11
48.97226959900002
 21
165.9998779297
 31
0.0
  0
LINE
  5
A6
330
2
100
AcDbEntity
  8
0
 62
     3
100
AcDbLine
 10
48.81373078060002
 20
169.1999969482
 30
0.0
 11
48.46373993590001
 21
169.1999969482
 31
0.0
  0
LINE
  5
A7
330
2
100
AcDbEntity
  8
0
 62
     3
100
AcDbLine
 10
48.81373078060002
 20
167.8000030516999
 30
0.0
 11
48.46373993590001
 21
167.8000030516999
 31
0.0
  0
LINE
  5
A8
330
2
100
AcDbEntity
  8
0
 62
     3
100
AcDbLine
 10
48.11373383240002
 20
166.0
 30
0.0
 11
48.9723153754
 21
166.0
 31
0.0
  0
LINE
  5
A9
330
2
100
AcDbEntity
  8
0
 62
     3
100
AcDbLine
 10
43.41373688420002
 20
163.8001098631999
 30
0.0
 11
43.41373688420002
 21
173.2001190184999
 31
0.0
  0
LINE
  5
AA
330
2
100
AcDbEntity
  8
0
 62
     3
100
AcDbLine
 10
45.51374298769996
 20
163.8001098631999
 30
0.0
 11
45.51374298769996
 21
173.2001190184999
 31
0.0
  0
LINE
  5
AB
330
2
100
AcDbEntity
  8
0
 62
     3
100
AcDbLine
 10
46.31374603939996
 20
163.600112915
 30
0.0
 11
46.31374603939996
 21
173.2667846678999
 31
0.0
  0
LINE
  5
AC
330
2
100
AcDbEntity
  8
0
  6
DASH
 62
     3
100
AcDbLine
 10
47.11373383239997
 20
164.8000030517
 30
0.0
 11
47.11373383239997
 21
172.1999969482
 31
0.0
  0
LINE
  5
AD
330
2
100
AcDbEntity
  8
0
 62
     3
100
AcDbLine
 10
46.31373078060002
 20
164.8000030517
 30
0.0
 11
46.31373078060002
 21
172.1999969482
 31
0.0
  0
LINE
  5
AE
330
2
100
AcDbEntity
  8
0
 62
     3
100
AcDbLine
 10
47.61385081170002
 20
172.1999244327999
 30
0.0
 11
48.11383990820003
 21
170.9999496249
 31
0.0
  0
LINE
  5
AF
330
2
100
AcDbEntity
  8
0
 62
     3
100
AcDbLine
 10
48.11382235089999
 20
170.9999996399
 30
0.0
 11
47.61385047330002
 21
172.1999320376999
 31
0.0
  0
LINE
  5
B0
330
2
100
AcDbEntity
  8
0
 62
     3
100
AcDbLine
 10
45.51374298769996
 20
163.8001098631999
 30
0.0
 11
43.41373688420002
 21
163.8001098631999
 31
0.0
  0
LINE
  5
B1
330
2
100
AcDbEntity
  8
0
 62
     3
100
AcDbLine
 10
45.91373688420002
 20
163.0001220702999
 30
0.0
 11
43.81374603939996
 21
163.0001220702999
 31
0.0
  0
LINE
  5
B2
330
2
100
AcDbEntity
  8
0
 62
     3
100
AcDbLine
 10
43.81380707460002
 20
163.0
 30
0.0
 11
45.9137826605
 21
163.0
 31
0.0
  0
LINE
  5
B3
330
2
100
AcDbEntity
  8
0
 62
     3
100
AcDbLine
 10
44.51380402279999
 20
163.4999694823999
 30
0.0
 11
44.51380402279999
 21
162.9999694823999
 31
0.0
  0
LINE
  5
B4
330
2
100
AcDbEntity
  8
0
 62
     3
100
AcDbLine
 10
43.81374603939996
 20
163.0001220702999
 30
0.0
 11
43.81374603939996
 21
162.0192718506
 31
0.0
  0
LINE
  5
B5
330
2
100
AcDbEntity
  8
0
 62
     3
100
AcDbLine
 10
43.81380707460002
 20
162.9999694823999
 30
0.0
 11
43.81380707460002
 21
163.4999694823999
 31
0.0
  0
LINE
  5
B6
330
2
100
AcDbEntity
  8
0
 62
     3
100
AcDbLine
 10
43.81391388609999
 20
162.0193023680998
 30
0.0
 11
43.81391388609999
 21
163.0000152588
 31
0.0
  0
LINE
  5
B7
330
2
100
AcDbEntity
  8
0
 62
     3
100
AcDbLine
 10
43.8138223334
 20
162.9998016356998
 30
0.0
 11
43.8138223334
 21
162.0189666747999
 31
0.0
  0
LINE
  5
B8
330
2
100
AcDbEntity
  8
0
 62
     3
100
AcDbLine
 10
43.81376129819996
 20
163.0001525879
 30
0.0
 11
44.86376435000003
 21
163.0001525879
 31
0.0
  0
LINE
  5
B9
330
2
100
AcDbEntity
  8
0
 62
     3
100
AcDbLine
 10
43.81380707460002
 20
163.4999694823999
 30
0.0
 11
44.51380402279999
 21
163.4999694823999
 31
0.0
  0
LINE
  5
BA
330
2
100
AcDbEntity
  8
0
 62
     3
100
AcDbLine
 10
48.11380767060001
 20
165.9997953617
 30
0.0
 11
47.61383891429995
 21
164.7999278815999
 31
0.0
  0
LINE
  5
BB
330
2
100
AcDbEntity
  8
0
 62
     3
100
AcDbLine
 10
48.11378602910003
 20
165.9999114849
 30
0.0
 11
47.61378534140003
 21
164.799908672
 31
0.0
  0
LINE
  5
BC
330
2
100
AcDbEntity
  8
0
 62
     3
100
AcDbLine
 10
47.61373383239997
 20
164.8000030517
 30
0.0
 11
46.31373078060002
 21
164.8000030517
 31
0.0
  0
LINE
  5
BD
330
2
100
AcDbEntity
  8
0
 62
     3
100
AcDbLine
 10
45.91379199609996
 20
163.0000855183
 30
0.0
 11
47.11379251660003
 21
164.8000843648999
 31
0.0
  0
LINE
  5
BE
330
2
100
AcDbEntity
  8
0
 62
     3
100
AcDbLine
 10
45.1138711615
 20
160.0148162840999
 30
0.0
 11
45.1138711615
 21
161.0837402342999
 31
0.0
  0
LINE
  5
BF
330
2
100
AcDbEntity
  8
0
 62
     3
100
AcDbLine
 10
45.36376435000001
 20
163.0001525879
 30
0.0
 11
45.91375214290001
 21
163.0001525879
 31
0.0
  0
LINE
  5
C0
330
2
100
AcDbEntity
  8
0
 62
     3
100
AcDbLine
 10
47.6138634727
 20
164.7999689785999
 30
0.0
 11
47.11378717880001
 21
164.8000881878999
 31
0.0
  0
LINE
  5
C1
330
2
100
AcDbEntity
  8
0
 62
     3
100
AcDbLine
 10
47.71373993590001
 20
168.3999938963999
 30
0.0
 11
46.51374298769995
 21
168.3999938963999
 31
0.0
  0
LINE
  5
C2
330
2
100
AcDbEntity
  8
0
 62
     3
100
AcDbLine
 10
47.71373993590001
 20
168.6000061034999
 30
0.0
 11
46.51374298769995
 21
168.6000061034999
 31
0.0
  0
ARC
  5
C3
330
2
100
AcDbEntity
  8
0
 62
     3
100
AcDbCircle
 10
46.51374298769995
 20
168.5
 30
0.0
 40
0.099999964237
100
AcDbArc
 50
89.99992737239997
 51
179.9998547448
  0
ARC
  5
C4
330
2
100
AcDbEntity
  8
0
 62
     3
100
AcDbCircle
 10
46.51374298769995
 20
168.5
 30
0.0
 40
0.099999964237
100
AcDbArc
 50
180.0000906136999
 51
270.0000726275999
  0
LINE
  5
C5
330
2
100
AcDbEntity
  8
0
 62
     3
100
AcDbLine
 10
48.46373993590001
 20
169.9000091552
 30
0.0
 11
47.96373993590001
 21
169.9000091552
 31
0.0
  0
LINE
  5
C6
330
2
100
AcDbEntity
  8
0
 62
     3
100
AcDbLine
 10
47.96373993590001
 20
167.1000061034999
 30
0.0
 11
47.96373993590001
 21
169.9000091552
 31
0.0
  0
LINE
  5
C7
330
2
100
AcDbEntity
  8
0
 62
     3
100
AcDbLine
 10
48.46373993590001
 20
167.1000061034999
 30
0.0
 11
48.46373993590001
 21
169.9000091552
 31
0.0
  0
LINE
  5
C8
330
2
100
AcDbEntity
  8
0
 62
     3
100
AcDbLine
 10
48.46373993590001
 20
167.1000061034999
 30
0.0
 11
47.96373993590001
 21
167.1000061034999
 31
0.0
  0
LINE
  5
C9
330
2
100
AcDbEntity
  8
0
  6
DASH
 62
     3
100
AcDbLine
 10
48.11373383240002
 20
166.0
 30
0.0
 11
48.11373383240002
 21
167.1000061034999
 31
0.0
  0
LINE
  5
CA
330
2
100
AcDbEntity
  8
0
  6
DASH
 62
     3
100
AcDbLine
 10
48.11373383240002
 20
169.8999938964
 30
0.0
 11
48.11373383240002
 21
171.0
 31
0.0
  0
ARC
  5
CB
330
2
100
AcDbEntity
  8
0
 62
     3
100
AcDbCircle
 10
47.71373993590001
 20
168.5
 30
0.0
 40
0.099999964237
100
AcDbArc
 50
270.0000726275999
 51
89.99987273089994
  0
LINE
  5
CC
330
2
100
AcDbEntity
  8
0
 62
     3
100
AcDbLine
 10
45.51374298769996
 20
173.2001190184999
 30
0.0
 11
43.41373688420002
 21
173.2001190184999
 31
0.0
  0
LINE
  5
CD
330
2
100
AcDbEntity
  8
0
 62
     3
100
AcDbLine
 10
45.61373383240002
 20
174.2001190184999
 30
0.0
 11
44.1137338324
 21
174.2001190184999
 31
0.0
  0
LINE
  5
CE
330
2
100
AcDbEntity
  8
0
 62
     3
100
AcDbLine
 10
44.1137338324
 20
174.1999359131
 30
0.0
 11
44.1137338324
 21
174.8946380615
 31
0.0
  0
LINE
  5
CF
330
2
100
AcDbEntity
  8
0
 62
     3
100
AcDbLine
 10
45.1138711615
 20
175.9162292479999
 30
0.0
 11
45.1138711615
 21
176.9853820799999
 31
0.0
  0
LINE
  5
D0
330
2
100
AcDbEntity
  8
0
 62
     3
100
AcDbLine
 10
47.61373383239997
 20
172.1999969482
 30
0.0
 11
46.31373078060002
 21
172.1999969482
 31
0.0
  0
LINE
  5
D1
330
2
100
AcDbEntity
  8
0
 62
     3
100
AcDbLine
 10
47.11380530660003
 20
172.2000425652
 30
0.0
 11
45.6138510234
 21
174.1999815597999
 31
0.0
  0
LINE
  5
D2
330
2
100
AcDbEntity
  8
0
 62
     3
100
AcDbLine
 10
47.11373383239997
 20
172.1999359131
 30
0.0
 11
47.61373383239997
 21
172.1999359131
 31
0.0
  0
LINE
  5
D3
330
2
100
AcDbEntity
  8
0
 62
     3
100
AcDbLine
 10
49.51377350519999
 20
165.4604034422999
 30
0.0
 11
49.51377350519999
 21
171.539855957
 31
0.0
  0
LINE
  5
D4
330
2
100
AcDbEntity
  8
0
 62
     3
100
AcDbLine
 10
48.79166458060002
 20
160.05001407
 30
0.0
 11
50.61772845620001
 21
161.8439099062999
 31
0.0
  0
LINE
  5
D5
330
2
100
AcDbEntity
  8
0
 62
     3
100
AcDbLine
 10
49.52990204530003
 20
165.5001068115
 30
0.0
 11
50.5991311713
 21
165.5001068115
 31
0.0
  0
LINE
  5
D6
330
2
100
AcDbEntity
  8
0
 62
     3
100
AcDbLine
 10
48.81373078060002
 20
167.7999267577999
 30
0.0
 11
48.81373078060002
 21
169.1999969482
 31
0.0
  0
ARC
  5
D7
330
2
100
AcDbEntity
  8
0
 62
     3
100
AcDbCircle
 10
42.11374909120002
 20
168.5
 30
0.0
 40
7.2999992371
100
AcDbArc
 50
339.9728300892998
 51
20.02713234470002
  0
LINE
  5
D8
330
2
100
AcDbEntity
  8
0
 62
     3
100
AcDbLine
 10
49.52990204530003
 20
171.5000762938999
 30
0.0
 11
50.5991311713
 21
171.5000762938999
 31
0.0
  0
LINE
  5
D9
330
2
100
AcDbEntity
  8
0
 62
     3
100
AcDbLine
 10
50.61771900140001
 20
175.1560697704999
 30
0.0
 11
48.79163711820003
 21
176.9500127919999
 31
0.0
  0
LINE
  5
DA
330
2
100
AcDbEntity
  8
0
 62
     3
100
AcDbLine
 10
77.3641153021
 20
174.9001007079999
 30
0.0
 11
77.8641153021
 21
174.9001007079999
 31
0.0
  0
LINE
  5
DB
330
2
100
AcDbEntity
  8
0
 62
     3
100
AcDbLine
 10
77.3641153021
 20
172.1000976561999
 30
0.0
 11
77.8641153021
 21
172.1000976561999
 31
0.0
  0
ARC
  5
DC
330
2
100
AcDbEntity
  8
0
 62
     3
100
AcDbCircle
 10
84.32241303160003
 20
173.5001220702999
 30
0.0
 40
6.608330726599997
100
AcDbArc
 50
167.7689530357999
 51
192.2309203783
  0
LINE
  5
DD
330
2
100
AcDbEntity
  8
0
 62
     3
100
AcDbLine
 10
77.3641153021
 20
169.9001007079998
 30
0.0
 11
77.8641153021
 21
169.9001007079998
 31
0.0
  0
LINE
  5
DE
330
2
100
AcDbEntity
  8
0
 62
     3
100
AcDbLine
 10
77.3641153021
 20
167.1001281737999
 30
0.0
 11
77.8641153021
 21
167.1001281737999
 31
0.0
  0
ARC
  5
DF
330
2
100
AcDbEntity
  8
0
 62
     3
100
AcDbCircle
 10
84.32241303160003
 20
168.5001373291
 30
0.0
 40
6.608330726599997
100
AcDbArc
 50
167.7689530357999
 51
192.2309203783
  0
LINE
  5
E0
330
2
100
AcDbEntity
  8
0
 62
     3
100
AcDbLine
 10
77.3641153021
 20
164.9001617430998
 30
0.0
 11
77.8641153021
 21
164.9001617430998
 31
0.0
  0
LINE
  5
E1
330
2
100
AcDbEntity
  8
0
 62
     3
100
AcDbLine
 10
77.3641153021
 20
162.1002349853
 30
0.0
 11
77.8641153021
 21
162.1002349853
 31
0.0
  0
ARC
  5
E2
330
2
100
AcDbEntity
  8
0
 62
     3
100
AcDbCircle
 10
84.32218414979997
 20
163.5002288818
 30
0.0
 40
6.6081047058
100
AcDbArc
 50
167.7689530357999
 51
192.2313575105
  0
LINE
  5
E3
330
2
100
AcDbEntity
  8
0
 62
     3
100
AcDbLine
 10
74.61410598240002
 20
172.1999371234999
 30
0.0
 11
74.11410777279998
 21
170.9999413429999
 31
0.0
  0
LINE
  5
E4
330
2
100
AcDbEntity
  8
0
 62
     3
100
AcDbLine
 10
72.71409088809999
 20
165.4602966307999
 30
0.0
 11
72.71409088809999
 21
171.5397491455
 31
0.0
  0
LINE
  5
E5
330
2
100
AcDbEntity
  8
0
 62
     3
100
AcDbLine
 10
75.91408783630003
 20
173.2663574217999
 30
0.0
 11
75.91408783630003
 21
163.6001586914
 31
0.0
  0
LINE
  5
E6
330
2
100
AcDbEntity
  8
0
  6
DASH
 62
     3
100
AcDbLine
 10
75.11408478450002
 20
172.1999969482
 30
0.0
 11
75.11408478450002
 21
164.8000183104999
 31
0.0
  0
LINE
  5
E7
330
2
100
AcDbEntity
  8
0
 62
     3
100
AcDbLine
 10
74.26409393980001
 20
169.900024414
 30
0.0
 11
73.76409393979999
 21
169.900024414
 31
0.0
  0
LINE
  5
E8
330
2
100
AcDbEntity
  8
0
 62
     3
100
AcDbLine
 10
74.26409393980001
 20
167.1000213622999
 30
0.0
 11
73.76409393979999
 21
167.1000213622999
 31
0.0
  0
LINE
  5
E9
330
2
100
AcDbEntity
  8
0
 62
     3
100
AcDbLine
 10
74.61412253009996
 20
164.8000047981
 30
0.0
 11
74.11412756480001
 21
165.999993691
 31
0.0
  0
LINE
  5
EA
330
2
100
AcDbEntity
  8
0
 62
     3
100
AcDbLine
 10
71.61771832609996
 20
161.8439290890999
 30
0.0
 11
73.44390661300001
 21
160.0500075312
 31
0.0
  0
LINE
  5
EB
330
2
100
AcDbEntity
  8
0
 62
     3
100
AcDbLine
 10
71.62880951600001
 20
165.5000152588
 30
0.0
 11
72.69782501890002
 21
165.5000152588
 31
0.0
  0
LINE
  5
EC
330
2
100
AcDbEntity
  8
0
 62
     3
100
AcDbLine
 10
73.76409393979999
 20
169.9000091552
 30
0.0
 11
73.76409393979999
 21
167.1000213622999
 31
0.0
  0
LINE
  5
ED
330
2
100
AcDbEntity
  8
0
  6
DASH
 62
     3
100
AcDbLine
 10
74.11410004330003
 20
167.1000213622999
 30
0.0
 11
74.11410004330003
 21
166.0000152588
 31
0.0
  0
LINE
  5
EE
330
2
100
AcDbEntity
  8
0
  6
DASH
 62
     3
100
AcDbLine
 10
74.11410004330003
 20
171.0
 30
0.0
 11
74.11410004330003
 21
169.9000091552
 31
0.0
  0
LINE
  5
EF
330
2
100
AcDbEntity
  8
0
 62
     3
100
AcDbLine
 10
73.41407257750002
 20
169.1999511718
 30
0.0
 11
73.41407257750002
 21
167.7999420166
 31
0.0
  0
LINE
  5
F0
330
2
100
AcDbEntity
  8
0
 62
     3
100
AcDbLine
 10
73.41410309510002
 20
169.200012207
 30
0.0
 11
73.41410309510002
 21
167.8000183104999
 31
0.0
  0
ARC
  5
F1
330
2
100
AcDbEntity
  8
0
 62
     3
100
AcDbCircle
 10
80.11408478450002
 20
168.5000152588
 30
0.0
 40
7.2999992371
100
AcDbArc
 50
159.9727565511
 51
200.0271168631
  0
LINE
  5
F2
330
2
100
AcDbEntity
  8
0
 62
     3
100
AcDbLine
 10
73.41405731870001
 20
167.7999420166
 30
0.0
 11
73.76410919860001
 21
167.7999420166
 31
0.0
  0
LINE
  5
F3
330
2
100
AcDbEntity
  8
0
 62
     3
100
AcDbLine
 10
73.41405731870001
 20
169.1999511718
 30
0.0
 11
73.76410919860001
 21
169.1999511718
 31
0.0
  0
LINE
  5
F4
330
2
100
AcDbEntity
  8
0
 62
     3
100
AcDbLine
 10
73.76409393979999
 20
169.200012207
 30
0.0
 11
73.41410309510002
 21
169.200012207
 31
0.0
  0
LINE
  5
F5
330
2
100
AcDbEntity
  8
0
 62
     3
100
AcDbLine
 10
73.76409393979999
 20
167.8000183104999
 30
0.0
 11
73.41410309510002
 21
167.8000183104999
 31
0.0
  0
LINE
  5
F6
330
2
100
AcDbEntity
  8
0
 62
     3
100
AcDbLine
 10
73.2555185004
 20
166.0000152588
 30
0.0
 11
74.11410004330003
 21
166.0000152588
 31
0.0
  0
LINE
  5
F7
330
2
100
AcDbEntity
  8
0
 62
     3
100
AcDbLine
 10
73.2555185004
 20
171.0000152587999
 30
0.0
 11
74.11410004330003
 21
171.0000152587999
 31
0.0
  0
LINE
  5
F8
330
2
100
AcDbEntity
  8
0
 62
     3
100
AcDbLine
 10
75.11419516780001
 20
164.7998796762999
 30
0.0
 11
76.31414108170003
 21
162.9999727966998
 31
0.0
  0
LINE
  5
F9
330
2
100
AcDbEntity
  8
0
 62
     3
100
AcDbLine
 10
75.91408783630003
 20
164.8000183104999
 30
0.0
 11
74.61408478450002
 21
164.8000183104999
 31
0.0
  0
LINE
  5
FA
330
2
100
AcDbEntity
  8
0
 62
     3
100
AcDbLine
 10
77.3641153021
 20
164.9001617430998
 30
0.0
 11
77.3641153021
 21
162.1002349853
 31
0.0
  0
ARC
  5
FB
330
2
100
AcDbEntity
  8
0
 62
     3
100
AcDbCircle
 10
70.90598541930001
 20
163.5002288818
 30
0.0
 40
6.6081047058
100
AcDbArc
 50
347.7685894419
 51
12.23099050149996
  0
LINE
  5
FC
330
2
100
AcDbEntity
  8
0
 62
     3
100
AcDbLine
 10
77.1141153021
 20
160.0147247313999
 30
0.0
 11
77.1141153021
 21
161.0836486816
 31
0.0
  0
LINE
  5
FD
330
2
100
AcDbEntity
  8
0
 62
     3
100
AcDbLine
 10
76.71414118650003
 20
163.0001257227
 30
0.0
 11
76.81414468689998
 21
162.5001098317
 31
0.0
  0
LINE
  5
FE
330
2
100
AcDbEntity
  8
0
 62
     3
100
AcDbLine
 10
76.8141122504
 20
162.5001831053999
 30
0.0
 11
77.3641153021
 21
162.5001831053999
 31
0.0
  0
LINE
  5
FF
330
2
100
AcDbEntity
  8
0
 62
     3
100
AcDbLine
 10
76.3141122504
 20
163.0001831054
 30
0.0
 11
77.3641153021
 21
163.0001831054
 31
0.0
  0
ARC
  5
100
330
2
100
AcDbEntity
  8
0
 62
     3
100
AcDbCircle
 10
75.71409088809999
 20
168.5000152588
 30
0.0
 40
0.099999964237
100
AcDbArc
 50
270.0000726275999
 51
89.9999273723999
  0
LINE
  5
101
330
2
100
AcDbEntity
  8
0
 62
     3
100
AcDbLine
 10
75.21409088809999
 20
169.1000061035
 30
0.0
 11
75.21409088809999
 21
168.6000061034999
 31
0.0
  0
LINE
  5
102
330
2
100
AcDbEntity
  8
0
 62
     3
100
AcDbLine
 10
75.01409393979999
 20
169.1000061035
 30
0.0
 11
75.01409393979999
 21
168.6000061034999
 31
0.0
  0
LINE
  5
103
330
2
100
AcDbEntity
  8
0
 62
     3
100
AcDbLine
 10
75.01409393979999
 20
168.6000213623
 30
0.0
 11
74.51409393979999
 21
168.6000213623
 31
0.0
  0
LINE
  5
104
330
2
100
AcDbEntity
  8
0
 62
     3
100
AcDbLine
 10
75.01409393979999
 20
168.4000091551999
 30
0.0
 11
74.51409393979999
 21
168.4000091551999
 31
0.0
  0
LINE
  5
105
330
2
100
AcDbEntity
  8
0
 62
     3
100
AcDbLine
 10
75.01409393979999
 20
168.4000091551999
 30
0.0
 11
75.01409393979999
 21
167.9000091552
 31
0.0
  0
LINE
  5
106
330
2
100
AcDbEntity
  8
0
 62
     3
100
AcDbLine
 10
75.21409088809999
 20
168.4000091551999
 30
0.0
 11
75.21409088809999
 21
167.9000091552
 31
0.0
  0
LINE
  5
107
330
2
100
AcDbEntity
  8
0
 62
     3
100
AcDbLine
 10
74.26409393980001
 20
169.9000091552
 30
0.0
 11
74.26409393980001
 21
167.1000213622999
 31
0.0
  0
ARC
  5
108
330
2
100
AcDbEntity
  8
0
 62
     3
100
AcDbCircle
 10
75.11408478450002
 20
169.1000061035
 30
0.0
 40
0.099999964237
100
AcDbArc
 50
0.0
 51
179.9998547448
  0
ARC
  5
109
330
2
100
AcDbEntity
  8
0
 62
     3
100
AcDbCircle
 10
74.51409393979999
 20
168.5000152588
 30
0.0
 40
0.099999964237
100
AcDbArc
 50
90.00003665540001
 51
270.0000006831999
  0
ARC
  5
10A
330
2
100
AcDbEntity
  8
0
 62
     3
100
AcDbCircle
 10
75.11408478450002
 20
167.9000091552
 30
0.0
 40
0.099999964237
100
AcDbArc
 50
180.0000906136999
 51
0.0
  0
LINE
  5
10B
330
2
100
AcDbEntity
  8
0
 62
     3
100
AcDbLine
 10
75.71409088809999
 20
168.4000091551999
 30
0.0
 11
75.21409088809999
 21
168.4000091551999
 31
0.0
  0
LINE
  5
10C
330
2
100
AcDbEntity
  8
0
 62
     3
100
AcDbLine
 10
75.71409088809999
 20
168.6000213623
 30
0.0
 11
75.21409088809999
 21
168.6000213623
 31
0.0
  0
LINE
  5
10D
330
2
100
AcDbEntity
  8
0
 62
     3
100
AcDbLine
 10
77.3641153021
 20
167.1001281737999
 30
0.0
 11
77.3641153021
 21
169.9001007079998
 31
0.0
  0
ARC
  5
10E
330
2
100
AcDbEntity
  8
0
 62
     3
100
AcDbCircle
 10
70.90575653750002
 20
168.5001373291
 30
0.0
 40
6.608330726599997
100
AcDbArc
 50
347.769026574
 51
12.23099050149996
  0
LINE
  5
10F
330
2
100
AcDbEntity
  8
0
 62
     3
100
AcDbLine
 10
71.62880951600001
 20
171.4999847412
 30
0.0
 11
72.69782501890002
 21
171.4999847412
 31
0.0
  0
LINE
  5
110
330
2
100
AcDbEntity
  8
0
 62
     3
100
AcDbLine
 10
73.44391767089994
 20
176.9499963796999
 30
0.0
 11
71.61772226140001
 21
175.15603833
 31
0.0
  0
LINE
  5
111
330
2
100
AcDbEntity
  8
0
 62
     3
100
AcDbLine
 10
77.1141153021
 20
175.9161376952999
 30
0.0
 11
77.1141153021
 21
176.9852905273
 31
0.0
  0
LINE
  5
112
330
2
100
AcDbEntity
  8
0
 62
     3
100
AcDbLine
 10
75.11427597070002
 20
172.1998355304
 30
0.0
 11
76.61427588130002
 21
174.1998355602
 31
0.0
  0
LINE
  5
113
330
2
100
AcDbEntity
  8
0
 62
     3
100
AcDbLine
 10
75.91408783630003
 20
172.200012207
 30
0.0
 11
74.61408478450002
 21
172.200012207
 31
0.0
  0
LINE
  5
114
330
2
100
AcDbEntity
  8
0
 62
     3
100
AcDbLine
 10
77.3641153021
 20
172.1000976561999
 30
0.0
 11
77.3641153021
 21
174.9001007079999
 31
0.0
  0
ARC
  5
115
330
2
100
AcDbEntity
  8
0
 62
     3
100
AcDbCircle
 10
70.90575653750002
 20
173.5001220702999
 30
0.0
 40
6.608330726599997
100
AcDbArc
 50
347.769026574
 51
12.23099050149996
  0
LINE
  5
116
330
2
100
AcDbEntity
  8
0
 62
     3
100
AcDbLine
 10
76.71412751610002
 20
174.2000793186999
 30
0.0
 11
76.81412539620001
 21
174.7000651936
 31
0.0
  0
LINE
  5
117
330
2
100
AcDbEntity
  8
0
 62
     3
100
AcDbLine
 10
77.3641153021
 20
174.2001037597
 30
0.0
 11
76.6141153021
 21
174.2001037597
 31
0.0
  0
LINE
  5
118
330
2
100
AcDbEntity
  8
0
 62
     3
100
AcDbLine
 10
76.8141122504
 20
174.7001037597
 30
0.0
 11
77.3641153021
 21
174.7001037597
 31
0.0
  0
LINE
  5
119
330
2
100
AcDbEntity
  8
0
 62
     3
100
AcDbLine
 10
78.81409699160002
 20
173.2667846678999
 30
0.0
 11
78.81409699160002
 21
163.6001281737998
 31
0.0
  0
LINE
  5
11A
330
2
100
AcDbEntity
  8
0
 62
     3
100
AcDbLine
 10
84.31406647400001
 20
163.600112915
 30
0.0
 11
84.31406647400001
 21
173.2667541504
 31
0.0
  0
LINE
  5
11B
330
2
100
AcDbEntity
  8
0
 62
     3
100
AcDbLine
 10
81.41408783630003
 20
173.2663574217999
 30
0.0
 11
81.41408783630003
 21
163.6001586914
 31
0.0
  0
LINE
  5
11C
330
2
100
AcDbEntity
  8
0
 62
     3
100
AcDbLine
 10
81.81410227189997
 20
163.0001311117998
 30
0.0
 11
81.41409944900003
 21
163.6001350883
 31
0.0
  0
ARC
  5
11D
330
2
100
AcDbEntity
  8
0
 62
     3
100
AcDbCircle
 10
80.11408478450002
 20
168.5001373291
 30
0.0
 40
6.6999959946
100
AcDbArc
 50
255.3432516499
 51
284.6984757969
  0
LINE
  5
11E
330
2
100
AcDbEntity
  8
0
 62
     3
100
AcDbLine
 10
78.41409324190002
 20
163.0001020857
 30
0.0
 11
78.81409584990001
 21
163.6001061912
 31
0.0
  0
LINE
  5
11F
330
2
100
AcDbEntity
  8
0
 62
     3
100
AcDbLine
 10
77.8641153021
 20
162.5001831053999
 30
0.0
 11
77.9141183539
 21
162.5001831053999
 31
0.0
  0
LINE
  5
120
330
2
100
AcDbEntity
  8
0
 62
     3
100
AcDbLine
 10
77.8641153021
 20
163.0001831054
 30
0.0
 11
78.41410309510002
 21
163.0001831054
 31
0.0
  0
LINE
  5
121
330
2
100
AcDbEntity
  8
0
 62
     3
100
AcDbLine
 10
77.8641153021
 20
164.9001617430998
 30
0.0
 11
77.8641153021
 21
162.1002349853
 31
0.0
  0
LINE
  5
122
330
2
100
AcDbEntity
  8
0
 62
     3
100
AcDbLine
 10
77.91412666920002
 20
162.5001832838999
 30
0.0
 11
78.01413016960002
 21
163.0001991748999
 31
0.0
  0
LINE
  5
123
330
2
100
AcDbEntity
  8
0
 62
     3
100
AcDbLine
 10
78.41413361269998
 20
162.9998474121
 30
0.0
 11
78.41413361269998
 21
162.0190124510999
 31
0.0
  0
LINE
  5
124
330
2
100
AcDbEntity
  8
0
 62
     3
100
AcDbLine
 10
77.8641153021
 20
167.1001281737999
 30
0.0
 11
77.8641153021
 21
169.9001007079998
 31
0.0
  0
LINE
  5
125
330
2
100
AcDbEntity
  8
0
 62
     3
100
AcDbLine
 10
82.86411530210001
 20
164.9001617430998
 30
0.0
 11
83.3641153021
 21
164.9001617430998
 31
0.0
  0
LINE
  5
126
330
2
100
AcDbEntity
  8
0
 62
     3
100
AcDbLine
 10
82.86411530210001
 20
162.1002349853
 30
0.0
 11
83.3641153021
 21
162.1002349853
 31
0.0
  0
ARC
  5
127
330
2
100
AcDbEntity
  8
0
 62
     3
100
AcDbCircle
 10
89.82218414980001
 20
163.5002288818
 30
0.0
 40
6.6081047058
100
AcDbArc
 50
167.7689530357999
 51
192.2313575105
  0
LINE
  5
128
330
2
100
AcDbEntity
  8
0
 62
     3
100
AcDbLine
 10
83.11410004330001
 20
160.0147247313999
 30
0.0
 11
83.11410004330001
 21
161.0836486816
 31
0.0
  0
LINE
  5
129
330
2
100
AcDbEntity
  8
0
 62
     3
100
AcDbLine
 10
82.86411530210001
 20
164.9001617430998
 30
0.0
 11
82.86411530210001
 21
162.1002349853
 31
0.0
  0
ARC
  5
12A
330
2
100
AcDbEntity
  8
0
 62
     3
100
AcDbCircle
 10
76.40598541930001
 20
163.5002288818
 30
0.0
 40
6.6081047058
100
AcDbArc
 50
347.7685894419
 51
12.23099050149996
  0
LINE
  5
12B
330
2
100
AcDbEntity
  8
0
 62
     3
100
AcDbLine
 10
82.21413711929995
 20
163.0001231450999
 30
0.0
 11
82.3141406196
 21
162.5001072541
 31
0.0
  0
LINE
  5
12C
330
2
100
AcDbEntity
  8
0
 62
     3
100
AcDbLine
 10
81.81414276789999
 20
162.9998474121
 30
0.0
 11
81.81414276789999
 21
162.0190124510999
 31
0.0
  0
LINE
  5
12D
330
2
100
AcDbEntity
  8
0
 62
     3
100
AcDbLine
 10
82.31411225039998
 20
162.5001831053999
 30
0.0
 11
82.86411530210001
 21
162.5001831053999
 31
0.0
  0
LINE
  5
12E
330
2
100
AcDbEntity
  8
0
 62
     3
100
AcDbLine
 10
81.81411225039999
 20
163.0001831054
 30
0.0
 11
82.86411530210001
 21
163.0001831054
 31
0.0
  0
LINE
  5
12F
330
2
100
AcDbEntity
  8
0
 62
     3
100
AcDbLine
 10
83.3641153021
 20
162.5001831053999
 30
0.0
 11
83.41411835389997
 21
162.5001831053999
 31
0.0
  0
LINE
  5
130
330
2
100
AcDbEntity
  8
0
 62
     3
100
AcDbLine
 10
83.3641153021
 20
164.9001617430998
 30
0.0
 11
83.3641153021
 21
162.1002349853
 31
0.0
  0
LINE
  5
131
330
2
100
AcDbEntity
  8
0
 62
     3
100
AcDbLine
 10
83.41412260189999
 20
162.5001858613999
 30
0.0
 11
83.51412610229997
 21
163.0002017524
 31
0.0
  0
LINE
  5
132
330
2
100
AcDbEntity
  8
0
 62
     3
100
AcDbLine
 10
83.36410004330003
 20
163.0001831054
 30
0.0
 11
83.91410309510002
 21
163.0001831054
 31
0.0
  0
LINE
  5
133
330
2
100
AcDbEntity
  8
0
 62
     3
100
AcDbLine
 10
82.86411530210001
 20
169.9001007079998
 30
0.0
 11
83.3641153021
 21
169.9001007079998
 31
0.0
  0
LINE
  5
134
330
2
100
AcDbEntity
  8
0
 62
     3
100
AcDbLine
 10
82.86411530210001
 20
167.1001281737999
 30
0.0
 11
83.3641153021
 21
167.1001281737999
 31
0.0
  0
ARC
  5
135
330
2
100
AcDbEntity
  8
0
 62
     3
100
AcDbCircle
 10
89.82241303160002
 20
168.5001373291
 30
0.0
 40
6.608330726599997
100
AcDbArc
 50
167.7689530357999
 51
192.2309203783
  0
LINE
  5
136
330
2
100
AcDbEntity
  8
0
 62
     3
100
AcDbLine
 10
82.86411530210001
 20
167.1001281737999
 30
0.0
 11
82.86411530210001
 21
169.9001007079998
 31
0.0
  0
ARC
  5
137
330
2
100
AcDbEntity
  8
0
 62
     3
100
AcDbCircle
 10
76.40575653750002
 20
168.5001373291
 30
0.0
 40
6.608330726599997
100
AcDbArc
 50
347.769026574
 51
12.23099050149996
  0
LINE
  5
138
330
2
100
AcDbEntity
  8
0
 62
     3
100
AcDbLine
 10
83.3641153021
 20
167.1001281737999
 30
0.0
 11
83.3641153021
 21
169.9001007079998
 31
0.0
  0
ARC
  5
139
330
2
100
AcDbEntity
  8
0
 62
     3
100
AcDbCircle
 10
84.51407868099998
 20
168.5000152588
 30
0.0
 40
0.099999964237
100
AcDbArc
 50
89.99992737239997
 51
179.9998547448
  0
ARC
  5
13A
330
2
100
AcDbEntity
  8
0
 62
     3
100
AcDbCircle
 10
84.51407868099998
 20
168.5000152588
 30
0.0
 40
0.099999964237
100
AcDbArc
 50
180.0000906136999
 51
270.0000726275999
  0
LINE
  5
13B
330
2
100
AcDbEntity
  8
0
 62
     3
100
AcDbLine
 10
81.41412326960002
 20
173.2663091316999
 30
0.0
 11
82.11426589750002
 21
174.1998327052
 31
0.0
  0
ARC
  5
13C
330
2
100
AcDbEntity
  8
0
 62
     3
100
AcDbCircle
 10
80.11408478450002
 20
168.5001373291
 30
0.0
 40
6.6999959946
100
AcDbArc
 50
72.6320130679
 51
107.3679509599999
  0
LINE
  5
13D
330
2
100
AcDbEntity
  8
0
 62
     3
100
AcDbLine
 10
78.11420275040003
 20
174.1999209120999
 30
0.0
 11
78.81417836410003
 21
173.2666201168999
 31
0.0
  0
LINE
  5
13E
330
2
100
AcDbEntity
  8
0
 62
     3
100
AcDbLine
 10
77.8641153021
 20
174.7001037597
 30
0.0
 11
77.9141183539
 21
174.7001037597
 31
0.0
  0
LINE
  5
13F
330
2
100
AcDbEntity
  8
0
 62
     3
100
AcDbLine
 10
77.8641153021
 20
172.1000976561999
 30
0.0
 11
77.8641153021
 21
174.9001007079999
 31
0.0
  0
LINE
  5
140
330
2
100
AcDbEntity
  8
0
 62
     3
100
AcDbLine
 10
77.91412843570002
 20
174.7000844315
 30
0.0
 11
78.01412930820001
 21
174.2000835941999
 31
0.0
  0
LINE
  5
141
330
2
100
AcDbEntity
  8
0
 62
     3
100
AcDbLine
 10
78.1141153021
 20
174.2001037597
 30
0.0
 11
77.8641153021
 21
174.2001037597
 31
0.0
  0
LINE
  5
142
330
2
100
AcDbEntity
  8
0
 62
     3
100
AcDbLine
 10
78.11408478450002
 20
174.1999511718
 30
0.0
 11
78.11408478450002
 21
174.8944091797
 31
0.0
  0
LINE
  5
143
330
2
100
AcDbEntity
  8
0
 62
     3
100
AcDbLine
 10
83.11410004330001
 20
175.9161376952999
 30
0.0
 11
83.11410004330001
 21
176.9852905273
 31
0.0
  0
LINE
  5
144
330
2
100
AcDbEntity
  8
0
 62
     3
100
AcDbLine
 10
82.86411530210001
 20
174.9001007079999
 30
0.0
 11
83.3641153021
 21
174.9001007079999
 31
0.0
  0
LINE
  5
145
330
2
100
AcDbEntity
  8
0
 62
     3
100
AcDbLine
 10
82.86411530210001
 20
172.1000976561999
 30
0.0
 11
83.3641153021
 21
172.1000976561999
 31
0.0
  0
ARC
  5
146
330
2
100
AcDbEntity
  8
0
 62
     3
100
AcDbCircle
 10
89.82241303160002
 20
173.5001220702999
 30
0.0
 40
6.608330726599997
100
AcDbArc
 50
167.7689530357999
 51
192.2309203783
  0
LINE
  5
147
330
2
100
AcDbEntity
  8
0
 62
     3
100
AcDbLine
 10
82.86411530210001
 20
172.1000976561999
 30
0.0
 11
82.86411530210001
 21
174.9001007079999
 31
0.0
  0
ARC
  5
148
330
2
100
AcDbEntity
  8
0
 62
     3
100
AcDbCircle
 10
76.40575653750002
 20
173.5001220702999
 30
0.0
 40
6.608330726599997
100
AcDbArc
 50
347.769026574
 51
12.23099050149996
  0
LINE
  5
149
330
2
100
AcDbEntity
  8
0
 62
     3
100
AcDbLine
 10
82.21412325599997
 20
174.2000778459
 30
0.0
 11
82.31412412849998
 21
174.7000786831999
 31
0.0
  0
LINE
  5
14A
330
2
100
AcDbEntity
  8
0
 62
     3
100
AcDbLine
 10
82.11406952580004
 20
174.1999511718
 30
0.0
 11
82.11406952580004
 21
174.8944091797
 31
0.0
  0
LINE
  5
14B
330
2
100
AcDbEntity
  8
0
 62
     3
100
AcDbLine
 10
82.86411530210001
 20
174.2001037597
 30
0.0
 11
82.1141153021
 21
174.2001037597
 31
0.0
  0
LINE
  5
14C
330
2
100
AcDbEntity
  8
0
 62
     3
100
AcDbLine
 10
82.31411225039998
 20
174.7001037597
 30
0.0
 11
82.86411530210001
 21
174.7001037597
 31
0.0
  0
LINE
  5
14D
330
2
100
AcDbEntity
  8
0
 62
     3
100
AcDbLine
 10
83.3641153021
 20
174.7001037597
 30
0.0
 11
83.41411835389997
 21
174.7001037597
 31
0.0
  0
LINE
  5
14E
330
2
100
AcDbEntity
  8
0
 62
     3
100
AcDbLine
 10
83.3641153021
 20
172.1000976561999
 30
0.0
 11
83.3641153021
 21
174.9001007079999
 31
0.0
  0
LINE
  5
14F
330
2
100
AcDbEntity
  8
0
 62
     3
100
AcDbLine
 10
83.41410921300001
 20
174.7000829118999
 30
0.0
 11
83.51411008559997
 21
174.2000820745
 31
0.0
  0
LINE
  5
150
330
2
100
AcDbEntity
  8
0
 62
     3
100
AcDbLine
 10
83.6141153021
 20
174.2001037597
 30
0.0
 11
83.3641153021
 21
174.2001037597
 31
0.0
  0
LINE
  5
151
330
2
100
AcDbEntity
  8
0
 62
     3
100
AcDbLine
 10
137.9615915727
 20
159.5499741383999
 30
0.0
 11
138.9086460512999
 21
159.8709994394
 31
0.0
  0
LINE
  5
152
330
2
100
AcDbEntity
  8
0
 62
     3
100
AcDbLine
 10
137.0175148761999
 20
162.3350692985
 30
0.0
 11
137.9616004159997
 21
159.5499654577
 31
0.0
  0
LINE
  5
153
330
2
100
AcDbEntity
  8
0
 62
     3
100
AcDbLine
 10
137.0174966498
 20
159.5999603270999
 30
0.0
 11
137.0174966498
 21
177.3999176025
 31
0.0
  0
LINE
  5
154
330
2
100
AcDbEntity
  8
0
 62
     3
100
AcDbLine
 10
137.0174356146
 20
177.3999176025
 30
0.0
 11
137.0174356146
 21
159.5999450683
 31
0.0
  0
LINE
  5
155
330
2
100
AcDbEntity
  8
0
 62
     3
100
AcDbLine
 10
140.8176675481998
 20
159.5500662641
 30
0.0
 11
140.8176675481998
 21
177.4499834002
 31
0.0
  0
LINE
  5
156
330
2
100
AcDbEntity
  8
0
 62
     3
100
AcDbLine
 10
133.2175054434999
 20
159.6000261318
 30
0.0
 11
133.2175207022999
 21
160.1209154141
 31
0.0
  0
LINE
  5
157
330
2
100
AcDbEntity
  8
0
 62
     3
100
AcDbLine
 10
89.11770111750003
 20
177.450012207
 30
0.0
 11
89.11770111750003
 21
159.5500030516999
 31
0.0
  0
LINE
  5
158
330
2
100
AcDbEntity
  8
0
 62
     3
100
AcDbLine
 10
137.0174966498
 20
159.6000213623
 30
0.0
 11
133.2175241155999
 21
159.6000213623
 31
0.0
  0
LINE
  5
159
330
2
100
AcDbEntity
  8
0
 62
     3
100
AcDbLine
 10
137.0174966498
 20
159.5500030516999
 30
0.0
 11
137.9615884466999
 21
159.5500030516999
 31
0.0
  0
LINE
  5
15A
330
2
100
AcDbEntity
  8
0
 62
     3
100
AcDbLine
 10
114.1177621526999
 20
219.8499908446998
 30
0.0
 11
118.8177133245999
 21
219.8499908446998
 31
0.0
  0
LINE
  5
15B
330
2
100
AcDbEntity
  8
0
 62
     3
100
AcDbLine
 10
118.8176980657999
 20
207.1500091552
 30
0.0
 11
114.1177621526999
 21
207.1500091552
 31
0.0
  0
LINE
  5
15C
330
2
100
AcDbEntity
  8
0
 62
     3
100
AcDbLine
 10
111.3176980657997
 20
210.7499847411999
 30
0.0
 11
117.8147378607
 21
210.7499847411999
 31
0.0
  0
LINE
  5
15D
330
2
100
AcDbEntity
  8
0
 62
     3
100
AcDbLine
 10
117.8147378607
 20
210.2501068114998
 30
0.0
 11
111.3177133245999
 21
210.2501068114998
 31
0.0
  0
LINE
  5
15E
330
2
100
AcDbEntity
  8
0
 62
     3
100
AcDbLine
 10
111.3176980657997
 20
216.2499694824
 30
0.0
 11
117.8147378607
 21
216.2499694824
 31
0.0
  0
LINE
  5
15F
330
2
100
AcDbEntity
  8
0
 62
     3
100
AcDbLine
 10
117.8147378607
 20
215.7501068114999
 30
0.0
 11
111.3177133245999
 21
215.7501068114999
 31
0.0
  0
LINE
  5
160
330
2
100
AcDbEntity
  8
0
 62
     3
100
AcDbLine
 10
118.8176980657999
 20
207.6500091551998
 30
0.0
 11
110.8177133245999
 21
207.6500091551998
 31
0.0
  0
LINE
  5
161
330
2
100
AcDbEntity
  8
0
 62
     3
100
AcDbLine
 10
118.8176980657999
 20
207.5500335692999
 30
0.0
 11
110.8177133245999
 21
207.5500335692999
 31
0.0
  0
LINE
  5
162
330
2
100
AcDbEntity
  8
0
 62
     3
100
AcDbLine
 10
110.8177133245999
 20
219.3499908447
 30
0.0
 11
118.8177133245999
 21
219.3499908447
 31
0.0
  0
LINE
  5
163
330
2
100
AcDbEntity
  8
0
 62
     3
100
AcDbLine
 10
110.8177133245999
 20
219.4499664305999
 30
0.0
 11
118.8177133245999
 21
219.4499664305999
 31
0.0
  0
ARC
  5
164
330
2
100
AcDbEntity
  8
0
 62
     3
100
AcDbCircle
 10
113.8206277532999
 20
173.5
 30
0.0
 40
0.599998951
100
AcDbArc
 50
270.0000726275999
 51
89.99998201389994
  0
LINE
  5
165
330
2
100
AcDbEntity
  8
0
 62
     3
100
AcDbLine
 10
114.1453828089999
 20
169.1497250877
 30
0.0
 11
114.4628876917999
 21
168.5997905088999
 31
0.0
  0
LINE
  5
166
330
2
100
AcDbEntity
  8
0
 62
     3
100
AcDbLine
 10
114.4630355600999
 20
168.3993342879
 30
0.0
 11
114.1454697177999
 21
167.8492939552
 31
0.0
  0
ARC
  5
167
330
2
100
AcDbEntity
  8
0
 62
     3
100
AcDbCircle
 10
113.8173318548999
 20
168.5000152588
 30
0.0
 40
0.5999994278000002
100
AcDbArc
 50
270.0000726275999
 51
89.99998201389994
  0
ARC
  5
168
330
2
100
AcDbEntity
  8
0
 62
     3
100
AcDbCircle
 10
113.8206277532999
 20
163.5000152587999
 30
0.0
 40
0.599998951
100
AcDbArc
 50
270.0000726275999
 51
89.99998201389994
  0
LINE
  5
169
330
2
100
AcDbEntity
  8
0
 62
     3
100
AcDbLine
 10
118.5206247014999
 20
169.8999481200999
 30
0.0
 11
111.3206277532997
 21
169.8999481200999
 31
0.0
  0
LINE
  5
16A
330
2
100
AcDbEntity
  8
0
 62
     3
100
AcDbLine
 10
111.3173776311999
 20
169.8997344969999
 30
0.0
 11
118.8176828069999
 21
169.8997344969999
 31
0.0
  0
LINE
  5
16B
330
2
100
AcDbEntity
  8
0
  6
DASH
 62
     3
100
AcDbLine
 10
111.3173776311999
 20
169.7997589111
 30
0.0
 11
118.8176828069999
 21
169.7997589111
 31
0.0
  0
LINE
  5
16C
330
2
100
AcDbEntity
  8
0
  6
DASH
 62
     3
100
AcDbLine
 10
118.8176828069999
 20
167.1999053955
 30
0.0
 11
111.3173776311999
 21
167.1999053955
 31
0.0
  0
LINE
  5
16D
330
2
100
AcDbEntity
  8
0
 62
     3
100
AcDbLine
 10
118.8176828069999
 20
167.1000518797999
 30
0.0
 11
111.3173776311999
 21
167.1000518797999
 31
0.0
  0
LINE
  5
16E
330
2
100
AcDbEntity
  8
0
 62
     3
100
AcDbLine
 10
118.5176950139998
 20
162.0999603270999
 30
0.0
 11
111.3206277532997
 21
162.0999603270999
 31
0.0
  0
LINE
  5
16F
330
2
100
AcDbEntity
  8
0
  6
CENTER
 62
     3
100
AcDbLine
 10
109.8010049505998
 20
173.4999389648
 30
0.0
 11
115.2691598577999
 21
173.4999389648
 31
0.0
  0
LINE
  5
170
330
2
100
AcDbEntity
  8
0
  6
CENTER
 62
     3
100
AcDbLine
 10
109.9190164251999
 20
163.4999542236
 30
0.0
 11
115.2691598577999
 21
163.4999542236
 31
0.0
  0
LINE
  5
171
330
2
100
AcDbEntity
  8
0
 62
     3
100
AcDbLine
 10
117.8177438421998
 20
164.8999633789
 30
0.0
 11
111.3206277532997
 21
164.8999633789
 31
0.0
  0
LINE
  5
172
330
2
100
AcDbEntity
  8
0
 62
     3
100
AcDbLine
 10
117.8177285833999
 20
172.0999450683
 30
0.0
 11
111.3206277532997
 21
172.0999450683
 31
0.0
  0
LINE
  5
173
330
2
100
AcDbEntity
  8
0
 62
     3
100
AcDbLine
 10
118.5176950139998
 20
174.8999481200999
 30
0.0
 11
111.3206277532997
 21
174.8999481200999
 31
0.0
  0
LINE
  5
174
330
2
100
AcDbEntity
  8
0
 62
     3
100
AcDbLine
 10
85.6141377301
 20
172.1999310625999
 30
0.0
 11
86.11412682660001
 21
170.9999562546999
 31
0.0
  0
LINE
  5
175
330
2
100
AcDbEntity
  8
0
 62
     3
100
AcDbLine
 10
86.1141012272
 20
170.999998512
 30
0.0
 11
85.6141352184
 21
172.1999168247999
 31
0.0
  0
LINE
  5
176
330
2
100
AcDbEntity
  8
0
 62
     3
100
AcDbLine
 10
87.51398712829997
 20
165.4602966307999
 30
0.0
 11
87.51398712829997
 21
171.5397491455
 31
0.0
  0
LINE
  5
177
330
2
100
AcDbEntity
  8
0
  6
DASH
 62
     3
100
AcDbLine
 10
85.11406952580001
 20
164.8000183104999
 30
0.0
 11
85.11406952580001
 21
172.200012207
 31
0.0
  0
LINE
  5
178
330
2
100
AcDbEntity
  8
0
 62
     3
100
AcDbLine
 10
86.11414085399998
 20
165.9998386105999
 30
0.0
 11
85.61416620570001
 21
164.7999569905999
 31
0.0
  0
LINE
  5
179
330
2
100
AcDbEntity
  8
0
 62
     3
100
AcDbLine
 10
86.11410376770002
 20
165.9999433321999
 30
0.0
 11
85.61410301120002
 21
164.7999403542999
 31
0.0
  0
LINE
  5
17A
330
2
100
AcDbEntity
  8
0
 62
     3
100
AcDbLine
 10
86.79161866270002
 20
160.0500088112999
 30
0.0
 11
88.61767165329998
 21
161.8438939543
 31
0.0
  0
LINE
  5
17B
330
2
100
AcDbEntity
  8
0
 62
     3
100
AcDbLine
 10
86.11406952579997
 20
171.0000152587999
 30
0.0
 11
86.9726510687
 21
171.0000152587999
 31
0.0
  0
LINE
  5
17C
330
2
100
AcDbEntity
  8
0
 62
     3
100
AcDbLine
 10
86.11406952579997
 20
166.0000152588
 30
0.0
 11
86.9726510687
 21
166.0000152588
 31
0.0
  0
LINE
  5
17D
330
2
100
AcDbEntity
  8
0
 62
     3
100
AcDbLine
 10
86.46416718200001
 20
167.7999420166
 30
0.0
 11
86.8140512152
 21
167.7999420166
 31
0.0
  0
LINE
  5
17E
330
2
100
AcDbEntity
  8
0
 62
     3
100
AcDbLine
 10
86.46416718200001
 20
169.1999511718
 30
0.0
 11
86.8140512152
 21
169.1999511718
 31
0.0
  0
LINE
  5
17F
330
2
100
AcDbEntity
  8
0
 62
     3
100
AcDbLine
 10
86.81406647400001
 20
169.200012207
 30
0.0
 11
86.46407562929999
 21
169.200012207
 31
0.0
  0
LINE
  5
180
330
2
100
AcDbEntity
  8
0
 62
     3
100
AcDbLine
 10
86.81406647400001
 20
167.8000183104999
 30
0.0
 11
86.46407562929999
 21
167.8000183104999
 31
0.0
  0
LINE
  5
181
330
2
100
AcDbEntity
  8
0
 62
     3
100
AcDbLine
 10
86.81406647400001
 20
167.7999420166
 30
0.0
 11
86.81406647400001
 21
169.200012207
 31
0.0
  0
LINE
  5
182
330
2
100
AcDbEntity
  8
0
 62
     3
100
AcDbLine
 10
86.46407562929999
 20
167.1000213622999
 30
0.0
 11
86.46407562929999
 21
169.900024414
 31
0.0
  0
LINE
  5
183
330
2
100
AcDbEntity
  8
0
 62
     3
100
AcDbLine
 10
85.96407562929995
 20
167.1000213622999
 30
0.0
 11
85.96407562929995
 21
169.900024414
 31
0.0
  0
LINE
  5
184
330
2
100
AcDbEntity
  8
0
  6
DASH
 62
     3
100
AcDbLine
 10
86.11406952579997
 20
166.0000152588
 30
0.0
 11
86.11406952579997
 21
167.1000213622999
 31
0.0
  0
ARC
  5
185
330
2
100
AcDbEntity
  8
0
 62
     3
100
AcDbCircle
 10
85.71407562929998
 20
168.5000152588
 30
0.0
 40
0.099999964237
100
AcDbArc
 50
270.0000726275999
 51
89.99987273089994
  0
LINE
  5
186
330
2
100
AcDbEntity
  8
0
 62
     3
100
AcDbLine
 10
86.46407562929999
 20
169.900024414
 30
0.0
 11
85.96407562929995
 21
169.900024414
 31
0.0
  0
LINE
  5
187
330
2
100
AcDbEntity
  8
0
 62
     3
100
AcDbLine
 10
86.46407562929999
 20
167.1000213622999
 30
0.0
 11
85.96407562929995
 21
167.1000213622999
 31
0.0
  0
LINE
  5
188
330
2
100
AcDbEntity
  8
0
  6
DASH
 62
     3
100
AcDbLine
 10
86.11406952579997
 20
169.9000091552
 30
0.0
 11
86.11406952579997
 21
171.0
 31
0.0
  0
ARC
  5
189
330
2
100
AcDbEntity
  8
0
 62
     3
100
AcDbCircle
 10
80.11408478450002
 20
168.5000152588
 30
0.0
 40
7.2999992371
100
AcDbArc
 50
339.9728300892998
 51
20.02713234470002
  0
LINE
  5
18A
330
2
100
AcDbEntity
  8
0
 62
     3
100
AcDbLine
 10
87.5301309271
 20
165.5000152588
 30
0.0
 11
88.5993600531
 21
165.5000152588
 31
0.0
  0
LINE
  5
18B
330
2
100
AcDbEntity
  8
0
 62
     3
100
AcDbLine
 10
88.61768312429996
 20
175.1560756727
 30
0.0
 11
86.79161212600002
 21
176.9500080008
 31
0.0
  0
LINE
  5
18C
330
2
100
AcDbEntity
  8
0
 62
     3
100
AcDbLine
 10
87.5301309271
 20
171.4999847412
 30
0.0
 11
88.5993600531
 21
171.4999847412
 31
0.0
  0
LINE
  5
18D
330
2
100
AcDbEntity
  8
0
 62
     3
100
AcDbLine
 10
112.4206643743999
 20
164.0999603270999
 30
0.0
 11
113.8206277532999
 21
164.0999603270999
 31
0.0
  0
LINE
  5
18E
330
2
100
AcDbEntity
  8
0
 62
     3
100
AcDbLine
 10
112.4206643743999
 20
162.8999633789
 30
0.0
 11
113.8206277532999
 21
162.8999633789
 31
0.0
  0
LINE
  5
18F
330
2
100
AcDbEntity
  8
0
 62
     3
100
AcDbLine
 10
111.3206277532997
 20
164.8999633789
 30
0.0
 11
111.3206277532997
 21
162.0999603270999
 31
0.0
  0
ARC
  5
190
330
2
100
AcDbEntity
  8
0
 62
     3
100
AcDbCircle
 10
113.0176950139998
 20
163.5000152587999
 30
0.0
 40
2.199997901899997
100
AcDbArc
 50
140.4787956031999
 51
219.5211870939
  0
ARC
  5
191
330
2
100
AcDbEntity
  8
0
 62
     3
100
AcDbCircle
 10
112.4206796331999
 20
163.5000152587999
 30
0.0
 40
0.599998951
100
AcDbArc
 50
89.99998201389999
 51
269.9998914002
  0
LINE
  5
192
330
2
100
AcDbEntity
  8
0
 62
     3
100
AcDbLine
 10
111.7168929048
 20
167.2858164908999
 30
0.0
 11
113.7167803734999
 21
167.7143647199
 31
0.0
  0
LINE
  5
193
330
2
100
AcDbEntity
  8
0
 62
     3
100
AcDbLine
 10
113.7171540034999
 20
169.2852137794
 30
0.0
 11
111.7171470521998
 21
169.7137869762
 31
0.0
  0
LINE
  5
194
330
2
100
AcDbEntity
  8
0
 62
     3
100
AcDbLine
 10
112.4206643743999
 20
169.0999450682999
 30
0.0
 11
113.8206277532999
 21
169.0999450682999
 31
0.0
  0
LINE
  5
195
330
2
100
AcDbEntity
  8
0
 62
     3
100
AcDbLine
 10
112.4206643743999
 20
167.8999633789
 30
0.0
 11
113.8206277532999
 21
167.8999633789
 31
0.0
  0
LINE
  5
196
330
2
100
AcDbEntity
  8
0
 62
     3
100
AcDbLine
 10
111.5173288030999
 20
169.1497344969999
 30
0.0
 11
114.1462350530999
 21
169.1497344969999
 31
0.0
  0
LINE
  5
197
330
2
100
AcDbEntity
  8
0
 62
     3
100
AcDbLine
 10
111.5173288030999
 20
167.8499298094999
 30
0.0
 11
114.1462350530999
 21
167.8499298094999
 31
0.0
  0
LINE
  5
198
330
2
100
AcDbEntity
  8
0
 62
     3
100
AcDbLine
 10
112.4173532171999
 20
169.0998077392
 30
0.0
 11
113.8172555608999
 21
169.0998077392
 31
0.0
  0
LINE
  5
199
330
2
100
AcDbEntity
  8
0
 62
     3
100
AcDbLine
 10
112.4173532171999
 20
167.8998565672999
 30
0.0
 11
113.8172555608999
 21
167.8998565672999
 31
0.0
  0
LINE
  5
19A
330
2
100
AcDbEntity
  8
0
 62
     3
100
AcDbLine
 10
111.8363961820999
 20
168.6495621154
 30
0.0
 11
110.8232125883999
 21
168.6495600529999
 31
0.0
  0
LINE
  5
19B
330
2
100
AcDbEntity
  8
0
 62
     3
100
AcDbLine
 10
111.8362680120999
 20
168.3499145506999
 30
0.0
 11
110.8232064885999
 21
168.3499145506999
 31
0.0
  0
LINE
  5
19C
330
2
100
AcDbEntity
  8
0
 62
     3
100
AcDbLine
 10
111.3173776311999
 20
169.8997344969999
 30
0.0
 11
111.3173776311999
 21
169.3498077392
 31
0.0
  0
LINE
  5
19D
330
2
100
AcDbEntity
  8
0
 62
     3
100
AcDbLine
 10
111.3173776311999
 20
167.6498565673
 30
0.0
 11
111.3173776311999
 21
167.1000518797999
 31
0.0
  0
ARC
  5
19E
330
2
100
AcDbEntity
  8
0
 62
     3
100
AcDbCircle
 10
111.5174050969999
 20
169.3498687743999
 30
0.0
 40
0.1999999285
100
AcDbArc
 50
179.9999640277999
 51
269.9999460416999
  0
ARC
  5
19F
330
2
100
AcDbEntity
  8
0
 62
     3
100
AcDbCircle
 10
111.5174050969999
 20
167.6499176025
 30
0.0
 40
0.1999999285
100
AcDbArc
 50
90.00003665540001
 51
179.9999640277999
  0
ARC
  5
1A0
330
2
100
AcDbEntity
  8
0
 62
     3
100
AcDbCircle
 10
112.7173562689
 20
168.5000152588
 30
0.0
 40
1.899999618499998
100
AcDbArc
 50
137.4630758394
 51
222.5368522162999
  0
ARC
  5
1A1
330
2
100
AcDbEntity
  8
0
 62
     3
100
AcDbCircle
 10
112.4174295110999
 20
168.5000152588
 30
0.0
 40
0.5999994278000002
100
AcDbArc
 50
90.00003665540001
 51
269.9998914002
  0
LINE
  5
1A2
330
2
100
AcDbEntity
  8
0
 62
     3
100
AcDbLine
 10
112.4206185979998
 20
174.0999450682999
 30
0.0
 11
113.8206277532999
 21
174.0999450682999
 31
0.0
  0
LINE
  5
1A3
330
2
100
AcDbEntity
  8
0
 62
     3
100
AcDbLine
 10
112.4206185979998
 20
172.8999481200999
 30
0.0
 11
113.8206277532999
 21
172.8999481200999
 31
0.0
  0
LINE
  5
1A4
330
2
100
AcDbEntity
  8
0
 62
     3
100
AcDbLine
 10
111.3206277532997
 20
174.8999481200999
 30
0.0
 11
111.3206277532997
 21
172.0999450683
 31
0.0
  0
ARC
  5
1A5
330
2
100
AcDbEntity
  8
0
 62
     3
100
AcDbCircle
 10
113.0176950139998
 20
173.5
 30
0.0
 40
2.199997901899997
100
AcDbArc
 50
140.4787409617
 51
219.5211324524
  0
ARC
  5
1A6
330
2
100
AcDbEntity
  8
0
 62
     3
100
AcDbCircle
 10
112.4206338567999
 20
173.5
 30
0.0
 40
0.599998951
100
AcDbArc
 50
89.99998201389999
 51
269.9998914002
  0
LINE
  5
1A7
330
2
100
AcDbEntity
  8
0
 62
     3
100
AcDbLine
 10
114.1177497745999
 20
207.1500210158999
 30
0.0
 11
111.3177461662999
 21
207.4000187499
 31
0.0
  0
LINE
  5
1A8
330
2
100
AcDbEntity
  8
0
 62
     3
100
AcDbLine
 10
111.3169046087999
 20
210.2499847412
 30
0.0
 11
111.3169046087999
 21
210.7498626708999
 31
0.0
  0
LINE
  5
1A9
330
2
100
AcDbEntity
  8
0
 62
     3
100
AcDbLine
 10
111.3176229475
 20
210.250184193
 30
0.0
 11
110.8176345703999
 21
210.4001806843999
 31
0.0
  0
LINE
  5
1AA
330
2
100
AcDbEntity
  8
0
 62
     3
100
AcDbLine
 10
110.8176828069999
 20
210.4000091551998
 30
0.0
 11
110.8176828069999
 21
210.6000823973999
 31
0.0
  0
LINE
  5
1AB
330
2
100
AcDbEntity
  8
0
 62
     3
100
AcDbLine
 10
110.8174955118997
 20
210.6004991838999
 30
0.0
 11
111.3171038919999
 21
210.7503816450999
 31
0.0
  0
LINE
  5
1AC
330
2
100
AcDbEntity
  8
0
 62
     3
100
AcDbLine
 10
111.3177133245999
 20
207.4000091552
 30
0.0
 11
110.8177133245999
 21
207.4000091552
 31
0.0
  0
LINE
  5
1AD
330
2
100
AcDbEntity
  8
0
 62
     3
100
AcDbLine
 10
110.8177133245999
 20
207.6500091551998
 30
0.0
 11
110.8177133245999
 21
207.4000091552
 31
0.0
  0
LINE
  5
1AE
330
2
100
AcDbEntity
  8
0
 62
     3
100
AcDbLine
 10
111.3177133245999
 20
207.6500091551998
 30
0.0
 11
111.3177133245999
 21
207.4000091552
 31
0.0
  0
LINE
  5
1AF
330
2
100
AcDbEntity
  8
0
 62
     3
100
AcDbLine
 10
111.3169198674997
 20
215.7499694823998
 30
0.0
 11
111.3169198674997
 21
216.2498474121
 31
0.0
  0
LINE
  5
1B0
330
2
100
AcDbEntity
  8
0
 62
     3
100
AcDbLine
 10
111.3176198045999
 20
215.7501761204999
 30
0.0
 11
110.8176314274997
 21
215.9001726118999
 31
0.0
  0
LINE
  5
1B1
330
2
100
AcDbEntity
  8
0
 62
     3
100
AcDbLine
 10
110.8176980657999
 20
215.8999938963999
 30
0.0
 11
110.8176980657999
 21
216.1000671386
 31
0.0
  0
LINE
  5
1B2
330
2
100
AcDbEntity
  8
0
 62
     3
100
AcDbLine
 10
110.8174989686999
 20
216.1004910172999
 30
0.0
 11
111.3171073487999
 21
216.2503734784999
 31
0.0
  0
LINE
  5
1B3
330
2
100
AcDbEntity
  8
0
 62
     3
100
AcDbLine
 10
111.3176672986999
 20
219.6003287798999
 30
0.0
 11
114.1176861053999
 21
219.8503278708999
 31
0.0
  0
LINE
  5
1B4
330
2
100
AcDbEntity
  8
0
 62
     3
100
AcDbLine
 10
110.8177133245999
 20
219.5999908447
 30
0.0
 11
111.3177133245999
 21
219.5999908447
 31
0.0
  0
LINE
  5
1B5
330
2
100
AcDbEntity
  8
0
 62
     3
100
AcDbLine
 10
110.8177133245999
 20
219.5999908447
 30
0.0
 11
110.8177133245999
 21
219.3499908447
 31
0.0
  0
LINE
  5
1B6
330
2
100
AcDbEntity
  8
0
 62
     3
100
AcDbLine
 10
111.3177133245999
 20
219.5999908447
 30
0.0
 11
111.3177133245999
 21
219.3499908447
 31
0.0
  0
LINE
  5
1B7
330
2
100
AcDbEntity
  8
0
 62
     3
100
AcDbLine
 10
137.0171432866999
 20
207.3353257044999
 30
0.0
 11
137.9612288264999
 21
204.5502218638
 31
0.0
  0
LINE
  5
1B8
330
2
100
AcDbEntity
  8
0
 62
     3
100
AcDbLine
 10
138.0171353244999
 20
207.5002299107
 30
0.0
 11
138.9082965044997
 21
204.8712558183999
 31
0.0
  0
LINE
  5
1B9
330
2
100
AcDbEntity
  8
0
 62
     3
100
AcDbLine
 10
137.0170999212999
 20
204.6002349853
 30
0.0
 11
137.0170999212999
 21
222.3997802734
 31
0.0
  0
LINE
  5
1BA
330
2
100
AcDbEntity
  8
0
 62
     3
100
AcDbLine
 10
140.8176675481998
 20
204.5501084472
 30
0.0
 11
140.8176675481998
 21
222.4499685872999
 31
0.0
  0
LINE
  5
1BB
330
2
100
AcDbEntity
  8
0
 62
     3
100
AcDbLine
 10
137.0170083684999
 20
222.3999328613
 30
0.0
 11
137.0170083684999
 21
204.5999450682999
 31
0.0
  0
LINE
  5
1BC
330
2
100
AcDbEntity
  8
0
 62
     3
100
AcDbLine
 10
140.2176614446998
 20
204.8002624511
 30
0.0
 11
140.2176614446998
 21
222.2002563475999
 31
0.0
  0
LINE
  5
1BD
330
2
100
AcDbEntity
  8
0
 62
     3
100
AcDbLine
 10
132.0171456975999
 20
210.5000457762999
 30
0.0
 11
132.0171456975999
 21
205.1209259033
 31
0.0
  0
LINE
  5
1BE
330
2
100
AcDbEntity
  8
0
 62
     3
100
AcDbLine
 10
128.8165296215
 20
175.8992723245
 30
0.0
 11
129.2165744637999
 21
176.4993399534
 31
0.0
  0
LINE
  5
1BF
330
2
100
AcDbEntity
  8
0
 62
     3
100
AcDbLine
 10
128.8176828069999
 20
175.8997955322
 30
0.0
 11
132.0175271673997
 21
175.8997955322
 31
0.0
  0
LINE
  5
1C0
330
2
100
AcDbEntity
  8
0
 62
     3
100
AcDbLine
 10
129.2158276701999
 20
160.4993124381
 30
0.0
 11
128.8158505402999
 21
161.0992784983
 31
0.0
  0
LINE
  5
1C1
330
2
100
AcDbEntity
  8
0
 62
     3
100
AcDbLine
 10
132.0175271673997
 20
161.1004943846999
 30
0.0
 11
128.8176828069999
 21
161.1004943846999
 31
0.0
  0
ARC
  5
1C2
330
2
100
AcDbEntity
  8
0
 62
     3
100
AcDbCircle
 10
149.0176187200999
 20
168.4997711180998
 30
0.0
 40
20.200012207
100
AcDbArc
 50
168.5787949053
 51
191.4211331503
  0
LINE
  5
1C3
330
2
100
AcDbEntity
  8
0
 62
     3
100
AcDbLine
 10
118.8172932937999
 20
170.9994746918
 30
0.0
 11
123.8172894669999
 21
170.9496700647999
 31
0.0
  0
LINE
  5
1C4
330
2
100
AcDbEntity
  8
0
 62
     3
100
AcDbLine
 10
123.8174503544999
 20
166.0501684161999
 30
0.0
 11
118.8174580557999
 21
165.9999975937999
 31
0.0
  0
LINE
  5
1C5
330
2
100
AcDbEntity
  8
0
 62
     3
100
AcDbLine
 10
128.8176980657999
 20
175.8997802734
 30
0.0
 11
118.8176980657999
 21
175.8997802734
 31
0.0
  0
LINE
  5
1C6
330
2
100
AcDbEntity
  8
0
 62
     3
100
AcDbLine
 10
118.8176980657999
 20
161.1004791258999
 30
0.0
 11
128.8176980657999
 21
161.1004791258999
 31
0.0
  0
LINE
  5
1C7
330
2
100
AcDbEntity
  8
0
 62
     3
100
AcDbLine
 10
117.8177438421998
 20
169.8997192381999
 30
0.0
 11
117.8177438421998
 21
173.8999481200999
 31
0.0
  0
LINE
  5
1C8
330
2
100
AcDbEntity
  8
0
 62
     3
100
AcDbLine
 10
118.8176980657999
 20
161.1004791258999
 30
0.0
 11
118.8176980657999
 21
175.8997802734
 31
0.0
  0
LINE
  5
1C9
330
2
100
AcDbEntity
  8
0
 62
     3
100
AcDbLine
 10
114.4637399358999
 20
168.3998565672999
 30
0.0
 11
118.8176828069999
 21
168.3998565672999
 31
0.0
  0
LINE
  5
1CA
330
2
100
AcDbEntity
  8
0
 62
     3
100
AcDbLine
 10
114.4637399358999
 20
168.5999298095
 30
0.0
 11
118.8176828069999
 21
168.5999298095
 31
0.0
  0
ARC
  5
1CB
330
2
100
AcDbEntity
  8
0
 62
     3
100
AcDbCircle
 10
118.1177468938999
 20
163.3000183104999
 30
0.0
 40
0.2999997735
100
AcDbArc
 50
179.9999640277999
 51
269.9999460416999
  0
ARC
  5
1CC
330
2
100
AcDbEntity
  8
0
 62
     3
100
AcDbCircle
 10
118.1177468938999
 20
163.9000091551999
 30
0.0
 40
0.2999997735
100
AcDbArc
 50
179.9999640277999
 51
269.9999460416999
  0
LINE
  5
1CD
330
2
100
AcDbEntity
  8
0
 62
     3
100
AcDbLine
 10
117.8177438421998
 20
163.2999572754
 30
0.0
 11
117.8177438421998
 21
167.1000518797999
 31
0.0
  0
LINE
  5
1CE
330
2
100
AcDbEntity
  8
0
 62
     3
100
AcDbLine
 10
118.1177468938999
 20
163.5999603270999
 30
0.0
 11
118.8176980657999
 21
163.5999603270999
 31
0.0
  0
LINE
  5
1CF
330
2
100
AcDbEntity
  8
0
 62
     3
100
AcDbLine
 10
118.1177468938999
 20
162.9999694823999
 30
0.0
 11
118.8176980657999
 21
162.9999694823999
 31
0.0
  0
LINE
  5
1D0
330
2
100
AcDbEntity
  8
0
 62
     3
100
AcDbLine
 10
118.5176950139998
 20
162.9999542236
 30
0.0
 11
118.5176950139998
 21
162.0999603270999
 31
0.0
  0
ARC
  5
1D1
330
2
100
AcDbEntity
  8
0
 62
     3
100
AcDbCircle
 10
118.1177468938999
 20
173.8999938963999
 30
0.0
 40
0.2999997735
100
AcDbArc
 50
89.99998201389999
 51
180.0000186692996
  0
ARC
  5
1D2
330
2
100
AcDbEntity
  8
0
 62
     3
100
AcDbCircle
 10
118.1177468938999
 20
172.9499969482
 30
0.0
 40
0.2999997735
100
AcDbArc
 50
89.99998201389999
 51
179.9999640277999
  0
LINE
  5
1D3
330
2
100
AcDbEntity
  8
0
 62
     3
100
AcDbLine
 10
118.1177468938999
 20
173.2499389648
 30
0.0
 11
118.8176980657999
 21
173.2499389648
 31
0.0
  0
LINE
  5
1D4
330
2
100
AcDbEntity
  8
0
 62
     3
100
AcDbLine
 10
118.8176828069999
 20
174.1999511718
 30
0.0
 11
118.1177316350999
 21
174.1999511718
 31
0.0
  0
LINE
  5
1D5
330
2
100
AcDbEntity
  8
0
 62
     3
100
AcDbLine
 10
118.5176950139998
 20
174.8999481200999
 30
0.0
 11
118.5176950139998
 21
174.1999359131
 31
0.0
  0
LINE
  5
1D6
330
2
100
AcDbEntity
  8
0
 62
     3
100
AcDbLine
 10
128.8176828069999
 20
161.1004943846999
 30
0.0
 11
128.8176828069999
 21
175.8997955322
 31
0.0
  0
LINE
  5
1D7
330
2
100
AcDbEntity
  8
0
 62
     3
100
AcDbLine
 10
123.8172555608999
 20
169.2997741698999
 30
0.0
 11
123.8172555608999
 21
168.8997497557999
 31
0.0
  0
LINE
  5
1D8
330
2
100
AcDbEntity
  8
0
 62
     3
100
AcDbLine
 10
123.8172555608999
 20
168.0999450683
 30
0.0
 11
123.8172555608999
 21
167.6999206542999
 31
0.0
  0
LINE
  5
1D9
330
2
100
AcDbEntity
  8
0
 62
     3
100
AcDbLine
 10
123.8174997014999
 20
170.9497985839
 30
0.0
 11
123.8174997014999
 21
166.0500946044999
 31
0.0
  0
LINE
  5
1DA
330
2
100
AcDbEntity
  8
0
 62
     3
100
AcDbLine
 10
134.0175271673997
 20
169.1000213623
 30
0.0
 11
137.0175119086
 21
169.1000213623
 31
0.0
  0
LINE
  5
1DB
330
2
100
AcDbEntity
  8
0
 62
     3
100
AcDbLine
 10
134.0175271673997
 20
170.1924743652
 30
0.0
 11
137.0175119086
 21
170.1924743652
 31
0.0
  0
LINE
  5
1DC
330
2
100
AcDbEntity
  8
0
 62
     3
100
AcDbLine
 10
134.0175271673997
 20
171.3778381346999
 30
0.0
 11
137.0175119086
 21
171.3778381346999
 31
0.0
  0
LINE
  5
1DD
330
2
100
AcDbEntity
  8
0
 62
     3
100
AcDbLine
 10
134.0175271673997
 20
172.4202880859
 30
0.0
 11
137.0175119086
 21
172.4202880859
 31
0.0
  0
LINE
  5
1DE
330
2
100
AcDbEntity
  8
0
 62
     3
100
AcDbLine
 10
134.0175271673997
 20
173.4595031738
 30
0.0
 11
137.0175119086
 21
173.4595031738
 31
0.0
  0
LINE
  5
1DF
330
2
100
AcDbEntity
  8
0
 62
     3
100
AcDbLine
 10
134.0175271673997
 20
174.3345184325999
 30
0.0
 11
137.0175119086
 21
174.3345184325999
 31
0.0
  0
LINE
  5
1E0
330
2
100
AcDbEntity
  8
0
 62
     3
100
AcDbLine
 10
134.0175271673997
 20
175.2032165527
 30
0.0
 11
137.0175119086
 21
175.2032165527
 31
0.0
  0
LINE
  5
1E1
330
2
100
AcDbEntity
  8
0
 62
     3
100
AcDbLine
 10
134.0175271673997
 20
175.8901062010999
 30
0.0
 11
137.0175119086
 21
175.8901062010999
 31
0.0
  0
LINE
  5
1E2
330
2
100
AcDbEntity
  8
0
 62
     3
100
AcDbLine
 10
134.0175271673997
 20
176.4900970459
 30
0.0
 11
137.0175119086
 21
176.4900970459
 31
0.0
  0
LINE
  5
1E3
330
2
100
AcDbEntity
  8
0
 62
     3
100
AcDbLine
 10
134.0175271673997
 20
176.9132232665999
 30
0.0
 11
137.0175119086
 21
176.9132232665999
 31
0.0
  0
LINE
  5
1E4
330
2
100
AcDbEntity
  8
0
 62
     3
100
AcDbLine
 10
137.0175119086
 20
167.9000091552
 30
0.0
 11
134.0175271673997
 21
167.9000091552
 31
0.0
  0
LINE
  5
1E5
330
2
100
AcDbEntity
  8
0
 62
     3
100
AcDbLine
 10
137.0175119086
 20
166.8075561523
 30
0.0
 11
134.0175271673997
 21
166.8075561523
 31
0.0
  0
LINE
  5
1E6
330
2
100
AcDbEntity
  8
0
 62
     3
100
AcDbLine
 10
137.0175119086
 20
165.6221923828
 30
0.0
 11
134.0175271673997
 21
165.6221923828
 31
0.0
  0
LINE
  5
1E7
330
2
100
AcDbEntity
  8
0
 62
     3
100
AcDbLine
 10
137.0175119086
 20
164.5797424316
 30
0.0
 11
134.0175271673997
 21
164.5797424316
 31
0.0
  0
LINE
  5
1E8
330
2
100
AcDbEntity
  8
0
 62
     3
100
AcDbLine
 10
137.0175119086
 20
163.5405273437
 30
0.0
 11
134.0175271673997
 21
163.5405273437
 31
0.0
  0
LINE
  5
1E9
330
2
100
AcDbEntity
  8
0
 62
     3
100
AcDbLine
 10
137.0175119086
 20
162.6655120849
 30
0.0
 11
134.0175271673997
 21
162.6655120849
 31
0.0
  0
LINE
  5
1EA
330
2
100
AcDbEntity
  8
0
 62
     3
100
AcDbLine
 10
137.0175119086
 20
161.7968139648
 30
0.0
 11
134.0175271673997
 21
161.7968139648
 31
0.0
  0
LINE
  5
1EB
330
2
100
AcDbEntity
  8
0
 62
     3
100
AcDbLine
 10
137.0175119086
 20
161.1099243164
 30
0.0
 11
134.0175271673997
 21
161.1099243164
 31
0.0
  0
LINE
  5
1EC
330
2
100
AcDbEntity
  8
0
 62
     3
100
AcDbLine
 10
137.0175119086
 20
160.5099334715999
 30
0.0
 11
134.0175271673997
 21
160.5099334715999
 31
0.0
  0
LINE
  5
1ED
330
2
100
AcDbEntity
  8
0
 62
     3
100
AcDbLine
 10
137.0175119086
 20
160.0868072508999
 30
0.0
 11
134.0175271673997
 21
160.0868072508999
 31
0.0
  0
LINE
  5
1EE
330
2
100
AcDbEntity
  8
0
 62
     3
100
AcDbLine
 10
133.2175393743999
 20
177.4000091551998
 30
0.0
 11
137.0175119086
 21
177.4000091551998
 31
0.0
  0
LINE
  5
1EF
330
2
100
AcDbEntity
  8
0
 62
     3
100
AcDbLine
 10
133.2175393743999
 20
171.5000152588
 30
0.0
 11
133.2175393743999
 21
165.5000305175
 31
0.0
  0
LINE
  5
1F0
330
2
100
AcDbEntity
  8
0
 62
     3
100
AcDbLine
 10
133.2175393743999
 20
165.5000305175
 30
0.0
 11
132.0175424260999
 21
165.5000305175
 31
0.0
  0
LINE
  5
1F1
330
2
100
AcDbEntity
  8
0
 62
     3
100
AcDbLine
 10
132.0175424260999
 20
160.1209106445
 30
0.0
 11
133.2175393743999
 21
160.1209106445
 31
0.0
  0
LINE
  5
1F2
330
2
100
AcDbEntity
  8
0
 62
     3
100
AcDbLine
 10
132.0175424260999
 20
165.5000305175
 30
0.0
 11
132.0175424260999
 21
160.1209106445
 31
0.0
  0
LINE
  5
1F3
330
2
100
AcDbEntity
  8
0
 62
     3
100
AcDbLine
 10
132.0175271673997
 20
164.5004272461
 30
0.0
 11
129.2175851507997
 21
164.5004272461
 31
0.0
  0
LINE
  5
1F4
330
2
100
AcDbEntity
  8
0
 62
     3
100
AcDbLine
 10
132.0175271673997
 20
160.5005187987999
 30
0.0
 11
129.2175851507997
 21
160.5005187987999
 31
0.0
  0
LINE
  5
1F5
330
2
100
AcDbEntity
  8
0
 62
     3
100
AcDbLine
 10
129.2175851507997
 20
160.5005187987999
 30
0.0
 11
129.2175851507997
 21
164.5004272461
 31
0.0
  0
LINE
  5
1F6
330
2
100
AcDbEntity
  8
0
 62
     3
100
AcDbLine
 10
134.0175271673997
 20
165.6221923828
 30
0.0
 11
134.0175271673997
 21
164.5797424316
 31
0.0
  0
LINE
  5
1F7
330
2
100
AcDbEntity
  8
0
 62
     3
100
AcDbLine
 10
134.0175271673997
 20
162.6655120849
 30
0.0
 11
134.0175271673997
 21
163.5405273437
 31
0.0
  0
LINE
  5
1F8
330
2
100
AcDbEntity
  8
0
 62
     3
100
AcDbLine
 10
134.0175271673997
 20
161.1099243164
 30
0.0
 11
134.0175271673997
 21
161.7968139648
 31
0.0
  0
LINE
  5
1F9
330
2
100
AcDbEntity
  8
0
 62
     3
100
AcDbLine
 10
134.0174508733997
 20
160.5098419188999
 30
0.0
 11
134.0174508733997
 21
160.086730957
 31
0.0
  0
LINE
  5
1FA
330
2
100
AcDbEntity
  8
0
 62
     3
100
AcDbLine
 10
134.0175271673997
 20
170.1924743652
 30
0.0
 11
134.0175271673997
 21
169.1000213623
 31
0.0
  0
LINE
  5
1FB
330
2
100
AcDbEntity
  8
0
 62
     3
100
AcDbLine
 10
134.0175271673997
 20
167.9000091552
 30
0.0
 11
134.0175271673997
 21
166.8075561523
 31
0.0
  0
LINE
  5
1FC
330
2
100
AcDbEntity
  8
0
 62
     3
100
AcDbLine
 10
133.2175393743999
 20
176.8791809082
 30
0.0
 11
132.0175424260999
 21
176.8791809082
 31
0.0
  0
LINE
  5
1FD
330
2
100
AcDbEntity
  8
0
 62
     3
100
AcDbLine
 10
132.0175424260999
 20
171.5000152588
 30
0.0
 11
133.2175393743999
 21
171.5000152588
 31
0.0
  0
LINE
  5
1FE
330
2
100
AcDbEntity
  8
0
 62
     3
100
AcDbLine
 10
129.2175851507997
 20
172.4998931883999
 30
0.0
 11
132.0175271673997
 21
172.4998931883999
 31
0.0
  0
LINE
  5
1FF
330
2
100
AcDbEntity
  8
0
 62
     3
100
AcDbLine
 10
129.2175851507997
 20
176.4998931884
 30
0.0
 11
132.0175271673997
 21
176.4998931884
 31
0.0
  0
LINE
  5
200
330
2
100
AcDbEntity
  8
0
 62
     3
100
AcDbLine
 10
129.2175851507997
 20
172.4998931883999
 30
0.0
 11
129.2175851507997
 21
176.4998931884
 31
0.0
  0
LINE
  5
201
330
2
100
AcDbEntity
  8
0
 62
     3
100
AcDbLine
 10
132.0175424260999
 20
176.8791809082
 30
0.0
 11
132.0175424260999
 21
171.5000152588
 31
0.0
  0
LINE
  5
202
330
2
100
AcDbEntity
  8
0
 62
     3
100
AcDbLine
 10
133.2175393743999
 20
177.4000091551998
 30
0.0
 11
133.2175393743999
 21
176.8791809082
 31
0.0
  0
LINE
  5
203
330
2
100
AcDbEntity
  8
0
 62
     3
100
AcDbLine
 10
134.0175271673997
 20
172.4202880859
 30
0.0
 11
134.0175271673997
 21
171.3778381346999
 31
0.0
  0
LINE
  5
204
330
2
100
AcDbEntity
  8
0
 62
     3
100
AcDbLine
 10
134.0175271673997
 20
173.4595031738
 30
0.0
 11
134.0175271673997
 21
174.3345184325999
 31
0.0
  0
LINE
  5
205
330
2
100
AcDbEntity
  8
0
 62
     3
100
AcDbLine
 10
134.0175271673997
 20
175.2032165527
 30
0.0
 11
134.0175271673997
 21
175.8901062010999
 31
0.0
  0
LINE
  5
206
330
2
100
AcDbEntity
  8
0
 62
     3
100
AcDbLine
 10
134.0175882024997
 20
176.9132690429
 30
0.0
 11
134.0175882024997
 21
176.4901580809999
 31
0.0
  0
LINE
  5
207
330
2
100
AcDbEntity
  8
0
 62
     3
100
AcDbLine
 10
138.0174966497999
 20
162.4999847411999
 30
0.0
 11
138.0174966497999
 21
174.4999694824
 31
0.0
  0
LINE
  5
208
330
2
100
AcDbEntity
  8
0
 62
     3
100
AcDbLine
 10
140.2176614446998
 20
177.200012207
 30
0.0
 11
140.2176614446998
 21
159.8000030517
 31
0.0
  0
LINE
  5
209
330
2
100
AcDbEntity
  8
0
 62
     3
100
AcDbLine
 10
140.2194030444997
 20
161.0998438969
 30
0.0
 11
139.91941662
 21
160.4998863207999
 31
0.0
  0
LINE
  5
20A
330
2
100
AcDbEntity
  8
0
 62
     3
100
AcDbLine
 10
140.2176614446998
 20
161.1004943846999
 30
0.0
 11
138.4918924017
 21
161.1004943846999
 31
0.0
  0
LINE
  5
20B
330
2
100
AcDbEntity
  8
0
 62
     3
100
AcDbLine
 10
140.2176614446998
 20
164.5004272461
 30
0.0
 11
138.0174966497999
 21
164.5004272461
 31
0.0
  0
LINE
  5
20C
330
2
100
AcDbEntity
  8
0
 62
     3
100
AcDbLine
 10
138.0175069139999
 20
162.4999735047
 30
0.0
 11
138.9086680939998
 21
159.8709994124
 31
0.0
  0
LINE
  5
20D
330
2
100
AcDbEntity
  8
0
 62
     3
100
AcDbLine
 10
139.9197030707
 20
160.5005187987999
 30
0.0
 11
138.6952615423997
 21
160.5005187987999
 31
0.0
  0
LINE
  5
20E
330
2
100
AcDbEntity
  8
0
 62
     3
100
AcDbLine
 10
140.2176614446998
 20
159.8000030517
 30
0.0
 11
140.8176675481998
 21
159.8000030517
 31
0.0
  0
LINE
  5
20F
330
2
100
AcDbEntity
  8
0
 62
     3
100
AcDbLine
 10
140.2186579941
 20
175.8991866259999
 30
0.0
 11
139.9186658831
 21
176.4992778177
 31
0.0
  0
LINE
  5
210
330
2
100
AcDbEntity
  8
0
 62
     3
100
AcDbLine
 10
138.4919992132996
 20
175.8997955322
 30
0.0
 11
140.2176614446998
 21
175.8997955322
 31
0.0
  0
LINE
  5
211
330
2
100
AcDbEntity
  8
0
 62
     3
100
AcDbLine
 10
138.0174966497999
 20
172.4998931883999
 30
0.0
 11
140.2176614446998
 21
172.4998931883999
 31
0.0
  0
LINE
  5
212
330
2
100
AcDbEntity
  8
0
 62
     3
100
AcDbLine
 10
137.0175039046999
 20
174.6648402216
 30
0.0
 11
137.9616085223997
 21
177.4499860133
 31
0.0
  0
LINE
  5
213
330
2
100
AcDbEntity
  8
0
 62
     3
100
AcDbLine
 10
138.0175008545999
 20
174.4999971495999
 30
0.0
 11
138.9086563738
 21
177.1289410161
 31
0.0
  0
LINE
  5
214
330
2
100
AcDbEntity
  8
0
 62
     3
100
AcDbLine
 10
138.6954293889999
 20
176.4998931884
 30
0.0
 11
139.9183908147998
 21
176.4998931884
 31
0.0
  0
LINE
  5
215
330
2
100
AcDbEntity
  8
0
 62
     3
100
AcDbLine
 10
137.9616273638999
 20
177.4499783015
 30
0.0
 11
138.9086771933999
 21
177.1289392916999
 31
0.0
  0
LINE
  5
216
330
2
100
AcDbEntity
  8
0
 62
     3
100
AcDbLine
 10
137.0174966498
 20
177.450012207
 30
0.0
 11
137.9616037053999
 21
177.450012207
 31
0.0
  0
LINE
  5
217
330
2
100
AcDbEntity
  8
0
 62
     3
100
AcDbLine
 10
140.2176614446998
 20
177.200012207
 30
0.0
 11
140.8176675481998
 21
177.200012207
 31
0.0
  0
LINE
  5
218
330
2
100
AcDbEntity
  8
0
 62
     3
100
AcDbLine
 10
137.0171151799999
 20
205.5099487304
 30
0.0
 11
134.0171304387999
 21
205.5099487304
 31
0.0
  0
LINE
  5
219
330
2
100
AcDbEntity
  8
0
 62
     3
100
AcDbLine
 10
137.0171151799999
 20
205.0868225097
 30
0.0
 11
134.0171304387999
 21
205.0868225097
 31
0.0
  0
LINE
  5
21A
330
2
100
AcDbEntity
  8
0
 62
     3
100
AcDbLine
 10
137.0170999212999
 20
204.6000366211
 30
0.0
 11
133.2171273870999
 21
204.6000366211
 31
0.0
  0
LINE
  5
21B
330
2
100
AcDbEntity
  8
0
 62
     3
100
AcDbLine
 10
132.0171456975999
 20
205.1209259033
 30
0.0
 11
133.2171426458999
 21
205.1209259033
 31
0.0
  0
LINE
  5
21C
330
2
100
AcDbEntity
  8
0
 62
     3
100
AcDbLine
 10
133.2170994202999
 20
204.6000261822999
 30
0.0
 11
133.2171146790997
 21
205.1209154646
 31
0.0
  0
LINE
  5
21D
330
2
100
AcDbEntity
  8
0
 62
     3
100
AcDbLine
 10
134.0170083685
 20
205.5098419189
 30
0.0
 11
134.0170083685
 21
205.086730957
 31
0.0
  0
LINE
  5
21E
330
2
100
AcDbEntity
  8
0
 62
     3
100
AcDbLine
 10
137.9612099924999
 20
204.5502142138
 30
0.0
 11
138.9082789221997
 21
204.8712444133
 31
0.0
  0
LINE
  5
21F
330
2
100
AcDbEntity
  8
0
 62
     3
100
AcDbLine
 10
137.0171151799999
 20
204.5502624511
 30
0.0
 11
137.9612069768999
 21
204.5502624511
 31
0.0
  0
LINE
  5
220
330
2
100
AcDbEntity
  8
0
 62
     3
100
AcDbLine
 10
140.2176614446998
 20
204.8002624511
 30
0.0
 11
140.8176675481998
 21
204.8002624511
 31
0.0
  0
LINE
  5
221
330
2
100
AcDbEntity
  8
0
 62
     3
100
AcDbLine
 10
129.2696717744999
 20
212.7987836927999
 30
0.0
 11
128.8661441328999
 21
211.3539544068999
 31
0.0
  0
LINE
  5
222
330
2
100
AcDbEntity
  8
0
 62
     3
100
AcDbLine
 10
129.1734954215999
 20
214.2002311445999
 30
0.0
 11
128.8176764136997
 21
219.4663612709999
 31
0.0
  0
LINE
  5
223
330
2
100
AcDbEntity
  8
0
 62
     3
100
AcDbLine
 10
128.8176980657999
 20
214.2002716063999
 30
0.0
 11
133.2171273870999
 21
214.2002716063999
 31
0.0
  0
LINE
  5
224
330
2
100
AcDbEntity
  8
0
 62
     3
100
AcDbLine
 10
129.2236601034999
 20
206.063994659
 30
0.0
 11
128.8662086245999
 21
211.3542853960999
 31
0.0
  0
LINE
  5
225
330
2
100
AcDbEntity
  8
0
 62
     3
100
AcDbLine
 10
129.4047278174999
 20
210.8033295932998
 30
0.0
 11
128.8664115228999
 21
211.3540655701999
 31
0.0
  0
LINE
  5
226
330
2
100
AcDbEntity
  8
0
 62
     3
100
AcDbLine
 10
123.8175759954998
 20
206.1002502441
 30
0.0
 11
132.0171304387999
 21
206.1002502441
 31
0.0
  0
LINE
  5
227
330
2
100
AcDbEntity
  8
0
 62
     3
100
AcDbLine
 10
132.0171304387999
 20
220.9001770018999
 30
0.0
 11
123.8175759954998
 21
220.9001770018999
 31
0.0
  0
LINE
  5
228
330
2
100
AcDbEntity
  8
0
 62
     3
100
AcDbLine
 10
118.8175302190999
 20
220.8495941161999
 30
0.0
 11
123.8175302191
 21
220.8495941161999
 31
0.0
  0
LINE
  5
229
330
2
100
AcDbEntity
  8
0
 62
     3
100
AcDbLine
 10
118.8175302190999
 20
206.1499938963999
 30
0.0
 11
123.8175302191
 21
206.1499938963999
 31
0.0
  0
LINE
  5
22A
330
2
100
AcDbEntity
  8
0
 62
     3
100
AcDbLine
 10
120.3176980657999
 20
215.2002105713
 30
0.0
 11
121.8176980657997
 21
215.2002105713
 31
0.0
  0
LINE
  5
22B
330
2
100
AcDbEntity
  8
0
 62
     3
100
AcDbLine
 10
120.3176980657999
 20
211.8001861571999
 30
0.0
 11
121.8176980657997
 21
211.8001861571999
 31
0.0
  0
LINE
  5
22C
330
2
100
AcDbEntity
  8
0
 62
     3
100
AcDbLine
 10
118.8175302190999
 20
220.4992523193
 30
0.0
 11
123.8175302191
 21
220.4992523193
 31
0.0
  0
LINE
  5
22D
330
2
100
AcDbEntity
  8
0
 62
     3
100
AcDbLine
 10
118.8175302190999
 20
206.4997253417999
 30
0.0
 11
123.8175302191
 21
206.4997253417999
 31
0.0
  0
LINE
  5
22E
330
2
100
AcDbEntity
  8
0
 62
     3
100
AcDbLine
 10
120.3176980657999
 20
217.0000152587999
 30
0.0
 11
121.8176980657997
 21
217.0000152587999
 31
0.0
  0
LINE
  5
22F
330
2
100
AcDbEntity
  8
0
 62
     3
100
AcDbLine
 10
120.3176980657999
 20
210.0000152588
 30
0.0
 11
121.8176980657997
 21
210.0000152588
 31
0.0
  0
LINE
  5
230
330
2
100
AcDbEntity
  8
0
 62
     3
100
AcDbLine
 10
120.3176980657999
 20
211.5000152588
 30
0.0
 11
121.8176980657997
 21
211.5000152588
 31
0.0
  0
LINE
  5
231
330
2
100
AcDbEntity
  8
0
 62
     3
100
AcDbLine
 10
120.3175759954999
 20
215.5000152587998
 30
0.0
 11
121.8176980657997
 21
215.5000152587998
 31
0.0
  0
ARC
  5
232
330
2
100
AcDbEntity
  8
0
 62
     3
100
AcDbCircle
 10
118.1147256536999
 20
217.0000915527
 30
0.0
 40
0.2999999522999999
100
AcDbArc
 50
90.00156661780001
 51
180.0000186692996
  0
LINE
  5
233
330
2
100
AcDbEntity
  8
0
 62
     3
100
AcDbLine
 10
117.8147378607
 20
217.3999938963999
 30
0.0
 11
117.8147378607
 21
215.1000671385999
 31
0.0
  0
LINE
  5
234
330
2
100
AcDbEntity
  8
0
 62
     3
100
AcDbLine
 10
118.8176980657999
 20
206.1500396727999
 30
0.0
 11
118.8176980657999
 21
220.8499908447
 31
0.0
  0
ARC
  5
235
330
2
100
AcDbEntity
  8
0
 62
     3
100
AcDbCircle
 10
118.1147256536999
 20
211.5000915526998
 30
0.0
 40
0.2999999522999999
100
AcDbArc
 50
90.00156661780001
 51
180.0000186692996
  0
ARC
  5
236
330
2
100
AcDbEntity
  8
0
 62
     3
100
AcDbCircle
 10
118.1147409125
 20
211.9004821777
 30
0.0
 40
0.2999997735
100
AcDbArc
 50
89.99998201389999
 51
179.9999093863
  0
ARC
  5
237
330
2
100
AcDbEntity
  8
0
 62
     3
100
AcDbCircle
 10
118.1147256536999
 20
215.5000915526998
 30
0.0
 40
0.2999999522999999
100
AcDbArc
 50
180.0000359722
 51
269.9985426651998
  0
ARC
  5
238
330
2
100
AcDbEntity
  8
0
 62
     3
100
AcDbCircle
 10
118.1147409125
 20
215.1005554199
 30
0.0
 40
0.2999997735
100
AcDbArc
 50
180.0000359722
 51
270.0000179861
  0
ARC
  5
239
330
2
100
AcDbEntity
  8
0
 62
     3
100
AcDbCircle
 10
118.1147256536999
 20
210.0000915527
 30
0.0
 40
0.2999999522999999
100
AcDbArc
 50
180.0000359722
 51
269.9985426651998
  0
ARC
  5
23A
330
2
100
AcDbEntity
  8
0
 62
     3
100
AcDbCircle
 10
118.1147409125
 20
209.6005554198998
 30
0.0
 40
0.2999997735
100
AcDbArc
 50
180.0000359722
 51
270.0000179861
  0
LINE
  5
23B
330
2
100
AcDbEntity
  8
0
 62
     3
100
AcDbLine
 10
117.8147226018999
 20
211.8999938963999
 30
0.0
 11
117.8147226018999
 21
209.6000823973999
 31
0.0
  0
LINE
  5
23C
330
2
100
AcDbEntity
  8
0
 62
     3
100
AcDbLine
 10
120.3176980657999
 20
210.0000152588
 30
0.0
 11
120.3176980657999
 21
211.5000152588
 31
0.0
  0
LINE
  5
23D
330
2
100
AcDbEntity
  8
0
 62
     3
100
AcDbLine
 10
118.8176980657999
 20
209.6998138426998
 30
0.0
 11
118.1147256536999
 21
209.6998138426998
 31
0.0
  0
LINE
  5
23E
330
2
100
AcDbEntity
  8
0
 62
     3
100
AcDbLine
 10
118.8176980657999
 20
209.3001556395999
 30
0.0
 11
118.1147409125
 21
209.3001556395999
 31
0.0
  0
LINE
  5
23F
330
2
100
AcDbEntity
  8
0
 62
     3
100
AcDbLine
 10
118.8176980657999
 20
211.7997741698998
 30
0.0
 11
118.1147256536999
 21
211.7997741698998
 31
0.0
  0
LINE
  5
240
330
2
100
AcDbEntity
  8
0
 62
     3
100
AcDbLine
 10
118.8176980657999
 20
212.2001647948998
 30
0.0
 11
118.1147409125
 21
212.2001647948998
 31
0.0
  0
LINE
  5
241
330
2
100
AcDbEntity
  8
0
 62
     3
100
AcDbLine
 10
118.8176980657999
 20
215.1998138426999
 30
0.0
 11
118.1147256536999
 21
215.1998138426999
 31
0.0
  0
LINE
  5
242
330
2
100
AcDbEntity
  8
0
 62
     3
100
AcDbLine
 10
118.8176980657999
 20
214.8001556395999
 30
0.0
 11
118.1147409125
 21
214.8001556395999
 31
0.0
  0
LINE
  5
243
330
2
100
AcDbEntity
  8
0
 62
     3
100
AcDbLine
 10
120.3175302190997
 20
215.1994476318
 30
0.0
 11
120.3175302190997
 21
211.7995605467998
 31
0.0
  0
LINE
  5
244
330
2
100
AcDbEntity
  8
0
 62
     3
100
AcDbLine
 10
120.3176980657999
 20
215.5000152587998
 30
0.0
 11
120.3176980657999
 21
217.0000152587999
 31
0.0
  0
ARC
  5
245
330
2
100
AcDbEntity
  8
0
 62
     3
100
AcDbCircle
 10
118.1147409125
 20
217.4004821777
 30
0.0
 40
0.2999997735
100
AcDbArc
 50
89.99998201389999
 51
179.9999093863
  0
LINE
  5
246
330
2
100
AcDbEntity
  8
0
 62
     3
100
AcDbLine
 10
118.8176980657999
 20
217.2997741699
 30
0.0
 11
118.1147256536999
 21
217.2997741699
 31
0.0
  0
LINE
  5
247
330
2
100
AcDbEntity
  8
0
 62
     3
100
AcDbLine
 10
118.8176980657999
 20
217.7001647948999
 30
0.0
 11
118.1147409125
 21
217.7001647948999
 31
0.0
  0
LINE
  5
248
330
2
100
AcDbEntity
  8
0
 62
     3
100
AcDbLine
 10
128.8176980657999
 20
206.1003723143999
 30
0.0
 11
128.8176980657999
 21
220.9002990721999
 31
0.0
  0
LINE
  5
249
330
2
100
AcDbEntity
  8
0
 62
     3
100
AcDbLine
 10
121.8176980657997
 20
210.0000152588
 30
0.0
 11
121.8176980657997
 21
211.5000152588
 31
0.0
  0
LINE
  5
24A
330
2
100
AcDbEntity
  8
0
 62
     3
100
AcDbLine
 10
123.8175302191
 20
206.4997253417999
 30
0.0
 11
123.8175302191
 21
206.0997009277
 31
0.0
  0
LINE
  5
24B
330
2
100
AcDbEntity
  8
0
 62
     3
100
AcDbLine
 10
121.8175302191
 20
215.1994476318
 30
0.0
 11
121.8175302191
 21
211.7995605467998
 31
0.0
  0
LINE
  5
24C
330
2
100
AcDbEntity
  8
0
 62
     3
100
AcDbLine
 10
121.8176980657997
 20
215.5000152587998
 30
0.0
 11
121.8176980657997
 21
217.0000152587999
 31
0.0
  0
LINE
  5
24D
330
2
100
AcDbEntity
  8
0
 62
     3
100
AcDbLine
 10
123.8172449080998
 20
220.899683346
 30
0.0
 11
123.8172372787999
 21
220.4997810022
 31
0.0
  0
LINE
  5
24E
330
2
100
AcDbEntity
  8
0
 62
     3
100
AcDbLine
 10
134.0171304387999
 20
214.1000366211
 30
0.0
 11
137.0171151799999
 21
214.1000366211
 31
0.0
  0
LINE
  5
24F
330
2
100
AcDbEntity
  8
0
 62
     3
100
AcDbLine
 10
134.0171304387999
 20
215.1924896239998
 30
0.0
 11
137.0171151799999
 21
215.1924896239998
 31
0.0
  0
LINE
  5
250
330
2
100
AcDbEntity
  8
0
 62
     3
100
AcDbLine
 10
134.0171304387999
 20
216.3778533934999
 30
0.0
 11
137.0171151799999
 21
216.3778533934999
 31
0.0
  0
LINE
  5
251
330
2
100
AcDbEntity
  8
0
 62
     3
100
AcDbLine
 10
134.0171304387999
 20
217.4203033447
 30
0.0
 11
137.0171151799999
 21
217.4203033447
 31
0.0
  0
LINE
  5
252
330
2
100
AcDbEntity
  8
0
 62
     3
100
AcDbLine
 10
134.0171304387999
 20
218.4595184326
 30
0.0
 11
137.0171151799999
 21
218.4595184326
 31
0.0
  0
LINE
  5
253
330
2
100
AcDbEntity
  8
0
 62
     3
100
AcDbLine
 10
134.0171304387999
 20
219.3345336913999
 30
0.0
 11
137.0171151799999
 21
219.3345336913999
 31
0.0
  0
LINE
  5
254
330
2
100
AcDbEntity
  8
0
 62
     3
100
AcDbLine
 10
134.0171304387999
 20
220.2032318114998
 30
0.0
 11
137.0171151799999
 21
220.2032318114998
 31
0.0
  0
LINE
  5
255
330
2
100
AcDbEntity
  8
0
 62
     3
100
AcDbLine
 10
134.0171304387999
 20
220.8901214598998
 30
0.0
 11
137.0171151799999
 21
220.8901214598998
 31
0.0
  0
LINE
  5
256
330
2
100
AcDbEntity
  8
0
 62
     3
100
AcDbLine
 10
134.0171304387999
 20
221.4901123046999
 30
0.0
 11
137.0171151799999
 21
221.4901123046999
 31
0.0
  0
LINE
  5
257
330
2
100
AcDbEntity
  8
0
 62
     3
100
AcDbLine
 10
134.0171304387999
 20
221.9132385253999
 30
0.0
 11
137.0171151799999
 21
221.9132385253999
 31
0.0
  0
LINE
  5
258
330
2
100
AcDbEntity
  8
0
 62
     3
100
AcDbLine
 10
137.0171151799999
 20
212.9000244139998
 30
0.0
 11
134.0171304387999
 21
212.9000244139998
 31
0.0
  0
LINE
  5
259
330
2
100
AcDbEntity
  8
0
 62
     3
100
AcDbLine
 10
137.0171151799999
 20
211.8075714110998
 30
0.0
 11
134.0171304387999
 21
211.8075714110998
 31
0.0
  0
LINE
  5
25A
330
2
100
AcDbEntity
  8
0
 62
     3
100
AcDbLine
 10
137.0171151799999
 20
210.6222076415999
 30
0.0
 11
134.0171304387999
 21
210.6222076415999
 31
0.0
  0
LINE
  5
25B
330
2
100
AcDbEntity
  8
0
 62
     3
100
AcDbLine
 10
137.0171151799999
 20
209.5797576903998
 30
0.0
 11
134.0171304387999
 21
209.5797576903998
 31
0.0
  0
LINE
  5
25C
330
2
100
AcDbEntity
  8
0
 62
     3
100
AcDbLine
 10
137.0171151799999
 20
208.5405426025
 30
0.0
 11
134.0171304387999
 21
208.5405426025
 31
0.0
  0
LINE
  5
25D
330
2
100
AcDbEntity
  8
0
 62
     3
100
AcDbLine
 10
137.0171151799999
 20
207.6655273436999
 30
0.0
 11
134.0171304387999
 21
207.6655273436999
 31
0.0
  0
LINE
  5
25E
330
2
100
AcDbEntity
  8
0
 62
     3
100
AcDbLine
 10
137.0171151799999
 20
206.7968292236
 30
0.0
 11
134.0171304387999
 21
206.7968292236
 31
0.0
  0
LINE
  5
25F
330
2
100
AcDbEntity
  8
0
 62
     3
100
AcDbLine
 10
137.0171151799999
 20
206.1099395752
 30
0.0
 11
134.0171304387999
 21
206.1099395752
 31
0.0
  0
LINE
  5
260
330
2
100
AcDbEntity
  8
0
 62
     3
100
AcDbLine
 10
133.2171426458999
 20
222.4000244139999
 30
0.0
 11
137.0171151799999
 21
222.4000244139999
 31
0.0
  0
LINE
  5
261
330
2
100
AcDbEntity
  8
0
 62
     3
100
AcDbLine
 10
134.0171304387999
 20
217.4203033447
 30
0.0
 11
134.0171304387999
 21
216.3778533934999
 31
0.0
  0
LINE
  5
262
330
2
100
AcDbEntity
  8
0
 62
     3
100
AcDbLine
 10
129.6746354219999
 20
214.2002319110999
 30
0.0
 11
129.2219029803999
 21
220.9006832550999
 31
0.0
  0
LINE
  5
263
330
2
100
AcDbEntity
  8
0
 62
     3
100
AcDbLine
 10
129.7219552821998
 20
220.9002587762999
 30
0.0
 11
130.1746589215997
 21
214.2002337063999
 31
0.0
  0
LINE
  5
264
330
2
100
AcDbEntity
  8
0
 62
     3
100
AcDbLine
 10
130.2171815516
 20
220.9006399396999
 30
0.0
 11
130.6699109073
 21
214.2002342678999
 31
0.0
  0
LINE
  5
265
330
2
100
AcDbEntity
  8
0
 62
     3
100
AcDbLine
 10
132.0171456975999
 20
221.8791961669999
 30
0.0
 11
132.0171456975999
 21
216.5000305174999
 31
0.0
  0
LINE
  5
266
330
2
100
AcDbEntity
  8
0
 62
     3
100
AcDbLine
 10
129.2700601263
 20
212.8002624510998
 30
0.0
 11
133.2171273870999
 21
212.8002624510998
 31
0.0
  0
LINE
  5
267
330
2
100
AcDbEntity
  8
0
 62
     3
100
AcDbLine
 10
132.0171456975999
 20
216.5000305174999
 30
0.0
 11
133.2171426458999
 21
216.5000305174999
 31
0.0
  0
LINE
  5
268
330
2
100
AcDbEntity
  8
0
 62
     3
100
AcDbLine
 10
133.2171426458999
 20
210.5000457762999
 30
0.0
 11
132.0171456975999
 21
210.5000457762999
 31
0.0
  0
LINE
  5
269
330
2
100
AcDbEntity
  8
0
 62
     3
100
AcDbLine
 10
129.8645805843999
 20
211.4220533225998
 30
0.0
 11
129.2703914471998
 21
212.7993475351999
 31
0.0
  0
LINE
  5
26A
330
2
100
AcDbEntity
  8
0
 62
     3
100
AcDbLine
 10
130.3192212518997
 20
212.8001779722999
 30
0.0
 11
130.7719135759999
 21
206.1003203672999
 31
0.0
  0
LINE
  5
26B
330
2
100
AcDbEntity
  8
0
 62
     3
100
AcDbLine
 10
130.8144732376
 20
212.8001785338
 30
0.0
 11
131.2671707049997
 21
206.1002448083999
 31
0.0
  0
LINE
  5
26C
330
2
100
AcDbEntity
  8
0
 62
     3
100
AcDbLine
 10
130.2695694372999
 20
206.1346640903999
 30
0.0
 11
129.8191967236999
 21
212.8001914011
 31
0.0
  0
LINE
  5
26D
330
2
100
AcDbEntity
  8
0
 62
     3
100
AcDbLine
 10
129.7207404227999
 20
206.1009915794
 30
0.0
 11
129.4028869083997
 21
210.8052314613
 31
0.0
  0
LINE
  5
26E
330
2
100
AcDbEntity
  8
0
 62
     3
100
AcDbLine
 10
129.8639673609
 20
211.4220027937999
 30
0.0
 11
129.4045970566999
 21
210.8037107342
 31
0.0
  0
LINE
  5
26F
330
2
100
AcDbEntity
  8
0
 62
     3
100
AcDbLine
 10
133.2171426458999
 20
216.5000305174999
 30
0.0
 11
133.2171426458999
 21
210.5000457762999
 31
0.0
  0
LINE
  5
270
330
2
100
AcDbEntity
  8
0
 62
     3
100
AcDbLine
 10
134.0171304387999
 20
210.6222076415999
 30
0.0
 11
134.0171304387999
 21
209.5797576903998
 31
0.0
  0
LINE
  5
271
330
2
100
AcDbEntity
  8
0
 62
     3
100
AcDbLine
 10
134.0171304387999
 20
207.6655273436999
 30
0.0
 11
134.0171304387999
 21
208.5405426025
 31
0.0
  0
LINE
  5
272
330
2
100
AcDbEntity
  8
0
 62
     3
100
AcDbLine
 10
134.0171304387999
 20
206.1099395752
 30
0.0
 11
134.0171304387999
 21
206.7968292236
 31
0.0
  0
LINE
  5
273
330
2
100
AcDbEntity
  8
0
 62
     3
100
AcDbLine
 10
134.0171304387999
 20
215.1924896239998
 30
0.0
 11
134.0171304387999
 21
214.1000366211
 31
0.0
  0
LINE
  5
274
330
2
100
AcDbEntity
  8
0
 62
     3
100
AcDbLine
 10
134.0171304387999
 20
212.9000244139998
 30
0.0
 11
134.0171304387999
 21
211.8075714110998
 31
0.0
  0
LINE
  5
275
330
2
100
AcDbEntity
  8
0
 62
     3
100
AcDbLine
 10
133.2171426458999
 20
221.8791961669999
 30
0.0
 11
132.0171456975999
 21
221.8791961669999
 31
0.0
  0
LINE
  5
276
330
2
100
AcDbEntity
  8
0
 62
     3
100
AcDbLine
 10
134.0171304387999
 20
218.4595184326
 30
0.0
 11
134.0171304387999
 21
219.3345336913999
 31
0.0
  0
LINE
  5
277
330
2
100
AcDbEntity
  8
0
 62
     3
100
AcDbLine
 10
134.0171304387999
 20
220.2032318114998
 30
0.0
 11
134.0171304387999
 21
220.8901214598998
 31
0.0
  0
LINE
  5
278
330
2
100
AcDbEntity
  8
0
 62
     3
100
AcDbLine
 10
134.0172067327999
 20
221.9132843016999
 30
0.0
 11
134.0172067327999
 21
221.4901733398
 31
0.0
  0
LINE
  5
279
330
2
100
AcDbEntity
  8
0
 62
     3
100
AcDbLine
 10
133.2171426458999
 20
222.4000244139999
 30
0.0
 11
133.2171426458999
 21
221.8791961669999
 31
0.0
  0
LINE
  5
27A
330
2
100
AcDbEntity
  8
0
 62
     3
100
AcDbLine
 10
138.0170999212999
 20
207.5002441405998
 30
0.0
 11
138.0170999212999
 21
219.5002288818
 31
0.0
  0
LINE
  5
27B
330
2
100
AcDbEntity
  8
0
 62
     3
100
AcDbLine
 10
138.0171151799999
 20
212.8002624510998
 30
0.0
 11
140.2176614446998
 21
212.8002624510998
 31
0.0
  0
LINE
  5
27C
330
2
100
AcDbEntity
  8
0
 62
     3
100
AcDbLine
 10
138.0171151799999
 20
214.2002716063999
 30
0.0
 11
140.2176614446998
 21
214.2002716063999
 31
0.0
  0
LINE
  5
27D
330
2
100
AcDbEntity
  8
0
 62
     3
100
AcDbLine
 10
138.4916787786997
 20
206.1002502441
 30
0.0
 11
140.2176614446998
 21
206.1002502441
 31
0.0
  0
LINE
  5
27E
330
2
100
AcDbEntity
  8
0
 62
     3
100
AcDbLine
 10
140.2176614446998
 20
220.9001770018999
 30
0.0
 11
138.4916787786997
 21
220.9001770018999
 31
0.0
  0
LINE
  5
27F
330
2
100
AcDbEntity
  8
0
 62
     3
100
AcDbLine
 10
137.9612417106
 20
222.4502158366
 30
0.0
 11
138.9083059910999
 21
222.1291719279999
 31
0.0
  0
LINE
  5
280
330
2
100
AcDbEntity
  8
0
 62
     3
100
AcDbLine
 10
138.0171272104999
 20
219.5002251199999
 30
0.0
 11
138.9082827296998
 21
222.1291689863999
 31
0.0
  0
LINE
  5
281
330
2
100
AcDbEntity
  8
0
 62
     3
100
AcDbLine
 10
137.0171151799999
 20
222.4502716063999
 30
0.0
 11
137.9612222356998
 21
222.4502716063999
 31
0.0
  0
LINE
  5
282
330
2
100
AcDbEntity
  8
0
 62
     3
100
AcDbLine
 10
137.0171158093999
 20
219.6650730905
 30
0.0
 11
137.9612204270999
 21
222.4502188823
 31
0.0
  0
LINE
  5
283
330
2
100
AcDbEntity
  8
0
 62
     3
100
AcDbLine
 10
140.2176614446998
 20
222.2002563475999
 30
0.0
 11
140.8176675481998
 21
222.2002563475999
 31
0.0
  0
LINE
  5
284
330
2
100
AcDbEntity
  8
0
 62
     3
100
AcDbLine
 10
187.2678569015999
 20
160.0501119105999
 30
0.0
 11
187.7761207036999
 21
159.5415429288
 31
0.0
  0
LINE
  5
285
330
2
100
AcDbEntity
  8
0
 62
     3
100
AcDbLine
 10
187.7762092549999
 20
159.5414487053
 30
0.0
 11
187.7177027585998
 21
162.5507371804
 31
0.0
  0
LINE
  5
286
330
2
100
AcDbEntity
  8
0
 62
     3
100
AcDbLine
 10
187.2678562686999
 20
160.0498250103
 30
0.0
 11
184.7669269750999
 21
159.5999968966999
 31
0.0
  0
LINE
  5
287
330
2
100
AcDbEntity
  8
0
 62
     3
100
AcDbLine
 10
169.8591936728999
 20
159.5415336059
 30
0.0
 11
170.3674682613999
 21
160.0501133805999
 31
0.0
  0
LINE
  5
288
330
2
100
AcDbEntity
  8
0
 62
     3
100
AcDbLine
 10
169.9177141862999
 20
162.5507433032
 30
0.0
 11
169.8592079865
 21
159.5414700839999
 31
0.0
  0
LINE
  5
289
330
2
100
AcDbEntity
  8
0
 62
     3
100
AcDbLine
 10
172.8684625587999
 20
159.5999692721999
 30
0.0
 11
170.3675332650998
 21
160.0497973857999
 31
0.0
  0
LINE
  5
28A
330
2
100
AcDbEntity
  8
0
  6
CENTER
 62
     3
100
AcDbLine
 10
178.8140969916
 20
181.0
 30
0.0
 11
178.8140969916
 21
156.0
 31
0.0
  0
CIRCLE
  5
28B
330
2
100
AcDbEntity
  8
0
 62
     3
100
AcDbCircle
 10
178.8140969916
 20
168.5
 30
0.0
 40
8.949999999999997
  0
LINE
  5
28C
330
2
100
AcDbEntity
  8
0
 62
     3
100
AcDbLine
 10
169.8591887177
 20
159.5414542045
 30
0.0
 11
172.8684619368999
 21
159.5999604043
 31
0.0
  0
TEXT
  5
28D
330
2
100
AcDbEntity
  8
0
 62
     5
100
AcDbText
 10
145.0
 20
10.0
 30
0.0
 40
5.0
  1
ＭＡ４－Ｈ０００４９Ｇ
 41
0.84439677439531
 72
     5
 11
199.0413935612998
 21
10.0
 31
0.0
100
AcDbText
  0
LINE
  5
28E
330
2
100
AcDbEntity
  8
0
 62
     3
100
AcDbLine
 10
184.766955008
 20
159.5999665270999
 30
0.0
 11
187.7762129712998
 21
159.5414606239
 31
0.0
  0
LINE
  5
28F
330
2
100
AcDbEntity
  8
0
 62
     3
100
AcDbLine
 10
184.7669320746
 20
159.6000061035
 30
0.0
 11
179.7588766708999
 21
159.6000061035
 31
0.0
  0
LINE
  5
290
330
2
100
AcDbEntity
  8
0
 62
     3
100
AcDbLine
 10
177.8693173121999
 20
159.6000061035
 30
0.0
 11
172.8684487981999
 21
159.6000061035
 31
0.0
  0
LINE
  5
291
330
2
100
AcDbEntity
  8
0
 62
     3
100
AcDbLine
 10
170.3675525677
 20
176.9499035366998
 30
0.0
 11
172.8684818612999
 21
177.3997316504
 31
0.0
  0
LINE
  5
292
330
2
100
AcDbEntity
  8
0
 62
     3
100
AcDbLine
 10
172.8684754098999
 20
177.3999691655999
 30
0.0
 11
169.8592021906998
 21
177.4584753654
 31
0.0
  0
LINE
  5
293
330
2
100
AcDbEntity
  8
0
  6
CENTER
 62
     3
100
AcDbLine
 10
166.3140969915999
 20
168.5
 30
0.0
 11
191.3140969916
 21
168.5
 31
0.0
  0
CIRCLE
  5
294
330
2
100
AcDbEntity
  8
0
 62
     3
100
AcDbCircle
 10
178.8140969916
 20
168.5
 30
0.0
 40
7.599999427799997
  0
CIRCLE
  5
295
330
2
100
AcDbEntity
  8
0
 62
     3
100
AcDbCircle
 10
178.8140969916
 20
168.5
 30
0.0
 40
8.699999809299999
  0
CIRCLE
  5
296
330
2
100
AcDbEntity
  8
0
 62
     3
100
AcDbCircle
 10
178.8140969916
 20
168.5
 30
0.0
 40
7.899999618499996
  0
LINE
  5
297
330
2
100
AcDbEntity
  8
0
 62
     3
100
AcDbLine
 10
146.2004877024999
 20
204.7836359558
 30
0.0
 11
146.2005258491998
 21
222.2166651306
 31
0.0
  0
LINE
  5
298
330
2
100
AcDbEntity
  8
0
 62
     3
100
AcDbLine
 10
146.5172067327999
 20
221.8999938963999
 30
0.0
 11
146.5172067327999
 21
205.1002197264998
 31
0.0
  0
LINE
  5
299
330
2
100
AcDbEntity
  8
0
 62
     3
100
AcDbLine
 10
149.5176797552
 20
160.7999877929
 30
0.0
 11
149.5176797552
 21
176.1999816893999
 31
0.0
  0
LINE
  5
29A
330
2
100
AcDbEntity
  8
0
 62
     3
100
AcDbLine
 10
149.8176828069999
 20
161.0999908446999
 30
0.0
 11
149.8176828069999
 21
175.8999786377
 31
0.0
  0
LINE
  5
29B
330
2
100
AcDbEntity
  8
0
 62
     3
100
AcDbLine
 10
146.2009843266999
 20
159.783605437
 30
0.0
 11
146.2010224734999
 21
177.2166651293
 31
0.0
  0
LINE
  5
29C
330
2
100
AcDbEntity
  8
0
 62
     3
100
AcDbLine
 10
146.5176950139999
 20
176.8999938963999
 30
0.0
 11
146.5176950139999
 21
160.1002197265
 31
0.0
  0
LINE
  5
29D
330
2
100
AcDbEntity
  8
0
 62
     3
100
AcDbLine
 10
146.5176797552
 20
160.7999877929
 30
0.0
 11
149.5176797552
 21
160.7999877929
 31
0.0
  0
LINE
  5
29E
330
2
100
AcDbEntity
  8
0
 62
     3
100
AcDbLine
 10
146.2009274117999
 20
159.7835398912
 30
0.0
 11
146.5176350301998
 21
160.1002461480999
 31
0.0
  0
LINE
  5
29F
330
2
100
AcDbEntity
  8
0
 62
     3
100
AcDbLine
 10
149.8176627552999
 20
161.0999903995
 30
0.0
 11
149.5176691128999
 21
160.7999963524999
 31
0.0
  0
LINE
  5
2A0
330
2
100
AcDbEntity
  8
0
 62
     3
100
AcDbLine
 10
149.5176797552
 20
176.1999969482
 30
0.0
 11
146.5176797552
 21
176.1999969482
 31
0.0
  0
LINE
  5
2A1
330
2
100
AcDbEntity
  8
0
 62
     3
100
AcDbLine
 10
146.2009880582999
 20
177.2166688668
 30
0.0
 11
146.5176825912999
 21
176.8999711303998
 31
0.0
  0
LINE
  5
2A2
330
2
100
AcDbEntity
  8
0
 62
     3
100
AcDbLine
 10
149.5176676173999
 20
176.1999744538999
 30
0.0
 11
149.8176720746998
 21
175.8999696173
 31
0.0
  0
LINE
  5
2A3
330
2
100
AcDbEntity
  8
0
 62
     3
100
AcDbLine
 10
146.2004199215999
 20
204.7835464023
 30
0.0
 11
146.5171275399999
 21
205.1002526591999
 31
0.0
  0
LINE
  5
2A4
330
2
100
AcDbEntity
  8
0
 62
     3
100
AcDbLine
 10
169.9176889104998
 20
169.4779689438999
 30
0.0
 11
169.9176889104998
 21
174.4492492675
 31
0.0
  0
LINE
  5
2A5
330
2
100
AcDbEntity
  8
0
 62
     3
100
AcDbLine
 10
169.9176889104998
 20
162.5508422851
 30
0.0
 11
169.9176889104998
 21
167.522031056
 31
0.0
  0
LINE
  5
2A6
330
2
100
AcDbEntity
  8
0
 62
     3
100
AcDbLine
 10
172.3684924159997
 20
160.0998771895999
 30
0.0
 11
170.4178850496998
 21
162.0504845558
 31
0.0
  0
LINE
  5
2A7
330
2
100
AcDbEntity
  8
0
 62
     3
100
AcDbLine
 10
170.3675067916998
 20
160.0498225029
 30
0.0
 11
169.9176786780999
 21
162.5507517965
 31
0.0
  0
LINE
  5
2A8
330
2
100
AcDbEntity
  8
0
 62
     3
100
AcDbLine
 10
170.3674701315998
 20
176.949896614
 30
0.0
 11
169.8591955431998
 21
177.4584763886
 31
0.0
  0
LINE
  5
2A9
330
2
100
AcDbEntity
  8
0
 62
     3
100
AcDbLine
 10
169.8591945134999
 20
177.4584594859
 30
0.0
 11
169.9177004166999
 21
174.4492015225999
 31
0.0
  0
LINE
  5
2AA
330
2
100
AcDbEntity
  8
0
 62
     3
100
AcDbLine
 10
170.4178850496998
 20
174.9489682859999
 30
0.0
 11
172.3686434702997
 21
176.8997267066
 31
0.0
  0
LINE
  5
2AB
330
2
100
AcDbEntity
  8
0
 62
     3
100
AcDbLine
 10
169.9176902776
 20
174.4492071297999
 30
0.0
 11
170.3675183911999
 21
176.9501364234
 31
0.0
  0
LINE
  5
2AC
330
2
100
AcDbEntity
  8
0
  6
CENTER
 62
     3
100
AcDbLine
 10
151.3172097845
 20
213.4999999999999
 30
0.0
 11
144.3172097845
 21
213.4999999999999
 31
0.0
  0
LINE
  5
2AD
330
2
100
AcDbEntity
  8
0
 62
     3
100
AcDbLine
 10
149.8171945257998
 20
220.9000091551998
 30
0.0
 11
149.8171945257998
 21
206.1000061035
 31
0.0
  0
LINE
  5
2AE
330
2
100
AcDbEntity
  8
0
 62
     3
100
AcDbLine
 10
149.5172067328
 20
221.1999969482
 30
0.0
 11
149.5172067328
 21
205.8000030516999
 31
0.0
  0
LINE
  5
2AF
330
2
100
AcDbEntity
  8
0
 62
     3
100
AcDbLine
 10
146.5171914739999
 20
211.9999847412
 30
0.0
 11
148.3172097845
 21
211.9999847412
 31
0.0
  0
LINE
  5
2B0
330
2
100
AcDbEntity
  8
0
 62
     3
100
AcDbLine
 10
148.3172097845
 20
214.9999847411999
 30
0.0
 11
146.5171914739999
 21
214.9999847411999
 31
0.0
  0
LINE
  5
2B1
330
2
100
AcDbEntity
  8
0
 62
     3
100
AcDbLine
 10
146.5171914739999
 20
205.8000030516999
 30
0.0
 11
149.5172067328
 21
205.8000030516999
 31
0.0
  0
LINE
  5
2B2
330
2
100
AcDbEntity
  8
0
 62
     3
100
AcDbLine
 10
149.5172129742998
 20
205.7999903374
 30
0.0
 11
149.8172069959998
 21
206.0999840050999
 31
0.0
  0
LINE
  5
2B3
330
2
100
AcDbEntity
  8
0
 62
     3
100
AcDbLine
 10
148.3172097845
 20
214.9999694823998
 30
0.0
 11
148.3172097845
 21
211.9999694824
 31
0.0
  0
LINE
  5
2B4
330
2
100
AcDbEntity
  8
0
 62
     3
100
AcDbLine
 10
149.5172067328
 20
221.1999969482
 30
0.0
 11
146.5171914739999
 21
221.1999969482
 31
0.0
  0
LINE
  5
2B5
330
2
100
AcDbEntity
  8
0
 62
     3
100
AcDbLine
 10
146.2004907254
 20
222.2166606709999
 30
0.0
 11
146.5171852583999
 21
221.8999629344999
 31
0.0
  0
LINE
  5
2B6
330
2
100
AcDbEntity
  8
0
 62
     3
100
AcDbLine
 10
149.8171989376999
 20
220.8999799735999
 30
0.0
 11
149.5171941010999
 21
221.1999844055998
 31
0.0
  0
LINE
  5
2B7
330
2
100
AcDbEntity
  8
0
 62
     3
100
AcDbLine
 10
187.7761296197999
 20
177.4584778586
 30
0.0
 11
187.2678550314
 21
176.949898084
 31
0.0
  0
LINE
  5
2B8
330
2
100
AcDbEntity
  8
0
 62
     3
100
AcDbLine
 10
187.7761994982
 20
177.4584689459999
 30
0.0
 11
184.7669415349999
 21
177.3999630427999
 31
0.0
  0
LINE
  5
2B9
330
2
100
AcDbEntity
  8
0
 62
     3
100
AcDbLine
 10
187.7176950139999
 20
162.5507115178
 30
0.0
 11
187.2678669003999
 21
160.0497822241
 31
0.0
  0
LINE
  5
2BA
330
2
100
AcDbEntity
  8
0
 62
     3
100
AcDbLine
 10
187.2678723318999
 20
176.9500712399
 30
0.0
 11
187.717692342
 21
174.4491869996999
 31
0.0
  0
LINE
  5
2BB
330
2
100
AcDbEntity
  8
0
 62
     3
100
AcDbLine
 10
179.7587329193999
 20
177.4000091551998
 30
0.0
 11
184.7669320746
 21
177.4000091551998
 31
0.0
  0
LINE
  5
2BC
330
2
100
AcDbEntity
  8
0
 62
     3
100
AcDbLine
 10
172.8684487981999
 20
177.4000091551998
 30
0.0
 11
177.8694610637998
 21
177.4000091551998
 31
0.0
  0
LINE
  5
2BD
330
2
100
AcDbEntity
  8
0
 62
     3
100
AcDbLine
 10
187.2176482499999
 20
162.0507219269
 30
0.0
 11
185.2668898293997
 21
160.0999635062999
 31
0.0
  0
LINE
  5
2BE
330
2
100
AcDbEntity
  8
0
 62
     3
100
AcDbLine
 10
184.7669404518
 20
177.399961692
 30
0.0
 11
187.2678697453999
 21
176.9501335783999
 31
0.0
  0
LINE
  5
2BF
330
2
100
AcDbEntity
  8
0
 62
     3
100
AcDbLine
 10
185.2671272004999
 20
176.8997267066
 30
0.0
 11
187.2177345667997
 21
174.9491193403
 31
0.0
  0
LINE
  5
2C0
330
2
100
AcDbEntity
  8
0
 62
     3
100
AcDbLine
 10
187.7176919623
 20
174.4492492675
 30
0.0
 11
187.7176919623
 21
169.4102178846998
 31
0.0
  0
LINE
  5
2C1
330
2
100
AcDbEntity
  8
0
 62
     3
100
AcDbLine
 10
187.7176919623
 20
167.5897821151999
 30
0.0
 11
187.7176919623
 21
162.5507659911999
 31
0.0
  0
LINE
  5
2C2
330
2
100
AcDbEntity
  8
0
 62
     3
100
AcDbLine
 10
187.7177165282
 20
174.4492076454
 30
0.0
 11
187.7762227279999
 21
177.4584808645999
 31
0.0
  0
LINE
  5
2C3
330
2
100
AcDbEntity
  8
0
100
AcDbLine
 10
210.0
 20
297.0
 30
0.0
 11
0.0
 21
297.0
 31
0.0
  0
TEXT
  5
30C
330
2
100
AcDbEntity
  8
0
 62
     7
100
AcDbText
 10
108.0
 20
115.0000029552499
 30
0.0
 40
2.999994089499998
  1
AL6M-M11P*
 11
108.0
 21
116.5
 31
0.0
100
AcDbText
 73
     2
  0
TEXT
  5
30D
330
2
100
AcDbEntity
  8
0
 62
     7
100
AcDbText
 10
108.0
 20
110.0000029552498
 30
0.0
 40
2.999994089499998
  1
AL6M-M11*
 11
108.0
 21
111.4999999999999
 31
0.0
100
AcDbText
 73
     2
  0
TEXT
  5
310
330
2
100
AcDbEntity
  8
0
 62
     7
100
AcDbText
 10
146.0
 20
115.0000029552499
 30
0.0
 40
2.999994089499998
  1
AL6M-A11P*
 11
146.0
 21
116.5
 31
0.0
100
AcDbText
 73
     2
  0
TEXT
  5
313
330
2
100
AcDbEntity
  8
0
 62
     7
100
AcDbText
 10
108.0
 20
105.0000029552499
 30
0.0
 40
2.999994089499998
  1
AL6M-M13P*
 11
108.0
 21
106.4999999999999
 31
0.0
100
AcDbText
 73
     2
  0
TEXT
  5
314
330
2
100
AcDbEntity
  8
0
 62
     7
100
AcDbText
 10
108.0
 20
100.0000029552498
 30
0.0
 40
2.999994089499998
  1
AL6M-M13*
 11
108.0
 21
101.4999999999998
 31
0.0
100
AcDbText
 73
     2
  0
TEXT
  5
315
330
2
100
AcDbEntity
  8
0
 62
     7
100
AcDbText
 10
108.0
 20
95.00000295524989
 30
0.0
 40
2.999994089499998
  1
AL6M-M14P*
 11
108.0
 21
96.49999999999989
 31
0.0
100
AcDbText
 73
     2
  0
TEXT
  5
316
330
2
100
AcDbEntity
  8
0
 62
     7
100
AcDbText
 10
108.0
 20
90.00000295524989
 30
0.0
 40
2.999994089499998
  1
AL6M-M14*
 11
108.0
 21
91.49999999999989
 31
0.0
100
AcDbText
 73
     2
  0
TEXT
  5
317
330
2
100
AcDbEntity
  8
0
 62
     7
100
AcDbText
 10
108.0
 20
80.00000295524989
 30
0.0
 40
2.999994089499998
  1
AL6M-M21*
 11
108.0
 21
81.49999999999989
 31
0.0
100
AcDbText
 73
     2
  0
TEXT
  5
318
330
2
100
AcDbEntity
  8
0
 62
     7
100
AcDbText
 10
108.0
 20
85.00000295524989
 30
0.0
 40
2.999994089499998
  1
AL6M-M21P*
 11
108.0
 21
86.49999999999989
 31
0.0
100
AcDbText
 73
     2
  0
TEXT
  5
31B
330
2
100
AcDbEntity
  8
0
 62
     7
100
AcDbText
 10
108.0
 20
70.00000295524988
 30
0.0
 40
2.999994089499998
  1
AL6M-M23*
 11
108.0
 21
71.49999999999988
 31
0.0
100
AcDbText
 73
     2
  0
TEXT
  5
31C
330
2
100
AcDbEntity
  8
0
 62
     7
100
AcDbText
 10
108.0
 20
75.00000295524988
 30
0.0
 40
2.999994089499998
  1
AL6M-M23P*
 11
108.0
 21
76.49999999999988
 31
0.0
100
AcDbText
 73
     2
  0
TEXT
  5
31D
330
2
100
AcDbEntity
  8
0
 62
     7
100
AcDbText
 10
108.0
 20
60.00000295524991
 30
0.0
 40
2.999994089499998
  1
AL6M-M24*
 11
108.0
 21
61.4999999999999
 31
0.0
100
AcDbText
 73
     2
  0
TEXT
  5
31E
330
2
100
AcDbEntity
  8
0
 62
     7
100
AcDbText
 10
108.0
 20
65.00000295524988
 30
0.0
 40
2.999994089499998
  1
AL6M-M24P*
 11
108.0
 21
66.49999999999988
 31
0.0
100
AcDbText
 73
     2
  0
TEXT
  5
31F
330
2
100
AcDbEntity
  8
0
 62
     7
100
AcDbText
 10
146.0
 20
65.00000295524988
 30
0.0
 40
2.999994089499998
  1
AL6M-A24P*
 11
146.0
 21
66.49999999999988
 31
0.0
100
AcDbText
 73
     2
  0
TEXT
  5
320
330
2
100
AcDbEntity
  8
0
 62
     7
100
AcDbText
 10
146.0
 20
75.00000295524988
 30
0.0
 40
2.999994089499998
  1
AL6M-A23P*
 11
146.0
 21
76.49999999999988
 31
0.0
100
AcDbText
 73
     2
  0
TEXT
  5
322
330
2
100
AcDbEntity
  8
0
 62
     7
100
AcDbText
 10
146.0
 20
85.00000295524989
 30
0.0
 40
2.999994089499998
  1
AL6M-A21P*
 11
146.0
 21
86.49999999999989
 31
0.0
100
AcDbText
 73
     2
  0
TEXT
  5
323
330
2
100
AcDbEntity
  8
0
 62
     7
100
AcDbText
 10
146.0
 20
95.00000295524989
 30
0.0
 40
2.999994089499998
  1
AL6M-A14P*
 11
146.0
 21
96.49999999999989
 31
0.0
100
AcDbText
 73
     2
  0
TEXT
  5
324
330
2
100
AcDbEntity
  8
0
 62
     7
100
AcDbText
 10
146.0
 20
105.0000029552499
 30
0.0
 40
2.999994089499998
  1
AL6M-A13P*
 11
146.0
 21
106.4999999999999
 31
0.0
100
AcDbText
 73
     2
  0
TEXT
  5
326
330
2
100
AcDbEntity
  8
0
 62
     7
100
AcDbText
 10
146.0
 20
60.00000295524991
 30
0.0
 40
2.999994089499998
  1
AL6M-A24*
 11
146.0
 21
61.4999999999999
 31
0.0
100
AcDbText
 73
     2
  0
TEXT
  5
327
330
2
100
AcDbEntity
  8
0
 62
     7
100
AcDbText
 10
146.0
 20
70.00000295524988
 30
0.0
 40
2.999994089499998
  1
AL6M-A23*
 11
146.0
 21
71.49999999999988
 31
0.0
100
AcDbText
 73
     2
  0
TEXT
  5
32A
330
2
100
AcDbEntity
  8
0
 62
     7
100
AcDbText
 10
146.0
 20
80.00000295524989
 30
0.0
 40
2.999994089499998
  1
AL6M-A21*
 11
146.0
 21
81.49999999999989
 31
0.0
100
AcDbText
 73
     2
  0
TEXT
  5
32B
330
2
100
AcDbEntity
  8
0
 62
     7
100
AcDbText
 10
146.0
 20
90.00000295524989
 30
0.0
 40
2.999994089499998
  1
AL6M-A14*
 11
146.0
 21
91.49999999999989
 31
0.0
100
AcDbText
 73
     2
  0
TEXT
  5
32C
330
2
100
AcDbEntity
  8
0
 62
     7
100
AcDbText
 10
146.0
 20
100.0000029552498
 30
0.0
 40
2.999994089499998
  1
AL6M-A13*
 11
146.0
 21
101.4999999999998
 31
0.0
100
AcDbText
 73
     2
  0
TEXT
  5
32D
330
2
100
AcDbEntity
  8
0
 62
     7
100
AcDbText
 10
146.0
 20
110.0000029552498
 30
0.0
 40
2.999994089499998
  1
AL6M-A11*
 11
146.0
 21
111.4999999999999
 31
0.0
100
AcDbText
 73
     2
  0
ENDSEC
  0
SECTION
  2
OBJECTS
  0
DICTIONARY
  5
7
330
0
100
AcDbDictionary
281
     1
  3
ACAD_GROUP
350
1F
  3
ACAD_LAYOUT
350
B
  3
ACAD_MLINESTYLE
350
20
  3
ACAD_PLOTSETTINGS
350
21
  3
ACAD_PLOTSTYLENAME
350
6
  3
AcDbVariableDictionary
350
32E
  3
ASE_INDEX_DICTIONARY
350
337
  0
DICTIONARY
  5
1F
102
{ACAD_REACTORS
330
7
102
}
330
7
100
AcDbDictionary
281
     1
  0
DICTIONARY
  5
B
102
{ACAD_REACTORS
330
7
102
}
330
7
100
AcDbDictionary
281
     1
  3
Model
350
A
  3
ﾚｲｱｳﾄ1
350
F
  0
DICTIONARY
  5
20
102
{ACAD_REACTORS
330
7
102
}
330
7
100
AcDbDictionary
281
     1
  3
Standard
350
22
  0
DICTIONARY
  5
21
102
{ACAD_REACTORS
330
7
102
}
330
7
100
AcDbDictionary
281
     1
  0
ACDBDICTIONARYWDFLT
  5
6
102
{ACAD_REACTORS
330
7
102
}
330
7
100
AcDbDictionary
281
     1
  3
Normal
350
5
100
AcDbDictionaryWithDefault
340
5
  0
DICTIONARY
  5
32E
102
{ACAD_REACTORS
330
7
102
}
330
7
100
AcDbDictionary
281
     1
  3
DIMASSOC
350
32F
  0
DICTIONARY
  5
337
102
{ACAD_REACTORS
330
7
102
}
330
7
100
AcDbDictionary
281
     1
  3
ASEBlockHierarchyIndexRecord
350
339
1001
DCO15
1040
1518869569.375
  0
LAYOUT
  5
A
102
{ACAD_REACTORS
330
B
102
}
330
B
100
AcDbPlotSettings
  1

  2
C:\Program Files\AutoCAD 2000i\plotters\DWF Classic.pc3
  4

  6

 40
0.0
 41
0.0
 42
0.0
 43
0.0
 44
0.0
 45
0.0
 46
0.0
 47
0.0
 48
0.0
 49
0.0
140
0.0
141
0.0
142
1.0
143
1.0
 70
  1712
 72
     0
 73
     0
 74
     0
  7

 75
     0
147
1.0
148
0.0
149
0.0
100
AcDbLayout
  1
Model
 70
     1
 71
     0
 10
0.0
 20
0.0
 11
12.0
 21
9.0
 12
0.0
 22
0.0
 32
0.0
 14
0.0
 24
0.0
 34
0.0
 15
0.0
 25
0.0
 35
0.0
146
0.0
 13
0.0
 23
0.0
 33
0.0
 16
1.0
 26
0.0
 36
0.0
 17
0.0
 27
1.0
 37
0.0
 76
     0
330
2
  0
LAYOUT
  5
F
102
{ACAD_REACTORS
330
B
102
}
330
B
100
AcDbPlotSettings
  1

  2
C:\Program Files\AutoCAD 2000i\plotters\DWF Classic.pc3
  4

  6

 40
0.0
 41
0.0
 42
0.0
 43
0.0
 44
0.0
 45
0.0
 46
0.0
 47
0.0
 48
0.0
 49
0.0
140
0.0
141
0.0
142
1.0
143
1.0
 70
   688
 72
     0
 73
     0
 74
     5
  7

 75
    16
147
1.0
148
0.0
149
0.0
100
AcDbLayout
  1
ﾚｲｱｳﾄ1
 70
     1
 71
     1
 10
0.0
 20
0.0
 11
12.0
 21
9.0
 12
0.0
 22
0.0
 32
0.0
 14
1.000000000000000E+20
 24
1.000000000000000E+20
 34
1.000000000000000E+20
 15
-1.000000000000000E+20
 25
-1.000000000000000E+20
 35
-1.000000000000000E+20
146
0.0
 13
0.0
 23
0.0
 33
0.0
 16
1.0
 26
0.0
 36
0.0
 17
0.0
 27
1.0
 37
0.0
 76
     0
330
C
  0
MLINESTYLE
  5
22
102
{ACAD_REACTORS
330
20
102
}
330
20
100
AcDbMlineStyle
  2
STANDARD
 70
     0
  3

 62
   256
 51
90.0
 52
90.0
 71
     2
 49
0.5
 62
   256
  6
BYLAYER
 49
-0.5
 62
   256
  6
BYLAYER
  0
ACDBPLACEHOLDER
  5
5
102
{ACAD_REACTORS
330
6
102
}
330
6
  0
DICTIONARYVAR
  5
32F
102
{ACAD_REACTORS
330
32E
102
}
330
32E
100
DictionaryVariables
280
     0
  1
1
  0
XRECORD
  5
339
102
{ACAD_REACTORS
330
337
102
}
330
337
100
AcDbXrecord
280
     1
  0
ENDSEC
  0
EOF
