  0
SECTION
  2
HEADER
  9
$ACADVER
  1
AC1015
  9
$ACADMAINTVER
 70
    13
  9
$DWGCODEPAGE
  3
ANSI_932
  9
$INSBASE
 10
0.0
 20
0.0
 30
0.0
  9
$EXTMIN
 10
-0.0050444527450964
 20
-0.0007496668014255
 30
-0.0000000349181948
  9
$EXTMAX
 10
210.0229992732402
 20
297.0183229054498
 30
0.0000000814935747
  9
$LIMMIN
 10
-166.7855957031
 20
-3.174999999999998
  9
$LIMMAX
 10
3.174999999999998
 20
291.2585876465
  9
$ORTHOMODE
 70
     0
  9
$REGENMODE
 70
     1
  9
$FILLMODE
 70
     1
  9
$QTEXTMODE
 70
     0
  9
$MIRRTEXT
 70
     0
  9
$LTSCALE
 40
1.0
  9
$ATTMODE
 70
     1
  9
$TEXTSIZE
 40
2.999994039499997
  9
$TRACEWID
 40
0.05
  9
$TEXTSTYLE
  7
STANDARD
  9
$CLAYER
  8
0
  9
$CELTYPE
  6
ByLayer
  9
$CECOLOR
 62
   256
  9
$CELTSCALE
 40
1.0
  9
$DISPSILH
 70
     0
  9
$DIMSCALE
 40
1.0
  9
$DIMASZ
 40
1.9727878465
  9
$DIMEXO
 40
2.539999961899999
  9
$DIMDLI
 40
0.38
  9
$DIMRND
 40
0.0
  9
$DIMDLE
 40
0.0
  9
$DIMEXE
 40
3.809999942799997
  9
$DIMTP
 40
0.0
  9
$DIMTM
 40
0.0
  9
$DIMTXT
 40
2.999994039499997
  9
$DIMCEN
 40
0.09
  9
$DIMTSZ
 40
0.0
  9
$DIMTOL
 70
     0
  9
$DIMLIM
 70
     0
  9
$DIMTIH
 70
     0
  9
$DIMTOH
 70
     1
  9
$DIMSE1
 70
     0
  9
$DIMSE2
 70
     0
  9
$DIMTAD
 70
     0
  9
$DIMZIN
 70
     0
  9
$DIMBLK
  1

  9
$DIMASO
 70
     1
  9
$DIMSHO
 70
     0
  9
$DIMPOST
  1

  9
$DIMAPOST
  1

  9
$DIMALT
 70
     0
  9
$DIMALTD
 70
     2
  9
$DIMALTF
 40
25.4
  9
$DIMLFAC
 40
1.0
  9
$DIMTOFL
 70
     0
  9
$DIMTVP
 40
0.0
  9
$DIMTIX
 70
     0
  9
$DIMSOXD
 70
     0
  9
$DIMSAH
 70
     0
  9
$DIMBLK1
  1

  9
$DIMBLK2
  1

  9
$DIMSTYLE
  2
Standard
  9
$DIMCLRD
 70
     0
  9
$DIMCLRE
 70
     0
  9
$DIMCLRT
 70
     0
  9
$DIMTFAC
 40
1.0
  9
$DIMGAP
 40
0.09
  9
$DIMJUST
 70
     0
  9
$DIMSD1
 70
     0
  9
$DIMSD2
 70
     0
  9
$DIMTOLJ
 70
     1
  9
$DIMTZIN
 70
     0
  9
$DIMALTZ
 70
     0
  9
$DIMALTTZ
 70
     0
  9
$DIMUPT
 70
     0
  9
$DIMDEC
 70
     4
  9
$DIMTDEC
 70
     4
  9
$DIMALTU
 70
     2
  9
$DIMALTTD
 70
     2
  9
$DIMTXSTY
  7
STANDARD
  9
$DIMAUNIT
 70
     0
  9
$DIMADEC
 70
     0
  9
$DIMALTRND
 40
0.0
  9
$DIMAZIN
 70
     0
  9
$DIMDSEP
 70
    46
  9
$DIMATFIT
 70
     3
  9
$DIMFRAC
 70
     0
  9
$DIMLDRBLK
  1

  9
$DIMLUNIT
 70
     2
  9
$DIMLWD
 70
    -2
  9
$DIMLWE
 70
    -2
  9
$DIMTMOVE
 70
     0
  9
$LUNITS
 70
     2
  9
$LUPREC
 70
     3
  9
$SKETCHINC
 40
0.1
  9
$FILLETRAD
 40
0.0625
  9
$AUNITS
 70
     0
  9
$AUPREC
 70
     0
  9
$MENU
  1
ACAD
  9
$ELEVATION
 40
0.0
  9
$PELEVATION
 40
0.0
  9
$THICKNESS
 40
0.0
  9
$LIMCHECK
 70
     0
  9
$CHAMFERA
 40
0.0
  9
$CHAMFERB
 40
0.0
  9
$CHAMFERC
 40
0.0
  9
$CHAMFERD
 40
0.0
  9
$SKPOLY
 70
     0
  9
$TDCREATE
 40
2452272.488773148
  9
$TDUCREATE
 40
2452272.113773148
  9
$TDUPDATE
 40
2453382.718751076
  9
$TDUUPDATE
 40
2453382.343751076
  9
$TDINDWG
 40
0.0030593634
  9
$TDUSRTIMER
 40
0.0030571875
  9
$USRTIMER
 70
     1
  9
$ANGBASE
 50
0.0
  9
$ANGDIR
 70
     0
  9
$PDMODE
 70
     0
  9
$PDSIZE
 40
0.0
  9
$PLINEWID
 40
0.0
  9
$SPLFRAME
 70
     0
  9
$SPLINETYPE
 70
     6
  9
$SPLINESEGS
 70
     8
  9
$HANDSEED
  5
22D
  9
$SURFTAB1
 70
     6
  9
$SURFTAB2
 70
     6
  9
$SURFTYPE
 70
     6
  9
$SURFU
 70
     6
  9
$SURFV
 70
     6
  9
$UCSBASE
  2

  9
$UCSNAME
  2

  9
$UCSORG
 10
0.0
 20
0.0
 30
0.0
  9
$UCSXDIR
 10
1.0
 20
0.0
 30
0.0
  9
$UCSYDIR
 10
0.0
 20
1.0
 30
0.0
  9
$UCSORTHOREF
  2

  9
$UCSORTHOVIEW
 70
     0
  9
$UCSORGTOP
 10
0.0
 20
0.0
 30
0.0
  9
$UCSORGBOTTOM
 10
0.0
 20
0.0
 30
0.0
  9
$UCSORGLEFT
 10
0.0
 20
0.0
 30
0.0
  9
$UCSORGRIGHT
 10
0.0
 20
0.0
 30
0.0
  9
$UCSORGFRONT
 10
0.0
 20
0.0
 30
0.0
  9
$UCSORGBACK
 10
0.0
 20
0.0
 30
0.0
  9
$PUCSBASE
  2

  9
$PUCSNAME
  2

  9
$PUCSORG
 10
0.0
 20
0.0
 30
0.0
  9
$PUCSXDIR
 10
1.0
 20
0.0
 30
0.0
  9
$PUCSYDIR
 10
0.0
 20
1.0
 30
0.0
  9
$PUCSORTHOREF
  2

  9
$PUCSORTHOVIEW
 70
     0
  9
$PUCSORGTOP
 10
0.0
 20
0.0
 30
0.0
  9
$PUCSORGBOTTOM
 10
0.0
 20
0.0
 30
0.0
  9
$PUCSORGLEFT
 10
0.0
 20
0.0
 30
0.0
  9
$PUCSORGRIGHT
 10
0.0
 20
0.0
 30
0.0
  9
$PUCSORGFRONT
 10
0.0
 20
0.0
 30
0.0
  9
$PUCSORGBACK
 10
0.0
 20
0.0
 30
0.0
  9
$USERI1
 70
     9
  9
$USERI2
 70
     0
  9
$USERI3
 70
     0
  9
$USERI4
 70
     0
  9
$USERI5
 70
     0
  9
$USERR1
 40
0.0
  9
$USERR2
 40
0.0
  9
$USERR3
 40
0.0
  9
$USERR4
 40
0.0
  9
$USERR5
 40
0.0
  9
$WORLDVIEW
 70
     1
  9
$SHADEDGE
 70
     3
  9
$SHADEDIF
 70
    70
  9
$TILEMODE
 70
     1
  9
$MAXACTVP
 70
    64
  9
$PINSBASE
 10
0.0
 20
0.0
 30
0.0
  9
$PLIMCHECK
 70
     0
  9
$PEXTMIN
 10
1.000000000000000E+20
 20
1.000000000000000E+20
 30
1.000000000000000E+20
  9
$PEXTMAX
 10
-1.000000000000000E+20
 20
-1.000000000000000E+20
 30
-1.000000000000000E+20
  9
$PLIMMIN
 10
0.0
 20
0.0
  9
$PLIMMAX
 10
12.0
 20
9.0
  9
$UNITMODE
 70
     0
  9
$VISRETAIN
 70
     1
  9
$PLINEGEN
 70
     0
  9
$PSLTSCALE
 70
     1
  9
$TREEDEPTH
 70
  3020
  9
$CMLSTYLE
  2
Standard
  9
$CMLJUST
 70
     0
  9
$CMLSCALE
 40
1.0
  9
$PROXYGRAPHICS
 70
     1
  9
$MEASUREMENT
 70
     0
  9
$CELWEIGHT
370
    -1
  9
$ENDCAPS
280
     0
  9
$JOINSTYLE
280
     0
  9
$LWDISPLAY
290
     0
  9
$INSUNITS
 70
     0
  9
$HYPERLINKBASE
  1

  9
$STYLESHEET
  1

  9
$XEDIT
290
     1
  9
$CEPSNTYPE
380
     0
  9
$PSTYLEMODE
290
     1
  9
$FINGERPRINTGUID
  2
{8DAE7525-9FE5-4024-A98B-CCB187A3E305}
  9
$VERSIONGUID
  2
{DD06C9F2-AF90-46CC-A93F-1AA35DE9AFC7}
  9
$EXTNAMES
290
     1
  9
$PSVPSCALE
 40
0.0
  9
$OLESTARTUP
290
     0
  0
ENDSEC
  0
SECTION
  2
CLASSES
  0
CLASS
  1
ACDBDICTIONARYWDFLT
  2
AcDbDictionaryWithDefault
  3
AutoCAD 2000
 90
        0
280
     0
281
     0
  0
CLASS
  1
ACDBPLACEHOLDER
  2
AcDbPlaceHolder
  3
AutoCAD 2000
 90
        0
280
     0
281
     0
  0
CLASS
  1
LAYOUT
  2
AcDbLayout
  3
AutoCAD 2000
 90
        0
280
     0
281
     0
  0
CLASS
  1
DICTIONARYVAR
  2
AcDbDictionaryVar
  3
AutoCAD 2000
 90
        0
280
     0
281
     0
  0
ENDSEC
  0
SECTION
  2
TABLES
  0
TABLE
  2
VPORT
  5
19
330
0
100
AcDbSymbolTable
 70
     2
  0
VPORT
  5
22C
330
19
100
AcDbSymbolTableRecord
100
AcDbViewportTableRecord
  2
*Active
 70
     0
 10
0.0
 20
0.0
 11
1.0
 21
1.0
 12
105.0089774102475
 22
148.5087866193242
 13
0.0
 23
0.0
 14
1.0
 24
1.0
 15
0.0
 25
0.0
 16
0.0
 26
0.0
 36
1.0
 17
0.0
 27
0.0
 37
0.0
 40
301.3551174273207
 41
2.407317073170731
 42
50.0
 43
0.0
 44
0.0
 50
0.0
 51
0.0
 71
     0
 72
   100
 73
     1
 74
     1
 75
     0
 76
     0
 77
     0
 78
     0
281
     0
 65
     1
110
0.0
120
0.0
130
0.0
111
1.0
121
0.0
131
0.0
112
0.0
122
1.0
132
0.0
 79
     0
146
0.0
  0
ENDTAB
  0
TABLE
  2
LTYPE
  5
14
330
0
100
AcDbSymbolTable
 70
     3
  0
LTYPE
  5
15
330
14
100
AcDbSymbolTableRecord
100
AcDbLinetypeTableRecord
  2
ByBlock
 70
     0
  3

 72
    65
 73
     0
 40
0.0
  0
LTYPE
  5
16
330
14
100
AcDbSymbolTableRecord
100
AcDbLinetypeTableRecord
  2
ByLayer
 70
     0
  3

 72
    65
 73
     0
 40
0.0
  0
LTYPE
  5
8
330
14
100
AcDbSymbolTableRecord
100
AcDbLinetypeTableRecord
  2
Continuous
 70
     0
  3
Solid line
 72
    65
 73
     0
 40
0.0
  0
LTYPE
  5
53
330
14
100
AcDbSymbolTableRecord
100
AcDbLinetypeTableRecord
  2
DASH
 70
     0
  3
Dash
 72
    65
 73
     2
 40
1.9999960661
 49
0.9999980329999999
 74
     0
 49
-0.9999980329999999
 74
     0
  0
LTYPE
  5
28
330
14
100
AcDbSymbolTableRecord
100
AcDbLinetypeTableRecord
  2
CENTER
 70
     0
  3
Center
 72
    65
 73
     4
 40
9.100006759199999
 49
6.5000119209
 74
     0
 49
-0.7999984026000001
 74
     0
 49
0.9999980329999999
 74
     0
 49
-0.7999984026000001
 74
     0
  0
ENDTAB
  0
TABLE
  2
LAYER
  5
10
330
0
100
AcDbSymbolTable
 70
     1
  0
LAYER
  5
4
330
10
100
AcDbSymbolTableRecord
100
AcDbLayerTableRecord
  2
0
 70
     0
 62
     7
  6
Continuous
370
    -3
390
5
  0
ENDTAB
  0
TABLE
  2
STYLE
  5
11
330
0
100
AcDbSymbolTable
 70
     1
  0
STYLE
  5
12
330
11
100
AcDbSymbolTableRecord
100
AcDbTextStyleTableRecord
  2
STANDARD
 70
     0
 40
0.0
 41
1.0
 50
0.0
 71
     0
 42
2.999994039499997
  3
romans.shx
  4
bigfont.shx
  0
ENDTAB
  0
TABLE
  2
VIEW
  5
17
330
0
100
AcDbSymbolTable
 70
     0
  0
ENDTAB
  0
TABLE
  2
UCS
  5
18
330
0
100
AcDbSymbolTable
 70
     0
  0
ENDTAB
  0
TABLE
  2
APPID
  5
1B
330
0
100
AcDbSymbolTable
 70
     2
  0
APPID
  5
1C
330
1B
100
AcDbSymbolTableRecord
100
AcDbRegAppTableRecord
  2
ACAD
 70
     0
  0
APPID
  5
22A
330
1B
100
AcDbSymbolTableRecord
100
AcDbRegAppTableRecord
  2
DCO15
 70
     0
  0
ENDTAB
  0
TABLE
  2
DIMSTYLE
  5
1D
330
0
100
AcDbSymbolTable
 70
     1
100
AcDbDimStyleTable
 71
     0
  0
DIMSTYLE
105
23
330
1D
100
AcDbSymbolTableRecord
100
AcDbDimStyleTableRecord
  2
Standard
 70
     0
340
12
  0
ENDTAB
  0
TABLE
  2
BLOCK_RECORD
  5
1
330
0
100
AcDbSymbolTable
 70
     0
  0
BLOCK_RECORD
  5
2
330
1
100
AcDbSymbolTableRecord
100
AcDbBlockTableRecord
  2
*Model_Space
340
A
  0
BLOCK_RECORD
  5
C
330
1
100
AcDbSymbolTableRecord
100
AcDbBlockTableRecord
  2
*Paper_Space
340
F
  0
ENDTAB
  0
ENDSEC
  0
SECTION
  2
BLOCKS
  0
BLOCK
  5
3
330
2
100
AcDbEntity
  8
0
100
AcDbBlockBegin
  2
*Model_Space
 70
     2
 10
0.0
 20
0.0
 30
0.0
  3
*Model_Space
  1

  0
ENDBLK
  5
9
330
2
100
AcDbEntity
  8
0
100
AcDbBlockEnd
  0
BLOCK
  5
D
330
C
100
AcDbEntity
 67
     1
  8
0
100
AcDbBlockBegin
  2
*Paper_Space
 70
     0
 10
0.0
 20
0.0
 30
0.0
  3
*Paper_Space
  1

  0
ENDBLK
  5
E
330
C
100
AcDbEntity
 67
     1
  8
0
100
AcDbBlockEnd
  0
ENDSEC
  0
SECTION
  2
ENTITIES
  0
LINE
  5
24
330
2
100
AcDbEntity
  8
0
100
AcDbLine
 10
210.0
 20
0.0
 30
0.0
 11
210.0
 21
297.0
 31
0.0
  0
LINE
  5
25
330
2
100
AcDbEntity
  8
0
100
AcDbLine
 10
0.0
 20
297.0
 30
0.0
 11
0.0
 21
0.0
 31
0.0
  0
LINE
  5
26
330
2
100
AcDbEntity
  8
0
100
AcDbLine
 10
0.0
 20
0.0
 30
0.0
 11
210.0
 21
0.0
 31
0.0
  0
LINE
  5
27
330
2
100
AcDbEntity
  8
0
  6
CENTER
 62
     3
100
AcDbLine
 10
91.56735665040004
 20
168.5
 30
0.0
 11
135.8845773383
 21
168.5
 31
0.0
  0
LINE
  5
29
330
2
100
AcDbEntity
  8
0
 62
     3
100
AcDbLine
 10
133.2588740121998
 20
159.7436483847999
 30
0.0
 11
124.5662568947
 21
159.5504784352999
 31
0.0
  0
LINE
  5
2A
330
2
100
AcDbEntity
  8
0
 62
     3
100
AcDbLine
 10
124.566951214
 20
177.4495868962
 30
0.0
 11
133.2664483467999
 21
177.256264057
 31
0.0
  0
LINE
  5
2B
330
2
100
AcDbEntity
  8
0
 62
     3
100
AcDbLine
 10
124.5676675481999
 20
177.1427325469
 30
0.0
 11
133.5664268209999
 21
176.9427594145
 31
0.0
  0
LINE
  5
2C
330
2
100
AcDbEntity
  8
0
 62
     3
100
AcDbLine
 10
133.5657165691999
 20
160.0504679378
 30
0.0
 11
124.5595934772
 21
159.8503311643
 31
0.0
  0
LINE
  5
2D
330
2
100
AcDbEntity
  8
0
  6
CENTER
 62
     3
100
AcDbLine
 10
135.3075509711
 20
213.5
 30
0.0
 11
93.58202606870005
 21
213.5
 31
0.0
  0
LINE
  5
2E
330
2
100
AcDbEntity
  8
0
 62
     3
100
AcDbLine
 10
133.258929876
 20
201.7430689329
 30
0.0
 11
124.5663127583999
 21
201.5498974285999
 31
0.0
  0
LINE
  5
2F
330
2
100
AcDbEntity
  8
0
 62
     3
100
AcDbLine
 10
124.5669135059999
 20
225.4499187031
 30
0.0
 11
133.2662885985999
 21
225.2565985758999
 31
0.0
  0
LINE
  5
30
330
2
100
AcDbEntity
  8
0
 62
     3
100
AcDbLine
 10
124.5669324659999
 20
225.1430798510998
 30
0.0
 11
133.5675027296999
 21
224.9430664742998
 31
0.0
  0
LINE
  5
31
330
2
100
AcDbEntity
  8
0
 62
     3
100
AcDbLine
 10
133.5674737613
 20
202.0499375497
 30
0.0
 11
124.5663695718
 21
201.8499100605999
 31
0.0
  0
LINE
  5
32
330
2
100
AcDbEntity
  8
0
 62
     3
100
AcDbLine
 10
76.73697334960005
 20
171.5
 30
0.0
 11
77.80620247560003
 21
171.5
 31
0.0
  0
LINE
  5
33
330
2
100
AcDbEntity
  8
0
 62
     3
100
AcDbLine
 10
76.73697334960005
 20
165.5000152586999
 30
0.0
 11
77.80620247560003
 21
165.5000152586999
 31
0.0
  0
LINE
  5
34
330
2
100
AcDbEntity
  8
0
 62
     3
100
AcDbLine
 10
81.02095467280003
 20
177.4999389648
 30
0.0
 11
57.62112862300003
 21
177.4999389648
 31
0.0
  0
LINE
  5
35
330
2
100
AcDbEntity
  8
0
 62
     3
100
AcDbLine
 10
81.02095467280003
 20
159.5000762938999
 30
0.0
 11
57.62088448240003
 21
159.5000762938999
 31
0.0
  0
LINE
  5
36
330
2
100
AcDbEntity
  8
0
  6
CENTER
 62
     3
100
AcDbLine
 10
54.70981270510002
 20
168.5
 30
0.0
 11
83.86523873050006
 21
168.5
 31
0.0
  0
LINE
  5
37
330
2
100
AcDbEntity
  8
0
 62
     3
100
AcDbLine
 10
75.99567192670005
 20
160.0500050203
 30
0.0
 11
77.82172491730003
 21
161.8438901634
 31
0.0
  0
LINE
  5
38
330
2
100
AcDbEntity
  8
0
 62
     3
100
AcDbLine
 10
77.82173780390005
 20
175.1560591539
 30
0.0
 11
75.99566680560004
 21
176.9499914820999
 31
0.0
  0
CIRCLE
  5
39
330
2
100
AcDbEntity
  8
0
 62
     3
100
AcDbCircle
 10
69.32094246580004
 20
168.5
 30
0.0
 40
9.0
  0
LINE
  5
3A
330
2
100
AcDbEntity
  8
0
  6
CENTER
 62
     3
100
AcDbLine
 10
69.32094246580004
 20
157.2499999999999
 30
0.0
 11
69.32094246580004
 21
179.75
 31
0.0
  0
LINE
  5
3B
330
2
100
AcDbEntity
  8
0
 62
     3
100
AcDbLine
 10
57.62089151330004
 20
159.5000652775
 30
0.0
 11
57.32089751680003
 21
159.8000589957999
 31
0.0
  0
LINE
  5
3C
330
2
100
AcDbEntity
  8
0
 62
     3
100
AcDbLine
 10
60.32175118160004
 20
177.4999237059999
 30
0.0
 11
60.32175118160004
 21
159.5000610351
 31
0.0
  0
LINE
  5
3D
330
2
100
AcDbEntity
  8
0
 62
     3
100
AcDbLine
 10
63.82069832520002
 20
172.1998291015
 30
0.0
 11
64.32069832520003
 21
172.1998291015
 31
0.0
  0
LINE
  5
3E
330
2
100
AcDbEntity
  8
0
 62
     3
100
AcDbLine
 10
63.82080513670004
 20
172.1997833250999
 30
0.0
 11
64.32080513670005
 21
172.1997833250999
 31
0.0
  0
ARC
  5
3F
330
2
100
AcDbEntity
  8
0
 62
     3
100
AcDbCircle
 10
64.27101570800004
 20
168.5000152586999
 30
0.0
 40
0.1499977112
100
AcDbArc
 50
90.00003665540001
 51
269.9998914002
  0
LINE
  5
40
330
2
100
AcDbEntity
  8
0
 62
     3
100
AcDbLine
 10
63.82069832520002
 20
164.7999420166
 30
0.0
 11
64.32080513670005
 21
164.7999420166
 31
0.0
  0
CIRCLE
  5
41
330
2
100
AcDbEntity
  8
0
 62
     3
100
AcDbCircle
 10
69.32094246580004
 20
168.5
 30
0.0
 40
7.399999618499996
  0
CIRCLE
  5
42
330
2
100
AcDbEntity
  8
0
 62
     3
100
AcDbCircle
 10
69.32094246580004
 20
168.5
 30
0.0
 40
8.0
  0
LINE
  5
43
330
2
100
AcDbEntity
  8
0
 62
     3
100
AcDbLine
 10
57.62106339930003
 20
177.4998599918999
 30
0.0
 11
57.32106942820005
 21
177.1998662482999
 31
0.0
  0
LINE
  5
44
330
2
100
AcDbEntity
  8
0
 62
     3
100
AcDbLine
 10
57.32095772460005
 20
177.2000122069998
 30
0.0
 11
57.32095772460005
 21
159.8000030517
 31
0.0
  0
LINE
  5
45
330
2
100
AcDbEntity
  8
0
 62
     3
100
AcDbLine
 10
63.32088608640003
 20
170.9997010182
 30
0.0
 11
63.82090429420006
 21
172.1997463287
 31
0.0
  0
LINE
  5
46
330
2
100
AcDbEntity
  8
0
 62
     3
100
AcDbLine
 10
63.32098982480005
 20
170.9998149347999
 30
0.0
 11
63.82096139250004
 21
172.1997474100999
 31
0.0
  0
LINE
  5
47
330
2
100
AcDbEntity
  8
0
 62
     3
100
AcDbLine
 10
61.92093331050003
 20
165.4603271484
 30
0.0
 11
61.92093331050003
 21
171.5397949218
 31
0.0
  0
LINE
  5
48
330
2
100
AcDbEntity
  8
0
 62
     3
100
AcDbLine
 10
60.83565193850003
 20
165.5000152586999
 30
0.0
 11
61.90466744140005
 21
165.5000152586999
 31
0.0
  0
LINE
  5
49
330
2
100
AcDbEntity
  8
0
 62
     3
100
AcDbLine
 10
60.82179615610003
 20
161.8439318046
 30
0.0
 11
62.64798444310006
 21
160.0500102467
 31
0.0
  0
LINE
  5
4A
330
2
100
AcDbEntity
  8
0
 62
     3
100
AcDbLine
 10
63.32080329460004
 20
165.9997649215
 30
0.0
 11
63.82080451600003
 21
164.7997620985
 31
0.0
  0
LINE
  5
4B
330
2
100
AcDbEntity
  8
0
 62
     3
100
AcDbLine
 10
63.32088063110003
 20
165.9996951302
 30
0.0
 11
63.82088423740004
 21
164.7998090328
 31
0.0
  0
LINE
  5
4C
330
2
100
AcDbEntity
  8
0
 62
     3
100
AcDbLine
 10
63.32069832520002
 20
165.9998931884
 30
0.0
 11
62.35597664550005
 21
165.9998931884
 31
0.0
  0
LINE
  5
4D
330
2
100
AcDbEntity
  8
0
 62
     3
100
AcDbLine
 10
63.32069832520002
 20
170.9998474120999
 30
0.0
 11
62.35597664550005
 21
170.9998474120999
 31
0.0
  0
LINE
  5
4E
330
2
100
AcDbEntity
  8
0
 62
     3
100
AcDbLine
 10
62.35596138670004
 20
170.9997100829999
 30
0.0
 11
63.32080513670003
 21
170.9997100829999
 31
0.0
  0
LINE
  5
4F
330
2
100
AcDbEntity
  8
0
 62
     3
100
AcDbLine
 10
62.35596138670004
 20
165.9997711181
 30
0.0
 11
63.32080513670003
 21
165.9997711181
 31
0.0
  0
ARC
  5
50
330
2
100
AcDbEntity
  8
0
 62
     3
100
AcDbCircle
 10
69.32094246580004
 20
168.5000152586999
 30
0.0
 40
7.399990081799999
100
AcDbArc
 50
160.2551438921
 51
199.7454398616999
  0
LINE
  5
51
330
2
100
AcDbEntity
  8
0
 62
     3
100
AcDbLine
 10
63.47072273930004
 20
169.8999176025
 30
0.0
 11
63.47072273930004
 21
167.0998687743999
 31
0.0
  0
LINE
  5
52
330
2
100
AcDbEntity
  8
0
  6
DASH
 62
     3
100
AcDbLine
 10
63.32069832520002
 20
167.0998687743999
 30
0.0
 11
63.32069832520002
 21
165.9998931884
 31
0.0
  0
LINE
  5
54
330
2
100
AcDbEntity
  8
0
  6
DASH
 62
     3
100
AcDbLine
 10
63.32069832520002
 20
170.9998474120999
 30
0.0
 11
63.32069832520002
 21
169.8999176025
 31
0.0
  0
LINE
  5
55
330
2
100
AcDbEntity
  8
0
 62
     3
100
AcDbLine
 10
62.97072273930004
 20
169.8999176025
 30
0.0
 11
62.97072273930004
 21
167.0998687743999
 31
0.0
  0
LINE
  5
56
330
2
100
AcDbEntity
  8
0
 62
     3
100
AcDbLine
 10
62.62074715330005
 20
169.1999664306
 30
0.0
 11
62.62074715330005
 21
167.7999420166
 31
0.0
  0
LINE
  5
57
330
2
100
AcDbEntity
  8
0
 62
     3
100
AcDbLine
 10
62.62074715330005
 20
169.1999664306
 30
0.0
 11
62.97072273930004
 21
169.1999664306
 31
0.0
  0
LINE
  5
58
330
2
100
AcDbEntity
  8
0
 62
     3
100
AcDbLine
 10
62.62074715330005
 20
167.7999420166
 30
0.0
 11
62.97072273930004
 21
167.7999420166
 31
0.0
  0
LINE
  5
59
330
2
100
AcDbEntity
  8
0
 62
     3
100
AcDbLine
 10
62.62085396480003
 20
169.1998291014999
 30
0.0
 11
62.97082955080007
 21
169.1998291014999
 31
0.0
  0
LINE
  5
5A
330
2
100
AcDbEntity
  8
0
 62
     3
100
AcDbLine
 10
62.62085396480003
 20
167.7998199461999
 30
0.0
 11
62.97082955080007
 21
167.7998199461999
 31
0.0
  0
LINE
  5
5B
330
2
100
AcDbEntity
  8
0
 62
     3
100
AcDbLine
 10
62.62085396480003
 20
169.1998291014999
 30
0.0
 11
62.62085396480003
 21
167.7998199461999
 31
0.0
  0
LINE
  5
5C
330
2
100
AcDbEntity
  8
0
 62
     3
100
AcDbLine
 10
62.97072273930004
 20
169.8999176025
 30
0.0
 11
63.47072273930004
 21
169.8999176025
 31
0.0
  0
LINE
  5
5D
330
2
100
AcDbEntity
  8
0
 62
     3
100
AcDbLine
 10
62.97072273930004
 20
167.0998687743999
 30
0.0
 11
63.47072273930004
 21
167.0998687743999
 31
0.0
  0
LINE
  5
5E
330
2
100
AcDbEntity
  8
0
 62
     3
100
AcDbLine
 10
60.83565193850003
 20
171.5
 30
0.0
 11
61.90466744140005
 21
171.5
 31
0.0
  0
LINE
  5
5F
330
2
100
AcDbEntity
  8
0
 62
     3
100
AcDbLine
 10
62.64798345840002
 20
176.949974731
 30
0.0
 11
60.82178804890003
 21
175.1560166813
 31
0.0
  0
LINE
  5
60
330
2
100
AcDbEntity
  8
0
  6
DASH
 62
     3
100
AcDbLine
 10
64.62083870610005
 20
168.9998779295999
 30
0.0
 11
74.02086312010005
 21
168.9998779295999
 31
0.0
  0
LINE
  5
61
330
2
100
AcDbEntity
  8
0
  6
DASH
 62
     3
100
AcDbLine
 10
64.62083870610005
 20
167.9998931884
 30
0.0
 11
74.02086312010005
 21
167.9998931884
 31
0.0
  0
LINE
  5
62
330
2
100
AcDbEntity
  8
0
 62
     3
100
AcDbLine
 10
67.32091194820004
 20
169.5
 30
0.0
 11
71.32091194820003
 21
169.5
 31
0.0
  0
LINE
  5
63
330
2
100
AcDbEntity
  8
0
 62
     3
100
AcDbLine
 10
65.82091194820003
 20
164.0000152586999
 30
0.0
 11
72.82091194820003
 21
164.0000152586999
 31
0.0
  0
ARC
  5
64
330
2
100
AcDbEntity
  8
0
 62
     3
100
AcDbCircle
 10
69.32094246580004
 20
168.5000152586999
 30
0.0
 40
6.699999809299999
100
AcDbArc
 50
72.6319584263
 51
107.3679509599999
  0
ARC
  5
65
330
2
100
AcDbEntity
  8
0
 62
     3
100
AcDbCircle
 10
69.32094246580004
 20
168.5000152586999
 30
0.0
 40
6.699999809299999
100
AcDbArc
 50
255.3012869677
 51
284.6984757969
  0
LINE
  5
66
330
2
100
AcDbEntity
  8
0
  6
DASH
 62
     3
100
AcDbLine
 10
64.62074715330004
 20
168.9998931884
 30
0.0
 11
64.62074715330004
 21
172.1998291015
 31
0.0
  0
LINE
  5
67
330
2
100
AcDbEntity
  8
0
 62
     3
100
AcDbLine
 10
67.62089974120005
 20
163.0000152586999
 30
0.0
 11
65.52092415530004
 21
163.0000152586999
 31
0.0
  0
LINE
  5
68
330
2
100
AcDbEntity
  8
0
 62
     3
100
AcDbLine
 10
65.52087837890005
 20
162.9998931883999
 30
0.0
 11
67.62085396480003
 21
162.9998931883999
 31
0.0
  0
LINE
  5
69
330
2
100
AcDbEntity
  8
0
  6
DASH
 62
     3
100
AcDbLine
 10
64.62074715330004
 20
164.7999420166
 30
0.0
 11
64.62074715330004
 21
167.9998931884
 31
0.0
  0
LINE
  5
6A
330
2
100
AcDbEntity
  8
0
 62
     3
100
AcDbLine
 10
65.82091194820003
 20
166.5000152586999
 30
0.0
 11
65.82091194820003
 21
164.0000152586999
 31
0.0
  0
LINE
  5
6B
330
2
100
AcDbEntity
  8
0
  6
DASH
 62
     3
100
AcDbLine
 10
64.62091815300005
 20
164.7999663033
 30
0.0
 11
64.32086932490006
 21
164.7999688211
 31
0.0
  0
LINE
  5
6C
330
2
100
AcDbEntity
  8
0
 62
     3
100
AcDbLine
 10
64.32081421900003
 20
164.7998271349999
 30
0.0
 11
65.52080889060004
 21
162.9998060503
 31
0.0
  0
LINE
  5
6D
330
2
100
AcDbEntity
  8
0
 62
     3
100
AcDbLine
 10
64.32090886470004
 20
164.7998385628999
 30
0.0
 11
65.52097582880003
 21
162.9998473344
 31
0.0
  0
LINE
  5
6E
330
2
100
AcDbEntity
  8
0
 62
     3
100
AcDbLine
 10
67.22083347890003
 20
162.9999496163999
 30
0.0
 11
67.12083687530003
 21
162.4999634679998
 31
0.0
  0
LINE
  5
6F
330
2
100
AcDbEntity
  8
0
 62
     3
100
AcDbLine
 10
66.32095772460004
 20
160.0147247313999
 30
0.0
 11
66.32095772460004
 21
161.0836486816
 31
0.0
  0
LINE
  5
70
330
2
100
AcDbEntity
  8
0
 62
     3
100
AcDbLine
 10
65.92078228710005
 20
162.9997815202
 30
0.0
 11
66.02078282540003
 21
162.4997806220999
 31
0.0
  0
LINE
  5
71
330
2
100
AcDbEntity
  8
0
 62
     3
100
AcDbLine
 10
66.02092415530004
 20
162.4998931883999
 30
0.0
 11
67.12089974120003
 21
162.4998931883999
 31
0.0
  0
LINE
  5
72
330
2
100
AcDbEntity
  8
0
 62
     3
100
AcDbLine
 10
65.47093636230004
 20
168.3499908446999
 30
0.0
 11
66.37096077640004
 21
168.3499908446999
 31
0.0
  0
LINE
  5
73
330
2
100
AcDbEntity
  8
0
 62
     3
100
AcDbLine
 10
65.47093636230004
 20
168.6499023437
 30
0.0
 11
66.37096077640004
 21
168.6499023437
 31
0.0
  0
LINE
  5
74
330
2
100
AcDbEntity
  8
0
 62
     3
100
AcDbLine
 10
65.82091194820003
 20
166.5000152586999
 30
0.0
 11
67.32091194820004
 21
166.5000152586999
 31
0.0
  0
LINE
  5
75
330
2
100
AcDbEntity
  8
0
 62
     3
100
AcDbLine
 10
65.17100960450003
 20
169.5499267578
 30
0.0
 11
65.17100960450003
 21
168.650024414
 31
0.0
  0
LINE
  5
76
330
2
100
AcDbEntity
  8
0
 62
     3
100
AcDbLine
 10
65.47093636230004
 20
169.5499267578
 30
0.0
 11
65.47093636230004
 21
168.650024414
 31
0.0
  0
LINE
  5
77
330
2
100
AcDbEntity
  8
0
 62
     3
100
AcDbLine
 10
65.17100960450003
 20
168.3499908446999
 30
0.0
 11
65.17100960450003
 21
167.4499664305998
 31
0.0
  0
LINE
  5
78
330
2
100
AcDbEntity
  8
0
 62
     3
100
AcDbLine
 10
65.47093636230004
 20
168.3499908446999
 30
0.0
 11
65.47093636230004
 21
167.4499664305998
 31
0.0
  0
ARC
  5
79
330
2
100
AcDbEntity
  8
0
 62
     3
100
AcDbCircle
 10
65.32094246580005
 20
169.5499420166
 30
0.0
 40
0.1499977112
100
AcDbArc
 50
0.0
 51
179.9999093863
  0
ARC
  5
7A
330
2
100
AcDbEntity
  8
0
 62
     3
100
AcDbCircle
 10
65.32095772460005
 20
167.4499664305998
 30
0.0
 40
0.1499977112
100
AcDbArc
 50
180.0000906136999
 51
359.9999273724998
  0
LINE
  5
7B
330
2
100
AcDbEntity
  8
0
 62
     3
100
AcDbLine
 10
64.27098519040004
 20
168.6499023437
 30
0.0
 11
65.17100960450003
 21
168.6499023437
 31
0.0
  0
LINE
  5
7C
330
2
100
AcDbEntity
  8
0
 62
     3
100
AcDbLine
 10
64.27098519040004
 20
168.3499908446999
 30
0.0
 11
65.17100960450003
 21
168.3499908446999
 31
0.0
  0
LINE
  5
7D
330
2
100
AcDbEntity
  8
0
 62
     3
100
AcDbLine
 10
67.32091194820004
 20
166.5000152586999
 30
0.0
 11
67.32091194820004
 21
169.5
 31
0.0
  0
ARC
  5
7E
330
2
100
AcDbEntity
  8
0
 62
     3
100
AcDbCircle
 10
66.37099129390003
 20
168.5000152586999
 30
0.0
 40
0.1499977112
100
AcDbArc
 50
270.0001272691
 51
89.9999273723999
  0
LINE
  5
7F
330
2
100
AcDbEntity
  8
0
 62
     3
100
AcDbLine
 10
67.62085396480003
 20
162.9998168944998
 30
0.0
 11
67.62085396480003
 21
162.0189819335
 31
0.0
  0
LINE
  5
80
330
2
100
AcDbEntity
  8
0
 62
     3
100
AcDbLine
 10
66.32095772460004
 20
175.9161529541
 30
0.0
 11
66.32095772460004
 21
176.9853057861
 31
0.0
  0
LINE
  5
81
330
2
100
AcDbEntity
  8
0
 62
     3
100
AcDbLine
 10
67.32085091310003
 20
174.1998901366999
 30
0.0
 11
65.82097298340002
 21
174.1998901366999
 31
0.0
  0
LINE
  5
82
330
2
100
AcDbEntity
  8
0
 62
     3
100
AcDbLine
 10
65.82080513670004
 20
174.1997833251
 30
0.0
 11
67.32080513670005
 21
174.1997833251
 31
0.0
  0
LINE
  5
83
330
2
100
AcDbEntity
  8
0
  6
DASH
 62
     3
100
AcDbLine
 10
64.62086922360004
 20
172.1998291015
 30
0.0
 11
64.32082039550005
 21
172.1998291015
 31
0.0
  0
LINE
  5
84
330
2
100
AcDbEntity
  8
0
 62
     3
100
AcDbLine
 10
65.82076955660006
 20
174.1997347236999
 30
0.0
 11
64.32082828570006
 21
172.1998432274
 31
0.0
  0
LINE
  5
85
330
2
100
AcDbEntity
  8
0
 62
     3
100
AcDbLine
 10
67.32069832520003
 20
174.8943786621
 30
0.0
 11
67.32069832520003
 21
174.1998443602999
 31
0.0
  0
LINE
  5
86
330
2
100
AcDbEntity
  8
0
 62
     3
100
AcDbLine
 10
67.12076333020005
 20
174.6997769795
 30
0.0
 11
67.22076295670004
 21
174.199775899
 31
0.0
  0
LINE
  5
87
330
2
100
AcDbEntity
  8
0
 62
     3
100
AcDbLine
 10
67.32080513670005
 20
174.1997833251
 30
0.0
 11
67.32080513670005
 21
174.894241333
 31
0.0
  0
LINE
  5
88
330
2
100
AcDbEntity
  8
0
 62
     3
100
AcDbLine
 10
66.02081278410006
 20
174.6999004685998
 30
0.0
 11
65.92081526880005
 21
174.1999145025999
 31
0.0
  0
LINE
  5
89
330
2
100
AcDbEntity
  8
0
 62
     3
100
AcDbLine
 10
67.12089974120003
 20
174.6998901367
 30
0.0
 11
66.02092415530004
 21
174.6998901367
 31
0.0
  0
LINE
  5
8A
330
2
100
AcDbEntity
  8
0
 62
     3
100
AcDbLine
 10
76.72084480960005
 20
165.4603271484
 30
0.0
 11
76.72084480960005
 21
171.5397949218
 31
0.0
  0
LINE
  5
8B
330
2
100
AcDbEntity
  8
0
 62
     3
100
AcDbLine
 10
74.82066316590004
 20
172.1996977325999
 30
0.0
 11
75.32065813120005
 21
170.9997088396999
 31
0.0
  0
LINE
  5
8C
330
2
100
AcDbEntity
  8
0
 62
     3
100
AcDbLine
 10
74.82076221210005
 20
172.1997126672999
 30
0.0
 11
75.32075686740005
 21
170.9997236968999
 31
0.0
  0
LINE
  5
8D
330
2
100
AcDbEntity
  8
0
  6
DASH
 62
     3
100
AcDbLine
 10
74.02077156740006
 20
168.9998931884
 30
0.0
 11
74.02077156740006
 21
172.1998291015
 31
0.0
  0
LINE
  5
8E
330
2
100
AcDbEntity
  8
0
 62
     3
100
AcDbLine
 10
72.27098519040004
 20
168.3499908446999
 30
0.0
 11
74.37096077640005
 21
168.3499908446999
 31
0.0
  0
LINE
  5
8F
330
2
100
AcDbEntity
  8
0
 62
     3
100
AcDbLine
 10
72.27098519040004
 20
168.6499023437
 30
0.0
 11
74.37096077640005
 21
168.6499023437
 31
0.0
  0
LINE
  5
90
330
2
100
AcDbEntity
  8
0
  6
DASH
 62
     3
100
AcDbLine
 10
74.02095496160004
 20
164.7998814819
 30
0.0
 11
74.32088171950005
 21
164.7998789769
 31
0.0
  0
LINE
  5
91
330
2
100
AcDbEntity
  8
0
 62
     3
100
AcDbLine
 10
74.32072580160005
 20
164.7998390464
 30
0.0
 11
73.12083412460005
 21
162.9999143048
 31
0.0
  0
LINE
  5
92
330
2
100
AcDbEntity
  8
0
  6
DASH
 62
     3
100
AcDbLine
 10
74.02077156740006
 20
164.7999420166
 30
0.0
 11
74.02077156740006
 21
167.9998931884
 31
0.0
  0
LINE
  5
93
330
2
100
AcDbEntity
  8
0
 62
     3
100
AcDbLine
 10
72.82091194820003
 20
166.5000152586999
 30
0.0
 11
72.82091194820003
 21
164.0000152586999
 31
0.0
  0
LINE
  5
94
330
2
100
AcDbEntity
  8
0
 62
     3
100
AcDbLine
 10
73.12088448240004
 20
163.0000152586999
 30
0.0
 11
71.02090889650003
 21
163.0000152586999
 31
0.0
  0
LINE
  5
95
330
2
100
AcDbEntity
  8
0
 62
     3
100
AcDbLine
 10
71.52090889650003
 20
162.4998931883999
 30
0.0
 11
72.62088448240004
 21
162.4998931883999
 31
0.0
  0
LINE
  5
96
330
2
100
AcDbEntity
  8
0
 62
     3
100
AcDbLine
 10
72.32094246580004
 20
160.0147247313999
 30
0.0
 11
72.32094246580004
 21
161.0836486816
 31
0.0
  0
LINE
  5
97
330
2
100
AcDbEntity
  8
0
 62
     3
100
AcDbLine
 10
71.02080208500004
 20
162.0192260741999
 30
0.0
 11
71.02080208500004
 21
162.9999389648
 31
0.0
  0
LINE
  5
98
330
2
100
AcDbEntity
  8
0
 62
     3
100
AcDbLine
 10
71.52079092480004
 20
162.4997872957998
 30
0.0
 11
71.42079129830006
 21
162.9997883763
 31
0.0
  0
LINE
  5
99
330
2
100
AcDbEntity
  8
0
 62
     3
100
AcDbLine
 10
72.62086019490005
 20
162.4999021369999
 30
0.0
 11
72.72085771030003
 21
162.9998881030998
 31
0.0
  0
LINE
  5
9A
330
2
100
AcDbEntity
  8
0
 62
     3
100
AcDbLine
 10
71.32091194820003
 20
166.5000152586999
 30
0.0
 11
72.82091194820003
 21
166.5000152586999
 31
0.0
  0
ARC
  5
9B
330
2
100
AcDbEntity
  8
0
 62
     3
100
AcDbCircle
 10
72.27101570800005
 20
168.5000152586999
 30
0.0
 40
0.1499977112
100
AcDbArc
 50
90.00003665540001
 51
269.9998914002
  0
LINE
  5
9C
330
2
100
AcDbEntity
  8
0
 62
     3
100
AcDbLine
 10
71.32091194820003
 20
169.5
 30
0.0
 11
71.32091194820003
 21
166.5000152586999
 31
0.0
  0
LINE
  5
9D
330
2
100
AcDbEntity
  8
0
 62
     3
100
AcDbLine
 10
74.82080823280004
 20
164.7998240484
 30
0.0
 11
75.32082682800005
 21
165.9998692039
 31
0.0
  0
LINE
  5
9E
330
2
100
AcDbEntity
  8
0
 62
     3
100
AcDbLine
 10
75.32077958000005
 20
165.9997700423
 30
0.0
 11
74.82087967670006
 21
164.7999399433
 31
0.0
  0
LINE
  5
9F
330
2
100
AcDbEntity
  8
0
 62
     3
100
AcDbLine
 10
74.32069832520003
 20
164.7999420166
 30
0.0
 11
74.82069832520003
 21
164.7999420166
 31
0.0
  0
LINE
  5
A0
330
2
100
AcDbEntity
  8
0
 62
     3
100
AcDbLine
 10
76.28578621580004
 20
170.9998474120999
 30
0.0
 11
75.32069832520003
 21
170.9998474120999
 31
0.0
  0
LINE
  5
A1
330
2
100
AcDbEntity
  8
0
 62
     3
100
AcDbLine
 10
75.32080513670004
 20
170.9997100829999
 30
0.0
 11
76.28577095700004
 21
170.9997100829999
 31
0.0
  0
LINE
  5
A2
330
2
100
AcDbEntity
  8
0
 62
     3
100
AcDbLine
 10
76.28578621580004
 20
165.9998931884
 30
0.0
 11
75.32069832520003
 21
165.9998931884
 31
0.0
  0
LINE
  5
A3
330
2
100
AcDbEntity
  8
0
 62
     3
100
AcDbLine
 10
75.67067391110004
 20
169.1999664306
 30
0.0
 11
76.02064949710005
 21
169.1999664306
 31
0.0
  0
LINE
  5
A4
330
2
100
AcDbEntity
  8
0
 62
     3
100
AcDbLine
 10
75.67067391110004
 20
167.7999420166
 30
0.0
 11
76.02064949710005
 21
167.7999420166
 31
0.0
  0
LINE
  5
A5
330
2
100
AcDbEntity
  8
0
 62
     3
100
AcDbLine
 10
75.32080513670004
 20
165.9997711181
 30
0.0
 11
76.28577095700004
 21
165.9997711181
 31
0.0
  0
LINE
  5
A6
330
2
100
AcDbEntity
  8
0
 62
     3
100
AcDbLine
 10
75.67090279300001
 20
169.1998291014999
 30
0.0
 11
76.02087837890005
 21
169.1998291014999
 31
0.0
  0
LINE
  5
A7
330
2
100
AcDbEntity
  8
0
 62
     3
100
AcDbLine
 10
75.67090279300001
 20
167.7998199461999
 30
0.0
 11
76.02087837890005
 21
167.7998199461999
 31
0.0
  0
LINE
  5
A8
330
2
100
AcDbEntity
  8
0
 62
     3
100
AcDbLine
 10
75.17067391110003
 20
169.8999176025
 30
0.0
 11
75.67067391110004
 21
169.8999176025
 31
0.0
  0
LINE
  5
A9
330
2
100
AcDbEntity
  8
0
 62
     3
100
AcDbLine
 10
75.67067391110004
 20
167.0998687743999
 30
0.0
 11
75.67067391110004
 21
169.8999176025
 31
0.0
  0
LINE
  5
AA
330
2
100
AcDbEntity
  8
0
 62
     3
100
AcDbLine
 10
75.17067391110003
 20
167.0998687743999
 30
0.0
 11
75.17067391110003
 21
169.8999176025
 31
0.0
  0
LINE
  5
AB
330
2
100
AcDbEntity
  8
0
 62
     3
100
AcDbLine
 10
75.17067391110003
 20
167.0998687743999
 30
0.0
 11
75.67067391110004
 21
167.0998687743999
 31
0.0
  0
LINE
  5
AC
330
2
100
AcDbEntity
  8
0
  6
DASH
 62
     3
100
AcDbLine
 10
75.32069832520003
 20
165.9998931884
 30
0.0
 11
75.32069832520003
 21
167.0998687743999
 31
0.0
  0
ARC
  5
AD
330
2
100
AcDbEntity
  8
0
 62
     3
100
AcDbCircle
 10
74.37099129390003
 20
168.5000152586999
 30
0.0
 40
0.1499977112
100
AcDbArc
 50
270.0001272691
 51
89.9999273723999
  0
LINE
  5
AE
330
2
100
AcDbEntity
  8
0
  6
DASH
 62
     3
100
AcDbLine
 10
75.32069832520003
 20
169.8999176025
 30
0.0
 11
75.32069832520003
 21
170.9998474120999
 31
0.0
  0
LINE
  5
AF
330
2
100
AcDbEntity
  8
0
 62
     3
100
AcDbLine
 10
76.02064949710005
 20
167.7999420166
 30
0.0
 11
76.02064949710005
 21
169.1999664306
 31
0.0
  0
LINE
  5
B0
330
2
100
AcDbEntity
  8
0
 62
     3
100
AcDbLine
 10
76.02087837890005
 20
167.7998199461999
 30
0.0
 11
76.02087837890005
 21
169.1998291014999
 31
0.0
  0
ARC
  5
B1
330
2
100
AcDbEntity
  8
0
 62
     3
100
AcDbCircle
 10
69.32094246580004
 20
168.5000152586999
 30
0.0
 40
7.399990081799999
100
AcDbArc
 50
340.2545105058
 51
19.74479964510003
  0
LINE
  5
B2
330
2
100
AcDbEntity
  8
0
  6
DASH
 62
     3
100
AcDbLine
 10
74.02083356280005
 20
172.1997927973999
 30
0.0
 11
74.32076032060004
 21
172.1997881327
 31
0.0
  0
LINE
  5
B3
330
2
100
AcDbEntity
  8
0
 62
     3
100
AcDbLine
 10
72.82044970290005
 20
174.1994910386999
 30
0.0
 11
74.32042562270004
 21
172.1994729784999
 31
0.0
  0
LINE
  5
B4
330
2
100
AcDbEntity
  8
0
 62
     3
100
AcDbLine
 10
72.82045382480004
 20
174.1994490829999
 30
0.0
 11
74.32045343740004
 21
172.1994487550999
 31
0.0
  0
LINE
  5
B5
330
2
100
AcDbEntity
  8
0
 62
     3
100
AcDbLine
 10
72.32094246580004
 20
175.9161529541
 30
0.0
 11
72.32094246580004
 21
176.9853057861
 31
0.0
  0
LINE
  5
B6
330
2
100
AcDbEntity
  8
0
 62
     3
100
AcDbLine
 10
72.82095772460005
 20
174.1998901366999
 30
0.0
 11
71.32083565430001
 21
174.1998901366999
 31
0.0
  0
LINE
  5
B7
330
2
100
AcDbEntity
  8
0
 62
     3
100
AcDbLine
 10
72.62088448240004
 20
174.6998901367
 30
0.0
 11
71.52090889650003
 21
174.6998901367
 31
0.0
  0
LINE
  5
B8
330
2
100
AcDbEntity
  8
0
 62
     3
100
AcDbLine
 10
71.32080513670004
 20
174.1997833251
 30
0.0
 11
72.82080513670004
 21
174.1997833251
 31
0.0
  0
LINE
  5
B9
330
2
100
AcDbEntity
  8
0
 62
     3
100
AcDbLine
 10
71.32069832520001
 20
174.8943786621
 30
0.0
 11
71.32069832520001
 21
174.1998443602999
 31
0.0
  0
LINE
  5
BA
330
2
100
AcDbEntity
  8
0
 62
     3
100
AcDbLine
 10
71.42087020890006
 20
174.1999050399999
 30
0.0
 11
71.52086681250006
 21
174.6998911883999
 31
0.0
  0
LINE
  5
BB
330
2
100
AcDbEntity
  8
0
 62
     3
100
AcDbLine
 10
71.32080513670004
 20
174.894241333
 30
0.0
 11
71.32080513670004
 21
174.1997833251
 31
0.0
  0
LINE
  5
BC
330
2
100
AcDbEntity
  8
0
 62
     3
100
AcDbLine
 10
72.72082961010003
 20
174.1997779479999
 30
0.0
 11
72.62082907190003
 21
174.6997788460998
 31
0.0
  0
LINE
  5
BD
330
2
100
AcDbEntity
  8
0
 62
     3
100
AcDbLine
 10
74.32069832520003
 20
172.1998291015
 30
0.0
 11
74.82069832520003
 21
172.1998291015
 31
0.0
  0
LINE
  5
BE
330
2
100
AcDbEntity
  8
0
 62
     3
100
AcDbLine
 10
74.32080513670005
 20
172.1997833250999
 30
0.0
 11
74.82080513670005
 21
172.1997833250999
 31
0.0
  0
LINE
  5
BF
330
2
100
AcDbEntity
  8
0
 62
     3
100
AcDbLine
 10
121.7115915726999
 20
159.5499588795999
 30
0.0
 11
122.6586460512999
 21
159.8709841806
 31
0.0
  0
LINE
  5
C0
330
2
100
AcDbEntity
  8
0
 62
     3
100
AcDbLine
 10
120.7675148762
 20
162.3350540397
 30
0.0
 11
121.711600416
 21
159.5499501989
 31
0.0
  0
LINE
  5
C1
330
2
100
AcDbEntity
  8
0
 62
     3
100
AcDbLine
 10
116.9675054435
 20
159.600010873
 30
0.0
 11
116.9675207022998
 21
160.1209001553
 31
0.0
  0
LINE
  5
C2
330
2
100
AcDbEntity
  8
0
 62
     3
100
AcDbLine
 10
120.7674966497998
 20
159.5999450682999
 30
0.0
 11
120.7674966497998
 21
177.3999023436999
 31
0.0
  0
LINE
  5
C3
330
2
100
AcDbEntity
  8
0
 62
     3
100
AcDbLine
 10
124.5676675481999
 20
159.5505097832
 30
0.0
 11
124.5676675481999
 21
177.4495709775998
 31
0.0
  0
LINE
  5
C4
330
2
100
AcDbEntity
  8
0
 62
     3
100
AcDbLine
 10
120.7674356145999
 20
177.3999023436999
 30
0.0
 11
120.7674356145999
 21
159.5999298095
 31
0.0
  0
LINE
  5
C5
330
2
100
AcDbEntity
  8
0
 62
     3
100
AcDbLine
 10
81.02096137120003
 20
159.5000812867
 30
0.0
 11
81.32095498830006
 21
159.8000753843
 31
0.0
  0
LINE
  5
C6
330
2
100
AcDbEntity
  8
0
 62
     3
100
AcDbLine
 10
78.32176644040004
 20
177.4999237059999
 30
0.0
 11
78.32176644040004
 21
159.5000610351
 31
0.0
  0
LINE
  5
C7
330
2
100
AcDbEntity
  8
0
 62
     3
100
AcDbLine
 10
120.7674966497998
 20
159.6000061035
 30
0.0
 11
116.9675241156
 21
159.6000061035
 31
0.0
  0
LINE
  5
C8
330
2
100
AcDbEntity
  8
0
 62
     3
100
AcDbLine
 10
120.7674966497998
 20
159.5499877928999
 30
0.0
 11
121.7115884467
 21
159.5499877928999
 31
0.0
  0
LINE
  5
C9
330
2
100
AcDbEntity
  8
0
 62
     3
100
AcDbLine
 10
104.0676980658
 20
217.0
 30
0.0
 11
105.5676980657999
 21
217.0
 31
0.0
  0
LINE
  5
CA
330
2
100
AcDbEntity
  8
0
 62
     3
100
AcDbLine
 10
104.0675759955
 20
215.4999999999999
 30
0.0
 11
105.5676980657999
 21
215.4999999999999
 31
0.0
  0
LINE
  5
CB
330
2
100
AcDbEntity
  8
0
 62
     3
100
AcDbLine
 10
104.0676980658
 20
211.5
 30
0.0
 11
105.5676980657999
 21
211.5
 31
0.0
  0
LINE
  5
CC
330
2
100
AcDbEntity
  8
0
 62
     3
100
AcDbLine
 10
104.0676980658
 20
211.8001708983999
 30
0.0
 11
105.5676980657999
 21
211.8001708983999
 31
0.0
  0
LINE
  5
CD
330
2
100
AcDbEntity
  8
0
 62
     3
100
AcDbLine
 10
104.0676980658
 20
215.2001953125
 30
0.0
 11
105.5676980657999
 21
215.2001953125
 31
0.0
  0
LINE
  5
CE
330
2
100
AcDbEntity
  8
0
 62
     3
100
AcDbLine
 10
104.0676980658
 20
210.0
 30
0.0
 11
105.5676980657999
 21
210.0
 31
0.0
  0
LINE
  5
CF
330
2
100
AcDbEntity
  8
0
 62
     3
100
AcDbLine
 10
107.5674352495999
 20
166.0501377461999
 30
0.0
 11
102.5674429509
 21
165.9999669239
 31
0.0
  0
LINE
  5
D0
330
2
100
AcDbEntity
  8
0
 62
     3
100
AcDbLine
 10
102.5672929898999
 20
170.9994289169
 30
0.0
 11
107.5672891631
 21
170.9496242898999
 31
0.0
  0
LINE
  5
D1
330
2
100
AcDbEntity
  8
0
 62
     3
100
AcDbLine
 10
102.5675149603
 20
206.4996948241999
 30
0.0
 11
107.5675149603
 21
206.4996948241999
 31
0.0
  0
LINE
  5
D2
330
2
100
AcDbEntity
  8
0
 62
     3
100
AcDbLine
 10
102.5675302190999
 20
220.4992218016999
 30
0.0
 11
107.5675149603
 21
220.4992218016999
 31
0.0
  0
LINE
  5
D3
330
2
100
AcDbEntity
  8
0
 62
     3
100
AcDbLine
 10
102.5675302190999
 20
206.1499633788999
 30
0.0
 11
107.5675149603
 21
206.1499633788999
 31
0.0
  0
LINE
  5
D4
330
2
100
AcDbEntity
  8
0
 62
     3
100
AcDbLine
 10
102.5675302190999
 20
220.8495635985999
 30
0.0
 11
107.5675149603
 21
220.8495635985999
 31
0.0
  0
LINE
  5
D5
330
2
100
AcDbEntity
  8
0
 62
     3
100
AcDbLine
 10
102.5676980657999
 20
161.1004791258999
 30
0.0
 11
112.5676980658
 21
161.1004791258999
 31
0.0
  0
LINE
  5
D6
330
2
100
AcDbEntity
  8
0
 62
     3
100
AcDbLine
 10
112.5676980658
 20
175.8997802734
 30
0.0
 11
102.5676980657999
 21
175.8997802734
 31
0.0
  0
LINE
  5
D7
330
2
100
AcDbEntity
  8
0
 62
     3
100
AcDbLine
 10
81.32094246580004
 20
177.1999359129999
 30
0.0
 11
81.32094246580004
 21
159.8000793456999
 31
0.0
  0
LINE
  5
D8
330
2
100
AcDbEntity
  8
0
 62
     3
100
AcDbLine
 10
81.02095679370005
 20
177.4999244343
 30
0.0
 11
81.32095079010003
 21
177.1999307413
 31
0.0
  0
LINE
  5
D9
330
2
100
AcDbEntity
  8
0
 62
     3
100
AcDbLine
 10
102.567682807
 20
167.100036621
 30
0.0
 11
95.06737763120005
 21
167.100036621
 31
0.0
  0
LINE
  5
DA
330
2
100
AcDbEntity
  8
0
  6
DASH
 62
     3
100
AcDbLine
 10
102.567682807
 20
167.1998901367
 30
0.0
 11
95.06737763120005
 21
167.1998901367
 31
0.0
  0
LINE
  5
DB
330
2
100
AcDbEntity
  8
0
 62
     3
100
AcDbLine
 10
96.16735321720005
 20
167.8998413085
 30
0.0
 11
97.56725556090003
 21
167.8998413085
 31
0.0
  0
LINE
  5
DC
330
2
100
AcDbEntity
  8
0
 62
     3
100
AcDbLine
 10
96.16735321720005
 20
169.0997924803999
 30
0.0
 11
97.56725556090003
 21
169.0997924803999
 31
0.0
  0
LINE
  5
DD
330
2
100
AcDbEntity
  8
0
  6
DASH
 62
     3
100
AcDbLine
 10
95.06737763120005
 20
169.7997436523
 30
0.0
 11
102.567682807
 21
169.7997436523
 31
0.0
  0
LINE
  5
DE
330
2
100
AcDbEntity
  8
0
 62
     3
100
AcDbLine
 10
95.06737763120005
 20
169.8997192381999
 30
0.0
 11
102.567682807
 21
169.8997192381999
 31
0.0
  0
LINE
  5
DF
330
2
100
AcDbEntity
  8
0
 62
     3
100
AcDbLine
 10
95.26732880310005
 20
167.8499145506999
 30
0.0
 11
97.89623505310007
 21
167.8499145506999
 31
0.0
  0
LINE
  5
E0
330
2
100
AcDbEntity
  8
0
 62
     3
100
AcDbLine
 10
95.26732880310005
 20
169.1497192381999
 30
0.0
 11
97.89623505310007
 21
169.1497192381999
 31
0.0
  0
LINE
  5
E1
330
2
100
AcDbEntity
  8
0
 62
     3
100
AcDbLine
 10
97.46715400350005
 20
169.2851985205998
 30
0.0
 11
95.46714705220004
 21
169.7137717173999
 31
0.0
  0
LINE
  5
E2
330
2
100
AcDbEntity
  8
0
 62
     3
100
AcDbLine
 10
95.46689290480005
 20
167.2858012320999
 30
0.0
 11
97.46678037350005
 21
167.7143494611
 31
0.0
  0
LINE
  5
E3
330
2
100
AcDbEntity
  8
0
 62
     3
100
AcDbLine
 10
102.2706247014999
 20
169.8999328612998
 30
0.0
 11
95.07062775330004
 21
169.8999328612998
 31
0.0
  0
LINE
  5
E4
330
2
100
AcDbEntity
  8
0
 62
     3
100
AcDbLine
 10
96.17066437440005
 20
167.8999481201
 30
0.0
 11
97.57062775330004
 21
167.8999481201
 31
0.0
  0
LINE
  5
E5
330
2
100
AcDbEntity
  8
0
 62
     3
100
AcDbLine
 10
96.17066437440005
 20
169.0999298094999
 30
0.0
 11
97.57062775330004
 21
169.0999298094999
 31
0.0
  0
ARC
  5
E6
330
2
100
AcDbEntity
  8
0
 62
     3
100
AcDbCircle
 10
96.16742951110005
 20
168.5
 30
0.0
 40
0.5999994278000002
100
AcDbArc
 50
90.00003665540001
 51
269.9998914002
  0
LINE
  5
E7
330
2
100
AcDbEntity
  8
0
 62
     3
100
AcDbLine
 10
95.06737763120005
 20
167.6498413085
 30
0.0
 11
95.06737763120005
 21
167.100036621
 31
0.0
  0
LINE
  5
E8
330
2
100
AcDbEntity
  8
0
 62
     3
100
AcDbLine
 10
95.06737763120005
 20
169.8997192381999
 30
0.0
 11
95.06737763120005
 21
169.3497924804
 31
0.0
  0
ARC
  5
E9
330
2
100
AcDbEntity
  8
0
 62
     3
100
AcDbCircle
 10
95.26740509700005
 20
167.6499023437
 30
0.0
 40
0.1999999285
100
AcDbArc
 50
90.00003665540001
 51
179.9999640277999
  0
ARC
  5
EA
330
2
100
AcDbEntity
  8
0
 62
     3
100
AcDbCircle
 10
95.26740509700005
 20
169.3498535155999
 30
0.0
 40
0.1999999285
100
AcDbArc
 50
179.9999640277999
 51
269.9999460416999
  0
LINE
  5
EB
330
2
100
AcDbEntity
  8
0
 62
     3
100
AcDbLine
 10
95.58626801210005
 20
168.3498992919
 30
0.0
 11
94.57320648860005
 21
168.3498992919
 31
0.0
  0
LINE
  5
EC
330
2
100
AcDbEntity
  8
0
 62
     3
100
AcDbLine
 10
95.58639618210005
 20
168.6495468566
 30
0.0
 11
94.57321258840002
 21
168.6495447942
 31
0.0
  0
ARC
  5
ED
330
2
100
AcDbEntity
  8
0
 62
     3
100
AcDbCircle
 10
96.46735626890007
 20
168.5
 30
0.0
 40
1.899999618499998
100
AcDbArc
 50
137.4630758394
 51
222.5368522162999
  0
LINE
  5
EE
330
2
100
AcDbEntity
  8
0
 62
     3
100
AcDbLine
 10
102.5676980657999
 20
161.1004791258999
 30
0.0
 11
102.5676980657999
 21
175.8997802734
 31
0.0
  0
LINE
  5
EF
330
2
100
AcDbEntity
  8
0
 62
     3
100
AcDbLine
 10
98.21373993590004
 20
168.5999145507
 30
0.0
 11
102.567682807
 21
168.5999145507
 31
0.0
  0
LINE
  5
F0
330
2
100
AcDbEntity
  8
0
 62
     3
100
AcDbLine
 10
98.21373993590004
 20
168.3998413085
 30
0.0
 11
102.567682807
 21
168.3998413085
 31
0.0
  0
ARC
  5
F1
330
2
100
AcDbEntity
  8
0
 62
     3
100
AcDbCircle
 10
97.56733185490006
 20
168.5
 30
0.0
 40
0.5999994278000002
100
AcDbArc
 50
270.0000726275999
 51
89.99998201389994
  0
LINE
  5
F2
330
2
100
AcDbEntity
  8
0
 62
     3
100
AcDbLine
 10
98.21303556010004
 20
168.3993190290999
 30
0.0
 11
97.89546971780005
 21
167.8492786964
 31
0.0
  0
LINE
  5
F3
330
2
100
AcDbEntity
  8
0
 62
     3
100
AcDbLine
 10
97.89538280900005
 20
169.1497098289
 30
0.0
 11
98.21288769180004
 21
168.5997752501
 31
0.0
  0
LINE
  5
F4
330
2
100
AcDbEntity
  8
0
 62
     3
100
AcDbLine
 10
94.56769806580004
 20
219.3499603270999
 30
0.0
 11
102.5676980657999
 21
219.3499603270999
 31
0.0
  0
LINE
  5
F5
330
2
100
AcDbEntity
  8
0
  6
DASH
 62
     3
100
AcDbLine
 10
95.06769806580003
 20
219.4499359129999
 30
0.0
 11
102.5676980657999
 21
219.4499359129999
 31
0.0
  0
LINE
  5
F6
330
2
100
AcDbEntity
  8
0
 62
     3
100
AcDbLine
 10
95.06765324320005
 20
219.6002713277998
 30
0.0
 11
97.86767204980005
 21
219.8502704187998
 31
0.0
  0
LINE
  5
F7
330
2
100
AcDbEntity
  8
0
 62
     3
100
AcDbLine
 10
102.5676980657999
 20
207.6499938963999
 30
0.0
 11
94.56775910090003
 21
207.6499938963999
 31
0.0
  0
LINE
  5
F8
330
2
100
AcDbEntity
  8
0
  6
DASH
 62
     3
100
AcDbLine
 10
102.5676980657999
 20
207.5500183104999
 30
0.0
 11
95.06775910090004
 21
207.5500183104999
 31
0.0
  0
LINE
  5
F9
330
2
100
AcDbEntity
  8
0
 62
     3
100
AcDbLine
 10
97.86774863180005
 20
207.1499649206999
 30
0.0
 11
95.06774502350003
 21
207.3999626547
 31
0.0
  0
LINE
  5
FA
330
2
100
AcDbEntity
  8
0
 62
     3
100
AcDbLine
 10
95.06775910090004
 20
207.6499938963999
 30
0.0
 11
95.06775910090004
 21
207.3999938964
 31
0.0
  0
LINE
  5
FB
330
2
100
AcDbEntity
  8
0
 62
     3
100
AcDbLine
 10
94.56775910090003
 20
207.6499938963999
 30
0.0
 11
94.56775910090003
 21
207.3999938964
 31
0.0
  0
LINE
  5
FC
330
2
100
AcDbEntity
  8
0
 62
     3
100
AcDbLine
 10
95.06775910090004
 20
207.5500183104999
 30
0.0
 11
94.56775910090003
 21
207.5500183104999
 31
0.0
  0
LINE
  5
FD
330
2
100
AcDbEntity
  8
0
 62
     3
100
AcDbLine
 10
95.06775910090004
 20
207.3999938964
 30
0.0
 11
94.56775910090003
 21
207.3999938964
 31
0.0
  0
LINE
  5
FE
330
2
100
AcDbEntity
  8
0
 62
     3
100
AcDbLine
 10
95.06769806580003
 20
219.5999603270999
 30
0.0
 11
95.06769806580003
 21
219.3499603270999
 31
0.0
  0
LINE
  5
FF
330
2
100
AcDbEntity
  8
0
 62
     3
100
AcDbLine
 10
94.56769806580004
 20
219.5999603270999
 30
0.0
 11
94.56769806580004
 21
219.3499603270999
 31
0.0
  0
LINE
  5
100
330
2
100
AcDbEntity
  8
0
 62
     3
100
AcDbLine
 10
94.56769806580004
 20
219.4499359129999
 30
0.0
 11
95.06769806580003
 21
219.4499359129999
 31
0.0
  0
LINE
  5
101
330
2
100
AcDbEntity
  8
0
 62
     3
100
AcDbLine
 10
94.56769806580004
 20
219.5999603270999
 30
0.0
 11
95.06769806580003
 21
219.5999603270999
 31
0.0
  0
LINE
  5
102
330
2
100
AcDbEntity
  8
0
 62
     3
100
AcDbLine
 10
102.5676980657999
 20
206.150024414
 30
0.0
 11
102.5676980657999
 21
220.8499755859
 31
0.0
  0
LINE
  5
103
330
2
100
AcDbEntity
  8
0
 62
     3
100
AcDbLine
 10
102.5676980657999
 20
207.1499938964
 30
0.0
 11
97.86774689390005
 21
207.1499938964
 31
0.0
  0
LINE
  5
104
330
2
100
AcDbEntity
  8
0
 62
     3
100
AcDbLine
 10
104.0676980658
 20
210.0
 30
0.0
 11
104.0676980658
 21
211.5
 31
0.0
  0
LINE
  5
105
330
2
100
AcDbEntity
  8
0
 62
     3
100
AcDbLine
 10
104.0675149603
 20
215.1994171141999
 30
0.0
 11
104.0675149603
 21
211.7995300292998
 31
0.0
  0
LINE
  5
106
330
2
100
AcDbEntity
  8
0
 62
     3
100
AcDbLine
 10
104.0676980658
 20
215.4999999999999
 30
0.0
 11
104.0676980658
 21
217.0
 31
0.0
  0
LINE
  5
107
330
2
100
AcDbEntity
  8
0
 62
     3
100
AcDbLine
 10
97.86774689390005
 20
219.8499603270998
 30
0.0
 11
102.5676980657999
 21
219.8499603270998
 31
0.0
  0
LINE
  5
108
330
2
100
AcDbEntity
  8
0
 62
     3
100
AcDbLine
 10
123.9676614446999
 20
204.8002471923
 30
0.0
 11
123.9676614446999
 21
222.2002410887998
 31
0.0
  0
LINE
  5
109
330
2
100
AcDbEntity
  8
0
 62
     3
100
AcDbLine
 10
121.767136174
 20
207.5002033669998
 30
0.0
 11
122.658297354
 21
204.8712292747
 31
0.0
  0
LINE
  5
10A
330
2
100
AcDbEntity
  8
0
 62
     3
100
AcDbLine
 10
120.7671441361999
 20
207.3352991608
 30
0.0
 11
121.711229676
 21
204.55019532
 31
0.0
  0
LINE
  5
10B
330
2
100
AcDbEntity
  8
0
 62
     3
100
AcDbLine
 10
120.7670999212999
 20
204.6002197265
 30
0.0
 11
120.7670999212999
 21
222.3997650145999
 31
0.0
  0
LINE
  5
10C
330
2
100
AcDbEntity
  8
0
 62
     3
100
AcDbLine
 10
120.7670236272999
 20
222.3999176024999
 30
0.0
 11
120.7670236272999
 21
204.5999298094999
 31
0.0
  0
LINE
  5
10D
330
2
100
AcDbEntity
  8
0
 62
     3
100
AcDbLine
 10
124.5676675481999
 20
201.5499275354
 30
0.0
 11
124.5676675481999
 21
225.4499019465999
 31
0.0
  0
LINE
  5
10E
330
2
100
AcDbEntity
  8
0
 62
     3
100
AcDbLine
 10
115.7671456976
 20
210.5000305174999
 30
0.0
 11
115.7671456976
 21
205.1209106444999
 31
0.0
  0
LINE
  5
10F
330
2
100
AcDbEntity
  8
0
 62
     3
100
AcDbLine
 10
120.7670999212999
 20
204.6000213622999
 30
0.0
 11
116.9671273871
 21
204.6000213622999
 31
0.0
  0
LINE
  5
110
330
2
100
AcDbEntity
  8
0
 62
     3
100
AcDbLine
 10
116.9675393744
 20
177.3999938963999
 30
0.0
 11
120.7675119086
 21
177.3999938963999
 31
0.0
  0
LINE
  5
111
330
2
100
AcDbEntity
  8
0
 62
     3
100
AcDbLine
 10
107.5674997014999
 20
170.9497680664
 30
0.0
 11
107.5674997014999
 21
166.0500640868999
 31
0.0
  0
LINE
  5
112
330
2
100
AcDbEntity
  8
0
 62
     3
100
AcDbLine
 10
107.5672555609
 20
168.0999145506999
 30
0.0
 11
107.5672555609
 21
167.6998901366999
 31
0.0
  0
LINE
  5
113
330
2
100
AcDbEntity
  8
0
 62
     3
100
AcDbLine
 10
107.5672555609
 20
169.2997436523
 30
0.0
 11
107.5672555609
 21
168.8997192381999
 31
0.0
  0
LINE
  5
114
330
2
100
AcDbEntity
  8
0
 62
     3
100
AcDbLine
 10
116.9675393744
 20
171.5
 30
0.0
 11
116.9675393744
 21
165.5000152586999
 31
0.0
  0
LINE
  5
115
330
2
100
AcDbEntity
  8
0
 62
     3
100
AcDbLine
 10
112.567682807
 20
161.1004791258999
 30
0.0
 11
112.567682807
 21
175.8997802734
 31
0.0
  0
ARC
  5
116
330
2
100
AcDbEntity
  8
0
 62
     3
100
AcDbCircle
 10
132.7676187200999
 20
168.4997558592999
 30
0.0
 40
20.200012207
100
AcDbArc
 50
168.5787949053
 51
191.4211331503
  0
LINE
  5
117
330
2
100
AcDbEntity
  8
0
 62
     3
100
AcDbLine
 10
115.7675271673999
 20
160.50050354
 30
0.0
 11
112.9675851508
 21
160.50050354
 31
0.0
  0
LINE
  5
118
330
2
100
AcDbEntity
  8
0
 62
     3
100
AcDbLine
 10
115.7675271673999
 20
164.5004119873
 30
0.0
 11
112.9675851508
 21
164.5004119873
 31
0.0
  0
LINE
  5
119
330
2
100
AcDbEntity
  8
0
 62
     3
100
AcDbLine
 10
115.7675271673999
 20
161.1004791258999
 30
0.0
 11
112.567682807
 21
161.1004791258999
 31
0.0
  0
LINE
  5
11A
330
2
100
AcDbEntity
  8
0
 62
     3
100
AcDbLine
 10
112.9675851508
 20
160.50050354
 30
0.0
 11
112.9675851508
 21
164.5004119873
 31
0.0
  0
LINE
  5
11B
330
2
100
AcDbEntity
  8
0
 62
     3
100
AcDbLine
 10
112.9658276702
 20
160.4992971793
 30
0.0
 11
112.5658505403
 21
161.0992632395
 31
0.0
  0
LINE
  5
11C
330
2
100
AcDbEntity
  8
0
 62
     3
100
AcDbLine
 10
115.7675424261
 20
165.5000152586999
 30
0.0
 11
115.7675424261
 21
160.1208953857
 31
0.0
  0
LINE
  5
11D
330
2
100
AcDbEntity
  8
0
 62
     3
100
AcDbLine
 10
115.7675424261
 20
160.1208953857
 30
0.0
 11
116.9675393744
 21
160.1208953857
 31
0.0
  0
LINE
  5
11E
330
2
100
AcDbEntity
  8
0
 62
     3
100
AcDbLine
 10
116.9675393744
 20
165.5000152586999
 30
0.0
 11
115.7675424261
 21
165.5000152586999
 31
0.0
  0
LINE
  5
11F
330
2
100
AcDbEntity
  8
0
 62
     3
100
AcDbLine
 10
112.9675851508
 20
176.4998779296
 30
0.0
 11
115.7675271673999
 21
176.4998779296
 31
0.0
  0
LINE
  5
120
330
2
100
AcDbEntity
  8
0
 62
     3
100
AcDbLine
 10
112.567682807
 20
175.8997802734
 30
0.0
 11
115.7675271673999
 21
175.8997802734
 31
0.0
  0
LINE
  5
121
330
2
100
AcDbEntity
  8
0
 62
     3
100
AcDbLine
 10
112.9675851508
 20
172.4998779295999
 30
0.0
 11
115.7675271673999
 21
172.4998779295999
 31
0.0
  0
LINE
  5
122
330
2
100
AcDbEntity
  8
0
 62
     3
100
AcDbLine
 10
112.9675851508
 20
172.4998779295999
 30
0.0
 11
112.9675851508
 21
176.4998779296
 31
0.0
  0
LINE
  5
123
330
2
100
AcDbEntity
  8
0
 62
     3
100
AcDbLine
 10
112.5665296214998
 20
175.8992570656999
 30
0.0
 11
112.9665744637999
 21
176.4993246945999
 31
0.0
  0
LINE
  5
124
330
2
100
AcDbEntity
  8
0
 62
     3
100
AcDbLine
 10
116.9675393744
 20
177.3999938963999
 30
0.0
 11
116.9675393744
 21
176.8791656494
 31
0.0
  0
LINE
  5
125
330
2
100
AcDbEntity
  8
0
 62
     3
100
AcDbLine
 10
115.7675424261
 20
176.8791656494
 30
0.0
 11
115.7675424261
 21
171.5
 31
0.0
  0
LINE
  5
126
330
2
100
AcDbEntity
  8
0
 62
     3
100
AcDbLine
 10
116.9675393744
 20
176.8791656494
 30
0.0
 11
115.7675424261
 21
176.8791656494
 31
0.0
  0
LINE
  5
127
330
2
100
AcDbEntity
  8
0
 62
     3
100
AcDbLine
 10
115.7675424261
 20
171.5
 30
0.0
 11
116.9675393744
 21
171.5
 31
0.0
  0
LINE
  5
128
330
2
100
AcDbEntity
  8
0
 62
     3
100
AcDbLine
 10
116.9670963995
 20
204.6000109149999
 30
0.0
 11
116.9671116584
 21
205.1209001973
 31
0.0
  0
LINE
  5
129
330
2
100
AcDbEntity
  8
0
 62
     3
100
AcDbLine
 10
115.7671456976
 20
205.1209106444999
 30
0.0
 11
116.9671426459
 21
205.1209106444999
 31
0.0
  0
LINE
  5
12A
330
2
100
AcDbEntity
  8
0
 62
     3
100
AcDbLine
 10
123.9676614446999
 20
177.1999969482
 30
0.0
 11
124.5676675481999
 21
177.1999969482
 31
0.0
  0
LINE
  5
12B
330
2
100
AcDbEntity
  8
0
 62
     3
100
AcDbLine
 10
123.9676614446999
 20
159.7999877929
 30
0.0
 11
124.5676675481999
 21
159.7999877929
 31
0.0
  0
LINE
  5
12C
330
2
100
AcDbEntity
  8
0
 62
     3
100
AcDbLine
 10
121.7674966497998
 20
162.4999694823999
 30
0.0
 11
121.7674966497998
 21
174.4999542236
 31
0.0
  0
LINE
  5
12D
330
2
100
AcDbEntity
  8
0
 62
     3
100
AcDbLine
 10
123.9676614446999
 20
159.7999877929
 30
0.0
 11
123.9676614446999
 21
177.1999969482
 31
0.0
  0
LINE
  5
12E
330
2
100
AcDbEntity
  8
0
 62
     3
100
AcDbLine
 10
120.7675119086
 20
165.622177124
 30
0.0
 11
117.7675271673999
 21
165.622177124
 31
0.0
  0
LINE
  5
12F
330
2
100
AcDbEntity
  8
0
 62
     3
100
AcDbLine
 10
120.7675119086
 20
167.8999938964
 30
0.0
 11
117.7675271673999
 21
167.8999938964
 31
0.0
  0
LINE
  5
130
330
2
100
AcDbEntity
  8
0
 62
     3
100
AcDbLine
 10
120.7675119086
 20
166.8075408935
 30
0.0
 11
117.7675271673999
 21
166.8075408935
 31
0.0
  0
LINE
  5
131
330
2
100
AcDbEntity
  8
0
 62
     3
100
AcDbLine
 10
117.7675271673999
 20
169.1000061035
 30
0.0
 11
120.7675119086
 21
169.1000061035
 31
0.0
  0
LINE
  5
132
330
2
100
AcDbEntity
  8
0
 62
     3
100
AcDbLine
 10
117.7675271673999
 20
170.1924591063999
 30
0.0
 11
120.7675119086
 21
170.1924591063999
 31
0.0
  0
LINE
  5
133
330
2
100
AcDbEntity
  8
0
 62
     3
100
AcDbLine
 10
120.7675119086
 20
160.0867919920998
 30
0.0
 11
117.7675271673999
 21
160.0867919920998
 31
0.0
  0
LINE
  5
134
330
2
100
AcDbEntity
  8
0
 62
     3
100
AcDbLine
 10
120.7675119086
 20
160.5099182128
 30
0.0
 11
117.7675271673999
 21
160.5099182128
 31
0.0
  0
LINE
  5
135
330
2
100
AcDbEntity
  8
0
 62
     3
100
AcDbLine
 10
120.7675119086
 20
161.1099090575999
 30
0.0
 11
117.7675271673999
 21
161.1099090575999
 31
0.0
  0
LINE
  5
136
330
2
100
AcDbEntity
  8
0
 62
     3
100
AcDbLine
 10
120.7675119086
 20
161.796798706
 30
0.0
 11
117.7675271673999
 21
161.796798706
 31
0.0
  0
LINE
  5
137
330
2
100
AcDbEntity
  8
0
 62
     3
100
AcDbLine
 10
120.7675119086
 20
162.6654968261
 30
0.0
 11
117.7675271673999
 21
162.6654968261
 31
0.0
  0
LINE
  5
138
330
2
100
AcDbEntity
  8
0
 62
     3
100
AcDbLine
 10
120.7675119086
 20
163.5405120849
 30
0.0
 11
117.7675271673999
 21
163.5405120849
 31
0.0
  0
LINE
  5
139
330
2
100
AcDbEntity
  8
0
 62
     3
100
AcDbLine
 10
120.7675119086
 20
164.5797271728
 30
0.0
 11
117.7675271673999
 21
164.5797271728
 31
0.0
  0
LINE
  5
13A
330
2
100
AcDbEntity
  8
0
 62
     3
100
AcDbLine
 10
117.7675271673999
 20
165.622177124
 30
0.0
 11
117.7675271673999
 21
164.5797271728
 31
0.0
  0
LINE
  5
13B
330
2
100
AcDbEntity
  8
0
 62
     3
100
AcDbLine
 10
117.7674508734
 20
160.5098266601
 30
0.0
 11
117.7674508734
 21
160.0867156982
 31
0.0
  0
LINE
  5
13C
330
2
100
AcDbEntity
  8
0
 62
     3
100
AcDbLine
 10
117.7675271673999
 20
161.1099090575999
 30
0.0
 11
117.7675271673999
 21
161.796798706
 31
0.0
  0
LINE
  5
13D
330
2
100
AcDbEntity
  8
0
 62
     3
100
AcDbLine
 10
117.7675271673999
 20
162.6654968261
 30
0.0
 11
117.7675271673999
 21
163.5405120849
 31
0.0
  0
LINE
  5
13E
330
2
100
AcDbEntity
  8
0
 62
     3
100
AcDbLine
 10
117.7675271673999
 20
167.8999938964
 30
0.0
 11
117.7675271673999
 21
166.8075408935
 31
0.0
  0
LINE
  5
13F
330
2
100
AcDbEntity
  8
0
 62
     3
100
AcDbLine
 10
117.7675271673999
 20
170.1924591063999
 30
0.0
 11
117.7675271673999
 21
169.1000061035
 31
0.0
  0
LINE
  5
140
330
2
100
AcDbEntity
  8
0
 62
     3
100
AcDbLine
 10
121.767506914
 20
162.4999582459
 30
0.0
 11
122.6586680939999
 21
159.8709841536
 31
0.0
  0
LINE
  5
141
330
2
100
AcDbEntity
  8
0
 62
     3
100
AcDbLine
 10
123.9676614446999
 20
164.5004119873
 30
0.0
 11
121.7674966497998
 21
164.5004119873
 31
0.0
  0
LINE
  5
142
330
2
100
AcDbEntity
  8
0
 62
     3
100
AcDbLine
 10
123.9676614446999
 20
161.1004791258999
 30
0.0
 11
122.2418924017
 21
161.1004791258999
 31
0.0
  0
LINE
  5
143
330
2
100
AcDbEntity
  8
0
 62
     3
100
AcDbLine
 10
123.9694030445
 20
161.0998286381
 30
0.0
 11
123.66941662
 21
160.499871062
 31
0.0
  0
LINE
  5
144
330
2
100
AcDbEntity
  8
0
 62
     3
100
AcDbLine
 10
123.6697030706998
 20
160.50050354
 30
0.0
 11
122.4452615424
 21
160.50050354
 31
0.0
  0
LINE
  5
145
330
2
100
AcDbEntity
  8
0
 62
     3
100
AcDbLine
 10
117.7675271673999
 20
176.9132080077999
 30
0.0
 11
120.7675119086
 21
176.9132080077999
 31
0.0
  0
LINE
  5
146
330
2
100
AcDbEntity
  8
0
 62
     3
100
AcDbLine
 10
117.7675271673999
 20
176.4900817870999
 30
0.0
 11
120.7675119086
 21
176.4900817870999
 31
0.0
  0
LINE
  5
147
330
2
100
AcDbEntity
  8
0
 62
     3
100
AcDbLine
 10
117.7675271673999
 20
175.8900909422998
 30
0.0
 11
120.7675119086
 21
175.8900909422998
 31
0.0
  0
LINE
  5
148
330
2
100
AcDbEntity
  8
0
 62
     3
100
AcDbLine
 10
117.7675271673999
 20
175.2032012938999
 30
0.0
 11
120.7675119086
 21
175.2032012938999
 31
0.0
  0
LINE
  5
149
330
2
100
AcDbEntity
  8
0
 62
     3
100
AcDbLine
 10
117.7675271673999
 20
174.3345031737999
 30
0.0
 11
120.7675119086
 21
174.3345031737999
 31
0.0
  0
LINE
  5
14A
330
2
100
AcDbEntity
  8
0
 62
     3
100
AcDbLine
 10
117.7675271673999
 20
173.459487915
 30
0.0
 11
120.7675119086
 21
173.459487915
 31
0.0
  0
LINE
  5
14B
330
2
100
AcDbEntity
  8
0
 62
     3
100
AcDbLine
 10
117.7675271673999
 20
172.4202728270999
 30
0.0
 11
120.7675119086
 21
172.4202728270999
 31
0.0
  0
LINE
  5
14C
330
2
100
AcDbEntity
  8
0
 62
     3
100
AcDbLine
 10
117.7675271673999
 20
171.3778228758999
 30
0.0
 11
120.7675119086
 21
171.3778228758999
 31
0.0
  0
LINE
  5
14D
330
2
100
AcDbEntity
  8
0
 62
     3
100
AcDbLine
 10
117.7675271673999
 20
175.2032012938999
 30
0.0
 11
117.7675271673999
 21
175.8900909422998
 31
0.0
  0
LINE
  5
14E
330
2
100
AcDbEntity
  8
0
 62
     3
100
AcDbLine
 10
117.7675271673999
 20
173.459487915
 30
0.0
 11
117.7675271673999
 21
174.3345031737999
 31
0.0
  0
LINE
  5
14F
330
2
100
AcDbEntity
  8
0
 62
     3
100
AcDbLine
 10
117.7675271673999
 20
172.4202728270999
 30
0.0
 11
117.7675271673999
 21
171.3778228758999
 31
0.0
  0
LINE
  5
150
330
2
100
AcDbEntity
  8
0
 62
     3
100
AcDbLine
 10
117.7675882024999
 20
176.9132537840999
 30
0.0
 11
117.7675882024999
 21
176.4901428222
 31
0.0
  0
LINE
  5
151
330
2
100
AcDbEntity
  8
0
 62
     3
100
AcDbLine
 10
121.7675008545999
 20
174.4999818908
 30
0.0
 11
122.6586563737999
 21
177.1289257572999
 31
0.0
  0
LINE
  5
152
330
2
100
AcDbEntity
  8
0
 62
     3
100
AcDbLine
 10
120.7675039046999
 20
174.6648249627999
 30
0.0
 11
121.7116085223999
 21
177.4499707544999
 31
0.0
  0
LINE
  5
153
330
2
100
AcDbEntity
  8
0
 62
     3
100
AcDbLine
 10
121.7674966497998
 20
172.4998779295999
 30
0.0
 11
123.9676614446999
 21
172.4998779295999
 31
0.0
  0
LINE
  5
154
330
2
100
AcDbEntity
  8
0
 62
     3
100
AcDbLine
 10
122.2419992133
 20
175.8997802734
 30
0.0
 11
123.9676614446999
 21
175.8997802734
 31
0.0
  0
LINE
  5
155
330
2
100
AcDbEntity
  8
0
 62
     3
100
AcDbLine
 10
123.9686579940999
 20
175.8991713672
 30
0.0
 11
123.6686658830999
 21
176.4992625589
 31
0.0
  0
LINE
  5
156
330
2
100
AcDbEntity
  8
0
 62
     3
100
AcDbLine
 10
122.445429389
 20
176.4998779296
 30
0.0
 11
123.6683908147999
 21
176.4998779296
 31
0.0
  0
LINE
  5
157
330
2
100
AcDbEntity
  8
0
 62
     3
100
AcDbLine
 10
121.7116273638998
 20
177.4499630426998
 30
0.0
 11
122.6586771934
 21
177.1289240328998
 31
0.0
  0
LINE
  5
158
330
2
100
AcDbEntity
  8
0
 62
     3
100
AcDbLine
 10
120.7674966497998
 20
177.4499969482
 30
0.0
 11
121.7116037054
 21
177.4499969482
 31
0.0
  0
LINE
  5
159
330
2
100
AcDbEntity
  8
0
 62
     3
100
AcDbLine
 10
123.9676614446999
 20
204.8002471923
 30
0.0
 11
124.5676675481999
 21
204.8002471923
 31
0.0
  0
LINE
  5
15A
330
2
100
AcDbEntity
  8
0
 62
     3
100
AcDbLine
 10
120.76711518
 20
205.0868072509
 30
0.0
 11
117.7671304388
 21
205.0868072509
 31
0.0
  0
LINE
  5
15B
330
2
100
AcDbEntity
  8
0
 62
     3
100
AcDbLine
 10
120.76711518
 20
205.5099334716
 30
0.0
 11
117.7671304388
 21
205.5099334716
 31
0.0
  0
LINE
  5
15C
330
2
100
AcDbEntity
  8
0
 62
     3
100
AcDbLine
 10
117.7670236273
 20
205.5098266600999
 30
0.0
 11
117.7670236273
 21
205.0867156982
 31
0.0
  0
LINE
  5
15D
330
2
100
AcDbEntity
  8
0
 62
     3
100
AcDbLine
 10
121.7112001626
 20
204.5501976677999
 30
0.0
 11
122.6582690922999
 21
204.8712278673
 31
0.0
  0
LINE
  5
15E
330
2
100
AcDbEntity
  8
0
 62
     3
100
AcDbLine
 10
120.76711518
 20
204.5502471923
 30
0.0
 11
121.7112069769
 21
204.5502471923
 31
0.0
  0
LINE
  5
15F
330
2
100
AcDbEntity
  8
0
 62
     3
100
AcDbLine
 10
116.9671426459
 20
222.4000091551999
 30
0.0
 11
120.76711518
 21
222.4000091551999
 31
0.0
  0
LINE
  5
160
330
2
100
AcDbEntity
  8
0
 62
     3
100
AcDbLine
 10
115.7671304388
 20
220.9001617430998
 30
0.0
 11
107.5675759954998
 21
220.9001617430998
 31
0.0
  0
LINE
  5
161
330
2
100
AcDbEntity
  8
0
 62
     3
100
AcDbLine
 10
107.5675759954998
 20
206.1002349852999
 30
0.0
 11
115.7671304388
 21
206.1002349852999
 31
0.0
  0
LINE
  5
162
330
2
100
AcDbEntity
  8
0
 62
     3
100
AcDbLine
 10
105.5676980657999
 20
210.0
 30
0.0
 11
105.5676980657999
 21
211.5
 31
0.0
  0
LINE
  5
163
330
2
100
AcDbEntity
  8
0
 62
     3
100
AcDbLine
 10
105.5675149603
 20
215.1994171141999
 30
0.0
 11
105.5675149603
 21
211.7995300292998
 31
0.0
  0
LINE
  5
164
330
2
100
AcDbEntity
  8
0
 62
     3
100
AcDbLine
 10
105.5676980657999
 20
215.4999999999999
 30
0.0
 11
105.5676980657999
 21
217.0
 31
0.0
  0
LINE
  5
165
330
2
100
AcDbEntity
  8
0
 62
     3
100
AcDbLine
 10
107.5675149603
 20
206.4996948241999
 30
0.0
 11
107.5675149603
 21
206.0996704100999
 31
0.0
  0
LINE
  5
166
330
2
100
AcDbEntity
  8
0
 62
     3
100
AcDbLine
 10
107.5672219731999
 20
220.8996528252
 30
0.0
 11
107.5672143438998
 21
220.4997504815
 31
0.0
  0
LINE
  5
167
330
2
100
AcDbEntity
  8
0
 62
     3
100
AcDbLine
 10
113.9671855697999
 20
220.9006266368999
 30
0.0
 11
114.4199149254
 21
214.2002209650999
 31
0.0
  0
LINE
  5
168
330
2
100
AcDbEntity
  8
0
 62
     3
100
AcDbLine
 10
113.4719593004
 20
220.9002454734999
 30
0.0
 11
113.9246629397
 21
214.2002204035998
 31
0.0
  0
LINE
  5
169
330
2
100
AcDbEntity
  8
0
 62
     3
100
AcDbLine
 10
115.7671456976
 20
221.8791809081999
 30
0.0
 11
115.7671456976
 21
216.5000152586999
 31
0.0
  0
LINE
  5
16A
330
2
100
AcDbEntity
  8
0
 62
     3
100
AcDbLine
 10
112.9234994398
 20
214.2002178417998
 30
0.0
 11
112.5676804318
 21
219.4663479681999
 31
0.0
  0
LINE
  5
16B
330
2
100
AcDbEntity
  8
0
 62
     3
100
AcDbLine
 10
113.4246394402
 20
214.2002186083
 30
0.0
 11
112.9719069986
 21
220.9006699522999
 31
0.0
  0
LINE
  5
16C
330
2
100
AcDbEntity
  8
0
 62
     3
100
AcDbLine
 10
112.5676980658
 20
206.1003570556
 30
0.0
 11
112.5676980658
 21
220.9002838133999
 31
0.0
  0
LINE
  5
16D
330
2
100
AcDbEntity
  8
0
 62
     3
100
AcDbLine
 10
112.5676980658
 20
214.2002563475999
 30
0.0
 11
116.9671273871
 21
214.2002563475999
 31
0.0
  0
LINE
  5
16E
330
2
100
AcDbEntity
  8
0
 62
     3
100
AcDbLine
 10
113.0200601262999
 20
212.8002471922999
 30
0.0
 11
116.9671273871
 21
212.8002471922999
 31
0.0
  0
LINE
  5
16F
330
2
100
AcDbEntity
  8
0
 62
     3
100
AcDbLine
 10
113.0196788269
 20
212.7987693237999
 30
0.0
 11
112.6161511853
 21
211.3539400378999
 31
0.0
  0
LINE
  5
170
330
2
100
AcDbEntity
  8
0
 62
     3
100
AcDbLine
 10
113.6145691685999
 20
211.4220331782
 30
0.0
 11
113.0203800314
 21
212.7993273907
 31
0.0
  0
LINE
  5
171
330
2
100
AcDbEntity
  8
0
 62
     3
100
AcDbLine
 10
114.0195734555
 20
206.1346507875
 30
0.0
 11
113.5692007419
 21
212.8001780983
 31
0.0
  0
LINE
  5
172
330
2
100
AcDbEntity
  8
0
 62
     3
100
AcDbLine
 10
113.470744441
 20
206.1009782765
 30
0.0
 11
113.1528909265999
 21
210.8052181584
 31
0.0
  0
LINE
  5
173
330
2
100
AcDbEntity
  8
0
 62
     3
100
AcDbLine
 10
113.6139645662999
 20
211.4219829832999
 30
0.0
 11
113.1545942620999
 21
210.8036909236
 31
0.0
  0
LINE
  5
174
330
2
100
AcDbEntity
  8
0
 62
     3
100
AcDbLine
 10
113.1547394448
 20
210.8033217801998
 30
0.0
 11
112.6164231502
 21
211.3540577570999
 31
0.0
  0
LINE
  5
175
330
2
100
AcDbEntity
  8
0
 62
     3
100
AcDbLine
 10
112.9736641217
 20
206.0639813562
 30
0.0
 11
112.6162126428
 21
211.3542720932998
 31
0.0
  0
LINE
  5
176
330
2
100
AcDbEntity
  8
0
 62
     3
100
AcDbLine
 10
116.9671426459
 20
216.5000152586999
 30
0.0
 11
116.9671426459
 21
210.5000305174999
 31
0.0
  0
LINE
  5
177
330
2
100
AcDbEntity
  8
0
 62
     3
100
AcDbLine
 10
114.5644772558
 20
212.8001652309999
 30
0.0
 11
115.0171747232
 21
206.1002315056
 31
0.0
  0
LINE
  5
178
330
2
100
AcDbEntity
  8
0
 62
     3
100
AcDbLine
 10
114.06922527
 20
212.8001646694999
 30
0.0
 11
114.5219175942
 21
206.1003070644999
 31
0.0
  0
LINE
  5
179
330
2
100
AcDbEntity
  8
0
 62
     3
100
AcDbLine
 10
116.9671426459
 20
210.5000305174999
 30
0.0
 11
115.7671456976
 21
210.5000305174999
 31
0.0
  0
LINE
  5
17A
330
2
100
AcDbEntity
  8
0
 62
     3
100
AcDbLine
 10
115.7671456976
 20
216.5000152586999
 30
0.0
 11
116.9671426459
 21
216.5000152586999
 31
0.0
  0
LINE
  5
17B
330
2
100
AcDbEntity
  8
0
 62
     3
100
AcDbLine
 10
116.9671426459
 20
222.4000091551999
 30
0.0
 11
116.9671426459
 21
221.8791809081999
 31
0.0
  0
LINE
  5
17C
330
2
100
AcDbEntity
  8
0
 62
     3
100
AcDbLine
 10
116.9671426459
 20
221.8791809081999
 30
0.0
 11
115.7671456976
 21
221.8791809081999
 31
0.0
  0
LINE
  5
17D
330
2
100
AcDbEntity
  8
0
 62
     3
100
AcDbLine
 10
123.9676614446999
 20
222.2002410887998
 30
0.0
 11
124.5676675481999
 21
222.2002410887998
 31
0.0
  0
LINE
  5
17E
330
2
100
AcDbEntity
  8
0
 62
     3
100
AcDbLine
 10
117.7671304388
 20
217.4202880859
 30
0.0
 11
117.7671304388
 21
216.3778381346999
 31
0.0
  0
LINE
  5
17F
330
2
100
AcDbEntity
  8
0
 62
     3
100
AcDbLine
 10
121.7670999212999
 20
207.5002288818
 30
0.0
 11
121.7670999212999
 21
219.5002136229999
 31
0.0
  0
LINE
  5
180
330
2
100
AcDbEntity
  8
0
 62
     3
100
AcDbLine
 10
120.76711518
 20
212.9000091551998
 30
0.0
 11
117.7671304388
 21
212.9000091551998
 31
0.0
  0
LINE
  5
181
330
2
100
AcDbEntity
  8
0
 62
     3
100
AcDbLine
 10
120.76711518
 20
211.8075561522999
 30
0.0
 11
117.7671304388
 21
211.8075561522999
 31
0.0
  0
LINE
  5
182
330
2
100
AcDbEntity
  8
0
 62
     3
100
AcDbLine
 10
117.7671304388
 20
216.3778381346999
 30
0.0
 11
120.76711518
 21
216.3778381346999
 31
0.0
  0
LINE
  5
183
330
2
100
AcDbEntity
  8
0
 62
     3
100
AcDbLine
 10
117.7671304388
 20
214.1000213623
 30
0.0
 11
120.76711518
 21
214.1000213623
 31
0.0
  0
LINE
  5
184
330
2
100
AcDbEntity
  8
0
 62
     3
100
AcDbLine
 10
117.7671304388
 20
215.1924743651998
 30
0.0
 11
120.76711518
 21
215.1924743651998
 31
0.0
  0
LINE
  5
185
330
2
100
AcDbEntity
  8
0
 62
     3
100
AcDbLine
 10
120.76711518
 20
206.1099243164
 30
0.0
 11
117.7671304388
 21
206.1099243164
 31
0.0
  0
LINE
  5
186
330
2
100
AcDbEntity
  8
0
 62
     3
100
AcDbLine
 10
120.76711518
 20
206.7968139648
 30
0.0
 11
117.7671304388
 21
206.7968139648
 31
0.0
  0
LINE
  5
187
330
2
100
AcDbEntity
  8
0
 62
     3
100
AcDbLine
 10
120.76711518
 20
207.6655120848999
 30
0.0
 11
117.7671304388
 21
207.6655120848999
 31
0.0
  0
LINE
  5
188
330
2
100
AcDbEntity
  8
0
 62
     3
100
AcDbLine
 10
120.76711518
 20
208.5405273436999
 30
0.0
 11
117.7671304388
 21
208.5405273436999
 31
0.0
  0
LINE
  5
189
330
2
100
AcDbEntity
  8
0
 62
     3
100
AcDbLine
 10
120.76711518
 20
209.5797424315999
 30
0.0
 11
117.7671304388
 21
209.5797424315999
 31
0.0
  0
LINE
  5
18A
330
2
100
AcDbEntity
  8
0
 62
     3
100
AcDbLine
 10
120.76711518
 20
210.6221923827999
 30
0.0
 11
117.7671304388
 21
210.6221923827999
 31
0.0
  0
LINE
  5
18B
330
2
100
AcDbEntity
  8
0
 62
     3
100
AcDbLine
 10
117.7671304388
 20
206.1099243164
 30
0.0
 11
117.7671304388
 21
206.7968139648
 31
0.0
  0
LINE
  5
18C
330
2
100
AcDbEntity
  8
0
 62
     3
100
AcDbLine
 10
117.7671304388
 20
207.6655120848999
 30
0.0
 11
117.7671304388
 21
208.5405273436999
 31
0.0
  0
LINE
  5
18D
330
2
100
AcDbEntity
  8
0
 62
     3
100
AcDbLine
 10
117.7671304388
 20
210.6221923827999
 30
0.0
 11
117.7671304388
 21
209.5797424315999
 31
0.0
  0
LINE
  5
18E
330
2
100
AcDbEntity
  8
0
 62
     3
100
AcDbLine
 10
117.7671304388
 20
212.9000091551998
 30
0.0
 11
117.7671304388
 21
211.8075561522999
 31
0.0
  0
LINE
  5
18F
330
2
100
AcDbEntity
  8
0
 62
     3
100
AcDbLine
 10
117.7671304388
 20
215.1924743651998
 30
0.0
 11
117.7671304388
 21
214.1000213623
 31
0.0
  0
LINE
  5
190
330
2
100
AcDbEntity
  8
0
 62
     3
100
AcDbLine
 10
122.2416787787
 20
206.1002349852999
 30
0.0
 11
123.9676614446999
 21
206.1002349852999
 31
0.0
  0
LINE
  5
191
330
2
100
AcDbEntity
  8
0
 62
     3
100
AcDbLine
 10
121.76711518
 20
214.2002563475999
 30
0.0
 11
123.9676614446999
 21
214.2002563475999
 31
0.0
  0
LINE
  5
192
330
2
100
AcDbEntity
  8
0
 62
     3
100
AcDbLine
 10
121.76711518
 20
212.8002471922999
 30
0.0
 11
123.9676614446999
 21
212.8002471922999
 31
0.0
  0
LINE
  5
193
330
2
100
AcDbEntity
  8
0
 62
     3
100
AcDbLine
 10
117.7671304388
 20
221.9132232665999
 30
0.0
 11
120.76711518
 21
221.9132232665999
 31
0.0
  0
LINE
  5
194
330
2
100
AcDbEntity
  8
0
 62
     3
100
AcDbLine
 10
117.7671304388
 20
221.4900970458999
 30
0.0
 11
120.76711518
 21
221.4900970458999
 31
0.0
  0
LINE
  5
195
330
2
100
AcDbEntity
  8
0
 62
     3
100
AcDbLine
 10
117.7671304388
 20
220.8901062010998
 30
0.0
 11
120.76711518
 21
220.8901062010998
 31
0.0
  0
LINE
  5
196
330
2
100
AcDbEntity
  8
0
 62
     3
100
AcDbLine
 10
117.7671304388
 20
220.2032165526998
 30
0.0
 11
120.76711518
 21
220.2032165526998
 31
0.0
  0
LINE
  5
197
330
2
100
AcDbEntity
  8
0
 62
     3
100
AcDbLine
 10
117.7671304388
 20
219.3345184325999
 30
0.0
 11
120.76711518
 21
219.3345184325999
 31
0.0
  0
LINE
  5
198
330
2
100
AcDbEntity
  8
0
 62
     3
100
AcDbLine
 10
117.7671304388
 20
218.4595031738
 30
0.0
 11
120.76711518
 21
218.4595031738
 31
0.0
  0
LINE
  5
199
330
2
100
AcDbEntity
  8
0
 62
     3
100
AcDbLine
 10
117.7671304388
 20
217.4202880859
 30
0.0
 11
120.76711518
 21
217.4202880859
 31
0.0
  0
LINE
  5
19A
330
2
100
AcDbEntity
  8
0
 62
     3
100
AcDbLine
 10
117.7672067328
 20
221.9132690428999
 30
0.0
 11
117.7672067328
 21
221.4901580809999
 31
0.0
  0
LINE
  5
19B
330
2
100
AcDbEntity
  8
0
 62
     3
100
AcDbLine
 10
117.7671304388
 20
220.2032165526998
 30
0.0
 11
117.7671304388
 21
220.8901062010998
 31
0.0
  0
LINE
  5
19C
330
2
100
AcDbEntity
  8
0
 62
     3
100
AcDbLine
 10
117.7671304388
 20
218.4595031738
 30
0.0
 11
117.7671304388
 21
219.3345184325999
 31
0.0
  0
LINE
  5
19D
330
2
100
AcDbEntity
  8
0
 62
     3
100
AcDbLine
 10
121.7671300674
 20
219.5002078608999
 30
0.0
 11
122.6582855866
 21
222.1291517274
 31
0.0
  0
LINE
  5
19E
330
2
100
AcDbEntity
  8
0
 62
     3
100
AcDbLine
 10
121.7112515366
 20
222.4501985754999
 30
0.0
 11
122.6583158170999
 21
222.1291546668999
 31
0.0
  0
LINE
  5
19F
330
2
100
AcDbEntity
  8
0
 62
     3
100
AcDbLine
 10
123.9676614446999
 20
220.9001617430998
 30
0.0
 11
122.2416787787
 21
220.9001617430998
 31
0.0
  0
LINE
  5
1A0
330
2
100
AcDbEntity
  8
0
 62
     3
100
AcDbLine
 10
120.7671186662999
 20
219.6650558313999
 30
0.0
 11
121.7112232841
 21
222.4502016231999
 31
0.0
  0
LINE
  5
1A1
330
2
100
AcDbEntity
  8
0
 62
     3
100
AcDbLine
 10
120.76711518
 20
222.4502563475999
 30
0.0
 11
121.7112222356999
 21
222.4502563475999
 31
0.0
  0
TEXT
  5
1A2
330
2
100
AcDbEntity
  8
0
 62
     5
100
AcDbText
 10
145.0
 20
10.0
 30
0.0
 40
5.0
  1
ＭＡ４－Ｈ００２１９Ｅ
 41
0.8488176999157037
 72
     5
 11
199.0413935612998
 21
10.0
 31
0.0
100
AcDbText
  0
LINE
  5
1A3
330
2
100
AcDbEntity
  8
0
 62
     3
100
AcDbLine
 10
170.4650406933
 20
159.5498331933999
 30
0.0
 11
170.7650774182
 21
159.8498704747
 31
0.0
  0
LINE
  5
1A4
330
2
100
AcDbEntity
  8
0
 62
     3
100
AcDbLine
 10
170.464627006
 20
159.5495540167
 30
0.0
 11
170.1644946803
 21
159.8494956971
 31
0.0
  0
LINE
  5
1A5
330
2
100
AcDbEntity
  8
0
  6
CENTER
 62
     3
100
AcDbLine
 10
158.8140969916
 20
179.4501525877999
 30
0.0
 11
158.8140969916
 21
157.5501678466
 31
0.0
  0
LINE
  5
1A6
330
2
100
AcDbEntity
  8
0
 62
     3
100
AcDbLine
 10
147.1644781561
 20
159.5495022326
 30
0.0
 11
146.8645278995999
 21
159.8494533487999
 31
0.0
  0
LINE
  5
1A7
330
2
100
AcDbEntity
  8
0
 62
     3
100
AcDbLine
 10
147.4643810245
 20
159.8497397319999
 30
0.0
 11
147.1645051792999
 21
159.5498868379999
 31
0.0
  0
LINE
  5
1A8
330
2
100
AcDbEntity
  8
0
 62
     3
100
AcDbLine
 10
170.4640127859
 20
159.5501678466
 30
0.0
 11
147.1638125439999
 21
159.5501678466
 31
0.0
  0
LINE
  5
1A9
330
2
100
AcDbEntity
  8
0
 62
     3
100
AcDbLine
 10
170.4655462786
 20
177.4501525877999
 30
0.0
 11
147.1632836658999
 21
177.4501525877999
 31
0.0
  0
LINE
  5
1AA
330
2
100
AcDbEntity
  8
0
 62
     3
100
AcDbLine
 10
170.1652109883999
 20
159.8502166748
 30
0.0
 11
147.4638393900999
 21
159.8502166748
 31
0.0
  0
LINE
  5
1AB
330
2
100
AcDbEntity
  8
0
 62
     3
100
AcDbLine
 10
170.1654286476999
 20
177.1501037597
 30
0.0
 11
147.463202773
 21
177.1501037597
 31
0.0
  0
LINE
  5
1AC
330
2
100
AcDbEntity
  8
0
  6
CENTER
 62
     3
100
AcDbLine
 10
172.7640817327999
 20
168.5
 30
0.0
 11
144.8640817328
 21
168.5
 31
0.0
  0
LINE
  5
1AD
330
2
100
AcDbEntity
  8
0
 62
     3
100
AcDbLine
 10
169.0142312689
 20
161.0001831054
 30
0.0
 11
148.6140084905999
 21
161.0001831054
 31
0.0
  0
LINE
  5
1AE
330
2
100
AcDbEntity
  8
0
 62
     3
100
AcDbLine
 10
169.0142465277
 20
176.0001525877999
 30
0.0
 11
148.6140084905999
 21
176.0001525877999
 31
0.0
  0
LINE
  5
1AF
330
2
100
AcDbEntity
  8
0
 62
     3
100
AcDbLine
 10
169.6142526312
 20
176.3001556395999
 30
0.0
 11
148.0141549749999
 21
176.3001556395999
 31
0.0
  0
LINE
  5
1B0
330
2
100
AcDbEntity
  8
0
 62
     3
100
AcDbLine
 10
169.6142526312
 20
160.7001953124999
 30
0.0
 11
148.0141549749999
 21
160.7001953124999
 31
0.0
  0
LINE
  5
1B1
330
2
100
AcDbEntity
  8
0
 62
     3
100
AcDbLine
 10
133.2667794866999
 20
210.0230825351999
 30
0.0
 11
133.2667794866999
 21
201.7498628852
 31
0.0
  0
LINE
  5
1B2
330
2
100
AcDbEntity
  8
0
 62
     3
100
AcDbLine
 10
133.5675454779
 20
202.0506281665
 30
0.0
 11
133.5675454779
 21
224.9411813413
 31
0.0
  0
LINE
  5
1B3
330
2
100
AcDbEntity
  8
0
 62
     3
100
AcDbLine
 10
133.567682807
 20
160.0512656087
 30
0.0
 11
133.567682807
 21
176.9412152557999
 31
0.0
  0
LINE
  5
1B4
330
2
100
AcDbEntity
  8
0
 62
     3
100
AcDbLine
 10
133.2677560491999
 20
159.7438457641
 30
0.0
 11
133.2677560491999
 21
177.2547743368
 31
0.0
  0
LINE
  5
1B5
330
2
100
AcDbEntity
  8
0
 62
     3
100
AcDbLine
 10
133.2592482141
 20
159.7428317437
 30
0.0
 11
133.5661907925
 21
160.0497735977
 31
0.0
  0
LINE
  5
1B6
330
2
100
AcDbEntity
  8
0
 62
     3
100
AcDbLine
 10
133.5662663204
 20
176.9426961248
 30
0.0
 11
133.2663874000999
 21
177.256205194
 31
0.0
  0
LINE
  5
1B7
330
2
100
AcDbEntity
  8
0
 62
     3
100
AcDbLine
 10
133.2591793032999
 20
201.7422627197
 30
0.0
 11
133.5659493745
 21
202.0490320668999
 31
0.0
  0
LINE
  5
1B8
330
2
100
AcDbEntity
  8
0
 62
     3
100
AcDbLine
 10
148.3140206976
 20
161.3001708984
 30
0.0
 11
148.3140206976
 21
175.7001495361
 31
0.0
  0
LINE
  5
1B9
330
2
100
AcDbEntity
  8
0
 62
     3
100
AcDbLine
 10
148.0140329047
 20
159.8502166748
 30
0.0
 11
148.0140329047
 21
176.3001556395999
 31
0.0
  0
LINE
  5
1BA
330
2
100
AcDbEntity
  8
0
 62
     3
100
AcDbLine
 10
146.8640817328
 20
159.8493648013
 30
0.0
 11
146.8640817328
 21
177.1492801256
 31
0.0
  0
LINE
  5
1BB
330
2
100
AcDbEntity
  8
0
 62
     3
100
AcDbLine
 10
147.1640084906
 20
160.1500479028
 30
0.0
 11
147.1640084906
 21
176.8490481102999
 31
0.0
  0
LINE
  5
1BC
330
2
100
AcDbEntity
  8
0
 62
     3
100
AcDbLine
 10
147.4644841701999
 20
159.8495718938998
 30
0.0
 11
147.1645336356
 21
160.1495227572
 31
0.0
  0
LINE
  5
1BD
330
2
100
AcDbEntity
  8
0
 62
     3
100
AcDbLine
 10
147.1644418171
 20
160.1497018973
 30
0.0
 11
146.8645659718999
 21
159.8498490032999
 31
0.0
  0
LINE
  5
1BE
330
2
100
AcDbEntity
  8
0
 62
     3
100
AcDbLine
 10
148.3140090473
 20
161.3001748499
 30
0.0
 11
148.6140140104
 21
161.0001705191
 31
0.0
  0
LINE
  5
1BF
330
2
100
AcDbEntity
  8
0
 62
     3
100
AcDbLine
 10
149.4639840765
 20
160.7001953124999
 30
0.0
 11
149.4639840765
 21
159.8502166748
 31
0.0
  0
LINE
  5
1C0
330
2
100
AcDbEntity
  8
0
 62
     3
100
AcDbLine
 10
147.1644329039999
 20
176.8494725227
 30
0.0
 11
147.4642976274999
 21
177.1493365384
 31
0.0
  0
LINE
  5
1C1
330
2
100
AcDbEntity
  8
0
 62
     3
100
AcDbLine
 10
147.4642155719999
 20
177.1490905225999
 30
0.0
 11
147.1641571428
 21
177.4492787331
 31
0.0
  0
LINE
  5
1C2
330
2
100
AcDbEntity
  8
0
 62
     3
100
AcDbLine
 10
147.1641136969
 20
176.8491183915
 30
0.0
 11
146.8640552676999
 21
177.1493066019999
 31
0.0
  0
LINE
  5
1C3
330
2
100
AcDbEntity
  8
0
 62
     3
100
AcDbLine
 10
146.8644171426999
 20
177.1497085466999
 30
0.0
 11
147.1642814616999
 21
177.4495729668999
 31
0.0
  0
LINE
  5
1C4
330
2
100
AcDbEntity
  8
0
 62
     3
100
AcDbLine
 10
148.6140187303
 20
176.0001363606
 30
0.0
 11
148.3140248349999
 21
175.7001425665
 31
0.0
  0
LINE
  5
1C5
330
2
100
AcDbEntity
  8
0
 62
     3
100
AcDbLine
 10
155.6140695258
 20
177.1501037597
 30
0.0
 11
155.6140695258
 21
176.3001556395999
 31
0.0
  0
LINE
  5
1C6
330
2
100
AcDbEntity
  8
0
 62
     3
100
AcDbLine
 10
133.2667794866999
 20
225.2556178006999
 30
0.0
 11
133.2667794866999
 21
216.9768679968997
 31
0.0
  0
LINE
  5
1C7
330
2
100
AcDbEntity
  8
0
 62
     3
100
AcDbLine
 10
131.0676675482
 20
210.4999999999999
 30
0.0
 11
131.0676675482
 21
216.4999999999999
 31
0.0
  0
LINE
  5
1C8
330
2
100
AcDbEntity
  8
0
 62
     3
100
AcDbLine
 10
130.7676644965
 20
210.2230224609
 30
0.0
 11
130.7676644965
 21
216.7769317625999
 31
0.0
  0
LINE
  5
1C9
330
2
100
AcDbEntity
  8
0
 62
     3
100
AcDbLine
 10
133.2667794866999
 20
216.6759033202999
 30
0.0
 11
133.2667794866999
 21
210.3240203857
 31
0.0
  0
LINE
  5
1CA
330
2
100
AcDbEntity
  8
0
 62
     3
100
AcDbLine
 10
133.5675328506999
 20
210.2999813850999
 30
0.0
 11
131.0676630845999
 21
210.4999928025
 31
0.0
  0
LINE
  5
1CB
330
2
100
AcDbEntity
  8
0
 62
     3
100
AcDbLine
 10
133.2667810986
 20
210.0230824061998
 30
0.0
 11
130.7676566314998
 21
210.2230341930999
 31
0.0
  0
LINE
  5
1CC
330
2
100
AcDbEntity
  8
0
 62
     3
100
AcDbLine
 10
131.0676633395999
 20
210.4999683307
 30
0.0
 11
130.7676615431
 21
210.2229919538999
 31
0.0
  0
LINE
  5
1CD
330
2
100
AcDbEntity
  8
0
 62
     3
100
AcDbLine
 10
133.5675418341
 20
210.2999782729999
 30
0.0
 11
133.266759397
 21
210.0230606910999
 31
0.0
  0
LINE
  5
1CE
330
2
100
AcDbEntity
  8
0
 62
     3
100
AcDbLine
 10
131.0676642864999
 20
216.4999866455
 30
0.0
 11
133.5675504586999
 21
216.6999841821998
 31
0.0
  0
LINE
  5
1CF
330
2
100
AcDbEntity
  8
0
 62
     3
100
AcDbLine
 10
130.7676607242
 20
216.7769318549999
 30
0.0
 11
133.2667711765999
 21
216.9768673319998
 31
0.0
  0
LINE
  5
1D0
330
2
100
AcDbEntity
  8
0
 62
     3
100
AcDbLine
 10
131.067682807
 20
212.0
 30
0.0
 11
131.067682807
 21
215.0
 31
0.0
  0
LINE
  5
1D1
330
2
100
AcDbEntity
  8
0
 62
     3
100
AcDbLine
 10
131.0676764212999
 20
216.4999769178999
 30
0.0
 11
130.7676742451
 21
216.7769078926998
 31
0.0
  0
LINE
  5
1D2
330
2
100
AcDbEntity
  8
0
 62
     3
100
AcDbLine
 10
133.5675448014
 20
216.6999722350999
 30
0.0
 11
133.2667620325
 21
216.9768443655
 31
0.0
  0
LINE
  5
1D3
330
2
100
AcDbEntity
  8
0
 62
     3
100
AcDbLine
 10
133.5660749759
 20
224.9427186807999
 30
0.0
 11
133.2661116778
 21
225.2563159629
 31
0.0
  0
LINE
  5
1D4
330
2
100
AcDbEntity
  8
0
 62
     3
100
AcDbLine
 10
170.7647802279
 20
177.1496545119999
 30
0.0
 11
170.4648297439
 21
177.4496054006
 31
0.0
  0
LINE
  5
1D5
330
2
100
AcDbEntity
  8
0
 62
     3
100
AcDbLine
 10
170.7645549004998
 20
177.1495044339999
 30
0.0
 11
170.4647591570999
 21
176.8495714383
 31
0.0
  0
LINE
  5
1D6
330
2
100
AcDbEntity
  8
0
 62
     3
100
AcDbLine
 10
170.4646095579
 20
160.1495658029
 30
0.0
 11
170.7649121176999
 21
159.8496218241
 31
0.0
  0
LINE
  5
1D7
330
2
100
AcDbEntity
  8
0
 62
     3
100
AcDbLine
 10
162.0140986593
 20
177.1501037597
 30
0.0
 11
162.0140881325999
 21
176.3001547716999
 31
0.0
  0
LINE
  5
1D8
330
2
100
AcDbEntity
  8
0
 62
     3
100
AcDbLine
 10
169.6142526312
 20
159.8502166748
 30
0.0
 11
169.6142526312
 21
176.3001556395999
 31
0.0
  0
LINE
  5
1D9
330
2
100
AcDbEntity
  8
0
 62
     3
100
AcDbLine
 10
170.4642770453
 20
160.1498979185
 30
0.0
 11
170.4642770453
 21
176.8490891056999
 31
0.0
  0
LINE
  5
1DA
330
2
100
AcDbEntity
  8
0
 62
     3
100
AcDbLine
 10
169.3142495795
 20
161.3001708984
 30
0.0
 11
169.3142495795
 21
175.7001342773
 31
0.0
  0
LINE
  5
1DB
330
2
100
AcDbEntity
  8
0
 62
     3
100
AcDbLine
 10
168.1643014592999
 20
160.7001953124999
 30
0.0
 11
168.1643014592999
 21
159.8502166748
 31
0.0
  0
LINE
  5
1DC
330
2
100
AcDbEntity
  8
0
 62
     3
100
AcDbLine
 10
170.1646483703
 20
159.8496540566
 30
0.0
 11
170.4645127398999
 21
160.1495184515
 31
0.0
  0
LINE
  5
1DD
330
2
100
AcDbEntity
  8
0
 62
     3
100
AcDbLine
 10
169.3142312129998
 20
161.3001746802
 30
0.0
 11
169.0142205853
 21
161.000176014
 31
0.0
  0
LINE
  5
1DE
330
2
100
AcDbEntity
  8
0
 62
     3
100
AcDbLine
 10
170.4648506312
 20
176.8497620261999
 30
0.0
 11
170.1648134257998
 21
177.1497988269
 31
0.0
  0
LINE
  5
1DF
330
2
100
AcDbEntity
  8
0
 62
     3
100
AcDbLine
 10
169.0142391489
 20
176.0001404920999
 30
0.0
 11
169.3142354886
 21
175.7001275378
 31
0.0
  0
LINE
  5
1E0
330
2
100
AcDbEntity
  8
0
 62
     3
100
AcDbLine
 10
170.4646415362999
 20
177.449248053
 30
0.0
 11
170.1647427904999
 21
177.1494180596999
 31
0.0
  0
LINE
  5
1E1
330
2
100
AcDbEntity
  8
0
 62
     3
100
AcDbLine
 10
170.7640817328
 20
159.8488747875
 30
0.0
 11
170.7640817328
 21
177.1490310497
 31
0.0
  0
LINE
  5
1E2
330
2
100
AcDbEntity
  8
0
100
AcDbLine
 10
210.0
 20
297.0
 30
0.0
 11
0.0
 21
297.0
 31
0.0
  0
TEXT
  5
216
330
2
100
AcDbEntity
  8
0
 62
     7
100
AcDbText
 10
146.0
 20
110.0000029552498
 30
0.0
 40
2.999994089499998
  1
AL6G-P1*
 11
146.0
 21
111.4999999999999
 31
0.0
100
AcDbText
 73
     2
  0
TEXT
  5
217
330
2
100
AcDbEntity
  8
0
 62
     7
100
AcDbText
 10
146.0
 20
115.0000029552499
 30
0.0
 40
2.999994089499998
  1
AL6G-P1P*
 11
146.0
 21
116.5
 31
0.0
100
AcDbText
 73
     2
  0
TEXT
  5
21C
330
2
100
AcDbEntity
  8
0
 62
     7
100
AcDbText
 10
146.0
 20
90.00000295524989
 30
0.0
 40
2.999994089499998
  1
AL6G-P4*
 11
146.0
 21
91.49999999999989
 31
0.0
100
AcDbText
 73
     2
  0
TEXT
  5
21D
330
2
100
AcDbEntity
  8
0
 62
     7
100
AcDbText
 10
146.0
 20
95.00000295524989
 30
0.0
 40
2.999994089499998
  1
AL6G-P4P*
 11
146.0
 21
96.49999999999989
 31
0.0
100
AcDbText
 73
     2
  0
TEXT
  5
21E
330
2
100
AcDbEntity
  8
0
 62
     7
100
AcDbText
 10
146.0
 20
105.00000295525
 30
0.0
 40
2.999994089499998
  1
AL6G-P3P*
 11
146.0
 21
106.4999999999999
 31
0.0
100
AcDbText
 73
     2
  0
TEXT
  5
21F
330
2
100
AcDbEntity
  8
0
 62
     7
100
AcDbText
 10
146.0
 20
100.0000029552498
 30
0.0
 40
2.999994089499998
  1
AL6G-P3*
 11
146.0
 21
101.4999999999998
 31
0.0
100
AcDbText
 73
     2
  0
ENDSEC
  0
SECTION
  2
OBJECTS
  0
DICTIONARY
  5
7
330
0
100
AcDbDictionary
281
     1
  3
ACAD_GROUP
350
1F
  3
ACAD_LAYOUT
350
B
  3
ACAD_MLINESTYLE
350
20
  3
ACAD_PLOTSETTINGS
350
21
  3
ACAD_PLOTSTYLENAME
350
6
  3
AcDbVariableDictionary
350
220
  3
ASE_INDEX_DICTIONARY
350
229
  0
DICTIONARY
  5
1F
102
{ACAD_REACTORS
330
7
102
}
330
7
100
AcDbDictionary
281
     1
  0
DICTIONARY
  5
B
102
{ACAD_REACTORS
330
7
102
}
330
7
100
AcDbDictionary
281
     1
  3
Model
350
A
  3
ﾚｲｱｳﾄ1
350
F
  0
DICTIONARY
  5
20
102
{ACAD_REACTORS
330
7
102
}
330
7
100
AcDbDictionary
281
     1
  3
Standard
350
22
  0
DICTIONARY
  5
21
102
{ACAD_REACTORS
330
7
102
}
330
7
100
AcDbDictionary
281
     1
  0
ACDBDICTIONARYWDFLT
  5
6
102
{ACAD_REACTORS
330
7
102
}
330
7
100
AcDbDictionary
281
     1
  3
Normal
350
5
100
AcDbDictionaryWithDefault
340
5
  0
DICTIONARY
  5
220
102
{ACAD_REACTORS
330
7
102
}
330
7
100
AcDbDictionary
281
     1
  3
DIMASSOC
350
221
  0
DICTIONARY
  5
229
102
{ACAD_REACTORS
330
7
102
}
330
7
100
AcDbDictionary
281
     1
  3
ASEBlockHierarchyIndexRecord
350
22B
1001
DCO15
1040
1518869396.092999
  0
LAYOUT
  5
A
102
{ACAD_REACTORS
330
B
102
}
330
B
100
AcDbPlotSettings
  1

  2
C:\Program Files\AutoCAD 2000i\plotters\DWF Classic.pc3
  4

  6

 40
0.0
 41
0.0
 42
0.0
 43
0.0
 44
0.0
 45
0.0
 46
0.0
 47
0.0
 48
0.0
 49
0.0
140
0.0
141
0.0
142
1.0
143
1.0
 70
  1712
 72
     0
 73
     0
 74
     0
  7

 75
     0
147
1.0
148
0.0
149
0.0
100
AcDbLayout
  1
Model
 70
     1
 71
     0
 10
0.0
 20
0.0
 11
12.0
 21
9.0
 12
0.0
 22
0.0
 32
0.0
 14
0.0
 24
0.0
 34
0.0
 15
0.0
 25
0.0
 35
0.0
146
0.0
 13
0.0
 23
0.0
 33
0.0
 16
1.0
 26
0.0
 36
0.0
 17
0.0
 27
1.0
 37
0.0
 76
     0
330
2
  0
LAYOUT
  5
F
102
{ACAD_REACTORS
330
B
102
}
330
B
100
AcDbPlotSettings
  1

  2
C:\Program Files\AutoCAD 2000i\plotters\DWF Classic.pc3
  4

  6

 40
0.0
 41
0.0
 42
0.0
 43
0.0
 44
0.0
 45
0.0
 46
0.0
 47
0.0
 48
0.0
 49
0.0
140
0.0
141
0.0
142
1.0
143
1.0
 70
   688
 72
     0
 73
     0
 74
     5
  7

 75
    16
147
1.0
148
0.0
149
0.0
100
AcDbLayout
  1
ﾚｲｱｳﾄ1
 70
     1
 71
     1
 10
0.0
 20
0.0
 11
12.0
 21
9.0
 12
0.0
 22
0.0
 32
0.0
 14
1.000000000000000E+20
 24
1.000000000000000E+20
 34
1.000000000000000E+20
 15
-1.000000000000000E+20
 25
-1.000000000000000E+20
 35
-1.000000000000000E+20
146
0.0
 13
0.0
 23
0.0
 33
0.0
 16
1.0
 26
0.0
 36
0.0
 17
0.0
 27
1.0
 37
0.0
 76
     0
330
C
  0
MLINESTYLE
  5
22
102
{ACAD_REACTORS
330
20
102
}
330
20
100
AcDbMlineStyle
  2
STANDARD
 70
     0
  3

 62
   256
 51
90.0
 52
90.0
 71
     2
 49
0.5
 62
   256
  6
BYLAYER
 49
-0.5
 62
   256
  6
BYLAYER
  0
ACDBPLACEHOLDER
  5
5
102
{ACAD_REACTORS
330
6
102
}
330
6
  0
DICTIONARYVAR
  5
221
102
{ACAD_REACTORS
330
220
102
}
330
220
100
DictionaryVariables
280
     0
  1
1
  0
XRECORD
  5
22B
102
{ACAD_REACTORS
330
229
102
}
330
229
100
AcDbXrecord
280
     1
  0
ENDSEC
  0
EOF
