  0
SECTION
  2
HEADER
  9
$ACADVER
  1
AC1015
  9
$ACADMAINTVER
 70
    13
  9
$DWGCODEPAGE
  3
ANSI_932
  9
$INSBASE
 10
0.0
 20
0.0
 30
0.0
  9
$EXTMIN
 10
-0.0031387797845355
 20
-0.0007235740253009
 30
-0.0000000000112498
  9
$EXTMAX
 10
210.0260379317282
 20
297.0207905360214
 30
0.0000000000002956
  9
$LIMMIN
 10
-185.2328918457
 20
-3.174999999999998
  9
$LIMMAX
 10
3.174999999999998
 20
291.2585876465
  9
$ORTHOMODE
 70
     0
  9
$REGENMODE
 70
     1
  9
$FILLMODE
 70
     1
  9
$QTEXTMODE
 70
     0
  9
$MIRRTEXT
 70
     0
  9
$LTSCALE
 40
1.0
  9
$ATTMODE
 70
     1
  9
$TEXTSIZE
 40
2.999994039499997
  9
$TRACEWID
 40
0.05
  9
$TEXTSTYLE
  7
STANDARD
  9
$CLAYER
  8
0
  9
$CELTYPE
  6
ByLayer
  9
$CECOLOR
 62
   256
  9
$CELTSCALE
 40
1.0
  9
$DISPSILH
 70
     0
  9
$DIMSCALE
 40
1.0
  9
$DIMASZ
 40
1.9727878465
  9
$DIMEXO
 40
2.539999961899999
  9
$DIMDLI
 40
0.38
  9
$DIMRND
 40
0.0
  9
$DIMDLE
 40
0.0
  9
$DIMEXE
 40
3.809999942799997
  9
$DIMTP
 40
0.0
  9
$DIMTM
 40
0.0
  9
$DIMTXT
 40
2.999994039499997
  9
$DIMCEN
 40
0.09
  9
$DIMTSZ
 40
0.0
  9
$DIMTOL
 70
     0
  9
$DIMLIM
 70
     0
  9
$DIMTIH
 70
     0
  9
$DIMTOH
 70
     1
  9
$DIMSE1
 70
     0
  9
$DIMSE2
 70
     0
  9
$DIMTAD
 70
     0
  9
$DIMZIN
 70
     0
  9
$DIMBLK
  1

  9
$DIMASO
 70
     1
  9
$DIMSHO
 70
     0
  9
$DIMPOST
  1

  9
$DIMAPOST
  1

  9
$DIMALT
 70
     0
  9
$DIMALTD
 70
     2
  9
$DIMALTF
 40
25.4
  9
$DIMLFAC
 40
1.0
  9
$DIMTOFL
 70
     0
  9
$DIMTVP
 40
0.0
  9
$DIMTIX
 70
     0
  9
$DIMSOXD
 70
     0
  9
$DIMSAH
 70
     0
  9
$DIMBLK1
  1

  9
$DIMBLK2
  1

  9
$DIMSTYLE
  2
Standard
  9
$DIMCLRD
 70
     0
  9
$DIMCLRE
 70
     0
  9
$DIMCLRT
 70
     0
  9
$DIMTFAC
 40
1.0
  9
$DIMGAP
 40
0.09
  9
$DIMJUST
 70
     0
  9
$DIMSD1
 70
     0
  9
$DIMSD2
 70
     0
  9
$DIMTOLJ
 70
     1
  9
$DIMTZIN
 70
     0
  9
$DIMALTZ
 70
     0
  9
$DIMALTTZ
 70
     0
  9
$DIMUPT
 70
     0
  9
$DIMDEC
 70
     4
  9
$DIMTDEC
 70
     4
  9
$DIMALTU
 70
     2
  9
$DIMALTTD
 70
     2
  9
$DIMTXSTY
  7
STANDARD
  9
$DIMAUNIT
 70
     0
  9
$DIMADEC
 70
     0
  9
$DIMALTRND
 40
0.0
  9
$DIMAZIN
 70
     0
  9
$DIMDSEP
 70
    46
  9
$DIMATFIT
 70
     3
  9
$DIMFRAC
 70
     0
  9
$DIMLDRBLK
  1

  9
$DIMLUNIT
 70
     2
  9
$DIMLWD
 70
    -2
  9
$DIMLWE
 70
    -2
  9
$DIMTMOVE
 70
     0
  9
$LUNITS
 70
     2
  9
$LUPREC
 70
     3
  9
$SKETCHINC
 40
0.1
  9
$FILLETRAD
 40
0.0625
  9
$AUNITS
 70
     0
  9
$AUPREC
 70
     0
  9
$MENU
  1
ACAD
  9
$ELEVATION
 40
0.0
  9
$PELEVATION
 40
0.0
  9
$THICKNESS
 40
0.0
  9
$LIMCHECK
 70
     0
  9
$CHAMFERA
 40
0.0
  9
$CHAMFERB
 40
0.0
  9
$CHAMFERC
 40
0.0
  9
$CHAMFERD
 40
0.0
  9
$SKPOLY
 70
     0
  9
$TDCREATE
 40
2452272.484733796
  9
$TDUCREATE
 40
2452272.109733796
  9
$TDUPDATE
 40
2453382.718327002
  9
$TDUUPDATE
 40
2453382.343327002
  9
$TDINDWG
 40
0.0045224074
  9
$TDUSRTIMER
 40
0.0045204167
  9
$USRTIMER
 70
     1
  9
$ANGBASE
 50
0.0
  9
$ANGDIR
 70
     0
  9
$PDMODE
 70
     0
  9
$PDSIZE
 40
0.0
  9
$PLINEWID
 40
0.0
  9
$SPLFRAME
 70
     0
  9
$SPLINETYPE
 70
     6
  9
$SPLINESEGS
 70
     8
  9
$HANDSEED
  5
350
  9
$SURFTAB1
 70
     6
  9
$SURFTAB2
 70
     6
  9
$SURFTYPE
 70
     6
  9
$SURFU
 70
     6
  9
$SURFV
 70
     6
  9
$UCSBASE
  2

  9
$UCSNAME
  2

  9
$UCSORG
 10
0.0
 20
0.0
 30
0.0
  9
$UCSXDIR
 10
1.0
 20
0.0
 30
0.0
  9
$UCSYDIR
 10
0.0
 20
1.0
 30
0.0
  9
$UCSORTHOREF
  2

  9
$UCSORTHOVIEW
 70
     0
  9
$UCSORGTOP
 10
0.0
 20
0.0
 30
0.0
  9
$UCSORGBOTTOM
 10
0.0
 20
0.0
 30
0.0
  9
$UCSORGLEFT
 10
0.0
 20
0.0
 30
0.0
  9
$UCSORGRIGHT
 10
0.0
 20
0.0
 30
0.0
  9
$UCSORGFRONT
 10
0.0
 20
0.0
 30
0.0
  9
$UCSORGBACK
 10
0.0
 20
0.0
 30
0.0
  9
$PUCSBASE
  2

  9
$PUCSNAME
  2

  9
$PUCSORG
 10
0.0
 20
0.0
 30
0.0
  9
$PUCSXDIR
 10
1.0
 20
0.0
 30
0.0
  9
$PUCSYDIR
 10
0.0
 20
1.0
 30
0.0
  9
$PUCSORTHOREF
  2

  9
$PUCSORTHOVIEW
 70
     0
  9
$PUCSORGTOP
 10
0.0
 20
0.0
 30
0.0
  9
$PUCSORGBOTTOM
 10
0.0
 20
0.0
 30
0.0
  9
$PUCSORGLEFT
 10
0.0
 20
0.0
 30
0.0
  9
$PUCSORGRIGHT
 10
0.0
 20
0.0
 30
0.0
  9
$PUCSORGFRONT
 10
0.0
 20
0.0
 30
0.0
  9
$PUCSORGBACK
 10
0.0
 20
0.0
 30
0.0
  9
$USERI1
 70
     9
  9
$USERI2
 70
     0
  9
$USERI3
 70
     0
  9
$USERI4
 70
     0
  9
$USERI5
 70
     0
  9
$USERR1
 40
0.0
  9
$USERR2
 40
0.0
  9
$USERR3
 40
0.0
  9
$USERR4
 40
0.0
  9
$USERR5
 40
0.0
  9
$WORLDVIEW
 70
     1
  9
$SHADEDGE
 70
     3
  9
$SHADEDIF
 70
    70
  9
$TILEMODE
 70
     1
  9
$MAXACTVP
 70
    64
  9
$PINSBASE
 10
0.0
 20
0.0
 30
0.0
  9
$PLIMCHECK
 70
     0
  9
$PEXTMIN
 10
1.000000000000000E+20
 20
1.000000000000000E+20
 30
1.000000000000000E+20
  9
$PEXTMAX
 10
-1.000000000000000E+20
 20
-1.000000000000000E+20
 30
-1.000000000000000E+20
  9
$PLIMMIN
 10
0.0
 20
0.0
  9
$PLIMMAX
 10
12.0
 20
9.0
  9
$UNITMODE
 70
     0
  9
$VISRETAIN
 70
     1
  9
$PLINEGEN
 70
     0
  9
$PSLTSCALE
 70
     1
  9
$TREEDEPTH
 70
  3020
  9
$CMLSTYLE
  2
Standard
  9
$CMLJUST
 70
     0
  9
$CMLSCALE
 40
1.0
  9
$PROXYGRAPHICS
 70
     1
  9
$MEASUREMENT
 70
     0
  9
$CELWEIGHT
370
    -1
  9
$ENDCAPS
280
     0
  9
$JOINSTYLE
280
     0
  9
$LWDISPLAY
290
     0
  9
$INSUNITS
 70
     0
  9
$HYPERLINKBASE
  1

  9
$STYLESHEET
  1

  9
$XEDIT
290
     1
  9
$CEPSNTYPE
380
     0
  9
$PSTYLEMODE
290
     1
  9
$FINGERPRINTGUID
  2
{AA7FC3E7-91ED-49FE-A75A-DE510E41CBDE}
  9
$VERSIONGUID
  2
{CCCD1479-E96E-4BBD-B82C-F9EB1ADFBF76}
  9
$EXTNAMES
290
     1
  9
$PSVPSCALE
 40
0.0
  9
$OLESTARTUP
290
     0
  0
ENDSEC
  0
SECTION
  2
CLASSES
  0
CLASS
  1
ACDBDICTIONARYWDFLT
  2
AcDbDictionaryWithDefault
  3
AutoCAD 2000
 90
        0
280
     0
281
     0
  0
CLASS
  1
ACDBPLACEHOLDER
  2
AcDbPlaceHolder
  3
AutoCAD 2000
 90
        0
280
     0
281
     0
  0
CLASS
  1
LAYOUT
  2
AcDbLayout
  3
AutoCAD 2000
 90
        0
280
     0
281
     0
  0
CLASS
  1
DICTIONARYVAR
  2
AcDbDictionaryVar
  3
AutoCAD 2000
 90
        0
280
     0
281
     0
  0
ENDSEC
  0
SECTION
  2
TABLES
  0
TABLE
  2
VPORT
  5
19
330
0
100
AcDbSymbolTable
 70
     2
  0
VPORT
  5
34F
330
19
100
AcDbSymbolTableRecord
100
AcDbViewportTableRecord
  2
*Active
 70
     0
 10
0.0
 20
0.0
 11
1.0
 21
1.0
 12
105.0114495759718
 22
148.510033480998
 13
0.0
 23
0.0
 14
1.0
 24
1.0
 15
0.0
 25
0.0
 16
0.0
 26
0.0
 36
1.0
 17
0.0
 27
0.0
 37
0.0
 40
301.3575946080036
 41
2.407317073170731
 42
50.0
 43
0.0
 44
0.0
 50
0.0
 51
0.0
 71
     0
 72
   100
 73
     1
 74
     1
 75
     0
 76
     0
 77
     0
 78
     0
281
     0
 65
     1
110
0.0
120
0.0
130
0.0
111
1.0
121
0.0
131
0.0
112
0.0
122
1.0
132
0.0
 79
     0
146
0.0
  0
ENDTAB
  0
TABLE
  2
LTYPE
  5
14
330
0
100
AcDbSymbolTable
 70
     3
  0
LTYPE
  5
15
330
14
100
AcDbSymbolTableRecord
100
AcDbLinetypeTableRecord
  2
ByBlock
 70
     0
  3

 72
    65
 73
     0
 40
0.0
  0
LTYPE
  5
16
330
14
100
AcDbSymbolTableRecord
100
AcDbLinetypeTableRecord
  2
ByLayer
 70
     0
  3

 72
    65
 73
     0
 40
0.0
  0
LTYPE
  5
8
330
14
100
AcDbSymbolTableRecord
100
AcDbLinetypeTableRecord
  2
Continuous
 70
     0
  3
Solid line
 72
    65
 73
     0
 40
0.0
  0
LTYPE
  5
69
330
14
100
AcDbSymbolTableRecord
100
AcDbLinetypeTableRecord
  2
DASH
 70
     0
  3
Dash
 72
    65
 73
     2
 40
1.9999960661
 49
0.9999980329999999
 74
     0
 49
-0.9999980329999999
 74
     0
  0
LTYPE
  5
30
330
14
100
AcDbSymbolTableRecord
100
AcDbLinetypeTableRecord
  2
CENTER
 70
     0
  3
Center
 72
    65
 73
     4
 40
9.100006759199999
 49
6.5000119209
 74
     0
 49
-0.7999984026000001
 74
     0
 49
0.9999980329999999
 74
     0
 49
-0.7999984026000001
 74
     0
  0
ENDTAB
  0
TABLE
  2
LAYER
  5
10
330
0
100
AcDbSymbolTable
 70
     1
  0
LAYER
  5
4
330
10
100
AcDbSymbolTableRecord
100
AcDbLayerTableRecord
  2
0
 70
     0
 62
     7
  6
Continuous
370
    -3
390
5
  0
ENDTAB
  0
TABLE
  2
STYLE
  5
11
330
0
100
AcDbSymbolTable
 70
     1
  0
STYLE
  5
12
330
11
100
AcDbSymbolTableRecord
100
AcDbTextStyleTableRecord
  2
STANDARD
 70
     0
 40
0.0
 41
1.0
 50
0.0
 71
     0
 42
2.999994039499997
  3
romans.shx
  4
bigfont.shx
  0
ENDTAB
  0
TABLE
  2
VIEW
  5
17
330
0
100
AcDbSymbolTable
 70
     0
  0
ENDTAB
  0
TABLE
  2
UCS
  5
18
330
0
100
AcDbSymbolTable
 70
     0
  0
ENDTAB
  0
TABLE
  2
APPID
  5
1B
330
0
100
AcDbSymbolTable
 70
     2
  0
APPID
  5
1C
330
1B
100
AcDbSymbolTableRecord
100
AcDbRegAppTableRecord
  2
ACAD
 70
     0
  0
APPID
  5
34D
330
1B
100
AcDbSymbolTableRecord
100
AcDbRegAppTableRecord
  2
DCO15
 70
     0
  0
ENDTAB
  0
TABLE
  2
DIMSTYLE
  5
1D
330
0
100
AcDbSymbolTable
 70
     1
100
AcDbDimStyleTable
 71
     0
  0
DIMSTYLE
105
23
330
1D
100
AcDbSymbolTableRecord
100
AcDbDimStyleTableRecord
  2
Standard
 70
     0
340
12
  0
ENDTAB
  0
TABLE
  2
BLOCK_RECORD
  5
1
330
0
100
AcDbSymbolTable
 70
     0
  0
BLOCK_RECORD
  5
2
330
1
100
AcDbSymbolTableRecord
100
AcDbBlockTableRecord
  2
*Model_Space
340
A
  0
BLOCK_RECORD
  5
C
330
1
100
AcDbSymbolTableRecord
100
AcDbBlockTableRecord
  2
*Paper_Space
340
F
  0
ENDTAB
  0
ENDSEC
  0
SECTION
  2
BLOCKS
  0
BLOCK
  5
3
330
2
100
AcDbEntity
  8
0
100
AcDbBlockBegin
  2
*Model_Space
 70
     2
 10
0.0
 20
0.0
 30
0.0
  3
*Model_Space
  1

  0
ENDBLK
  5
9
330
2
100
AcDbEntity
  8
0
100
AcDbBlockEnd
  0
BLOCK
  5
D
330
C
100
AcDbEntity
 67
     1
  8
0
100
AcDbBlockBegin
  2
*Paper_Space
 70
     0
 10
0.0
 20
0.0
 30
0.0
  3
*Paper_Space
  1

  0
ENDBLK
  5
E
330
C
100
AcDbEntity
 67
     1
  8
0
100
AcDbBlockEnd
  0
ENDSEC
  0
SECTION
  2
ENTITIES
  0
LINE
  5
24
330
2
100
AcDbEntity
  8
0
100
AcDbLine
 10
210.0
 20
0.0
 30
0.0
 11
210.0
 21
297.0
 31
0.0
  0
LINE
  5
25
330
2
100
AcDbEntity
  8
0
100
AcDbLine
 10
0.0
 20
297.0
 30
0.0
 11
0.0
 21
0.0
 31
0.0
  0
LINE
  5
26
330
2
100
AcDbEntity
  8
0
 62
     3
100
AcDbLine
 10
138.5646220338998
 20
225.4499187031999
 30
0.0
 11
147.2639971264999
 21
225.2565985759999
 31
0.0
  0
LINE
  5
27
330
2
100
AcDbEntity
  8
0
 62
     3
100
AcDbLine
 10
138.5646409938999
 20
225.1430798511999
 30
0.0
 11
147.5652112575999
 21
224.9430664743999
 31
0.0
  0
LINE
  5
28
330
2
100
AcDbEntity
  8
0
 62
     3
100
AcDbLine
 10
147.2566384039
 20
201.7430689328998
 30
0.0
 11
138.5640212863999
 21
201.5498974286999
 31
0.0
  0
LINE
  5
29
330
2
100
AcDbEntity
  8
0
 62
     3
100
AcDbLine
 10
147.5651822891999
 20
202.0499375498
 30
0.0
 11
138.5640780996997
 21
201.8499100606999
 31
0.0
  0
LINE
  5
2A
330
2
100
AcDbEntity
  8
0
 62
     3
100
AcDbLine
 10
138.5646597418999
 20
177.4495868962999
 30
0.0
 11
147.2641568747
 21
177.2562640570999
 31
0.0
  0
LINE
  5
2B
330
2
100
AcDbEntity
  8
0
 62
     3
100
AcDbLine
 10
138.5653760761999
 20
177.1427325469999
 30
0.0
 11
147.5641353488998
 21
176.9427594146
 31
0.0
  0
LINE
  5
2C
330
2
100
AcDbEntity
  8
0
 62
     3
100
AcDbLine
 10
147.2565825401
 20
159.7436483847999
 30
0.0
 11
138.5639654226
 21
159.5504784354
 31
0.0
  0
LINE
  5
2D
330
2
100
AcDbEntity
  8
0
 62
     3
100
AcDbLine
 10
147.5634250970999
 20
160.0504679378
 30
0.0
 11
138.5573020050999
 21
159.8503311643999
 31
0.0
  0
LINE
  5
2E
330
2
100
AcDbEntity
  8
0
100
AcDbLine
 10
0.0
 20
0.0
 30
0.0
 11
210.0
 21
0.0
 31
0.0
  0
LINE
  5
2F
330
2
100
AcDbEntity
  8
0
  6
CENTER
 62
     3
100
AcDbLine
 10
113.6532819598997
 20
168.5
 30
0.0
 11
149.8822858662
 21
168.5
 31
0.0
  0
LINE
  5
31
330
2
100
AcDbEntity
  8
0
  6
CENTER
 62
     3
100
AcDbLine
 10
149.3052594989999
 20
213.4999999999998
 30
0.0
 11
107.5797345967
 21
213.4999999999998
 31
0.0
  0
LINE
  5
32
330
2
100
AcDbEntity
  8
0
 62
     3
100
AcDbLine
 10
85.5651929707
 20
171.0000152587999
 30
0.0
 11
86.4237745137
 21
171.0000152587999
 31
0.0
  0
LINE
  5
33
330
2
100
AcDbEntity
  8
0
 62
     3
100
AcDbLine
 10
85.91519907419998
 20
169.9000244140999
 30
0.0
 11
85.41519907419997
 21
169.9000244140999
 31
0.0
  0
LINE
  5
34
330
2
100
AcDbEntity
  8
0
 62
     3
100
AcDbLine
 10
85.5651929707
 20
166.0000152588
 30
0.0
 11
86.4237745137
 21
166.0000152588
 31
0.0
  0
LINE
  5
35
330
2
100
AcDbEntity
  8
0
 62
     3
100
AcDbLine
 10
85.91519907419998
 20
167.1000213622999
 30
0.0
 11
85.41519907419997
 21
167.1000213622999
 31
0.0
  0
CIRCLE
  5
36
330
2
100
AcDbEntity
  8
0
 62
     3
100
AcDbCircle
 10
79.56520822949997
 20
168.5
 30
0.0
 40
9.0
  0
CIRCLE
  5
37
330
2
100
AcDbEntity
  8
0
 62
     3
100
AcDbCircle
 10
79.56520822949997
 20
168.5
 30
0.0
 40
8.0
  0
CIRCLE
  5
38
330
2
100
AcDbEntity
  8
0
 62
     3
100
AcDbCircle
 10
79.56520822949997
 20
168.5
 30
0.0
 40
7.399999618499996
  0
LINE
  5
39
330
2
100
AcDbEntity
  8
0
  6
CENTER
 62
     3
100
AcDbLine
 10
64.95407846869998
 20
168.5
 30
0.0
 11
94.1095044941
 21
168.5
 31
0.0
  0
LINE
  5
3A
330
2
100
AcDbEntity
  8
0
 62
     3
100
AcDbLine
 10
91.21524817679995
 20
159.5500762939998
 30
0.0
 11
80.51329348709998
 21
159.5500762939998
 31
0.0
  0
LINE
  5
3B
330
2
100
AcDbEntity
  8
0
 62
     3
100
AcDbLine
 10
91.21521544739998
 20
177.4499389649
 30
0.0
 11
80.51314943309998
 21
177.4499389649
 31
0.0
  0
LINE
  5
3C
330
2
100
AcDbEntity
  8
0
  6
CENTER
 62
     3
100
AcDbLine
 10
29.45384958689998
 20
168.5001068116
 30
0.0
 11
58.60927561229999
 21
168.5001068116
 31
0.0
  0
LINE
  5
3D
330
2
100
AcDbEntity
  8
0
 62
     3
100
AcDbLine
 10
41.31487253609997
 20
174.9000854492998
 30
0.0
 11
41.81487253609997
 21
174.9000854492998
 31
0.0
  0
LINE
  5
3E
330
2
100
AcDbEntity
  8
0
 62
     3
100
AcDbLine
 10
41.31487253609997
 20
172.1000823974999
 30
0.0
 11
41.81487253609997
 21
172.1000823974999
 31
0.0
  0
LINE
  5
3F
330
2
100
AcDbEntity
  8
0
 62
     3
100
AcDbLine
 10
41.31487253609997
 20
169.9000854492998
 30
0.0
 11
41.81487253609997
 21
169.9000854492998
 31
0.0
  0
ARC
  5
40
330
2
100
AcDbEntity
  8
0
 62
     3
100
AcDbCircle
 10
34.856544289
 20
173.5001068116
 30
0.0
 40
6.608330726599997
100
AcDbArc
 50
347.769026574
 51
12.23099050149996
  0
LINE
  5
41
330
2
100
AcDbEntity
  8
0
 62
     3
100
AcDbLine
 10
43.11689408999998
 20
177.4500305175999
 30
0.0
 11
32.41521243989998
 21
177.4500305175999
 31
0.0
  0
LINE
  5
42
330
2
100
AcDbEntity
  8
0
 62
     3
100
AcDbLine
 10
41.31487253609997
 20
167.1000976563
 30
0.0
 11
41.81487253609997
 21
167.1000976563
 31
0.0
  0
LINE
  5
43
330
2
100
AcDbEntity
  8
0
 62
     3
100
AcDbLine
 10
41.31487253609997
 20
164.9001312255998
 30
0.0
 11
41.81487253609997
 21
164.9001312255998
 31
0.0
  0
LINE
  5
44
330
2
100
AcDbEntity
  8
0
 62
     3
100
AcDbLine
 10
41.31487253609997
 20
162.1002044677998
 30
0.0
 11
41.81487253609997
 21
162.1002044677998
 31
0.0
  0
ARC
  5
45
330
2
100
AcDbEntity
  8
0
 62
     3
100
AcDbCircle
 10
34.85677317089997
 20
163.5002136230999
 30
0.0
 40
6.6081047058
100
AcDbArc
 50
347.7685894419
 51
12.23099050149996
  0
LINE
  5
46
330
2
100
AcDbEntity
  8
0
 62
     3
100
AcDbLine
 10
43.117038144
 20
159.5501678466999
 30
0.0
 11
32.41498056829998
 21
159.5501678466999
 31
0.0
  0
ARC
  5
47
330
2
100
AcDbEntity
  8
0
 62
     3
100
AcDbCircle
 10
34.856544289
 20
168.5001220703
 30
0.0
 40
6.608330726599997
100
AcDbArc
 50
347.769026574
 51
12.23099050149996
  0
CIRCLE
  5
48
330
2
100
AcDbEntity
  8
0
 62
     3
100
AcDbCircle
 10
44.06497934759996
 20
168.5001068116
 30
0.0
 40
9.0
  0
CIRCLE
  5
49
330
2
100
AcDbEntity
  8
0
 62
     3
100
AcDbCircle
 10
44.06497934759996
 20
168.5001068116
 30
0.0
 40
8.0
  0
CIRCLE
  5
4A
330
2
100
AcDbEntity
  8
0
 62
     3
100
AcDbCircle
 10
44.06497934759996
 20
168.5001068116
 30
0.0
 40
7.399999618499996
  0
LINE
  5
4B
330
2
100
AcDbEntity
  8
0
 62
     3
100
AcDbLine
 10
41.31487253609997
 20
172.1000823974999
 30
0.0
 11
41.31487253609997
 21
174.9000854492998
 31
0.0
  0
LINE
  5
4C
330
2
100
AcDbEntity
  8
0
 62
     3
100
AcDbLine
 10
40.5649193399
 20
174.2000535747999
 30
0.0
 11
39.0649188333
 21
172.2000539920999
 31
0.0
  0
LINE
  5
4D
330
2
100
AcDbEntity
  8
0
 62
     3
100
AcDbLine
 10
39.06506112349996
 20
172.1998402750999
 30
0.0
 11
40.56506103409997
 21
174.1998403048999
 31
0.0
  0
LINE
  5
4E
330
2
100
AcDbEntity
  8
0
 62
     3
100
AcDbLine
 10
35.06603220409997
 20
177.4500305175999
 30
0.0
 11
35.06603220409997
 21
159.5501678466999
 31
0.0
  0
LINE
  5
4F
330
2
100
AcDbEntity
  8
0
 62
     3
100
AcDbLine
 10
32.11499460639996
 20
177.1498129118999
 30
0.0
 11
32.11499460639996
 21
159.8501535304
 31
0.0
  0
LINE
  5
50
330
2
100
AcDbEntity
  8
0
 62
     3
100
AcDbLine
 10
32.41498056829998
 20
159.5501678466999
 30
0.0
 11
32.11499460639996
 21
159.8501535304
 31
0.0
  0
LINE
  5
51
330
2
100
AcDbEntity
  8
0
 62
     3
100
AcDbLine
 10
41.31487253609997
 20
164.9001312255998
 30
0.0
 11
41.31487253609997
 21
162.1002044677998
 31
0.0
  0
LINE
  5
52
330
2
100
AcDbEntity
  8
0
 62
     3
100
AcDbLine
 10
35.56608662809997
 20
161.8439377382
 30
0.0
 11
37.39227491509999
 21
160.0500161802998
 31
0.0
  0
LINE
  5
53
330
2
100
AcDbEntity
  8
0
 62
     3
100
AcDbLine
 10
41.06499460639997
 20
160.0148162842
 30
0.0
 11
41.06499460639997
 21
161.0837402343999
 31
0.0
  0
LINE
  5
54
330
2
100
AcDbEntity
  8
0
 62
     3
100
AcDbLine
 10
38.21488169139996
 20
169.9000091552998
 30
0.0
 11
37.71488169139995
 21
169.9000091552998
 31
0.0
  0
LINE
  5
55
330
2
100
AcDbEntity
  8
0
 62
     3
100
AcDbLine
 10
37.20626047559997
 20
170.9998626708999
 30
0.0
 11
38.06487253609997
 21
170.9998626708999
 31
0.0
  0
LINE
  5
56
330
2
100
AcDbEntity
  8
0
 62
     3
100
AcDbLine
 10
37.2063062519
 20
171.0
 30
0.0
 11
38.06487253609997
 21
171.0
 31
0.0
  0
LINE
  5
57
330
2
100
AcDbEntity
  8
0
 62
     3
100
AcDbLine
 10
38.21488169139996
 20
167.1000061035999
 30
0.0
 11
37.71488169139995
 21
167.1000061035999
 31
0.0
  0
LINE
  5
58
330
2
100
AcDbEntity
  8
0
 62
     3
100
AcDbLine
 10
37.20635202829999
 20
165.9998779297
 30
0.0
 11
38.06487253609997
 21
165.9998779297
 31
0.0
  0
LINE
  5
59
330
2
100
AcDbEntity
  8
0
 62
     3
100
AcDbLine
 10
37.2063062519
 20
166.0
 30
0.0
 11
38.06487253609997
 21
166.0
 31
0.0
  0
ARC
  5
5A
330
2
100
AcDbEntity
  8
0
 62
     3
100
AcDbCircle
 10
44.06487253609998
 20
168.5
 30
0.0
 40
7.2999992371
100
AcDbArc
 50
159.9727565511
 51
200.0271168631
  0
LINE
  5
5B
330
2
100
AcDbEntity
  8
0
 62
     3
100
AcDbLine
 10
36.66497019239997
 20
165.4604034423998
 30
0.0
 11
36.66497019239997
 21
171.5398712159
 31
0.0
  0
LINE
  5
5C
330
2
100
AcDbEntity
  8
0
 62
     3
100
AcDbLine
 10
37.36484507029999
 20
169.1999359130998
 30
0.0
 11
37.36484507029999
 21
167.7999267577999
 31
0.0
  0
LINE
  5
5D
330
2
100
AcDbEntity
  8
0
 62
     3
100
AcDbLine
 10
37.36487558789997
 20
169.1999969482999
 30
0.0
 11
37.36487558789997
 21
167.8000030517999
 31
0.0
  0
LINE
  5
5E
330
2
100
AcDbEntity
  8
0
 62
     3
100
AcDbLine
 10
37.71488169139995
 20
169.8999938964998
 30
0.0
 11
37.71488169139995
 21
167.1000061035999
 31
0.0
  0
LINE
  5
5F
330
2
100
AcDbEntity
  8
0
 62
     3
100
AcDbLine
 10
35.57968882029999
 20
165.5001068116
 30
0.0
 11
36.64870432319998
 21
165.5001068116
 31
0.0
  0
LINE
  5
60
330
2
100
AcDbEntity
  8
0
 62
     3
100
AcDbLine
 10
37.36484507029999
 20
167.7999267577999
 30
0.0
 11
37.71489695019996
 21
167.7999267577999
 31
0.0
  0
LINE
  5
61
330
2
100
AcDbEntity
  8
0
 62
     3
100
AcDbLine
 10
37.71488169139995
 20
167.8000030517999
 30
0.0
 11
37.36487558789997
 21
167.8000030517999
 31
0.0
  0
LINE
  5
62
330
2
100
AcDbEntity
  8
0
 62
     3
100
AcDbLine
 10
35.57968882029999
 20
171.5000915527999
 30
0.0
 11
36.64870432319998
 21
171.5000915527999
 31
0.0
  0
LINE
  5
63
330
2
100
AcDbEntity
  8
0
 62
     3
100
AcDbLine
 10
37.36484507029999
 20
169.1999359130998
 30
0.0
 11
37.71489695019996
 21
169.1999359130998
 31
0.0
  0
LINE
  5
64
330
2
100
AcDbEntity
  8
0
 62
     3
100
AcDbLine
 10
37.71488169139995
 20
169.1999969482999
 30
0.0
 11
37.36487558789997
 21
169.1999969482999
 31
0.0
  0
LINE
  5
65
330
2
100
AcDbEntity
  8
0
 62
     3
100
AcDbLine
 10
41.31487253609997
 20
167.1000976563
 30
0.0
 11
41.31487253609997
 21
169.9000854492998
 31
0.0
  0
LINE
  5
66
330
2
100
AcDbEntity
  8
0
 62
     3
100
AcDbLine
 10
38.96488169139995
 20
168.3999938964998
 30
0.0
 11
38.96488169139995
 21
167.8999938965
 31
0.0
  0
LINE
  5
67
330
2
100
AcDbEntity
  8
0
 62
     3
100
AcDbLine
 10
39.1648786396
 20
168.3999938964998
 30
0.0
 11
39.1648786396
 21
167.8999938965
 31
0.0
  0
LINE
  5
68
330
2
100
AcDbEntity
  8
0
  6
DASH
 62
     3
100
AcDbLine
 10
39.06487253609997
 20
172.1999969482999
 30
0.0
 11
39.06487253609997
 21
164.8000030518
 31
0.0
  0
LINE
  5
6A
330
2
100
AcDbEntity
  8
0
 62
     3
100
AcDbLine
 10
39.86487558789997
 20
173.2667541504
 30
0.0
 11
39.86487558789997
 21
163.6001434327
 31
0.0
  0
LINE
  5
6B
330
2
100
AcDbEntity
  8
0
 62
     3
100
AcDbLine
 10
38.21488169139996
 20
169.8999938964998
 30
0.0
 11
38.21488169139996
 21
167.1000061035999
 31
0.0
  0
LINE
  5
6C
330
2
100
AcDbEntity
  8
0
 62
     3
100
AcDbLine
 10
40.26492186679996
 20
163.0001097869999
 30
0.0
 11
39.06496418239999
 21
164.8000455399998
 31
0.0
  0
LINE
  5
6D
330
2
100
AcDbEntity
  8
0
 62
     3
100
AcDbLine
 10
39.06497004460002
 20
164.799877105
 30
0.0
 11
40.26491595849996
 21
162.9999702254
 31
0.0
  0
LINE
  5
6E
330
2
100
AcDbEntity
  8
0
 62
     3
100
AcDbLine
 10
39.86487558789997
 20
164.8000030518
 30
0.0
 11
38.56487253609997
 21
164.8000030518
 31
0.0
  0
ARC
  5
6F
330
2
100
AcDbEntity
  8
0
 62
     3
100
AcDbCircle
 10
39.06487253609997
 20
167.8999938965
 30
0.0
 40
0.099999964237
100
AcDbArc
 50
180.0000906136999
 51
0.0
  0
LINE
  5
70
330
2
100
AcDbEntity
  8
0
 62
     3
100
AcDbLine
 10
38.56488779489998
 20
164.7999725342
 30
0.0
 11
39.06488779489999
 21
164.7999725342
 31
0.0
  0
LINE
  5
71
330
2
100
AcDbEntity
  8
0
 62
     3
100
AcDbLine
 10
38.06497445679996
 20
165.9998628143
 30
0.0
 11
38.5649162933
 21
164.8000006093
 31
0.0
  0
LINE
  5
72
330
2
100
AcDbEntity
  8
0
  6
DASH
 62
     3
100
AcDbLine
 10
38.06487253609997
 20
167.1000061035999
 30
0.0
 11
38.06487253609997
 21
166.0
 31
0.0
  0
LINE
  5
73
330
2
100
AcDbEntity
  8
0
 62
     3
100
AcDbLine
 10
38.56492971279999
 20
164.7999922988
 30
0.0
 11
38.06492887879997
 21
165.9999952768
 31
0.0
  0
LINE
  5
74
330
2
100
AcDbEntity
  8
0
 62
     3
100
AcDbLine
 10
40.76488474309999
 20
162.5001525879
 30
0.0
 11
41.31487253609997
 21
162.5001525879
 31
0.0
  0
LINE
  5
75
330
2
100
AcDbEntity
  8
0
 62
     3
100
AcDbLine
 10
40.66491069279999
 20
163.0001021816999
 30
0.0
 11
40.7649112007
 21
162.5001012532
 31
0.0
  0
LINE
  5
76
330
2
100
AcDbEntity
  8
0
 62
     3
100
AcDbLine
 10
40.26488474309997
 20
163.0001525879
 30
0.0
 11
41.31487253609997
 21
163.0001525879
 31
0.0
  0
LINE
  5
77
330
2
100
AcDbEntity
  8
0
 62
     3
100
AcDbLine
 10
39.66487863959997
 20
168.3999938964998
 30
0.0
 11
39.1648786396
 21
168.3999938964998
 31
0.0
  0
LINE
  5
78
330
2
100
AcDbEntity
  8
0
 62
     3
100
AcDbLine
 10
39.66487863959997
 20
168.6000061035999
 30
0.0
 11
39.1648786396
 21
168.6000061035999
 31
0.0
  0
LINE
  5
79
330
2
100
AcDbEntity
  8
0
 62
     3
100
AcDbLine
 10
39.86487558789997
 20
172.1999969482999
 30
0.0
 11
38.56487253609997
 21
172.1999969482999
 31
0.0
  0
ARC
  5
7A
330
2
100
AcDbEntity
  8
0
 62
     3
100
AcDbCircle
 10
39.06487253609997
 20
169.0999908448
 30
0.0
 40
0.099999964237
100
AcDbArc
 50
0.0
 51
179.9998547448
  0
ARC
  5
7B
330
2
100
AcDbEntity
  8
0
 62
     3
100
AcDbCircle
 10
38.46488169139997
 20
168.5
 30
0.0
 40
0.099999964237
100
AcDbArc
 50
90.00003665540001
 51
270.0000006831999
  0
LINE
  5
7C
330
2
100
AcDbEntity
  8
0
 62
     3
100
AcDbLine
 10
38.06495385559997
 20
170.9997877939999
 30
0.0
 11
38.56494882079999
 21
172.1997766868999
 31
0.0
  0
LINE
  5
7D
330
2
100
AcDbEntity
  8
0
 62
     3
100
AcDbLine
 10
38.56487253609997
 20
172.1999359130998
 30
0.0
 11
39.06487253609997
 21
172.1999359130998
 31
0.0
  0
LINE
  5
7E
330
2
100
AcDbEntity
  8
0
 62
     3
100
AcDbLine
 10
39.1648786396
 20
169.0999908448
 30
0.0
 11
39.1648786396
 21
168.5999908448
 31
0.0
  0
LINE
  5
7F
330
2
100
AcDbEntity
  8
0
 62
     3
100
AcDbLine
 10
38.96488169139995
 20
169.0999908448
 30
0.0
 11
38.96488169139995
 21
168.5999908448
 31
0.0
  0
LINE
  5
80
330
2
100
AcDbEntity
  8
0
 62
     3
100
AcDbLine
 10
38.96488169139995
 20
168.6000061035999
 30
0.0
 11
38.46488169139997
 21
168.6000061035999
 31
0.0
  0
LINE
  5
81
330
2
100
AcDbEntity
  8
0
 62
     3
100
AcDbLine
 10
38.96488169139995
 20
168.3999938964998
 30
0.0
 11
38.46488169139997
 21
168.3999938964998
 31
0.0
  0
LINE
  5
82
330
2
100
AcDbEntity
  8
0
 62
     3
100
AcDbLine
 10
38.56488510499996
 20
172.1999303836999
 30
0.0
 11
38.06488396109998
 21
170.9999275607
 31
0.0
  0
LINE
  5
83
330
2
100
AcDbEntity
  8
0
  6
DASH
 62
     3
100
AcDbLine
 10
38.06487253609997
 20
171.0
 30
0.0
 11
38.06487253609997
 21
169.8999938964998
 31
0.0
  0
ARC
  5
84
330
2
100
AcDbEntity
  8
0
 62
     3
100
AcDbCircle
 10
39.66487863959997
 20
168.5
 30
0.0
 40
0.099999964237
100
AcDbArc
 50
270.0000726275999
 51
89.9999273723999
  0
LINE
  5
85
330
2
100
AcDbEntity
  8
0
 62
     3
100
AcDbLine
 10
32.41521243989998
 20
177.4500305175999
 30
0.0
 11
32.11499460639996
 21
177.1498129118999
 31
0.0
  0
LINE
  5
86
330
2
100
AcDbEntity
  8
0
 62
     3
100
AcDbLine
 10
37.39228683429995
 20
176.9499990674999
 30
0.0
 11
35.56608053949997
 21
175.1560303246998
 31
0.0
  0
LINE
  5
87
330
2
100
AcDbEntity
  8
0
 62
     3
100
AcDbLine
 10
41.06499460639997
 20
175.9162445069
 30
0.0
 11
41.06499460639997
 21
176.9853973388999
 31
0.0
  0
LINE
  5
88
330
2
100
AcDbEntity
  8
0
 62
     3
100
AcDbLine
 10
41.31487253609997
 20
174.2000885009999
 30
0.0
 11
40.56487253609997
 21
174.2000885009999
 31
0.0
  0
LINE
  5
89
330
2
100
AcDbEntity
  8
0
 62
     3
100
AcDbLine
 10
40.76488474309999
 20
174.7000885009998
 30
0.0
 11
41.31487253609997
 21
174.7000885009998
 31
0.0
  0
LINE
  5
8A
330
2
100
AcDbEntity
  8
0
 62
     3
100
AcDbLine
 10
40.66489835479996
 20
174.2000530377
 30
0.0
 11
40.76489922739997
 21
174.7000538749999
 31
0.0
  0
LINE
  5
8B
330
2
100
AcDbEntity
  8
0
 62
     3
100
AcDbLine
 10
49.06490738929996
 20
172.2000608757998
 30
0.0
 11
47.56495310609998
 21
174.1999998704999
 31
0.0
  0
LINE
  5
8C
330
2
100
AcDbEntity
  8
0
 62
     3
100
AcDbLine
 10
53.0660322041
 20
177.4500305175999
 30
0.0
 11
53.0660322041
 21
159.5501678466999
 31
0.0
  0
LINE
  5
8D
330
2
100
AcDbEntity
  8
0
 62
     3
100
AcDbLine
 10
56.01497934759999
 20
177.1500510709999
 30
0.0
 11
56.01497934759999
 21
159.8501431448999
 31
0.0
  0
ARC
  5
8E
330
2
100
AcDbEntity
  8
0
 62
     3
100
AcDbCircle
 10
48.27320078319999
 20
173.5001068116
 30
0.0
 40
6.608330726599997
100
AcDbArc
 50
167.7689530357999
 51
192.2309203783
  0
LINE
  5
8F
330
2
100
AcDbEntity
  8
0
 62
     3
100
AcDbLine
 10
42.06500180309999
 20
174.1999448733
 30
0.0
 11
42.76497741679997
 21
173.2666440781
 31
0.0
  0
LINE
  5
90
330
2
100
AcDbEntity
  8
0
 62
     3
100
AcDbLine
 10
41.81487253609997
 20
172.1000823974999
 30
0.0
 11
41.81487253609997
 21
174.9000854492998
 31
0.0
  0
LINE
  5
91
330
2
100
AcDbEntity
  8
0
  6
CENTER
 62
     3
100
AcDbLine
 10
44.06497934759996
 20
157.2501068116
 30
0.0
 11
44.06497934759996
 21
179.7501068115999
 31
0.0
  0
LINE
  5
92
330
2
100
AcDbEntity
  8
0
 62
     3
100
AcDbLine
 10
49.6648633808
 20
168.3999938964998
 30
0.0
 11
48.46486643259996
 21
168.3999938964998
 31
0.0
  0
LINE
  5
93
330
2
100
AcDbEntity
  8
0
 62
     3
100
AcDbLine
 10
49.6648633808
 20
168.6000061035999
 30
0.0
 11
48.46486643259996
 21
168.6000061035999
 31
0.0
  0
LINE
  5
94
330
2
100
AcDbEntity
  8
0
 62
     3
100
AcDbLine
 10
49.56485727729996
 20
172.1999969482999
 30
0.0
 11
48.26485422559997
 21
172.1999969482999
 31
0.0
  0
LINE
  5
95
330
2
100
AcDbEntity
  8
0
 62
     3
100
AcDbLine
 10
47.86487389999999
 20
163.000085517
 30
0.0
 11
49.06487442049999
 21
164.8000843635999
 31
0.0
  0
LINE
  5
96
330
2
100
AcDbEntity
  8
0
 62
     3
100
AcDbLine
 10
49.56485727729996
 20
164.8000030518
 30
0.0
 11
48.26485422559997
 21
164.8000030518
 31
0.0
  0
LINE
  5
97
330
2
100
AcDbEntity
  8
0
 62
     3
100
AcDbLine
 10
55.7150045299
 20
159.5501678466999
 30
0.0
 11
45.01292055129996
 21
159.5501678466999
 31
0.0
  0
LINE
  5
98
330
2
100
AcDbEntity
  8
0
 62
     3
100
AcDbLine
 10
45.76486948439997
 20
163.0001220702999
 30
0.0
 11
45.76486948439997
 21
162.0192718505998
 31
0.0
  0
LINE
  5
99
330
2
100
AcDbEntity
  8
0
 62
     3
100
AcDbLine
 10
45.76502207219999
 20
162.0193023681999
 30
0.0
 11
45.76502207219999
 21
163.0000152588
 31
0.0
  0
LINE
  5
9A
330
2
100
AcDbEntity
  8
0
 62
     3
100
AcDbLine
 10
45.76491526069998
 20
162.9998016357999
 30
0.0
 11
45.76491526069998
 21
162.0189666747999
 31
0.0
  0
ARC
  5
9B
330
2
100
AcDbEntity
  8
0
 62
     3
100
AcDbCircle
 10
48.2729719013
 20
163.5002136230999
 30
0.0
 40
6.6081047058
100
AcDbArc
 50
167.7689530357999
 51
192.2313575105
  0
LINE
  5
9C
330
2
100
AcDbEntity
  8
0
 62
     3
100
AcDbLine
 10
42.36487558789997
 20
163.0001220702999
 30
0.0
 11
42.36487558789997
 21
162.0193786620999
 31
0.0
  0
LINE
  5
9D
330
2
100
AcDbEntity
  8
0
 62
     3
100
AcDbLine
 10
41.81487253609997
 20
164.9001312255998
 30
0.0
 11
41.81487253609997
 21
162.1002044677998
 31
0.0
  0
LINE
  5
9E
330
2
100
AcDbEntity
  8
0
 62
     3
100
AcDbLine
 10
42.3648908467
 20
163.0000152588
 30
0.0
 11
42.3648908467
 21
162.0192718505998
 31
0.0
  0
LINE
  5
9F
330
2
100
AcDbEntity
  8
0
 62
     3
100
AcDbLine
 10
42.36490610539997
 20
162.9998016357999
 30
0.0
 11
42.36490610539997
 21
162.0189666747999
 31
0.0
  0
ARC
  5
A0
330
2
100
AcDbEntity
  8
0
 62
     3
100
AcDbCircle
 10
44.06487253609998
 20
168.5001220703
 30
0.0
 40
6.6999959946
100
AcDbArc
 50
255.3432516499
 51
284.6984757969
  0
LINE
  5
A1
330
2
100
AcDbEntity
  8
0
 62
     3
100
AcDbLine
 10
47.06497934759997
 20
160.0148162842
 30
0.0
 11
47.06497934759997
 21
161.0837402343999
 31
0.0
  0
ARC
  5
A2
330
2
100
AcDbEntity
  8
0
 62
     3
100
AcDbCircle
 10
48.27320078319999
 20
168.5001220703
 30
0.0
 40
6.608330726599997
100
AcDbArc
 50
167.7689530357999
 51
192.2309203783
  0
LINE
  5
A3
330
2
100
AcDbEntity
  8
0
 62
     3
100
AcDbLine
 10
42.76488474309997
 20
173.2667846679999
 30
0.0
 11
42.76488474309997
 21
163.6001129150999
 31
0.0
  0
LINE
  5
A4
330
2
100
AcDbEntity
  8
0
 62
     3
100
AcDbLine
 10
41.81487253609997
 20
167.1000976563
 30
0.0
 11
41.81487253609997
 21
169.9000854492998
 31
0.0
  0
LINE
  5
A5
330
2
100
AcDbEntity
  8
0
 62
     3
100
AcDbLine
 10
42.36487235109999
 20
163.0000710402998
 30
0.0
 11
42.76487495909997
 21
163.6000751457
 31
0.0
  0
LINE
  5
A6
330
2
100
AcDbEntity
  8
0
 62
     3
100
AcDbLine
 10
41.81487253609997
 20
162.5001525879
 30
0.0
 11
41.86487558789997
 21
162.5001525879
 31
0.0
  0
LINE
  5
A7
330
2
100
AcDbEntity
  8
0
 62
     3
100
AcDbLine
 10
41.81487253609997
 20
163.0001525879
 30
0.0
 11
42.36487558789997
 21
163.0001525879
 31
0.0
  0
LINE
  5
A8
330
2
100
AcDbEntity
  8
0
 62
     3
100
AcDbLine
 10
41.86490216039999
 20
162.5001589450999
 30
0.0
 11
41.96490566079996
 21
163.0001748361
 31
0.0
  0
LINE
  5
A9
330
2
100
AcDbEntity
  8
0
 62
     3
100
AcDbLine
 10
47.46486643259996
 20
163.8001098633
 30
0.0
 11
47.46486643259996
 21
173.2001190185998
 31
0.0
  0
LINE
  5
AA
330
2
100
AcDbEntity
  8
0
 62
     3
100
AcDbLine
 10
48.26486948439997
 20
163.6001129150999
 30
0.0
 11
48.26486948439997
 21
173.2667846679999
 31
0.0
  0
LINE
  5
AB
330
2
100
AcDbEntity
  8
0
 62
     3
100
AcDbLine
 10
48.26485422559997
 20
164.8000030518
 30
0.0
 11
48.26485422559997
 21
172.1999969482999
 31
0.0
  0
LINE
  5
AC
330
2
100
AcDbEntity
  8
0
 62
     3
100
AcDbLine
 10
45.3648603291
 20
163.8001098633
 30
0.0
 11
45.3648603291
 21
173.2001190185998
 31
0.0
  0
LINE
  5
AD
330
2
100
AcDbEntity
  8
0
 62
     3
100
AcDbLine
 10
47.46486643259996
 20
163.8001098633
 30
0.0
 11
45.3648603291
 21
163.8001098633
 31
0.0
  0
LINE
  5
AE
330
2
100
AcDbEntity
  8
0
 62
     3
100
AcDbLine
 10
47.8648603291
 20
163.0001220702999
 30
0.0
 11
45.76486948439997
 21
163.0001220702999
 31
0.0
  0
LINE
  5
AF
330
2
100
AcDbEntity
  8
0
 62
     3
100
AcDbLine
 10
45.76493051949998
 20
163.0
 30
0.0
 11
47.86490610539998
 21
163.0
 31
0.0
  0
LINE
  5
B0
330
2
100
AcDbEntity
  8
0
 62
     3
100
AcDbLine
 10
45.76486948439997
 20
163.0001525879
 30
0.0
 11
46.81487253609997
 21
163.0001525879
 31
0.0
  0
LINE
  5
B1
330
2
100
AcDbEntity
  8
0
 62
     3
100
AcDbLine
 10
46.46491220899997
 20
163.4999694825
 30
0.0
 11
46.46491220899997
 21
162.9999694825
 31
0.0
  0
LINE
  5
B2
330
2
100
AcDbEntity
  8
0
 62
     3
100
AcDbLine
 10
45.76491526069998
 20
163.4999694825
 30
0.0
 11
46.46491220899997
 21
163.4999694825
 31
0.0
  0
LINE
  5
B3
330
2
100
AcDbEntity
  8
0
 62
     3
100
AcDbLine
 10
45.76491526069998
 20
162.9999694825
 30
0.0
 11
45.76491526069998
 21
163.4999694825
 31
0.0
  0
LINE
  5
B4
330
2
100
AcDbEntity
  8
0
 62
     3
100
AcDbLine
 10
47.31487253609997
 20
163.0001525879
 30
0.0
 11
47.8648603291
 21
163.0001525879
 31
0.0
  0
LINE
  5
B5
330
2
100
AcDbEntity
  8
0
 62
     3
100
AcDbLine
 10
47.46486643259996
 20
173.2001190185998
 30
0.0
 11
45.3648603291
 21
173.2001190185998
 31
0.0
  0
ARC
  5
B6
330
2
100
AcDbEntity
  8
0
 62
     3
100
AcDbCircle
 10
48.46486643259996
 20
168.5
 30
0.0
 40
0.099999964237
100
AcDbArc
 50
89.99992737239997
 51
179.9998547448
  0
ARC
  5
B7
330
2
100
AcDbEntity
  8
0
 62
     3
100
AcDbCircle
 10
48.46486643259996
 20
168.5
 30
0.0
 40
0.099999964237
100
AcDbArc
 50
180.0000906136999
 51
270.0000726275999
  0
LINE
  5
B8
330
2
100
AcDbEntity
  8
0
 62
     3
100
AcDbLine
 10
50.73999566709995
 20
160.0500140700999
 30
0.0
 11
52.56605954279999
 21
161.8439099064
 31
0.0
  0
LINE
  5
B9
330
2
100
AcDbEntity
  8
0
 62
     3
100
AcDbLine
 10
55.7150045299
 20
159.5501678466999
 30
0.0
 11
56.01497934759999
 21
159.8501431448999
 31
0.0
  0
LINE
  5
BA
330
2
100
AcDbEntity
  8
0
 62
     3
100
AcDbLine
 10
51.48101023139997
 20
171.5000915527999
 30
0.0
 11
52.55023935739998
 21
171.5000915527999
 31
0.0
  0
LINE
  5
BB
330
2
100
AcDbEntity
  8
0
 62
     3
100
AcDbLine
 10
51.48101023139997
 20
165.5001068116
 30
0.0
 11
52.55023935739998
 21
165.5001068116
 31
0.0
  0
ARC
  5
BC
330
2
100
AcDbEntity
  8
0
 62
     3
100
AcDbCircle
 10
44.06487253609998
 20
168.5
 30
0.0
 40
7.2999992371
100
AcDbArc
 50
339.9728300892998
 51
20.02713234470002
  0
LINE
  5
BD
330
2
100
AcDbEntity
  8
0
 62
     3
100
AcDbLine
 10
51.46488169139999
 20
165.4604034423998
 30
0.0
 11
51.46488169139999
 21
171.5398712159
 31
0.0
  0
LINE
  5
BE
330
2
100
AcDbEntity
  8
0
  6
DASH
 62
     3
100
AcDbLine
 10
49.06485727729998
 20
164.8000030518
 30
0.0
 11
49.06485727729998
 21
172.1999969482999
 31
0.0
  0
LINE
  5
BF
330
2
100
AcDbEntity
  8
0
 62
     3
100
AcDbLine
 10
50.76485422559997
 20
167.7999267577999
 30
0.0
 11
50.76485422559997
 21
169.1999969482999
 31
0.0
  0
LINE
  5
C0
330
2
100
AcDbEntity
  8
0
 62
     3
100
AcDbLine
 10
49.9148633808
 20
167.1000061035999
 30
0.0
 11
49.9148633808
 21
169.9000091552998
 31
0.0
  0
LINE
  5
C1
330
2
100
AcDbEntity
  8
0
 62
     3
100
AcDbLine
 10
50.4148633808
 20
167.1000061035999
 30
0.0
 11
50.4148633808
 21
169.9000091552998
 31
0.0
  0
LINE
  5
C2
330
2
100
AcDbEntity
  8
0
 62
     3
100
AcDbLine
 10
50.41495493359996
 20
167.7999267577999
 30
0.0
 11
50.76483896679996
 21
167.7999267577999
 31
0.0
  0
LINE
  5
C3
330
2
100
AcDbEntity
  8
0
 62
     3
100
AcDbLine
 10
50.06485727729998
 20
165.9998779297
 30
0.0
 11
50.92339304389998
 21
165.9998779297
 31
0.0
  0
LINE
  5
C4
330
2
100
AcDbEntity
  8
0
 62
     3
100
AcDbLine
 10
50.76485422559997
 20
167.8000030517999
 30
0.0
 11
50.4148633808
 21
167.8000030517999
 31
0.0
  0
LINE
  5
C5
330
2
100
AcDbEntity
  8
0
 62
     3
100
AcDbLine
 10
50.06485727729998
 20
166.0
 30
0.0
 11
50.92343882029997
 21
166.0
 31
0.0
  0
LINE
  5
C6
330
2
100
AcDbEntity
  8
0
 62
     3
100
AcDbLine
 10
49.56497165889999
 20
164.7999683166999
 30
0.0
 11
49.06489536489999
 21
164.8000875258999
 31
0.0
  0
LINE
  5
C7
330
2
100
AcDbEntity
  8
0
 62
     3
100
AcDbLine
 10
50.06491585679999
 20
165.9997953144999
 30
0.0
 11
49.56494710039999
 21
164.7999278344
 31
0.0
  0
LINE
  5
C8
330
2
100
AcDbEntity
  8
0
 62
     3
100
AcDbLine
 10
50.4148633808
 20
167.1000061035999
 30
0.0
 11
49.9148633808
 21
167.1000061035999
 31
0.0
  0
LINE
  5
C9
330
2
100
AcDbEntity
  8
0
  6
DASH
 62
     3
100
AcDbLine
 10
50.06485727729998
 20
166.0
 30
0.0
 11
50.06485727729998
 21
167.1000061035999
 31
0.0
  0
LINE
  5
CA
330
2
100
AcDbEntity
  8
0
 62
     3
100
AcDbLine
 10
50.064885999
 20
165.9999314396999
 30
0.0
 11
49.56488531119997
 21
164.7999286268
 31
0.0
  0
LINE
  5
CB
330
2
100
AcDbEntity
  8
0
 62
     3
100
AcDbLine
 10
50.41495493359996
 20
169.1999359130998
 30
0.0
 11
50.76483896679996
 21
169.1999359130998
 31
0.0
  0
LINE
  5
CC
330
2
100
AcDbEntity
  8
0
 62
     3
100
AcDbLine
 10
50.06485727729998
 20
170.9998626708999
 30
0.0
 11
50.92348459670001
 21
170.9998626708999
 31
0.0
  0
LINE
  5
CD
330
2
100
AcDbEntity
  8
0
 62
     3
100
AcDbLine
 10
50.76485422559997
 20
169.1999969482999
 30
0.0
 11
50.4148633808
 21
169.1999969482999
 31
0.0
  0
LINE
  5
CE
330
2
100
AcDbEntity
  8
0
 62
     3
100
AcDbLine
 10
50.06485727729998
 20
171.0
 30
0.0
 11
50.92343882029997
 21
171.0
 31
0.0
  0
ARC
  5
CF
330
2
100
AcDbEntity
  8
0
 62
     3
100
AcDbCircle
 10
49.6648633808
 20
168.5
 30
0.0
 40
0.099999964237
100
AcDbArc
 50
270.0000726275999
 51
89.99987273089994
  0
LINE
  5
D0
330
2
100
AcDbEntity
  8
0
 62
     3
100
AcDbLine
 10
49.56495312909999
 20
172.1999385170999
 30
0.0
 11
50.06494222559999
 21
170.9999637091999
 31
0.0
  0
LINE
  5
D1
330
2
100
AcDbEntity
  8
0
 62
     3
100
AcDbLine
 10
49.06485727729998
 20
172.1999359130998
 30
0.0
 11
49.56485727729996
 21
172.1999359130998
 31
0.0
  0
LINE
  5
D2
330
2
100
AcDbEntity
  8
0
 62
     3
100
AcDbLine
 10
50.06491058329999
 20
171.0000078562998
 30
0.0
 11
49.56493870559999
 21
172.1999402540999
 31
0.0
  0
LINE
  5
D3
330
2
100
AcDbEntity
  8
0
  6
DASH
 62
     3
100
AcDbLine
 10
50.06485727729998
 20
169.8999938964998
 30
0.0
 11
50.06485727729998
 21
171.0
 31
0.0
  0
LINE
  5
D4
330
2
100
AcDbEntity
  8
0
 62
     3
100
AcDbLine
 10
50.4148633808
 20
169.9000091552998
 30
0.0
 11
49.9148633808
 21
169.9000091552998
 31
0.0
  0
LINE
  5
D5
330
2
100
AcDbEntity
  8
0
 62
     3
100
AcDbLine
 10
55.71499959759997
 20
177.4500305175999
 30
0.0
 11
45.01306460529996
 21
177.4500305175999
 31
0.0
  0
ARC
  5
D6
330
2
100
AcDbEntity
  8
0
 62
     3
100
AcDbCircle
 10
44.06487253609998
 20
168.5001220703
 30
0.0
 40
6.6999959946
100
AcDbArc
 50
72.6320130679
 51
107.3679509599999
  0
LINE
  5
D7
330
2
100
AcDbEntity
  8
0
 62
     3
100
AcDbLine
 10
41.81487253609997
 20
174.7000885009998
 30
0.0
 11
41.86487558789997
 21
174.7000885009998
 31
0.0
  0
LINE
  5
D8
330
2
100
AcDbEntity
  8
0
 62
     3
100
AcDbLine
 10
41.86492022189996
 20
174.7000837803
 30
0.0
 11
41.96492109439997
 21
174.2000829429999
 31
0.0
  0
LINE
  5
D9
330
2
100
AcDbEntity
  8
0
 62
     3
100
AcDbLine
 10
42.06487253609997
 20
174.2000885009999
 30
0.0
 11
41.81487253609997
 21
174.2000885009999
 31
0.0
  0
LINE
  5
DA
330
2
100
AcDbEntity
  8
0
 62
     3
100
AcDbLine
 10
42.06488779489998
 20
174.8945159911999
 30
0.0
 11
42.06488779489998
 21
174.1999816895
 31
0.0
  0
LINE
  5
DB
330
2
100
AcDbEntity
  8
0
 62
     3
100
AcDbLine
 10
42.06487253609997
 20
174.1999359130999
 30
0.0
 11
42.06487253609997
 21
174.8946380616
 31
0.0
  0
LINE
  5
DC
330
2
100
AcDbEntity
  8
0
 62
     3
100
AcDbLine
 10
47.56485727729995
 20
174.2001190185998
 30
0.0
 11
46.06485727729998
 21
174.2001190185998
 31
0.0
  0
LINE
  5
DD
330
2
100
AcDbEntity
  8
0
 62
     3
100
AcDbLine
 10
46.06485727729998
 20
174.1999359130999
 30
0.0
 11
46.06485727729998
 21
174.8946380616
 31
0.0
  0
LINE
  5
DE
330
2
100
AcDbEntity
  8
0
 62
     3
100
AcDbLine
 10
47.06497934759997
 20
175.9162445069
 30
0.0
 11
47.06497934759997
 21
176.9853973388999
 31
0.0
  0
LINE
  5
DF
330
2
100
AcDbEntity
  8
0
 62
     3
100
AcDbLine
 10
52.56605008789998
 20
175.1560697706
 30
0.0
 11
50.73996820469996
 21
176.9500127920999
 31
0.0
  0
LINE
  5
E0
330
2
100
AcDbEntity
  8
0
 62
     3
100
AcDbLine
 10
55.71499959759997
 20
177.4500305175999
 30
0.0
 11
56.01497934759999
 21
177.1500510709999
 31
0.0
  0
LINE
  5
E1
330
2
100
AcDbEntity
  8
0
 62
     3
100
AcDbLine
 10
78.6172670258
 20
177.4499389649
 30
0.0
 11
67.91545777289996
 21
177.4499389649
 31
0.0
  0
LINE
  5
E2
330
2
100
AcDbEntity
  8
0
 62
     3
100
AcDbLine
 10
78.61712297179995
 20
159.5500762939998
 30
0.0
 11
67.91515325969999
 21
159.5500762939998
 31
0.0
  0
LINE
  5
E3
330
2
100
AcDbEntity
  8
0
 62
     3
100
AcDbLine
 10
70.5660322041
 20
177.4499389649
 30
0.0
 11
70.5660322041
 21
159.5500762939998
 31
0.0
  0
LINE
  5
E4
330
2
100
AcDbEntity
  8
0
 62
     3
100
AcDbLine
 10
67.61522348829998
 20
177.1497049080998
 30
0.0
 11
67.61522348829998
 21
159.8500057872998
 31
0.0
  0
LINE
  5
E5
330
2
100
AcDbEntity
  8
0
 62
     3
100
AcDbLine
 10
67.91515325969999
 20
159.5500762939998
 30
0.0
 11
67.61522348829998
 21
159.8500057872998
 31
0.0
  0
LINE
  5
E6
330
2
100
AcDbEntity
  8
0
 62
     3
100
AcDbLine
 10
67.91545777289996
 20
177.4499389649
 30
0.0
 11
67.61522348829998
 21
177.1497049080998
 31
0.0
  0
ARC
  5
E7
330
2
100
AcDbEntity
  8
0
 62
     3
100
AcDbCircle
 10
75.85687998239999
 20
173.5001220702999
 30
0.0
 40
6.608330726599997
100
AcDbArc
 50
347.769026574
 51
12.23099050149996
  0
ARC
  5
E8
330
2
100
AcDbEntity
  8
0
 62
     3
100
AcDbCircle
 10
89.27353647649997
 20
173.5001220702999
 30
0.0
 40
6.608330726599997
100
AcDbArc
 50
167.7689530357999
 51
192.2309203783
  0
LINE
  5
E9
330
2
100
AcDbEntity
  8
0
 62
     3
100
AcDbLine
 10
82.81522348829998
 20
172.1001129150999
 30
0.0
 11
82.81522348829998
 21
174.9001159667998
 31
0.0
  0
LINE
  5
EA
330
2
100
AcDbEntity
  8
0
 62
     3
100
AcDbLine
 10
82.31522348829996
 20
172.1001129150999
 30
0.0
 11
82.31522348829996
 21
174.9001159667998
 31
0.0
  0
LINE
  5
EB
330
2
100
AcDbEntity
  8
0
 62
     3
100
AcDbLine
 10
80.86523145569998
 20
173.2663243906
 30
0.0
 11
81.5653740836
 21
174.1998479640999
 31
0.0
  0
ARC
  5
EC
330
2
100
AcDbEntity
  8
0
 62
     3
100
AcDbCircle
 10
70.35687998239999
 20
173.5001220702999
 30
0.0
 40
6.608330726599997
100
AcDbArc
 50
347.769026574
 51
12.23099050149996
  0
ARC
  5
ED
330
2
100
AcDbEntity
  8
0
 62
     3
100
AcDbCircle
 10
83.77353647649998
 20
173.5001220702999
 30
0.0
 40
6.608330726599997
100
AcDbArc
 50
167.7689530357999
 51
192.2309203783
  0
LINE
  5
EE
330
2
100
AcDbEntity
  8
0
 62
     3
100
AcDbLine
 10
77.5653139883
 20
174.1999270156999
 30
0.0
 11
78.26528960209998
 21
173.2666262206
 31
0.0
  0
LINE
  5
EF
330
2
100
AcDbEntity
  8
0
 62
     3
100
AcDbLine
 10
77.31522348829995
 20
172.1001129150999
 30
0.0
 11
77.31522348829995
 21
174.9001159667998
 31
0.0
  0
LINE
  5
F0
330
2
100
AcDbEntity
  8
0
 62
     3
100
AcDbLine
 10
76.81522348829997
 20
172.1001129150999
 30
0.0
 11
76.81522348829997
 21
174.9001159667998
 31
0.0
  0
LINE
  5
F1
330
2
100
AcDbEntity
  8
0
 62
     3
100
AcDbLine
 10
83.06528970539998
 20
174.1999240294999
 30
0.0
 11
84.56525314389997
 21
172.1999728277999
 31
0.0
  0
LINE
  5
F2
330
2
100
AcDbEntity
  8
0
  6
CENTER
 62
     3
100
AcDbLine
 10
79.56520822949997
 20
157.2499999999999
 30
0.0
 11
79.56520822949997
 21
179.75
 31
0.0
  0
LINE
  5
F3
330
2
100
AcDbEntity
  8
0
 62
     3
100
AcDbLine
 10
74.56538415679998
 20
172.1998507893998
 30
0.0
 11
76.0653840674
 21
174.1998508191999
 31
0.0
  0
LINE
  5
F4
330
2
100
AcDbEntity
  8
0
 62
     3
100
AcDbLine
 10
77.86519630589999
 20
163.0001063183
 30
0.0
 11
78.26519891389998
 21
163.6001104237
 31
0.0
  0
ARC
  5
F5
330
2
100
AcDbEntity
  8
0
 62
     3
100
AcDbCircle
 10
79.56520822949997
 20
168.5001373291
 30
0.0
 40
6.6999959946
100
AcDbArc
 50
255.3432516499
 51
284.6984757969
  0
ARC
  5
F6
330
2
100
AcDbEntity
  8
0
 62
     3
100
AcDbCircle
 10
70.3571088642
 20
163.5002288819
 30
0.0
 40
6.6081047058
100
AcDbArc
 50
347.7685894419
 51
12.23099050149996
  0
ARC
  5
F7
330
2
100
AcDbEntity
  8
0
 62
     3
100
AcDbCircle
 10
83.77330759469998
 20
163.5002288819
 30
0.0
 40
6.6081047058
100
AcDbArc
 50
167.7689530357999
 51
192.2313575105
  0
LINE
  5
F8
330
2
100
AcDbEntity
  8
0
 62
     3
100
AcDbLine
 10
77.31522348829995
 20
164.9001617431999
 30
0.0
 11
77.31522348829995
 21
162.1002349854
 31
0.0
  0
LINE
  5
F9
330
2
100
AcDbEntity
  8
0
 62
     3
100
AcDbLine
 10
76.81522348829997
 20
164.9001617431999
 30
0.0
 11
76.81522348829997
 21
162.1002349854
 31
0.0
  0
LINE
  5
FA
330
2
100
AcDbEntity
  8
0
 62
     3
100
AcDbLine
 10
77.86524179879998
 20
162.9998474121
 30
0.0
 11
77.86524179879998
 21
162.0190124512
 31
0.0
  0
LINE
  5
FB
330
2
100
AcDbEntity
  8
0
 62
     3
100
AcDbLine
 10
71.06604941259995
 20
161.8439290891999
 30
0.0
 11
72.89223769959997
 21
160.0500075313
 31
0.0
  0
LINE
  5
FC
330
2
100
AcDbEntity
  8
0
 62
     3
100
AcDbLine
 10
76.56522348829998
 20
160.0147247315
 30
0.0
 11
76.56522348829998
 21
161.0836486816999
 31
0.0
  0
LINE
  5
FD
330
2
100
AcDbEntity
  8
0
 62
     3
100
AcDbLine
 10
76.81522348829997
 20
162.1002349854
 30
0.0
 11
77.31522348829995
 21
162.1002349854
 31
0.0
  0
ARC
  5
FE
330
2
100
AcDbEntity
  8
0
 62
     3
100
AcDbCircle
 10
74.56520822949997
 20
169.1000061035999
 30
0.0
 40
0.099999964237
100
AcDbArc
 50
0.0
 51
179.9998547448
  0
LINE
  5
FF
330
2
100
AcDbEntity
  8
0
 62
     3
100
AcDbLine
 10
75.36521128119997
 20
172.2000122070999
 30
0.0
 11
74.06520822949997
 21
172.2000122070999
 31
0.0
  0
ARC
  5
100
330
2
100
AcDbEntity
  8
0
 62
     3
100
AcDbCircle
 10
74.56520822949997
 20
167.9000091552999
 30
0.0
 40
0.099999964237
100
AcDbArc
 50
180.0000906136999
 51
0.0
  0
LINE
  5
101
330
2
100
AcDbEntity
  8
0
 62
     3
100
AcDbLine
 10
75.36521128119997
 20
164.8000183106
 30
0.0
 11
74.06520822949997
 21
164.8000183106
 31
0.0
  0
ARC
  5
102
330
2
100
AcDbEntity
  8
0
 62
     3
100
AcDbCircle
 10
79.56520822949997
 20
168.5000152588
 30
0.0
 40
7.2999992371
100
AcDbArc
 50
159.9727565511
 51
200.0271168631
  0
LINE
  5
103
330
2
100
AcDbEntity
  8
0
 62
     3
100
AcDbLine
 10
72.16519907419997
 20
165.4602966308999
 30
0.0
 11
72.16519907419997
 21
171.5397644043
 31
0.0
  0
LINE
  5
104
330
2
100
AcDbEntity
  8
0
 62
     3
100
AcDbLine
 10
72.8651960224
 20
169.1999511719
 30
0.0
 11
72.8651960224
 21
167.7999420166
 31
0.0
  0
LINE
  5
105
330
2
100
AcDbEntity
  8
0
 62
     3
100
AcDbLine
 10
74.4652173847
 20
168.4000091552999
 30
0.0
 11
74.4652173847
 21
167.9000091552999
 31
0.0
  0
LINE
  5
106
330
2
100
AcDbEntity
  8
0
 62
     3
100
AcDbLine
 10
72.86522653999998
 20
169.2000122071
 30
0.0
 11
72.86522653999998
 21
167.8000183105999
 31
0.0
  0
LINE
  5
107
330
2
100
AcDbEntity
  8
0
 62
     3
100
AcDbLine
 10
73.7152173847
 20
169.9000091552998
 30
0.0
 11
73.7152173847
 21
167.1000213622999
 31
0.0
  0
LINE
  5
108
330
2
100
AcDbEntity
  8
0
 62
     3
100
AcDbLine
 10
73.2152173847
 20
169.9000091552998
 30
0.0
 11
73.2152173847
 21
167.1000213622999
 31
0.0
  0
LINE
  5
109
330
2
100
AcDbEntity
  8
0
 62
     3
100
AcDbLine
 10
72.70664194529999
 20
166.0000152588
 30
0.0
 11
73.56522348829995
 21
166.0000152588
 31
0.0
  0
LINE
  5
10A
330
2
100
AcDbEntity
  8
0
 62
     3
100
AcDbLine
 10
71.07991770209998
 20
165.5000152588
 30
0.0
 11
72.14893320509998
 21
165.5000152588
 31
0.0
  0
LINE
  5
10B
330
2
100
AcDbEntity
  8
0
 62
     3
100
AcDbLine
 10
72.86518076369998
 20
167.7999420166
 30
0.0
 11
73.21523264349996
 21
167.7999420166
 31
0.0
  0
LINE
  5
10C
330
2
100
AcDbEntity
  8
0
 62
     3
100
AcDbLine
 10
73.2152173847
 20
167.8000183105999
 30
0.0
 11
72.86522653999998
 21
167.8000183105999
 31
0.0
  0
LINE
  5
10D
330
2
100
AcDbEntity
  8
0
 62
     3
100
AcDbLine
 10
73.7152173847
 20
167.1000213622999
 30
0.0
 11
73.2152173847
 21
167.1000213622999
 31
0.0
  0
LINE
  5
10E
330
2
100
AcDbEntity
  8
0
  6
DASH
 62
     3
100
AcDbLine
 10
73.56522348829995
 20
167.1000213622999
 30
0.0
 11
73.56522348829995
 21
166.0000152588
 31
0.0
  0
LINE
  5
10F
330
2
100
AcDbEntity
  8
0
 62
     3
100
AcDbLine
 10
74.06523071619997
 20
164.8000047974
 30
0.0
 11
73.56523575099998
 21
165.9999936903
 31
0.0
  0
LINE
  5
110
330
2
100
AcDbEntity
  8
0
 62
     3
100
AcDbLine
 10
72.70664194529999
 20
171.0000152587999
 30
0.0
 11
73.56522348829995
 21
171.0000152587999
 31
0.0
  0
LINE
  5
111
330
2
100
AcDbEntity
  8
0
 62
     3
100
AcDbLine
 10
71.07991770209998
 20
171.5
 30
0.0
 11
72.14893320509998
 21
171.5
 31
0.0
  0
ARC
  5
112
330
2
100
AcDbEntity
  8
0
 62
     3
100
AcDbCircle
 10
73.96521738469998
 20
168.5000152588
 30
0.0
 40
0.099999964237
100
AcDbArc
 50
90.00003665540001
 51
270.0000006831999
  0
LINE
  5
113
330
2
100
AcDbEntity
  8
0
 62
     3
100
AcDbLine
 10
72.86518076369998
 20
169.1999511719
 30
0.0
 11
73.21523264349996
 21
169.1999511719
 31
0.0
  0
LINE
  5
114
330
2
100
AcDbEntity
  8
0
 62
     3
100
AcDbLine
 10
74.4652173847
 20
169.1000061035999
 30
0.0
 11
74.4652173847
 21
168.6000061035999
 31
0.0
  0
LINE
  5
115
330
2
100
AcDbEntity
  8
0
 62
     3
100
AcDbLine
 10
74.4652173847
 20
168.6000213623
 30
0.0
 11
73.96521738469998
 21
168.6000213623
 31
0.0
  0
LINE
  5
116
330
2
100
AcDbEntity
  8
0
 62
     3
100
AcDbLine
 10
74.4652173847
 20
168.4000091552999
 30
0.0
 11
73.96521738469998
 21
168.4000091552999
 31
0.0
  0
LINE
  5
117
330
2
100
AcDbEntity
  8
0
 62
     3
100
AcDbLine
 10
73.2152173847
 20
169.2000122071
 30
0.0
 11
72.86522653999998
 21
169.2000122071
 31
0.0
  0
LINE
  5
118
330
2
100
AcDbEntity
  8
0
 62
     3
100
AcDbLine
 10
74.06522003729998
 20
172.1999512086
 30
0.0
 11
73.56522182769999
 21
170.9999554281999
 31
0.0
  0
LINE
  5
119
330
2
100
AcDbEntity
  8
0
  6
DASH
 62
     3
100
AcDbLine
 10
73.56522348829995
 20
171.0
 30
0.0
 11
73.56522348829995
 21
169.9000091552998
 31
0.0
  0
LINE
  5
11A
330
2
100
AcDbEntity
  8
0
 62
     3
100
AcDbLine
 10
73.7152173847
 20
169.9000244140999
 30
0.0
 11
73.2152173847
 21
169.9000244140999
 31
0.0
  0
ARC
  5
11B
330
2
100
AcDbEntity
  8
0
 62
     3
100
AcDbCircle
 10
70.35687998239999
 20
168.5001373291
 30
0.0
 40
6.608330726599997
100
AcDbArc
 50
347.769026574
 51
12.23099050149996
  0
ARC
  5
11C
330
2
100
AcDbEntity
  8
0
 62
     3
100
AcDbCircle
 10
83.77353647649998
 20
168.5001373291
 30
0.0
 40
6.608330726599997
100
AcDbArc
 50
167.7689530357999
 51
192.2309203783
  0
LINE
  5
11D
330
2
100
AcDbEntity
  8
0
 62
     3
100
AcDbLine
 10
77.31522348829995
 20
167.1001281738998
 30
0.0
 11
77.31522348829995
 21
169.9001159668
 31
0.0
  0
LINE
  5
11E
330
2
100
AcDbEntity
  8
0
 62
     3
100
AcDbLine
 10
76.81522348829997
 20
167.1001281738998
 30
0.0
 11
76.81522348829997
 21
169.9001159668
 31
0.0
  0
LINE
  5
11F
330
2
100
AcDbEntity
  8
0
 62
     3
100
AcDbLine
 10
75.36521128119997
 20
173.2663574218999
 30
0.0
 11
75.36521128119997
 21
163.6001586914
 31
0.0
  0
LINE
  5
120
330
2
100
AcDbEntity
  8
0
 62
     3
100
AcDbLine
 10
74.66521433299998
 20
168.4000091552999
 30
0.0
 11
74.66521433299998
 21
167.9000091552999
 31
0.0
  0
LINE
  5
121
330
2
100
AcDbEntity
  8
0
  6
DASH
 62
     3
100
AcDbLine
 10
74.56520822949997
 20
172.1999969482999
 30
0.0
 11
74.56520822949997
 21
164.8000183106
 31
0.0
  0
LINE
  5
122
330
2
100
AcDbEntity
  8
0
 62
     3
100
AcDbLine
 10
76.26522043649998
 20
162.5001831054999
 30
0.0
 11
76.81522348829997
 21
162.5001831054999
 31
0.0
  0
LINE
  5
123
330
2
100
AcDbEntity
  8
0
 62
     3
100
AcDbLine
 10
75.76522043649998
 20
163.0001831054999
 30
0.0
 11
76.81522348829997
 21
163.0001831054999
 31
0.0
  0
LINE
  5
124
330
2
100
AcDbEntity
  8
0
 62
     3
100
AcDbLine
 10
76.16524033069999
 20
163.0001347018999
 30
0.0
 11
76.26524383109999
 21
162.5001188109
 31
0.0
  0
LINE
  5
125
330
2
100
AcDbEntity
  8
0
 62
     3
100
AcDbLine
 10
74.56528976779998
 20
164.7998881488998
 30
0.0
 11
75.76523568159998
 21
162.9999812693
 31
0.0
  0
LINE
  5
126
330
2
100
AcDbEntity
  8
0
 62
     3
100
AcDbLine
 10
77.31522348829995
 20
162.5001831054999
 30
0.0
 11
77.36522653999998
 21
162.5001831054999
 31
0.0
  0
LINE
  5
127
330
2
100
AcDbEntity
  8
0
 62
     3
100
AcDbLine
 10
77.31522348829995
 20
163.0001831054999
 30
0.0
 11
77.86521128119997
 21
163.0001831054999
 31
0.0
  0
LINE
  5
128
330
2
100
AcDbEntity
  8
0
 62
     3
100
AcDbLine
 10
76.81522348829997
 20
167.1001281738998
 30
0.0
 11
77.31522348829995
 21
167.1001281738998
 31
0.0
  0
LINE
  5
129
330
2
100
AcDbEntity
  8
0
 62
     3
100
AcDbLine
 10
76.81522348829997
 20
164.9001617431999
 30
0.0
 11
77.31522348829995
 21
164.9001617431999
 31
0.0
  0
LINE
  5
12A
330
2
100
AcDbEntity
  8
0
 62
     3
100
AcDbLine
 10
77.36524376839998
 20
162.5001862748
 30
0.0
 11
77.46524726869998
 21
163.0002021658
 31
0.0
  0
ARC
  5
12B
330
2
100
AcDbEntity
  8
0
 62
     3
100
AcDbCircle
 10
75.16521433299998
 20
168.5000152588
 30
0.0
 40
0.099999964237
100
AcDbArc
 50
270.0000726275999
 51
89.9999273723999
  0
LINE
  5
12C
330
2
100
AcDbEntity
  8
0
 62
     3
100
AcDbLine
 10
75.16521433299998
 20
168.4000091552999
 30
0.0
 11
74.66521433299998
 21
168.4000091552999
 31
0.0
  0
LINE
  5
12D
330
2
100
AcDbEntity
  8
0
 62
     3
100
AcDbLine
 10
75.16521433299998
 20
168.6000213623
 30
0.0
 11
74.66521433299998
 21
168.6000213623
 31
0.0
  0
LINE
  5
12E
330
2
100
AcDbEntity
  8
0
 62
     3
100
AcDbLine
 10
74.66521433299998
 20
169.1000061035999
 30
0.0
 11
74.66521433299998
 21
168.6000061035999
 31
0.0
  0
LINE
  5
12F
330
2
100
AcDbEntity
  8
0
 62
     3
100
AcDbLine
 10
76.81522348829997
 20
172.1001129150999
 30
0.0
 11
77.31522348829995
 21
172.1001129150999
 31
0.0
  0
LINE
  5
130
330
2
100
AcDbEntity
  8
0
 62
     3
100
AcDbLine
 10
76.81522348829997
 20
169.9001159668
 30
0.0
 11
77.31522348829995
 21
169.9001159668
 31
0.0
  0
ARC
  5
131
330
2
100
AcDbEntity
  8
0
 62
     3
100
AcDbCircle
 10
75.8571088642
 20
163.5002288819
 30
0.0
 40
6.6081047058
100
AcDbArc
 50
347.7685894419
 51
12.23099050149996
  0
ARC
  5
132
330
2
100
AcDbEntity
  8
0
 62
     3
100
AcDbCircle
 10
89.27330759469999
 20
163.5002288819
 30
0.0
 40
6.6081047058
100
AcDbArc
 50
167.7689530357999
 51
192.2313575105
  0
LINE
  5
133
330
2
100
AcDbEntity
  8
0
 62
     3
100
AcDbLine
 10
82.81522348829998
 20
164.9001617431999
 30
0.0
 11
82.81522348829998
 21
162.1002349854
 31
0.0
  0
LINE
  5
134
330
2
100
AcDbEntity
  8
0
 62
     3
100
AcDbLine
 10
82.31522348829996
 20
164.9001617431999
 30
0.0
 11
82.31522348829996
 21
162.1002349854
 31
0.0
  0
LINE
  5
135
330
2
100
AcDbEntity
  8
0
 62
     3
100
AcDbLine
 10
81.2652509541
 20
162.9998474121
 30
0.0
 11
81.2652509541
 21
162.0190124512
 31
0.0
  0
LINE
  5
136
330
2
100
AcDbEntity
  8
0
 62
     3
100
AcDbLine
 10
82.56520822949999
 20
160.0147247315
 30
0.0
 11
82.56520822949999
 21
161.0836486816999
 31
0.0
  0
LINE
  5
137
330
2
100
AcDbEntity
  8
0
 62
     3
100
AcDbLine
 10
82.31522348829996
 20
162.1002349854
 30
0.0
 11
82.81522348829998
 21
162.1002349854
 31
0.0
  0
LINE
  5
138
330
2
100
AcDbEntity
  8
0
 62
     3
100
AcDbLine
 10
81.76522043649999
 20
162.5001831054999
 30
0.0
 11
82.31522348829996
 21
162.5001831054999
 31
0.0
  0
LINE
  5
139
330
2
100
AcDbEntity
  8
0
 62
     3
100
AcDbLine
 10
81.26522043649998
 20
163.0001831054999
 30
0.0
 11
82.31522348829996
 21
163.0001831054999
 31
0.0
  0
LINE
  5
13A
330
2
100
AcDbEntity
  8
0
 62
     3
100
AcDbLine
 10
78.26522043649998
 20
173.2667846679999
 30
0.0
 11
78.26522043649998
 21
163.6001281738998
 31
0.0
  0
LINE
  5
13B
330
2
100
AcDbEntity
  8
0
 62
     3
100
AcDbLine
 10
80.86521128119997
 20
173.2663574218999
 30
0.0
 11
80.86521128119997
 21
163.6001586914
 31
0.0
  0
LINE
  5
13C
330
2
100
AcDbEntity
  8
0
 62
     3
100
AcDbLine
 10
81.66523626349997
 20
163.0001321243998
 30
0.0
 11
81.7652397638
 21
162.5001162334
 31
0.0
  0
LINE
  5
13D
330
2
100
AcDbEntity
  8
0
 62
     3
100
AcDbLine
 10
81.2652180321
 20
163.0001353444999
 30
0.0
 11
80.8652152091
 21
163.6001393209999
 31
0.0
  0
ARC
  5
13E
330
2
100
AcDbEntity
  8
0
 62
     3
100
AcDbCircle
 10
75.85687998239999
 20
168.5001373291
 30
0.0
 40
6.608330726599997
100
AcDbArc
 50
347.769026574
 51
12.23099050149996
  0
ARC
  5
13F
330
2
100
AcDbEntity
  8
0
 62
     3
100
AcDbCircle
 10
89.27353647649997
 20
168.5001373291
 30
0.0
 40
6.608330726599997
100
AcDbArc
 50
167.7689530357999
 51
192.2309203783
  0
LINE
  5
140
330
2
100
AcDbEntity
  8
0
 62
     3
100
AcDbLine
 10
82.81522348829998
 20
167.1001281738998
 30
0.0
 11
82.81522348829998
 21
169.9001159668
 31
0.0
  0
LINE
  5
141
330
2
100
AcDbEntity
  8
0
 62
     3
100
AcDbLine
 10
82.31522348829996
 20
167.1001281738998
 30
0.0
 11
82.31522348829996
 21
169.9001159668
 31
0.0
  0
LINE
  5
142
330
2
100
AcDbEntity
  8
0
  6
DASH
 62
     3
100
AcDbLine
 10
84.5651929707
 20
164.8000183106
 30
0.0
 11
84.5651929707
 21
172.2000122070999
 31
0.0
  0
LINE
  5
143
330
2
100
AcDbEntity
  8
0
 62
     3
100
AcDbLine
 10
83.7651899189
 20
163.6001129150999
 30
0.0
 11
83.7651899189
 21
173.2667541504
 31
0.0
  0
LINE
  5
144
330
2
100
AcDbEntity
  8
0
 62
     3
100
AcDbLine
 10
85.41519907419997
 20
167.1000213622999
 30
0.0
 11
85.41519907419997
 21
169.9000244140999
 31
0.0
  0
LINE
  5
145
330
2
100
AcDbEntity
  8
0
 62
     3
100
AcDbLine
 10
83.36518842830001
 20
163.000091531
 30
0.0
 11
84.56519625239998
 21
164.8001038472999
 31
0.0
  0
LINE
  5
146
330
2
100
AcDbEntity
  8
0
 62
     3
100
AcDbLine
 10
82.81522348829998
 20
162.5001831054999
 30
0.0
 11
82.86522653999998
 21
162.5001831054999
 31
0.0
  0
LINE
  5
147
330
2
100
AcDbEntity
  8
0
 62
     3
100
AcDbLine
 10
82.31522348829996
 20
167.1001281738998
 30
0.0
 11
82.81522348829998
 21
167.1001281738998
 31
0.0
  0
LINE
  5
148
330
2
100
AcDbEntity
  8
0
 62
     3
100
AcDbLine
 10
82.31522348829996
 20
164.9001617431999
 30
0.0
 11
82.81522348829998
 21
164.9001617431999
 31
0.0
  0
LINE
  5
149
330
2
100
AcDbEntity
  8
0
 62
     3
100
AcDbLine
 10
82.86523970109994
 20
162.5001888523
 30
0.0
 11
82.96524320139999
 21
163.0002047433
 31
0.0
  0
LINE
  5
14A
330
2
100
AcDbEntity
  8
0
 62
     3
100
AcDbLine
 10
82.81520822949998
 20
163.0001831054999
 30
0.0
 11
83.36521128119997
 21
163.0001831054999
 31
0.0
  0
LINE
  5
14B
330
2
100
AcDbEntity
  8
0
  6
DASH
 62
     3
100
AcDbLine
 10
85.5651929707
 20
166.0000152588
 30
0.0
 11
85.5651929707
 21
167.1000213622999
 31
0.0
  0
LINE
  5
14C
330
2
100
AcDbEntity
  8
0
 62
     3
100
AcDbLine
 10
85.06519297069997
 20
164.8000183106
 30
0.0
 11
83.7651899189
 21
164.8000183106
 31
0.0
  0
LINE
  5
14D
330
2
100
AcDbEntity
  8
0
 62
     3
100
AcDbLine
 10
85.56524904009997
 20
165.9998385634
 30
0.0
 11
85.0652743919
 21
164.7999569433999
 31
0.0
  0
LINE
  5
14E
330
2
100
AcDbEntity
  8
0
 62
     3
100
AcDbLine
 10
85.56521782259997
 20
165.9999574182999
 30
0.0
 11
85.0652170661
 21
164.7999544404
 31
0.0
  0
LINE
  5
14F
330
2
100
AcDbEntity
  8
0
 62
     3
100
AcDbLine
 10
82.31522348829996
 20
172.1001129150999
 30
0.0
 11
82.81522348829998
 21
172.1001129150999
 31
0.0
  0
LINE
  5
150
330
2
100
AcDbEntity
  8
0
 62
     3
100
AcDbLine
 10
82.31522348829996
 20
169.9001159668
 30
0.0
 11
82.81522348829998
 21
169.9001159668
 31
0.0
  0
LINE
  5
151
330
2
100
AcDbEntity
  8
0
  6
DASH
 62
     3
100
AcDbLine
 10
85.5651929707
 20
169.9000091552998
 30
0.0
 11
85.5651929707
 21
171.0
 31
0.0
  0
ARC
  5
152
330
2
100
AcDbEntity
  8
0
 62
     3
100
AcDbCircle
 10
83.96520212599998
 20
168.5000152588
 30
0.0
 40
0.099999964237
100
AcDbArc
 50
89.99992737239997
 51
179.9998547448
  0
ARC
  5
153
330
2
100
AcDbEntity
  8
0
 62
     3
100
AcDbCircle
 10
83.96520212599998
 20
168.5000152588
 30
0.0
 40
0.099999964237
100
AcDbArc
 50
180.0000906136999
 51
270.0000726275999
  0
ARC
  5
154
330
2
100
AcDbEntity
  8
0
 62
     3
100
AcDbCircle
 10
85.16519907419997
 20
168.5000152588
 30
0.0
 40
0.099999964237
100
AcDbArc
 50
270.0000726275999
 51
89.99987273089994
  0
LINE
  5
155
330
2
100
AcDbEntity
  8
0
 62
     3
100
AcDbLine
 10
85.16519907419997
 20
168.4000091552999
 30
0.0
 11
83.96520212599998
 21
168.4000091552999
 31
0.0
  0
LINE
  5
156
330
2
100
AcDbEntity
  8
0
 62
     3
100
AcDbLine
 10
85.16519907419997
 20
168.6000213623
 30
0.0
 11
83.96520212599998
 21
168.6000213623
 31
0.0
  0
LINE
  5
157
330
2
100
AcDbEntity
  8
0
 62
     3
100
AcDbLine
 10
85.06519297069997
 20
172.2000122070999
 30
0.0
 11
83.7651899189
 21
172.2000122070999
 31
0.0
  0
LINE
  5
158
330
2
100
AcDbEntity
  8
0
 62
     3
100
AcDbLine
 10
85.06525413259998
 20
172.1999510155999
 30
0.0
 11
85.56524322909998
 21
170.9999762077998
 31
0.0
  0
LINE
  5
159
330
2
100
AcDbEntity
  8
0
 62
     3
100
AcDbLine
 10
85.56521762969998
 20
171.000018466
 30
0.0
 11
85.06525162089998
 21
172.1999367787
 31
0.0
  0
ARC
  5
15A
330
2
100
AcDbEntity
  8
0
 62
     3
100
AcDbCircle
 10
79.56520822949997
 20
168.5001373291
 30
0.0
 40
6.6999959946
100
AcDbArc
 50
72.6320130679
 51
107.3679509599999
  0
LINE
  5
15B
330
2
100
AcDbEntity
  8
0
 62
     3
100
AcDbLine
 10
72.89224875739998
 20
176.9499963797999
 30
0.0
 11
71.06605334789998
 21
175.1560383300999
 31
0.0
  0
LINE
  5
15C
330
2
100
AcDbEntity
  8
0
 62
     3
100
AcDbLine
 10
76.81522348829997
 20
174.2001190185998
 30
0.0
 11
76.06522348829995
 21
174.2001190185998
 31
0.0
  0
LINE
  5
15D
330
2
100
AcDbEntity
  8
0
 62
     3
100
AcDbLine
 10
76.26522043649998
 20
174.7001190185998
 30
0.0
 11
76.81522348829997
 21
174.7001190185998
 31
0.0
  0
LINE
  5
15E
330
2
100
AcDbEntity
  8
0
 62
     3
100
AcDbLine
 10
76.16522965269999
 20
174.2000853000999
 30
0.0
 11
76.26522753279997
 21
174.7000711749
 31
0.0
  0
LINE
  5
15F
330
2
100
AcDbEntity
  8
0
 62
     3
100
AcDbLine
 10
76.56522348829998
 20
175.9161529541
 30
0.0
 11
76.56522348829998
 21
176.9853057861999
 31
0.0
  0
LINE
  5
160
330
2
100
AcDbEntity
  8
0
 62
     3
100
AcDbLine
 10
77.31522348829995
 20
174.7001190185998
 30
0.0
 11
77.36522653999998
 21
174.7001190185998
 31
0.0
  0
LINE
  5
161
330
2
100
AcDbEntity
  8
0
 62
     3
100
AcDbLine
 10
76.81522348829997
 20
174.9001159667998
 30
0.0
 11
77.31522348829995
 21
174.9001159667998
 31
0.0
  0
LINE
  5
162
330
2
100
AcDbEntity
  8
0
 62
     3
100
AcDbLine
 10
77.36524254219998
 20
174.7000964052999
 30
0.0
 11
77.4652434148
 21
174.200095568
 31
0.0
  0
LINE
  5
163
330
2
100
AcDbEntity
  8
0
 62
     3
100
AcDbLine
 10
77.56522348829998
 20
174.2001190185998
 30
0.0
 11
77.31522348829995
 21
174.2001190185998
 31
0.0
  0
LINE
  5
164
330
2
100
AcDbEntity
  8
0
 62
     3
100
AcDbLine
 10
77.56520822949998
 20
174.1999511718999
 30
0.0
 11
77.56520822949998
 21
174.8944091797
 31
0.0
  0
LINE
  5
165
330
2
100
AcDbEntity
  8
0
 62
     3
100
AcDbLine
 10
82.31522348829996
 20
174.2001190185998
 30
0.0
 11
81.56522348829998
 21
174.2001190185998
 31
0.0
  0
LINE
  5
166
330
2
100
AcDbEntity
  8
0
 62
     3
100
AcDbLine
 10
81.76522043649999
 20
174.7001190185998
 30
0.0
 11
82.31522348829996
 21
174.7001190185998
 31
0.0
  0
LINE
  5
167
330
2
100
AcDbEntity
  8
0
 62
     3
100
AcDbLine
 10
81.66522539259998
 20
174.2000838272
 30
0.0
 11
81.76522626519997
 21
174.7000846645
 31
0.0
  0
LINE
  5
168
330
2
100
AcDbEntity
  8
0
 62
     3
100
AcDbLine
 10
81.5651929707
 20
174.1999511718999
 30
0.0
 11
81.5651929707
 21
174.8944091797
 31
0.0
  0
LINE
  5
169
330
2
100
AcDbEntity
  8
0
 62
     3
100
AcDbLine
 10
82.56520822949999
 20
175.9161529541
 30
0.0
 11
82.56520822949999
 21
176.9853057861999
 31
0.0
  0
LINE
  5
16A
330
2
100
AcDbEntity
  8
0
 62
     3
100
AcDbLine
 10
82.81522348829998
 20
174.7001190185998
 30
0.0
 11
82.86522653999998
 21
174.7001190185998
 31
0.0
  0
LINE
  5
16B
330
2
100
AcDbEntity
  8
0
 62
     3
100
AcDbLine
 10
82.31522348829996
 20
174.9001159667998
 30
0.0
 11
82.81522348829998
 21
174.9001159667998
 31
0.0
  0
LINE
  5
16C
330
2
100
AcDbEntity
  8
0
 62
     3
100
AcDbLine
 10
82.86522331959998
 20
174.7000948856999
 30
0.0
 11
82.9652241922
 21
174.2000940484
 31
0.0
  0
LINE
  5
16D
330
2
100
AcDbEntity
  8
0
 62
     3
100
AcDbLine
 10
83.06522348829998
 20
174.2001190185998
 30
0.0
 11
82.81522348829998
 21
174.2001190185998
 31
0.0
  0
LINE
  5
16E
330
2
100
AcDbEntity
  8
0
 62
     3
100
AcDbLine
 10
108.5654065936999
 20
219.3499603271999
 30
0.0
 11
116.5654065936999
 21
219.3499603271999
 31
0.0
  0
LINE
  5
16F
330
2
100
AcDbEntity
  8
0
 62
     3
100
AcDbLine
 10
111.8654554218999
 20
219.8499603271999
 30
0.0
 11
116.5654065936999
 21
219.8499603271999
 31
0.0
  0
LINE
  5
170
330
2
100
AcDbEntity
  8
0
  6
DASH
 62
     3
100
AcDbLine
 10
109.0654065936999
 20
219.4499359131
 30
0.0
 11
116.5654065936999
 21
219.4499359131
 31
0.0
  0
LINE
  5
171
330
2
100
AcDbEntity
  8
0
 62
     3
100
AcDbLine
 10
115.5624311298999
 20
215.7500915528
 30
0.0
 11
109.0654676288999
 21
215.7500915528
 31
0.0
  0
LINE
  5
172
330
2
100
AcDbEntity
  8
0
 62
     3
100
AcDbLine
 10
109.0654523700999
 20
216.2499542236997
 30
0.0
 11
115.5624311298999
 21
216.2499542236997
 31
0.0
  0
LINE
  5
173
330
2
100
AcDbEntity
  8
0
 62
     3
100
AcDbLine
 10
116.5654065936999
 20
207.6499938965
 30
0.0
 11
108.5654676288998
 21
207.6499938965
 31
0.0
  0
LINE
  5
174
330
2
100
AcDbEntity
  8
0
 62
     3
100
AcDbLine
 10
116.5654065936999
 20
207.1499938965
 30
0.0
 11
111.8654554218999
 21
207.1499938965
 31
0.0
  0
LINE
  5
175
330
2
100
AcDbEntity
  8
0
  6
DASH
 62
     3
100
AcDbLine
 10
116.5654065936999
 20
207.5500183106
 30
0.0
 11
109.0654676288999
 21
207.5500183106
 31
0.0
  0
LINE
  5
176
330
2
100
AcDbEntity
  8
0
 62
     3
100
AcDbLine
 10
115.5624311298999
 20
210.2500915527999
 30
0.0
 11
109.0654676288999
 21
210.2500915527999
 31
0.0
  0
LINE
  5
177
330
2
100
AcDbEntity
  8
0
 62
     3
100
AcDbLine
 10
109.0654523700999
 20
210.7499694824999
 30
0.0
 11
115.5624311298999
 21
210.7499694824999
 31
0.0
  0
LINE
  5
178
330
2
100
AcDbEntity
  8
0
 62
     3
100
AcDbLine
 10
116.2654035419999
 20
174.8999328613999
 30
0.0
 11
109.0683362811999
 21
174.8999328613999
 31
0.0
  0
LINE
  5
179
330
2
100
AcDbEntity
  8
0
 62
     3
100
AcDbLine
 10
115.5654371112999
 20
172.0999298095999
 30
0.0
 11
109.0683362811999
 21
172.0999298095999
 31
0.0
  0
LINE
  5
17A
330
2
100
AcDbEntity
  8
0
  6
DASH
 62
     3
100
AcDbLine
 10
109.0650861591999
 20
169.7997436524
 30
0.0
 11
116.5653913348997
 21
169.7997436524
 31
0.0
  0
LINE
  5
17B
330
2
100
AcDbEntity
  8
0
 62
     3
100
AcDbLine
 10
109.0650861591999
 20
169.8997192382998
 30
0.0
 11
116.5653913348997
 21
169.8997192382998
 31
0.0
  0
LINE
  5
17C
330
2
100
AcDbEntity
  8
0
 62
     3
100
AcDbLine
 10
112.2114484637999
 20
168.5999145508
 30
0.0
 11
116.5653913348997
 21
168.5999145508
 31
0.0
  0
LINE
  5
17D
330
2
100
AcDbEntity
  8
0
 62
     3
100
AcDbLine
 10
112.2114484637999
 20
168.3998413085999
 30
0.0
 11
116.5653913348997
 21
168.3998413085999
 31
0.0
  0
LINE
  5
17E
330
2
100
AcDbEntity
  8
0
 62
     3
100
AcDbLine
 10
116.2683332294999
 20
169.8999328613998
 30
0.0
 11
109.0683362811999
 21
169.8999328613998
 31
0.0
  0
LINE
  5
17F
330
2
100
AcDbEntity
  8
0
 62
     3
100
AcDbLine
 10
115.5654523700996
 20
164.8999481202
 30
0.0
 11
109.0683362811999
 21
164.8999481202
 31
0.0
  0
LINE
  5
180
330
2
100
AcDbEntity
  8
0
 62
     3
100
AcDbLine
 10
116.2654035419999
 20
162.0999450683999
 30
0.0
 11
109.0683362811999
 21
162.0999450683999
 31
0.0
  0
LINE
  5
181
330
2
100
AcDbEntity
  8
0
 62
     3
100
AcDbLine
 10
116.5653913348997
 20
167.1000366211
 30
0.0
 11
109.0650861591999
 21
167.1000366211
 31
0.0
  0
LINE
  5
182
330
2
100
AcDbEntity
  8
0
  6
DASH
 62
     3
100
AcDbLine
 10
116.5653913348997
 20
167.1998901367999
 30
0.0
 11
109.0650861591999
 21
167.1998901367999
 31
0.0
  0
LINE
  5
183
330
2
100
AcDbEntity
  8
0
 62
     3
100
AcDbLine
 10
91.51520822949995
 20
177.1499464863
 30
0.0
 11
91.51520822949995
 21
159.8500368270999
 31
0.0
  0
LINE
  5
184
330
2
100
AcDbEntity
  8
0
 62
     3
100
AcDbLine
 10
88.56603220409999
 20
177.4499389649
 30
0.0
 11
88.56603220409999
 21
159.5500762939998
 31
0.0
  0
LINE
  5
185
330
2
100
AcDbEntity
  8
0
 62
     3
100
AcDbLine
 10
86.2399497492
 20
160.0500088114
 30
0.0
 11
88.06600273979997
 21
161.8438939544
 31
0.0
  0
LINE
  5
186
330
2
100
AcDbEntity
  8
0
 62
     3
100
AcDbLine
 10
91.21524817679995
 20
159.5500762939998
 30
0.0
 11
91.51520822949995
 21
159.8500368270999
 31
0.0
  0
ARC
  5
187
330
2
100
AcDbEntity
  8
0
 62
     3
100
AcDbCircle
 10
79.56520822949997
 20
168.5000152588
 30
0.0
 40
7.2999992371
100
AcDbArc
 50
339.9728300892998
 51
20.02713234470002
  0
LINE
  5
188
330
2
100
AcDbEntity
  8
0
 62
     3
100
AcDbLine
 10
86.9651105732
 20
165.4602966308999
 30
0.0
 11
86.9651105732
 21
171.5397644043
 31
0.0
  0
LINE
  5
189
330
2
100
AcDbEntity
  8
0
 62
     3
100
AcDbLine
 10
86.2651899189
 20
167.7999420166
 30
0.0
 11
86.2651899189
 21
169.2000122071
 31
0.0
  0
LINE
  5
18A
330
2
100
AcDbEntity
  8
0
 62
     3
100
AcDbLine
 10
85.91519907419998
 20
167.1000213622999
 30
0.0
 11
85.91519907419998
 21
169.9000244140999
 31
0.0
  0
LINE
  5
18B
330
2
100
AcDbEntity
  8
0
 62
     3
100
AcDbLine
 10
86.98123911329998
 20
165.5000152588
 30
0.0
 11
88.05046823919999
 21
165.5000152588
 31
0.0
  0
LINE
  5
18C
330
2
100
AcDbEntity
  8
0
 62
     3
100
AcDbLine
 10
85.91529062689998
 20
167.7999420166
 30
0.0
 11
86.26517466009998
 21
167.7999420166
 31
0.0
  0
LINE
  5
18D
330
2
100
AcDbEntity
  8
0
 62
     3
100
AcDbLine
 10
86.2651899189
 20
167.8000183105999
 30
0.0
 11
85.91519907419998
 21
167.8000183105999
 31
0.0
  0
LINE
  5
18E
330
2
100
AcDbEntity
  8
0
 62
     3
100
AcDbLine
 10
86.98123911329998
 20
171.5
 30
0.0
 11
88.05046823919999
 21
171.5
 31
0.0
  0
LINE
  5
18F
330
2
100
AcDbEntity
  8
0
 62
     3
100
AcDbLine
 10
85.91529062689998
 20
169.1999511719
 30
0.0
 11
86.26517466009998
 21
169.1999511719
 31
0.0
  0
LINE
  5
190
330
2
100
AcDbEntity
  8
0
 62
     3
100
AcDbLine
 10
86.2651899189
 20
169.2000122071
 30
0.0
 11
85.91519907419998
 21
169.2000122071
 31
0.0
  0
LINE
  5
191
330
2
100
AcDbEntity
  8
0
 62
     3
100
AcDbLine
 10
88.06601421079998
 20
175.1560756728
 30
0.0
 11
86.2399432125
 21
176.9500080008999
 31
0.0
  0
LINE
  5
192
330
2
100
AcDbEntity
  8
0
 62
     3
100
AcDbLine
 10
91.21521544739998
 20
177.4499389649
 30
0.0
 11
91.51520822949995
 21
177.1499464863
 31
0.0
  0
ARC
  5
193
330
2
100
AcDbEntity
  8
0
 62
     3
100
AcDbCircle
 10
111.5683362811999
 20
173.4999847411999
 30
0.0
 40
0.599998951
100
AcDbArc
 50
270.0000726275999
 51
89.99998201389994
  0
ARC
  5
194
330
2
100
AcDbEntity
  8
0
 62
     3
100
AcDbCircle
 10
110.1683423846999
 20
173.4999847411999
 30
0.0
 40
0.599998951
100
AcDbArc
 50
89.99998201389999
 51
269.9998914002
  0
ARC
  5
195
330
2
100
AcDbEntity
  8
0
 62
     3
100
AcDbCircle
 10
110.7654035419999
 20
173.4999847411999
 30
0.0
 40
2.199997901899997
100
AcDbArc
 50
140.4787409617
 51
219.5211324524
  0
LINE
  5
196
330
2
100
AcDbEntity
  8
0
 62
     3
100
AcDbLine
 10
109.0683362811999
 20
174.8999328613999
 30
0.0
 11
109.0683362811999
 21
172.0999298095999
 31
0.0
  0
LINE
  5
197
330
2
100
AcDbEntity
  8
0
  6
CENTER
 62
     3
100
AcDbLine
 10
107.5487134784999
 20
173.4999237060998
 30
0.0
 11
113.0168683856999
 21
173.4999237060998
 31
0.0
  0
LINE
  5
198
330
2
100
AcDbEntity
  8
0
  6
CENTER
 62
     3
100
AcDbLine
 10
107.6667249530999
 20
163.4999389649
 30
0.0
 11
113.0168683856999
 21
163.4999389649
 31
0.0
  0
ARC
  5
199
330
2
100
AcDbEntity
  8
0
 62
     3
100
AcDbCircle
 10
110.7654035419999
 20
163.4999999999999
 30
0.0
 40
2.199997901899997
100
AcDbArc
 50
140.4787956031999
 51
219.5211870939
  0
LINE
  5
19A
330
2
100
AcDbEntity
  8
0
 62
     3
100
AcDbLine
 10
109.0683362811999
 20
164.8999481202
 30
0.0
 11
109.0683362811999
 21
162.0999450683999
 31
0.0
  0
LINE
  5
19B
330
2
100
AcDbEntity
  8
0
 62
     3
100
AcDbLine
 10
110.1683271259999
 20
172.8999328613999
 30
0.0
 11
111.5683362811999
 21
172.8999328613999
 31
0.0
  0
LINE
  5
19C
330
2
100
AcDbEntity
  8
0
 62
     3
100
AcDbLine
 10
110.1650617450999
 20
169.0997924804999
 30
0.0
 11
111.5649640887999
 21
169.0997924804999
 31
0.0
  0
LINE
  5
19D
330
2
100
AcDbEntity
  8
0
 62
     3
100
AcDbLine
 10
111.4648625313999
 20
169.2851985206999
 30
0.0
 11
109.4648555801999
 21
169.7137717174999
 31
0.0
  0
LINE
  5
19E
330
2
100
AcDbEntity
  8
0
 62
     3
100
AcDbLine
 10
110.1683729022999
 20
169.0999298095999
 30
0.0
 11
111.5683362811999
 21
169.0999298095999
 31
0.0
  0
LINE
  5
19F
330
2
100
AcDbEntity
  8
0
 62
     3
100
AcDbLine
 10
109.2650373309999
 20
169.1497192383
 30
0.0
 11
111.8939435809999
 21
169.1497192383
 31
0.0
  0
LINE
  5
1A0
330
2
100
AcDbEntity
  8
0
 62
     3
100
AcDbLine
 10
110.1683729022999
 20
162.8999481201999
 30
0.0
 11
111.5683362811999
 21
162.8999481201999
 31
0.0
  0
LINE
  5
1A1
330
2
100
AcDbEntity
  8
0
 62
     3
100
AcDbLine
 10
110.1683729022999
 20
164.0999450684
 30
0.0
 11
111.5683362811999
 21
164.0999450684
 31
0.0
  0
LINE
  5
1A2
330
2
100
AcDbEntity
  8
0
 62
     3
100
AcDbLine
 10
110.1650617450999
 20
167.8998413086
 30
0.0
 11
111.5649640887999
 21
167.8998413086
 31
0.0
  0
LINE
  5
1A3
330
2
100
AcDbEntity
  8
0
 62
     3
100
AcDbLine
 10
109.4646014326999
 20
167.2858012320999
 30
0.0
 11
111.4644889013999
 21
167.7143494612
 31
0.0
  0
LINE
  5
1A4
330
2
100
AcDbEntity
  8
0
 62
     3
100
AcDbLine
 10
110.1683729022999
 20
167.8999481202
 30
0.0
 11
111.5683362811999
 21
167.8999481202
 31
0.0
  0
LINE
  5
1A5
330
2
100
AcDbEntity
  8
0
 62
     3
100
AcDbLine
 10
109.2650373309999
 20
167.8499145508
 30
0.0
 11
111.8939435809999
 21
167.8499145508
 31
0.0
  0
ARC
  5
1A6
330
2
100
AcDbEntity
  8
0
 62
     3
100
AcDbCircle
 10
110.4650647968999
 20
168.5
 30
0.0
 40
1.899999618499998
100
AcDbArc
 50
137.4630758394
 51
222.5368522162999
  0
ARC
  5
1A7
330
2
100
AcDbEntity
  8
0
 62
     3
100
AcDbCircle
 10
110.1651380389998
 20
168.5
 30
0.0
 40
0.5999994278000002
100
AcDbArc
 50
90.00003665540001
 51
269.9998914002
  0
ARC
  5
1A8
330
2
100
AcDbEntity
  8
0
 62
     3
100
AcDbCircle
 10
109.2651136249999
 20
167.6499023437999
 30
0.0
 40
0.1999999285
100
AcDbArc
 50
90.00003665540001
 51
179.9999640277999
  0
LINE
  5
1A9
330
2
100
AcDbEntity
  8
0
 62
     3
100
AcDbLine
 10
109.0650861591999
 20
167.6498413086
 30
0.0
 11
109.0650861591999
 21
167.1000366211
 31
0.0
  0
ARC
  5
1AA
330
2
100
AcDbEntity
  8
0
 62
     3
100
AcDbCircle
 10
110.1683881610999
 20
163.4999999999999
 30
0.0
 40
0.599998951
100
AcDbArc
 50
89.99998201389999
 51
269.9998914002
  0
LINE
  5
1AB
330
2
100
AcDbEntity
  8
0
 62
     3
100
AcDbLine
 10
109.58397654
 20
168.349899292
 30
0.0
 11
108.5709150165999
 21
168.349899292
 31
0.0
  0
LINE
  5
1AC
330
2
100
AcDbEntity
  8
0
 62
     3
100
AcDbLine
 10
109.5841047099999
 20
168.6495468566999
 30
0.0
 11
108.5709211162999
 21
168.6495447941998
 31
0.0
  0
ARC
  5
1AD
330
2
100
AcDbEntity
  8
0
 62
     3
100
AcDbCircle
 10
109.2651136249999
 20
169.3498535156998
 30
0.0
 40
0.1999999285
100
AcDbArc
 50
179.9999640277999
 51
269.9999460416999
  0
LINE
  5
1AE
330
2
100
AcDbEntity
  8
0
 62
     3
100
AcDbLine
 10
109.0650861591999
 20
169.8997192382998
 30
0.0
 11
109.0650861591999
 21
169.3497924804999
 31
0.0
  0
ARC
  5
1AF
330
2
100
AcDbEntity
  8
0
 62
     3
100
AcDbCircle
 10
111.5650403827999
 20
168.5
 30
0.0
 40
0.5999994278000002
100
AcDbArc
 50
270.0000726275999
 51
89.99998201389994
  0
LINE
  5
1B0
330
2
100
AcDbEntity
  8
0
 62
     3
100
AcDbLine
 10
112.2107440879998
 20
168.3993190292
 30
0.0
 11
111.8931782457996
 21
167.8492786964999
 31
0.0
  0
ARC
  5
1B1
330
2
100
AcDbEntity
  8
0
 62
     3
100
AcDbCircle
 10
111.5683362811999
 20
163.4999999999999
 30
0.0
 40
0.599998951
100
AcDbArc
 50
270.0000726275999
 51
89.99998201389994
  0
LINE
  5
1B2
330
2
100
AcDbEntity
  8
0
 62
     3
100
AcDbLine
 10
111.8930913368999
 20
169.1497098289999
 30
0.0
 11
112.2105962196998
 21
168.5997752501999
 31
0.0
  0
LINE
  5
1B3
330
2
100
AcDbEntity
  8
0
 62
     3
100
AcDbLine
 10
110.1683271259999
 20
174.0999298095999
 30
0.0
 11
111.5683362811999
 21
174.0999298095999
 31
0.0
  0
LINE
  5
1B4
330
2
100
AcDbEntity
  8
0
 62
     3
100
AcDbLine
 10
111.8654571597998
 20
207.1499649207999
 30
0.0
 11
109.0654535513998
 21
207.3999626547998
 31
0.0
  0
LINE
  5
1B5
330
2
100
AcDbEntity
  8
0
 62
     3
100
AcDbLine
 10
109.0654676288999
 20
207.5500183106
 30
0.0
 11
108.5654676288998
 21
207.5500183106
 31
0.0
  0
LINE
  5
1B6
330
2
100
AcDbEntity
  8
0
 62
     3
100
AcDbLine
 10
109.0654676288999
 20
207.6499938965
 30
0.0
 11
109.0654676288999
 21
207.3999938965
 31
0.0
  0
LINE
  5
1B7
330
2
100
AcDbEntity
  8
0
 62
     3
100
AcDbLine
 10
108.5654676288998
 20
207.6499938965
 30
0.0
 11
108.5654676288998
 21
207.3999938965
 31
0.0
  0
LINE
  5
1B8
330
2
100
AcDbEntity
  8
0
 62
     3
100
AcDbLine
 10
109.0654676288999
 20
207.3999938965
 30
0.0
 11
108.5654676288998
 21
207.3999938965
 31
0.0
  0
LINE
  5
1B9
330
2
100
AcDbEntity
  8
0
 62
     3
100
AcDbLine
 10
109.0653617711
 20
219.6002713277998
 30
0.0
 11
111.8653805777999
 21
219.8502704187998
 31
0.0
  0
LINE
  5
1BA
330
2
100
AcDbEntity
  8
0
 62
     3
100
AcDbLine
 10
108.5652322997999
 20
210.6005091372999
 30
0.0
 11
109.0648406798997
 21
210.7503915984999
 31
0.0
  0
LINE
  5
1BB
330
2
100
AcDbEntity
  8
0
 62
     3
100
AcDbLine
 10
108.5654523700999
 20
210.3999938964999
 30
0.0
 11
108.5654523700999
 21
210.6000671386999
 31
0.0
  0
LINE
  5
1BC
330
2
100
AcDbEntity
  8
0
 62
     3
100
AcDbLine
 10
109.0652924137999
 20
210.2502129748998
 30
0.0
 11
108.5653040366999
 21
210.4002094663
 31
0.0
  0
LINE
  5
1BD
330
2
100
AcDbEntity
  8
0
 62
     3
100
AcDbLine
 10
109.0646741718999
 20
210.2499694824998
 30
0.0
 11
109.0646741718999
 21
210.7498474120998
 31
0.0
  0
LINE
  5
1BE
330
2
100
AcDbEntity
  8
0
 62
     3
100
AcDbLine
 10
108.5654065936999
 20
219.4499359131
 30
0.0
 11
109.0654065936999
 21
219.4499359131
 31
0.0
  0
LINE
  5
1BF
330
2
100
AcDbEntity
  8
0
 62
     3
100
AcDbLine
 10
109.0654065936999
 20
219.5999603271999
 30
0.0
 11
109.0654065936999
 21
219.3499603271999
 31
0.0
  0
LINE
  5
1C0
330
2
100
AcDbEntity
  8
0
 62
     3
100
AcDbLine
 10
108.5654065936999
 20
219.5999603271999
 30
0.0
 11
108.5654065936999
 21
219.3499603271999
 31
0.0
  0
LINE
  5
1C1
330
2
100
AcDbEntity
  8
0
 62
     3
100
AcDbLine
 10
108.5654065936999
 20
219.5999603271999
 30
0.0
 11
109.0654065936999
 21
219.5999603271999
 31
0.0
  0
LINE
  5
1C2
330
2
100
AcDbEntity
  8
0
 62
     3
100
AcDbLine
 10
108.5652313720999
 20
216.1005155858999
 30
0.0
 11
109.0648397521998
 21
216.2503980471
 31
0.0
  0
LINE
  5
1C3
330
2
100
AcDbEntity
  8
0
 62
     3
100
AcDbLine
 10
108.5654523700999
 20
215.8999786377
 30
0.0
 11
108.5654523700999
 21
216.1000518798998
 31
0.0
  0
LINE
  5
1C4
330
2
100
AcDbEntity
  8
0
 62
     3
100
AcDbLine
 10
109.0653082707996
 20
215.7502151331
 30
0.0
 11
108.5653198936999
 21
215.9002116244999
 31
0.0
  0
LINE
  5
1C5
330
2
100
AcDbEntity
  8
0
 62
     3
100
AcDbLine
 10
109.0646741718999
 20
215.7499542237
 30
0.0
 11
109.0646741718999
 21
216.2498321533998
 31
0.0
  0
LINE
  5
1C6
330
2
100
AcDbEntity
  8
0
 62
     3
100
AcDbLine
 10
126.9652936786999
 20
176.4998779297
 30
0.0
 11
129.7652356952999
 21
176.4998779297
 31
0.0
  0
LINE
  5
1C7
330
2
100
AcDbEntity
  8
0
 62
     3
100
AcDbLine
 10
126.5653913348999
 20
175.8997802734999
 30
0.0
 11
129.7652356952999
 21
175.8997802734999
 31
0.0
  0
LINE
  5
1C8
330
2
100
AcDbEntity
  8
0
 62
     3
100
AcDbLine
 10
126.9652936786999
 20
172.4998779297
 30
0.0
 11
129.7652356952999
 21
172.4998779297
 31
0.0
  0
LINE
  5
1C9
330
2
100
AcDbEntity
  8
0
 62
     3
100
AcDbLine
 10
129.7652356952999
 20
160.5005035400999
 30
0.0
 11
126.9652936786999
 21
160.5005035400999
 31
0.0
  0
LINE
  5
1CA
330
2
100
AcDbEntity
  8
0
 62
     3
100
AcDbLine
 10
129.7652356952999
 20
164.5004119873
 30
0.0
 11
126.9652936786999
 21
164.5004119873
 31
0.0
  0
LINE
  5
1CB
330
2
100
AcDbEntity
  8
0
 62
     3
100
AcDbLine
 10
129.7652356952999
 20
161.1004791259999
 30
0.0
 11
126.5653913348999
 21
161.1004791259999
 31
0.0
  0
LINE
  5
1CC
330
2
100
AcDbEntity
  8
0
 62
     3
100
AcDbLine
 10
126.9652936786999
 20
172.4998779297
 30
0.0
 11
126.9652936786999
 21
176.4998779297
 31
0.0
  0
LINE
  5
1CD
330
2
100
AcDbEntity
  8
0
 62
     3
100
AcDbLine
 10
126.5653913348999
 20
161.1004791259999
 30
0.0
 11
126.5653913348999
 21
175.8997802734999
 31
0.0
  0
ARC
  5
1CE
330
2
100
AcDbEntity
  8
0
 62
     3
100
AcDbCircle
 10
115.8654554218999
 20
173.8999786377
 30
0.0
 40
0.2999997735
100
AcDbArc
 50
89.99998201389999
 51
180.0000186692996
  0
LINE
  5
1CF
330
2
100
AcDbEntity
  8
0
 62
     3
100
AcDbLine
 10
116.5654065936999
 20
161.1004791259999
 30
0.0
 11
116.5654065936999
 21
175.8997802734999
 31
0.0
  0
LINE
  5
1D0
330
2
100
AcDbEntity
  8
0
 62
     3
100
AcDbLine
 10
116.5654065936999
 20
161.1004791259999
 30
0.0
 11
126.5654065936999
 21
161.1004791259999
 31
0.0
  0
LINE
  5
1D1
330
2
100
AcDbEntity
  8
0
 62
     3
100
AcDbLine
 10
116.2654035419999
 20
162.9999389648999
 30
0.0
 11
116.2654035419999
 21
162.0999450683999
 31
0.0
  0
LINE
  5
1D2
330
2
100
AcDbEntity
  8
0
 62
     3
100
AcDbLine
 10
121.5651437775
 20
166.0501377462999
 30
0.0
 11
116.5651514787999
 21
165.9999669239998
 31
0.0
  0
LINE
  5
1D3
330
2
100
AcDbEntity
  8
0
 62
     3
100
AcDbLine
 10
116.5650015177999
 20
170.9994289169999
 30
0.0
 11
121.5649976909999
 21
170.94962429
 31
0.0
  0
ARC
  5
1D4
330
2
100
AcDbEntity
  8
0
 62
     3
100
AcDbCircle
 10
115.8654554218999
 20
163.8999938965
 30
0.0
 40
0.2999997735
100
AcDbArc
 50
179.9999640277999
 51
269.9999460416999
  0
ARC
  5
1D5
330
2
100
AcDbEntity
  8
0
 62
     3
100
AcDbCircle
 10
115.8654554218999
 20
163.3000030517998
 30
0.0
 40
0.2999997735
100
AcDbArc
 50
179.9999640277999
 51
269.9999460416999
  0
LINE
  5
1D6
330
2
100
AcDbEntity
  8
0
 62
     3
100
AcDbLine
 10
115.8654554218999
 20
162.9999542236999
 30
0.0
 11
116.5654065936999
 21
162.9999542236999
 31
0.0
  0
LINE
  5
1D7
330
2
100
AcDbEntity
  8
0
 62
     3
100
AcDbLine
 10
115.8654554218999
 20
163.5999450683999
 30
0.0
 11
116.5654065936999
 21
163.5999450683999
 31
0.0
  0
LINE
  5
1D8
330
2
100
AcDbEntity
  8
0
 62
     3
100
AcDbLine
 10
115.5654523700996
 20
163.2999420166
 30
0.0
 11
115.5654523700996
 21
167.1000366211
 31
0.0
  0
ARC
  5
1D9
330
2
100
AcDbEntity
  8
0
 62
     3
100
AcDbCircle
 10
115.8654554218999
 20
172.9499816895
 30
0.0
 40
0.2999997735
100
AcDbArc
 50
89.99998201389999
 51
179.9999640277999
  0
LINE
  5
1DA
330
2
100
AcDbEntity
  8
0
 62
     3
100
AcDbLine
 10
115.8654554218999
 20
173.2499237060998
 30
0.0
 11
116.5654065936999
 21
173.2499237060998
 31
0.0
  0
LINE
  5
1DB
330
2
100
AcDbEntity
  8
0
 62
     3
100
AcDbLine
 10
115.5654523700996
 20
169.8997039795
 30
0.0
 11
115.5654523700996
 21
173.8999328613999
 31
0.0
  0
LINE
  5
1DC
330
2
100
AcDbEntity
  8
0
 62
     3
100
AcDbLine
 10
121.5652082294999
 20
170.9497680664
 30
0.0
 11
121.5652082294999
 21
166.050064087
 31
0.0
  0
LINE
  5
1DD
330
2
100
AcDbEntity
  8
0
 62
     3
100
AcDbLine
 10
121.5649640887999
 20
168.0999145508
 30
0.0
 11
121.5649640887999
 21
167.6998901367998
 31
0.0
  0
LINE
  5
1DE
330
2
100
AcDbEntity
  8
0
 62
     3
100
AcDbLine
 10
121.5649640887999
 20
169.2997436523999
 30
0.0
 11
121.5649640887999
 21
168.8997192383
 31
0.0
  0
LINE
  5
1DF
330
2
100
AcDbEntity
  8
0
 62
     3
100
AcDbLine
 10
126.9652936786999
 20
160.5005035400999
 30
0.0
 11
126.9652936786999
 21
164.5004119873
 31
0.0
  0
LINE
  5
1E0
330
2
100
AcDbEntity
  8
0
 62
     3
100
AcDbLine
 10
126.9635361981999
 20
160.4992971794
 30
0.0
 11
126.5635590682999
 21
161.0992632395
 31
0.0
  0
ARC
  5
1E1
330
2
100
AcDbEntity
  8
0
 62
     3
100
AcDbCircle
 10
146.7653272479996
 20
168.4997558594
 30
0.0
 40
20.200012207
100
AcDbArc
 50
168.5787949053
 51
191.4211331503
  0
LINE
  5
1E2
330
2
100
AcDbEntity
  8
0
 62
     3
100
AcDbLine
 10
126.5654065936999
 20
175.8997802734999
 30
0.0
 11
116.5654065936999
 21
175.8997802734999
 31
0.0
  0
LINE
  5
1E3
330
2
100
AcDbEntity
  8
0
 62
     3
100
AcDbLine
 10
116.2654035419999
 20
174.8999328613999
 30
0.0
 11
116.2654035419999
 21
174.1999206543
 31
0.0
  0
LINE
  5
1E4
330
2
100
AcDbEntity
  8
0
 62
     3
100
AcDbLine
 10
116.5653913348997
 20
174.1999359130999
 30
0.0
 11
115.8654401630998
 21
174.1999359130999
 31
0.0
  0
LINE
  5
1E5
330
2
100
AcDbEntity
  8
0
 62
     3
100
AcDbLine
 10
126.5642381493999
 20
175.8992570657999
 30
0.0
 11
126.9642829916999
 21
176.4993246946999
 31
0.0
  0
LINE
  5
1E6
330
2
100
AcDbEntity
  8
0
 62
     3
100
AcDbLine
 10
138.5653760761999
 20
159.5505097832999
 30
0.0
 11
138.5653760761999
 21
177.4495709776998
 31
0.0
  0
LINE
  5
1E7
330
2
100
AcDbEntity
  8
0
 62
     3
100
AcDbLine
 10
137.9653699726
 20
159.7999877929999
 30
0.0
 11
137.9653699726
 21
177.1999969482999
 31
0.0
  0
LINE
  5
1E8
330
2
100
AcDbEntity
  8
0
 62
     3
100
AcDbLine
 10
135.7652051776996
 20
162.4999694825
 30
0.0
 11
135.7652051776996
 21
174.4999542237
 31
0.0
  0
LINE
  5
1E9
330
2
100
AcDbEntity
  8
0
 62
     3
100
AcDbLine
 10
131.7652356952999
 20
173.4594879150999
 30
0.0
 11
131.7652356952999
 21
174.3345031738999
 31
0.0
  0
LINE
  5
1EA
330
2
100
AcDbEntity
  8
0
 62
     3
100
AcDbLine
 10
129.7652509541
 20
176.8791656495
 30
0.0
 11
129.7652509541
 21
171.5
 31
0.0
  0
LINE
  5
1EB
330
2
100
AcDbEntity
  8
0
 62
     3
100
AcDbLine
 10
134.7651441425999
 20
177.3999023438
 30
0.0
 11
134.7651441425999
 21
159.5999298095999
 31
0.0
  0
LINE
  5
1EC
330
2
100
AcDbEntity
  8
0
 62
     3
100
AcDbLine
 10
134.7652051776996
 20
159.5999450683999
 30
0.0
 11
134.7652051776996
 21
177.3999023438
 31
0.0
  0
LINE
  5
1ED
330
2
100
AcDbEntity
  8
0
 62
     3
100
AcDbLine
 10
135.7652051776996
 20
172.4998779297
 30
0.0
 11
137.9653699726
 21
172.4998779297
 31
0.0
  0
LINE
  5
1EE
330
2
100
AcDbEntity
  8
0
 62
     3
100
AcDbLine
 10
137.9653699726
 20
164.5004119873
 30
0.0
 11
135.7652051776996
 21
164.5004119873
 31
0.0
  0
LINE
  5
1EF
330
2
100
AcDbEntity
  8
0
 62
     3
100
AcDbLine
 10
137.9653699726
 20
161.1004791259999
 30
0.0
 11
136.2396009296998
 21
161.1004791259999
 31
0.0
  0
LINE
  5
1F0
330
2
100
AcDbEntity
  8
0
 62
     3
100
AcDbLine
 10
137.6674115985996
 20
160.5005035400999
 30
0.0
 11
136.4429700702999
 21
160.5005035400999
 31
0.0
  0
LINE
  5
1F1
330
2
100
AcDbEntity
  8
0
 62
     3
100
AcDbLine
 10
135.7652154418999
 20
162.4999582459
 30
0.0
 11
136.6563766218999
 21
159.8709841535999
 31
0.0
  0
LINE
  5
1F2
330
2
100
AcDbEntity
  8
0
 62
     3
100
AcDbLine
 10
129.7652509541
 20
165.5000152588
 30
0.0
 11
129.7652509541
 21
160.1208953858
 31
0.0
  0
LINE
  5
1F3
330
2
100
AcDbEntity
  8
0
 62
     3
100
AcDbLine
 10
134.7652204364998
 20
160.0867919922
 30
0.0
 11
131.7652356952999
 21
160.0867919922
 31
0.0
  0
LINE
  5
1F4
330
2
100
AcDbEntity
  8
0
 62
     3
100
AcDbLine
 10
134.7652204364998
 20
160.5099182129
 30
0.0
 11
131.7652356952999
 21
160.5099182129
 31
0.0
  0
LINE
  5
1F5
330
2
100
AcDbEntity
  8
0
 62
     3
100
AcDbLine
 10
134.7652204364998
 20
161.1099090576999
 30
0.0
 11
131.7652356952999
 21
161.1099090576999
 31
0.0
  0
LINE
  5
1F6
330
2
100
AcDbEntity
  8
0
 62
     3
100
AcDbLine
 10
134.7652204364998
 20
161.7967987061
 30
0.0
 11
131.7652356952999
 21
161.7967987061
 31
0.0
  0
LINE
  5
1F7
330
2
100
AcDbEntity
  8
0
 62
     3
100
AcDbLine
 10
134.7652051776996
 20
159.6000061035999
 30
0.0
 11
130.9652326434999
 21
159.6000061035999
 31
0.0
  0
LINE
  5
1F8
330
2
100
AcDbEntity
  8
0
 62
     3
100
AcDbLine
 10
130.9652139715
 20
159.6000108730999
 30
0.0
 11
130.9652292303
 21
160.1209001552999
 31
0.0
  0
LINE
  5
1F9
330
2
100
AcDbEntity
  8
0
 62
     3
100
AcDbLine
 10
129.7652509541
 20
160.1208953858
 30
0.0
 11
130.9652479023
 21
160.1208953858
 31
0.0
  0
LINE
  5
1FA
330
2
100
AcDbEntity
  8
0
 62
     3
100
AcDbLine
 10
131.7651594012999
 20
160.5098266601999
 30
0.0
 11
131.7651594012999
 21
160.0867156982999
 31
0.0
  0
LINE
  5
1FB
330
2
100
AcDbEntity
  8
0
 62
     3
100
AcDbLine
 10
131.7652356952999
 20
161.1099090576999
 30
0.0
 11
131.7652356952999
 21
161.7967987061
 31
0.0
  0
LINE
  5
1FC
330
2
100
AcDbEntity
  8
0
 62
     3
100
AcDbLine
 10
134.7652234040999
 20
162.3350540397
 30
0.0
 11
135.7093089439
 21
159.549950199
 31
0.0
  0
LINE
  5
1FD
330
2
100
AcDbEntity
  8
0
 62
     3
100
AcDbLine
 10
134.7652051776996
 20
159.5499877929999
 30
0.0
 11
135.7092969745999
 21
159.5499877929999
 31
0.0
  0
LINE
  5
1FE
330
2
100
AcDbEntity
  8
0
 62
     3
100
AcDbLine
 10
135.7093001006999
 20
159.5499588797
 30
0.0
 11
136.6563545791999
 21
159.8709841807
 31
0.0
  0
LINE
  5
1FF
330
2
100
AcDbEntity
  8
0
 62
     3
100
AcDbLine
 10
131.7652356952999
 20
173.4594879150999
 30
0.0
 11
134.7652204364998
 21
173.4594879150999
 31
0.0
  0
LINE
  5
200
330
2
100
AcDbEntity
  8
0
 62
     3
100
AcDbLine
 10
131.7652356952999
 20
172.4202728272
 30
0.0
 11
134.7652204364998
 21
172.4202728272
 31
0.0
  0
LINE
  5
201
330
2
100
AcDbEntity
  8
0
 62
     3
100
AcDbLine
 10
131.7652356952999
 20
171.3778228759998
 30
0.0
 11
134.7652204364998
 21
171.3778228759998
 31
0.0
  0
LINE
  5
202
330
2
100
AcDbEntity
  8
0
 62
     3
100
AcDbLine
 10
131.7652356952999
 20
169.1000061035999
 30
0.0
 11
134.7652204364998
 21
169.1000061035999
 31
0.0
  0
LINE
  5
203
330
2
100
AcDbEntity
  8
0
 62
     3
100
AcDbLine
 10
131.7652356952999
 20
170.1924591065
 30
0.0
 11
134.7652204364998
 21
170.1924591065
 31
0.0
  0
LINE
  5
204
330
2
100
AcDbEntity
  8
0
 62
     3
100
AcDbLine
 10
134.7652204364998
 20
162.6654968262
 30
0.0
 11
131.7652356952999
 21
162.6654968262
 31
0.0
  0
LINE
  5
205
330
2
100
AcDbEntity
  8
0
 62
     3
100
AcDbLine
 10
134.7652204364998
 20
163.5405120849999
 30
0.0
 11
131.7652356952999
 21
163.5405120849999
 31
0.0
  0
LINE
  5
206
330
2
100
AcDbEntity
  8
0
 62
     3
100
AcDbLine
 10
134.7652204364998
 20
164.5797271728999
 30
0.0
 11
131.7652356952999
 21
164.5797271728999
 31
0.0
  0
LINE
  5
207
330
2
100
AcDbEntity
  8
0
 62
     3
100
AcDbLine
 10
134.7652204364998
 20
165.6221771241
 30
0.0
 11
131.7652356952999
 21
165.6221771241
 31
0.0
  0
LINE
  5
208
330
2
100
AcDbEntity
  8
0
 62
     3
100
AcDbLine
 10
134.7652204364998
 20
167.8999938965
 30
0.0
 11
131.7652356952999
 21
167.8999938965
 31
0.0
  0
LINE
  5
209
330
2
100
AcDbEntity
  8
0
 62
     3
100
AcDbLine
 10
134.7652204364998
 20
166.8075408935998
 30
0.0
 11
131.7652356952999
 21
166.8075408935998
 31
0.0
  0
LINE
  5
20A
330
2
100
AcDbEntity
  8
0
 62
     3
100
AcDbLine
 10
130.9652479023
 20
171.5
 30
0.0
 11
130.9652479023
 21
165.5000152588
 31
0.0
  0
LINE
  5
20B
330
2
100
AcDbEntity
  8
0
 62
     3
100
AcDbLine
 10
130.9652479023
 20
165.5000152588
 30
0.0
 11
129.7652509541
 21
165.5000152588
 31
0.0
  0
LINE
  5
20C
330
2
100
AcDbEntity
  8
0
 62
     3
100
AcDbLine
 10
131.7652356952999
 20
162.6654968262
 30
0.0
 11
131.7652356952999
 21
163.5405120849999
 31
0.0
  0
LINE
  5
20D
330
2
100
AcDbEntity
  8
0
 62
     3
100
AcDbLine
 10
131.7652356952999
 20
165.6221771241
 30
0.0
 11
131.7652356952999
 21
164.5797271728999
 31
0.0
  0
LINE
  5
20E
330
2
100
AcDbEntity
  8
0
 62
     3
100
AcDbLine
 10
131.7652356952999
 20
167.8999938965
 30
0.0
 11
131.7652356952999
 21
166.8075408935998
 31
0.0
  0
LINE
  5
20F
330
2
100
AcDbEntity
  8
0
 62
     3
100
AcDbLine
 10
129.7652509541
 20
171.5
 30
0.0
 11
130.9652479023
 21
171.5
 31
0.0
  0
LINE
  5
210
330
2
100
AcDbEntity
  8
0
 62
     3
100
AcDbLine
 10
131.7652356952999
 20
172.4202728272
 30
0.0
 11
131.7652356952999
 21
171.3778228759998
 31
0.0
  0
LINE
  5
211
330
2
100
AcDbEntity
  8
0
 62
     3
100
AcDbLine
 10
131.7652356952999
 20
170.1924591065
 30
0.0
 11
131.7652356952999
 21
169.1000061035999
 31
0.0
  0
LINE
  5
212
330
2
100
AcDbEntity
  8
0
 62
     3
100
AcDbLine
 10
137.9671115724999
 20
161.0998286382
 30
0.0
 11
137.6671251478999
 21
160.4998710620999
 31
0.0
  0
LINE
  5
213
330
2
100
AcDbEntity
  8
0
 62
     3
100
AcDbLine
 10
137.9653699726
 20
159.7999877929999
 30
0.0
 11
138.5653760761999
 21
159.7999877929999
 31
0.0
  0
LINE
  5
214
330
2
100
AcDbEntity
  8
0
 62
     3
100
AcDbLine
 10
136.443137917
 20
176.4998779297
 30
0.0
 11
137.6660993427999
 21
176.4998779297
 31
0.0
  0
LINE
  5
215
330
2
100
AcDbEntity
  8
0
 62
     3
100
AcDbLine
 10
136.2397077412
 20
175.8997802734999
 30
0.0
 11
137.9653699726
 21
175.8997802734999
 31
0.0
  0
LINE
  5
216
330
2
100
AcDbEntity
  8
0
 62
     3
100
AcDbLine
 10
131.7652356952999
 20
176.9132080077999
 30
0.0
 11
134.7652204364998
 21
176.9132080077999
 31
0.0
  0
LINE
  5
217
330
2
100
AcDbEntity
  8
0
 62
     3
100
AcDbLine
 10
131.7652356952999
 20
176.4900817870999
 30
0.0
 11
134.7652204364998
 21
176.4900817870999
 31
0.0
  0
LINE
  5
218
330
2
100
AcDbEntity
  8
0
 62
     3
100
AcDbLine
 10
131.7652356952999
 20
175.8900909423998
 30
0.0
 11
134.7652204364998
 21
175.8900909423998
 31
0.0
  0
LINE
  5
219
330
2
100
AcDbEntity
  8
0
 62
     3
100
AcDbLine
 10
131.7652356952999
 20
175.2032012939999
 30
0.0
 11
134.7652204364998
 21
175.2032012939999
 31
0.0
  0
LINE
  5
21A
330
2
100
AcDbEntity
  8
0
 62
     3
100
AcDbLine
 10
131.7652356952999
 20
174.3345031738999
 30
0.0
 11
134.7652204364998
 21
174.3345031738999
 31
0.0
  0
LINE
  5
21B
330
2
100
AcDbEntity
  8
0
 62
     3
100
AcDbLine
 10
130.9652479023
 20
177.3999938964998
 30
0.0
 11
134.7652204364998
 21
177.3999938964998
 31
0.0
  0
LINE
  5
21C
330
2
100
AcDbEntity
  8
0
 62
     3
100
AcDbLine
 10
130.9652479023
 20
177.3999938964998
 30
0.0
 11
130.9652479023
 21
176.8791656495
 31
0.0
  0
LINE
  5
21D
330
2
100
AcDbEntity
  8
0
 62
     3
100
AcDbLine
 10
130.9652479023
 20
176.8791656495
 30
0.0
 11
129.7652509541
 21
176.8791656495
 31
0.0
  0
LINE
  5
21E
330
2
100
AcDbEntity
  8
0
 62
     3
100
AcDbLine
 10
131.7652967304
 20
176.9132537841999
 30
0.0
 11
131.7652967304
 21
176.4901428223
 31
0.0
  0
LINE
  5
21F
330
2
100
AcDbEntity
  8
0
 62
     3
100
AcDbLine
 10
131.7652356952999
 20
175.2032012939999
 30
0.0
 11
131.7652356952999
 21
175.8900909423998
 31
0.0
  0
LINE
  5
220
330
2
100
AcDbEntity
  8
0
 62
     3
100
AcDbLine
 10
134.7652124325996
 20
174.6648249628
 30
0.0
 11
135.7093170503
 21
177.4499707546
 31
0.0
  0
LINE
  5
221
330
2
100
AcDbEntity
  8
0
 62
     3
100
AcDbLine
 10
134.7652051776996
 20
177.4499969482999
 30
0.0
 11
135.7093122333999
 21
177.4499969482999
 31
0.0
  0
LINE
  5
222
330
2
100
AcDbEntity
  8
0
 62
     3
100
AcDbLine
 10
135.7652093826
 20
174.4999818908999
 30
0.0
 11
136.6563649017999
 21
177.1289257573999
 31
0.0
  0
LINE
  5
223
330
2
100
AcDbEntity
  8
0
 62
     3
100
AcDbLine
 10
135.7093358917996
 20
177.4499630428
 30
0.0
 11
136.6563857212999
 21
177.1289240329999
 31
0.0
  0
LINE
  5
224
330
2
100
AcDbEntity
  8
0
 62
     3
100
AcDbLine
 10
137.9663665219996
 20
175.8991713672999
 30
0.0
 11
137.6663744110999
 21
176.4992625589
 31
0.0
  0
LINE
  5
225
330
2
100
AcDbEntity
  8
0
 62
     3
100
AcDbLine
 10
137.9653699726
 20
177.1999969482999
 30
0.0
 11
138.5653760761999
 21
177.1999969482999
 31
0.0
  0
LINE
  5
226
330
2
100
AcDbEntity
  8
0
 62
     3
100
AcDbLine
 10
129.7648389667999
 20
220.9001617431999
 30
0.0
 11
121.5652845233999
 21
220.9001617431999
 31
0.0
  0
LINE
  5
227
330
2
100
AcDbEntity
  8
0
 62
     3
100
AcDbLine
 10
126.5654065936999
 20
214.2002563476999
 30
0.0
 11
130.9648359149996
 21
214.2002563476999
 31
0.0
  0
LINE
  5
228
330
2
100
AcDbEntity
  8
0
 62
     3
100
AcDbLine
 10
121.5652845233999
 20
206.1002349853999
 30
0.0
 11
129.7648389667999
 21
206.1002349853999
 31
0.0
  0
LINE
  5
229
330
2
100
AcDbEntity
  8
0
 62
     3
100
AcDbLine
 10
127.0177686542999
 20
212.8002471923998
 30
0.0
 11
130.9648359149996
 21
212.8002471923998
 31
0.0
  0
LINE
  5
22A
330
2
100
AcDbEntity
  8
0
 62
     3
100
AcDbLine
 10
127.9648940976999
 20
220.900626637
 30
0.0
 11
128.4176234533999
 21
214.2002209651999
 31
0.0
  0
LINE
  5
22B
330
2
100
AcDbEntity
  8
0
 62
     3
100
AcDbLine
 10
127.4223479681999
 20
214.2002186083999
 30
0.0
 11
126.9696155264999
 21
220.9006699523999
 31
0.0
  0
LINE
  5
22C
330
2
100
AcDbEntity
  8
0
 62
     3
100
AcDbLine
 10
127.4696678282999
 20
220.9002454735998
 30
0.0
 11
127.9223714677
 21
214.2002204036999
 31
0.0
  0
LINE
  5
22D
330
2
100
AcDbEntity
  8
0
 62
     3
100
AcDbLine
 10
126.5654065936999
 20
206.1003570556999
 30
0.0
 11
126.5654065936999
 21
220.9002838134999
 31
0.0
  0
LINE
  5
22E
330
2
100
AcDbEntity
  8
0
 62
     3
100
AcDbLine
 10
116.5654065936999
 20
206.1500244140999
 30
0.0
 11
116.5654065936999
 21
220.8499755859999
 31
0.0
  0
LINE
  5
22F
330
2
100
AcDbEntity
  8
0
 62
     3
100
AcDbLine
 10
116.5652234882999
 20
206.4996948242999
 30
0.0
 11
121.5652234882999
 21
206.4996948242999
 31
0.0
  0
LINE
  5
230
330
2
100
AcDbEntity
  8
0
 62
     3
100
AcDbLine
 10
116.5652387470999
 20
206.1499633788999
 30
0.0
 11
121.5652234882999
 21
206.1499633788999
 31
0.0
  0
LINE
  5
231
330
2
100
AcDbEntity
  8
0
 62
     3
100
AcDbLine
 10
121.5652234882999
 20
206.4996948242999
 30
0.0
 11
121.5652234882999
 21
206.0996704101998
 31
0.0
  0
LINE
  5
232
330
2
100
AcDbEntity
  8
0
 62
     3
100
AcDbLine
 10
118.0652845233999
 20
215.4999999999998
 30
0.0
 11
119.5654065936999
 21
215.4999999999998
 31
0.0
  0
LINE
  5
233
330
2
100
AcDbEntity
  8
0
 62
     3
100
AcDbLine
 10
118.0654065936999
 20
216.9999999999999
 30
0.0
 11
119.5654065936999
 21
216.9999999999999
 31
0.0
  0
LINE
  5
234
330
2
100
AcDbEntity
  8
0
 62
     3
100
AcDbLine
 10
118.0654065936999
 20
215.2001953124997
 30
0.0
 11
119.5654065936999
 21
215.2001953124997
 31
0.0
  0
LINE
  5
235
330
2
100
AcDbEntity
  8
0
 62
     3
100
AcDbLine
 10
118.0654065936999
 20
211.4999999999997
 30
0.0
 11
119.5654065936999
 21
211.4999999999997
 31
0.0
  0
LINE
  5
236
330
2
100
AcDbEntity
  8
0
 62
     3
100
AcDbLine
 10
118.0654065936999
 20
209.9999999999997
 30
0.0
 11
119.5654065936999
 21
209.9999999999997
 31
0.0
  0
LINE
  5
237
330
2
100
AcDbEntity
  8
0
 62
     3
100
AcDbLine
 10
118.0654065936999
 20
211.8001708984999
 30
0.0
 11
119.5654065936999
 21
211.8001708984999
 31
0.0
  0
LINE
  5
238
330
2
100
AcDbEntity
  8
0
 62
     3
100
AcDbLine
 10
118.0652234882999
 20
215.1994171142998
 30
0.0
 11
118.0652234882999
 21
211.7995300292998
 31
0.0
  0
ARC
  5
239
330
2
100
AcDbEntity
  8
0
 62
     3
100
AcDbCircle
 10
115.8624494403999
 20
209.6005401611999
 30
0.0
 40
0.2999997735
100
AcDbArc
 50
180.0000359722
 51
270.0000179861
  0
ARC
  5
23A
330
2
100
AcDbEntity
  8
0
 62
     3
100
AcDbCircle
 10
115.8624494403999
 20
211.900466919
 30
0.0
 40
0.2999997735
100
AcDbArc
 50
89.99998201389999
 51
179.9999093863
  0
ARC
  5
23B
330
2
100
AcDbEntity
  8
0
 62
     3
100
AcDbCircle
 10
115.8624341816
 20
210.000076294
 30
0.0
 40
0.2999999522999999
100
AcDbArc
 50
180.0000359722
 51
269.9985426651998
  0
ARC
  5
23C
330
2
100
AcDbEntity
  8
0
 62
     3
100
AcDbCircle
 10
115.8624341816
 20
211.5000762939998
 30
0.0
 40
0.2999999522999999
100
AcDbArc
 50
90.00156661780001
 51
180.0000186692996
  0
LINE
  5
23D
330
2
100
AcDbEntity
  8
0
 62
     3
100
AcDbLine
 10
115.5624311298999
 20
211.8999786377
 30
0.0
 11
115.5624311298999
 21
209.6000671386998
 31
0.0
  0
LINE
  5
23E
330
2
100
AcDbEntity
  8
0
 62
     3
100
AcDbLine
 10
116.5653913348997
 20
212.2001495361999
 30
0.0
 11
115.8624341816
 21
212.2001495361999
 31
0.0
  0
LINE
  5
23F
330
2
100
AcDbEntity
  8
0
 62
     3
100
AcDbLine
 10
116.5653913348997
 20
209.3001403808999
 30
0.0
 11
115.8624341816
 21
209.3001403808999
 31
0.0
  0
LINE
  5
240
330
2
100
AcDbEntity
  8
0
 62
     3
100
AcDbLine
 10
116.5653913348997
 20
209.699798584
 30
0.0
 11
115.8624189227999
 21
209.699798584
 31
0.0
  0
LINE
  5
241
330
2
100
AcDbEntity
  8
0
 62
     3
100
AcDbLine
 10
116.5653913348997
 20
211.7997589111999
 30
0.0
 11
115.8624189227999
 21
211.7997589111999
 31
0.0
  0
LINE
  5
242
330
2
100
AcDbEntity
  8
0
 62
     3
100
AcDbLine
 10
118.0654065936999
 20
209.9999999999997
 30
0.0
 11
118.0654065936999
 21
211.4999999999997
 31
0.0
  0
ARC
  5
243
330
2
100
AcDbEntity
  8
0
 62
     3
100
AcDbCircle
 10
115.8624494403999
 20
215.1005401611997
 30
0.0
 40
0.2999997735
100
AcDbArc
 50
180.0000359722
 51
270.0000179861
  0
ARC
  5
244
330
2
100
AcDbEntity
  8
0
 62
     3
100
AcDbCircle
 10
115.8624494403999
 20
217.4004669189999
 30
0.0
 40
0.2999997735
100
AcDbArc
 50
89.99998201389999
 51
179.9999093863
  0
ARC
  5
245
330
2
100
AcDbEntity
  8
0
 62
     3
100
AcDbCircle
 10
115.8624341816
 20
215.5000762939998
 30
0.0
 40
0.2999999522999999
100
AcDbArc
 50
180.0000359722
 51
269.9985426651998
  0
ARC
  5
246
330
2
100
AcDbEntity
  8
0
 62
     3
100
AcDbCircle
 10
115.8624341816
 20
217.0000762939999
 30
0.0
 40
0.2999999522999999
100
AcDbArc
 50
90.00156661780001
 51
180.0000186692996
  0
LINE
  5
247
330
2
100
AcDbEntity
  8
0
 62
     3
100
AcDbLine
 10
115.5624311298999
 20
217.3999786377
 30
0.0
 11
115.5624311298999
 21
215.1000518799
 31
0.0
  0
LINE
  5
248
330
2
100
AcDbEntity
  8
0
 62
     3
100
AcDbLine
 10
116.5653913348997
 20
217.7001495362
 30
0.0
 11
115.8624341816
 21
217.7001495362
 31
0.0
  0
LINE
  5
249
330
2
100
AcDbEntity
  8
0
 62
     3
100
AcDbLine
 10
116.5653913348997
 20
214.8001403808998
 30
0.0
 11
115.8624341816
 21
214.8001403808998
 31
0.0
  0
LINE
  5
24A
330
2
100
AcDbEntity
  8
0
 62
     3
100
AcDbLine
 10
116.5653913348997
 20
215.199798584
 30
0.0
 11
115.8624189227999
 21
215.199798584
 31
0.0
  0
LINE
  5
24B
330
2
100
AcDbEntity
  8
0
 62
     3
100
AcDbLine
 10
116.5653913348997
 20
217.2997589111997
 30
0.0
 11
115.8624189227999
 21
217.2997589111997
 31
0.0
  0
LINE
  5
24C
330
2
100
AcDbEntity
  8
0
 62
     3
100
AcDbLine
 10
118.0654065936999
 20
215.4999999999998
 30
0.0
 11
118.0654065936999
 21
216.9999999999999
 31
0.0
  0
LINE
  5
24D
330
2
100
AcDbEntity
  8
0
 62
     3
100
AcDbLine
 10
119.5652234882996
 20
215.1994171142998
 30
0.0
 11
119.5652234882996
 21
211.7995300292998
 31
0.0
  0
LINE
  5
24E
330
2
100
AcDbEntity
  8
0
 62
     3
100
AcDbLine
 10
119.5654065936999
 20
209.9999999999997
 30
0.0
 11
119.5654065936999
 21
211.4999999999997
 31
0.0
  0
LINE
  5
24F
330
2
100
AcDbEntity
  8
0
 62
     3
100
AcDbLine
 10
119.5654065936999
 20
215.4999999999998
 30
0.0
 11
119.5654065936999
 21
216.9999999999999
 31
0.0
  0
LINE
  5
250
330
2
100
AcDbEntity
  8
0
 62
     3
100
AcDbLine
 10
128.5621857837
 20
212.8001652310998
 30
0.0
 11
129.0148832510999
 21
206.1002315057
 31
0.0
  0
LINE
  5
251
330
2
100
AcDbEntity
  8
0
 62
     3
100
AcDbLine
 10
128.0669337979998
 20
212.8001646695999
 30
0.0
 11
128.5196261221998
 21
206.1003070646
 31
0.0
  0
LINE
  5
252
330
2
100
AcDbEntity
  8
0
 62
     3
100
AcDbLine
 10
127.4684529688999
 20
206.1009782765998
 30
0.0
 11
127.1505994544999
 21
210.8052181585
 31
0.0
  0
LINE
  5
253
330
2
100
AcDbEntity
  8
0
 62
     3
100
AcDbLine
 10
126.9713726495999
 20
206.0639813562
 30
0.0
 11
126.6139211706998
 21
211.3542720932998
 31
0.0
  0
LINE
  5
254
330
2
100
AcDbEntity
  8
0
 62
     3
100
AcDbLine
 10
128.0172819833999
 20
206.1346507875998
 30
0.0
 11
127.5669092697998
 21
212.8001780982998
 31
0.0
  0
LINE
  5
255
330
2
100
AcDbEntity
  8
0
 62
     3
100
AcDbLine
 10
126.9212079676999
 20
214.2002178417997
 30
0.0
 11
126.5653889597998
 21
219.4663479682998
 31
0.0
  0
LINE
  5
256
330
2
100
AcDbEntity
  8
0
 62
     3
100
AcDbLine
 10
127.6122776965999
 20
211.4220331782
 30
0.0
 11
127.0180885593999
 21
212.7993273907998
 31
0.0
  0
LINE
  5
257
330
2
100
AcDbEntity
  8
0
 62
     3
100
AcDbLine
 10
127.0173873547999
 20
212.7987693239
 30
0.0
 11
126.6138597131998
 21
211.3539400379
 31
0.0
  0
LINE
  5
258
330
2
100
AcDbEntity
  8
0
 62
     3
100
AcDbLine
 10
127.6116730941996
 20
211.4219829834
 30
0.0
 11
127.1523027900999
 21
210.8036909236997
 31
0.0
  0
LINE
  5
259
330
2
100
AcDbEntity
  8
0
 62
     3
100
AcDbLine
 10
127.1524479727
 20
210.8033217802999
 30
0.0
 11
126.6141316781
 21
211.3540577571999
 31
0.0
  0
LINE
  5
25A
330
2
100
AcDbEntity
  8
0
 62
     3
100
AcDbLine
 10
116.5652387470999
 20
220.4992218017998
 30
0.0
 11
121.5652234882999
 21
220.4992218017998
 31
0.0
  0
LINE
  5
25B
330
2
100
AcDbEntity
  8
0
 62
     3
100
AcDbLine
 10
116.5652387470999
 20
220.8495635987
 30
0.0
 11
121.5652234882999
 21
220.8495635987
 31
0.0
  0
LINE
  5
25C
330
2
100
AcDbEntity
  8
0
 62
     3
100
AcDbLine
 10
121.5649305011999
 20
220.8996528252999
 30
0.0
 11
121.5649228717999
 21
220.4997504814998
 31
0.0
  0
LINE
  5
25D
330
2
100
AcDbEntity
  8
0
 62
     3
100
AcDbLine
 10
135.7648385952999
 20
219.5002078609999
 30
0.0
 11
136.6559941144999
 21
222.1291517273999
 31
0.0
  0
LINE
  5
25E
330
2
100
AcDbEntity
  8
0
 62
     3
100
AcDbLine
 10
138.5653760761999
 20
201.5499275354998
 30
0.0
 11
138.5653760761999
 21
225.4499019466998
 31
0.0
  0
LINE
  5
25F
330
2
100
AcDbEntity
  8
0
 62
     3
100
AcDbLine
 10
137.9653699726
 20
204.8002471923998
 30
0.0
 11
137.9653699726
 21
222.2002410888999
 31
0.0
  0
LINE
  5
260
330
2
100
AcDbEntity
  8
0
 62
     3
100
AcDbLine
 10
129.7648542256
 20
221.8791809082
 30
0.0
 11
129.7648542256
 21
216.5000152588
 31
0.0
  0
LINE
  5
261
330
2
100
AcDbEntity
  8
0
 62
     3
100
AcDbLine
 10
134.7647321552999
 20
222.3999176025999
 30
0.0
 11
134.7647321552999
 21
204.5999298096
 31
0.0
  0
LINE
  5
262
330
2
100
AcDbEntity
  8
0
 62
     3
100
AcDbLine
 10
134.7648084492
 20
204.6002197265999
 30
0.0
 11
134.7648084492
 21
222.3997650147
 31
0.0
  0
LINE
  5
263
330
2
100
AcDbEntity
  8
0
 62
     3
100
AcDbLine
 10
134.7648271942996
 20
219.6650558315
 30
0.0
 11
135.7089318119999
 21
222.4502016232996
 31
0.0
  0
LINE
  5
264
330
2
100
AcDbEntity
  8
0
 62
     3
100
AcDbLine
 10
135.764823708
 20
214.2002563476999
 30
0.0
 11
137.9653699726
 21
214.2002563476999
 31
0.0
  0
LINE
  5
265
330
2
100
AcDbEntity
  8
0
 62
     3
100
AcDbLine
 10
135.764823708
 20
212.8002471923998
 30
0.0
 11
137.9653699726
 21
212.8002471923998
 31
0.0
  0
LINE
  5
266
330
2
100
AcDbEntity
  8
0
 62
     3
100
AcDbLine
 10
136.2393873065999
 20
206.1002349853999
 30
0.0
 11
137.9653699726
 21
206.1002349853999
 31
0.0
  0
LINE
  5
267
330
2
100
AcDbEntity
  8
0
 62
     3
100
AcDbLine
 10
135.7648084492
 20
207.5002288818999
 30
0.0
 11
135.7648084492
 21
219.5002136231
 31
0.0
  0
LINE
  5
268
330
2
100
AcDbEntity
  8
0
 62
     3
100
AcDbLine
 10
131.7648389667999
 20
207.6655120849999
 30
0.0
 11
131.7648389667999
 21
208.5405273438
 31
0.0
  0
LINE
  5
269
330
2
100
AcDbEntity
  8
0
 62
     3
100
AcDbLine
 10
129.7648542256
 20
210.5000305176
 30
0.0
 11
129.7648542256
 21
205.1209106446
 31
0.0
  0
LINE
  5
26A
330
2
100
AcDbEntity
  8
0
 62
     3
100
AcDbLine
 10
134.764823708
 20
205.0868072509997
 30
0.0
 11
131.7648389667999
 21
205.0868072509997
 31
0.0
  0
LINE
  5
26B
330
2
100
AcDbEntity
  8
0
 62
     3
100
AcDbLine
 10
134.764823708
 20
205.5099334716998
 30
0.0
 11
131.7648389667999
 21
205.5099334716998
 31
0.0
  0
LINE
  5
26C
330
2
100
AcDbEntity
  8
0
 62
     3
100
AcDbLine
 10
134.764823708
 20
206.1099243164
 30
0.0
 11
131.7648389667999
 21
206.1099243164
 31
0.0
  0
LINE
  5
26D
330
2
100
AcDbEntity
  8
0
 62
     3
100
AcDbLine
 10
134.764823708
 20
206.7968139648999
 30
0.0
 11
131.7648389667999
 21
206.7968139648999
 31
0.0
  0
LINE
  5
26E
330
2
100
AcDbEntity
  8
0
 62
     3
100
AcDbLine
 10
134.764823708
 20
207.6655120849999
 30
0.0
 11
131.7648389667999
 21
207.6655120849999
 31
0.0
  0
LINE
  5
26F
330
2
100
AcDbEntity
  8
0
 62
     3
100
AcDbLine
 10
134.7648084492
 20
204.6000213622999
 30
0.0
 11
130.9648359149996
 21
204.6000213622999
 31
0.0
  0
LINE
  5
270
330
2
100
AcDbEntity
  8
0
 62
     3
100
AcDbLine
 10
130.9648049274999
 20
204.6000109150999
 30
0.0
 11
130.9648201863
 21
205.1209001973998
 31
0.0
  0
LINE
  5
271
330
2
100
AcDbEntity
  8
0
 62
     3
100
AcDbLine
 10
129.7648542256
 20
205.1209106446
 30
0.0
 11
130.9648511737999
 21
205.1209106446
 31
0.0
  0
LINE
  5
272
330
2
100
AcDbEntity
  8
0
 62
     3
100
AcDbLine
 10
131.7647321552999
 20
205.5098266601998
 30
0.0
 11
131.7647321552999
 21
205.0867156982998
 31
0.0
  0
LINE
  5
273
330
2
100
AcDbEntity
  8
0
 62
     3
100
AcDbLine
 10
131.7648389667999
 20
206.1099243164
 30
0.0
 11
131.7648389667999
 21
206.7968139648999
 31
0.0
  0
LINE
  5
274
330
2
100
AcDbEntity
  8
0
 62
     3
100
AcDbLine
 10
134.7648526641999
 20
207.3352991607998
 30
0.0
 11
135.7089382039999
 21
204.5501953200999
 31
0.0
  0
LINE
  5
275
330
2
100
AcDbEntity
  8
0
 62
     3
100
AcDbLine
 10
134.764823708
 20
204.5502471923998
 30
0.0
 11
135.7089155048997
 21
204.5502471923998
 31
0.0
  0
LINE
  5
276
330
2
100
AcDbEntity
  8
0
 62
     3
100
AcDbLine
 10
135.7648447019999
 20
207.5002033669998
 30
0.0
 11
136.6560058819999
 21
204.8712292747
 31
0.0
  0
LINE
  5
277
330
2
100
AcDbEntity
  8
0
 62
     3
100
AcDbLine
 10
135.7089086905999
 20
204.5501976679
 30
0.0
 11
136.6559776201997
 21
204.8712278673999
 31
0.0
  0
LINE
  5
278
330
2
100
AcDbEntity
  8
0
 62
     3
100
AcDbLine
 10
131.7648389667999
 20
219.3345184327
 30
0.0
 11
134.764823708
 21
219.3345184327
 31
0.0
  0
LINE
  5
279
330
2
100
AcDbEntity
  8
0
 62
     3
100
AcDbLine
 10
131.7648389667999
 20
218.4595031738999
 30
0.0
 11
134.764823708
 21
218.4595031738999
 31
0.0
  0
LINE
  5
27A
330
2
100
AcDbEntity
  8
0
 62
     3
100
AcDbLine
 10
131.7648389667999
 20
217.4202880859999
 30
0.0
 11
134.764823708
 21
217.4202880859999
 31
0.0
  0
LINE
  5
27B
330
2
100
AcDbEntity
  8
0
 62
     3
100
AcDbLine
 10
131.7648389667999
 20
216.3778381348
 30
0.0
 11
134.764823708
 21
216.3778381348
 31
0.0
  0
LINE
  5
27C
330
2
100
AcDbEntity
  8
0
 62
     3
100
AcDbLine
 10
131.7648389667999
 20
214.1000213623
 30
0.0
 11
134.764823708
 21
214.1000213623
 31
0.0
  0
LINE
  5
27D
330
2
100
AcDbEntity
  8
0
 62
     3
100
AcDbLine
 10
131.7648389667999
 20
215.1924743653
 30
0.0
 11
134.764823708
 21
215.1924743653
 31
0.0
  0
LINE
  5
27E
330
2
100
AcDbEntity
  8
0
 62
     3
100
AcDbLine
 10
134.764823708
 20
208.5405273438
 30
0.0
 11
131.7648389667999
 21
208.5405273438
 31
0.0
  0
LINE
  5
27F
330
2
100
AcDbEntity
  8
0
 62
     3
100
AcDbLine
 10
134.764823708
 20
209.5797424316999
 30
0.0
 11
131.7648389667999
 21
209.5797424316999
 31
0.0
  0
LINE
  5
280
330
2
100
AcDbEntity
  8
0
 62
     3
100
AcDbLine
 10
134.764823708
 20
210.6221923827999
 30
0.0
 11
131.7648389667999
 21
210.6221923827999
 31
0.0
  0
LINE
  5
281
330
2
100
AcDbEntity
  8
0
 62
     3
100
AcDbLine
 10
134.764823708
 20
212.9000091552998
 30
0.0
 11
131.7648389667999
 21
212.9000091552998
 31
0.0
  0
LINE
  5
282
330
2
100
AcDbEntity
  8
0
 62
     3
100
AcDbLine
 10
134.764823708
 20
211.8075561523999
 30
0.0
 11
131.7648389667999
 21
211.8075561523999
 31
0.0
  0
LINE
  5
283
330
2
100
AcDbEntity
  8
0
 62
     3
100
AcDbLine
 10
131.7648389667999
 20
215.1924743653
 30
0.0
 11
131.7648389667999
 21
214.1000213623
 31
0.0
  0
LINE
  5
284
330
2
100
AcDbEntity
  8
0
 62
     3
100
AcDbLine
 10
130.9648511737999
 20
216.5000152588
 30
0.0
 11
130.9648511737999
 21
210.5000305176
 31
0.0
  0
LINE
  5
285
330
2
100
AcDbEntity
  8
0
 62
     3
100
AcDbLine
 10
130.9648511737999
 20
210.5000305176
 30
0.0
 11
129.7648542256
 21
210.5000305176
 31
0.0
  0
LINE
  5
286
330
2
100
AcDbEntity
  8
0
 62
     3
100
AcDbLine
 10
131.7648389667999
 20
210.6221923827999
 30
0.0
 11
131.7648389667999
 21
209.5797424316999
 31
0.0
  0
LINE
  5
287
330
2
100
AcDbEntity
  8
0
 62
     3
100
AcDbLine
 10
131.7648389667999
 20
212.9000091552998
 30
0.0
 11
131.7648389667999
 21
211.8075561523999
 31
0.0
  0
LINE
  5
288
330
2
100
AcDbEntity
  8
0
 62
     3
100
AcDbLine
 10
129.7648542256
 20
216.5000152588
 30
0.0
 11
130.9648511737999
 21
216.5000152588
 31
0.0
  0
LINE
  5
289
330
2
100
AcDbEntity
  8
0
 62
     3
100
AcDbLine
 10
131.7648389667999
 20
218.4595031738999
 30
0.0
 11
131.7648389667999
 21
219.3345184327
 31
0.0
  0
LINE
  5
28A
330
2
100
AcDbEntity
  8
0
 62
     3
100
AcDbLine
 10
131.7648389667999
 20
217.4202880859999
 30
0.0
 11
131.7648389667999
 21
216.3778381348
 31
0.0
  0
LINE
  5
28B
330
2
100
AcDbEntity
  8
0
 62
     3
100
AcDbLine
 10
137.9653699726
 20
204.8002471923998
 30
0.0
 11
138.5653760761999
 21
204.8002471923998
 31
0.0
  0
LINE
  5
28C
330
2
100
AcDbEntity
  8
0
 62
     3
100
AcDbLine
 10
137.9653699726
 20
220.9001617431999
 30
0.0
 11
136.2393873065999
 21
220.9001617431999
 31
0.0
  0
LINE
  5
28D
330
2
100
AcDbEntity
  8
0
 62
     3
100
AcDbLine
 10
131.7648389667999
 20
221.9132232665999
 30
0.0
 11
134.764823708
 21
221.9132232665999
 31
0.0
  0
LINE
  5
28E
330
2
100
AcDbEntity
  8
0
 62
     3
100
AcDbLine
 10
131.7648389667999
 20
221.4900970458999
 30
0.0
 11
134.764823708
 21
221.4900970458999
 31
0.0
  0
LINE
  5
28F
330
2
100
AcDbEntity
  8
0
 62
     3
100
AcDbLine
 10
131.7648389667999
 20
220.8901062011999
 30
0.0
 11
134.764823708
 21
220.8901062011999
 31
0.0
  0
LINE
  5
290
330
2
100
AcDbEntity
  8
0
 62
     3
100
AcDbLine
 10
131.7648389667999
 20
220.2032165528
 30
0.0
 11
134.764823708
 21
220.2032165528
 31
0.0
  0
LINE
  5
291
330
2
100
AcDbEntity
  8
0
 62
     3
100
AcDbLine
 10
130.9648511737999
 20
222.4000091553
 30
0.0
 11
134.764823708
 21
222.4000091553
 31
0.0
  0
LINE
  5
292
330
2
100
AcDbEntity
  8
0
 62
     3
100
AcDbLine
 10
130.9648511737999
 20
222.4000091553
 30
0.0
 11
130.9648511737999
 21
221.8791809082
 31
0.0
  0
LINE
  5
293
330
2
100
AcDbEntity
  8
0
 62
     3
100
AcDbLine
 10
130.9648511737999
 20
221.8791809082
 30
0.0
 11
129.7648542256
 21
221.8791809082
 31
0.0
  0
LINE
  5
294
330
2
100
AcDbEntity
  8
0
 62
     3
100
AcDbLine
 10
131.7649152606998
 20
221.9132690429999
 30
0.0
 11
131.7649152606998
 21
221.4901580810998
 31
0.0
  0
LINE
  5
295
330
2
100
AcDbEntity
  8
0
 62
     3
100
AcDbLine
 10
131.7648389667999
 20
220.2032165528
 30
0.0
 11
131.7648389667999
 21
220.8901062011999
 31
0.0
  0
LINE
  5
296
330
2
100
AcDbEntity
  8
0
 62
     3
100
AcDbLine
 10
134.764823708
 20
222.4502563476999
 30
0.0
 11
135.7089307636999
 21
222.4502563476999
 31
0.0
  0
LINE
  5
297
330
2
100
AcDbEntity
  8
0
 62
     3
100
AcDbLine
 10
135.7089600644999
 20
222.4501985755999
 30
0.0
 11
136.6560243449999
 21
222.1291546669998
 31
0.0
  0
LINE
  5
298
330
2
100
AcDbEntity
  8
0
 62
     3
100
AcDbLine
 10
137.9653699726
 20
222.2002410888999
 30
0.0
 11
138.5653760761999
 21
222.2002410888999
 31
0.0
  0
TEXT
  5
299
330
2
100
AcDbEntity
  8
0
 62
     5
100
AcDbText
 10
145.0
 20
10.0
 30
0.0
 40
5.0
  1
ＭＡ４－Ｈ００２１７Ｅ
 41
0.848817699915704
 72
     5
 11
199.0413935612998
 21
10.0
 31
0.0
100
AcDbText
  0
LINE
  5
29A
330
2
100
AcDbEntity
  8
0
  6
CENTER
 62
     3
100
AcDbLine
 10
186.7617902606999
 20
168.5
 30
0.0
 11
158.8617902606999
 21
168.5
 31
0.0
  0
LINE
  5
29B
330
2
100
AcDbEntity
  8
0
 62
     3
100
AcDbLine
 10
183.0119397968999
 20
161.0001831054999
 30
0.0
 11
162.6117170184999
 21
161.0001831054999
 31
0.0
  0
LINE
  5
29C
330
2
100
AcDbEntity
  8
0
 62
     3
100
AcDbLine
 10
183.0119550555999
 20
176.0001525879
 30
0.0
 11
162.6117170184999
 21
176.0001525879
 31
0.0
  0
LINE
  5
29D
330
2
100
AcDbEntity
  8
0
 62
     3
100
AcDbLine
 10
183.6119611591998
 20
176.3001556397
 30
0.0
 11
162.0118635028999
 21
176.3001556397
 31
0.0
  0
LINE
  5
29E
330
2
100
AcDbEntity
  8
0
 62
     3
100
AcDbLine
 10
183.6119611591998
 20
160.7001953124999
 30
0.0
 11
162.0118635028999
 21
160.7001953124999
 31
0.0
  0
LINE
  5
29F
330
2
100
AcDbEntity
  8
0
 62
     3
100
AcDbLine
 10
184.4632548064998
 20
177.4501525878999
 30
0.0
 11
161.1609921938998
 21
177.4501525878999
 31
0.0
  0
LINE
  5
2A0
330
2
100
AcDbEntity
  8
0
 62
     3
100
AcDbLine
 10
184.4617213139
 20
159.5501678466999
 30
0.0
 11
161.1615210718998
 21
159.5501678466999
 31
0.0
  0
LINE
  5
2A1
330
2
100
AcDbEntity
  8
0
 62
     3
100
AcDbLine
 10
184.1629195163999
 20
159.8502166747999
 30
0.0
 11
161.4615479179998
 21
159.8502166747999
 31
0.0
  0
LINE
  5
2A2
330
2
100
AcDbEntity
  8
0
 62
     3
100
AcDbLine
 10
184.1631371756999
 20
177.1501037598
 30
0.0
 11
161.4609113008999
 21
177.1501037598
 31
0.0
  0
LINE
  5
2A3
330
2
100
AcDbEntity
  8
0
 62
     3
100
AcDbLine
 10
147.5653913348999
 20
160.0512656087999
 30
0.0
 11
147.5653913348999
 21
176.9412152559
 31
0.0
  0
LINE
  5
2A4
330
2
100
AcDbEntity
  8
0
 62
     3
100
AcDbLine
 10
147.2654645770999
 20
159.7438457641
 30
0.0
 11
147.2654645770999
 21
177.2547743369
 31
0.0
  0
LINE
  5
2A5
330
2
100
AcDbEntity
  8
0
 62
     3
100
AcDbLine
 10
147.256956742
 20
159.7428317438
 30
0.0
 11
147.5638993203999
 21
160.0497735977999
 31
0.0
  0
LINE
  5
2A6
330
2
100
AcDbEntity
  8
0
 62
     3
100
AcDbLine
 10
147.5639748482999
 20
176.9426961249
 30
0.0
 11
147.2640959279999
 21
177.2562051941
 31
0.0
  0
LINE
  5
2A7
330
2
100
AcDbEntity
  8
0
  6
CENTER
 62
     3
100
AcDbLine
 10
172.8118055194999
 20
179.4501525879
 30
0.0
 11
172.8118055194999
 21
157.5501678466999
 31
0.0
  0
LINE
  5
2A8
330
2
100
AcDbEntity
  8
0
 62
     3
100
AcDbLine
 10
162.3117292255996
 20
161.3001708984999
 30
0.0
 11
162.3117292255996
 21
175.7001495362
 31
0.0
  0
LINE
  5
2A9
330
2
100
AcDbEntity
  8
0
 62
     3
100
AcDbLine
 10
162.0117414325999
 20
159.8502166747999
 30
0.0
 11
162.0117414325999
 21
176.3001556397
 31
0.0
  0
LINE
  5
2AA
330
2
100
AcDbEntity
  8
0
 62
     3
100
AcDbLine
 10
160.8617902606999
 20
159.8493648014
 30
0.0
 11
160.8617902606999
 21
177.1492801256
 31
0.0
  0
LINE
  5
2AB
330
2
100
AcDbEntity
  8
0
 62
     3
100
AcDbLine
 10
161.1617170184999
 20
160.1500479028999
 30
0.0
 11
161.1617170184999
 21
176.8490481104
 31
0.0
  0
LINE
  5
2AC
330
2
100
AcDbEntity
  8
0
 62
     3
100
AcDbLine
 10
161.1621866841
 20
159.5495022327
 30
0.0
 11
160.8622364274999
 21
159.8494533488998
 31
0.0
  0
LINE
  5
2AD
330
2
100
AcDbEntity
  8
0
 62
     3
100
AcDbLine
 10
161.1621503449998
 20
160.1497018974
 30
0.0
 11
160.8622744997999
 21
159.8498490034
 31
0.0
  0
LINE
  5
2AE
330
2
100
AcDbEntity
  8
0
 62
     3
100
AcDbLine
 10
162.3117175752999
 20
161.3001748499999
 30
0.0
 11
162.6117225382999
 21
161.0001705191999
 31
0.0
  0
LINE
  5
2AF
330
2
100
AcDbEntity
  8
0
 62
     3
100
AcDbLine
 10
161.4621926980998
 20
159.8495718939998
 30
0.0
 11
161.1622421634999
 21
160.1495227572999
 31
0.0
  0
LINE
  5
2B0
330
2
100
AcDbEntity
  8
0
 62
     3
100
AcDbLine
 10
161.4620895524999
 20
159.8497397320999
 30
0.0
 11
161.1622137071998
 21
159.5498868381
 31
0.0
  0
LINE
  5
2B1
330
2
100
AcDbEntity
  8
0
 62
     3
100
AcDbLine
 10
163.4616926044999
 20
160.7001953124999
 30
0.0
 11
163.4616926044999
 21
159.8502166747999
 31
0.0
  0
LINE
  5
2B2
330
2
100
AcDbEntity
  8
0
 62
     3
100
AcDbLine
 10
160.8621256705999
 20
177.1497085468
 30
0.0
 11
161.1619899895998
 21
177.4495729669998
 31
0.0
  0
LINE
  5
2B3
330
2
100
AcDbEntity
  8
0
 62
     3
100
AcDbLine
 10
161.1618222248999
 20
176.8491183915999
 30
0.0
 11
160.8617637956999
 21
177.1493066020999
 31
0.0
  0
LINE
  5
2B4
330
2
100
AcDbEntity
  8
0
 62
     3
100
AcDbLine
 10
162.6117272582999
 20
176.0001363606999
 30
0.0
 11
162.3117333629998
 21
175.7001425666
 31
0.0
  0
LINE
  5
2B5
330
2
100
AcDbEntity
  8
0
 62
     3
100
AcDbLine
 10
161.162141432
 20
176.8494725228
 30
0.0
 11
161.4620061553999
 21
177.1493365385
 31
0.0
  0
LINE
  5
2B6
330
2
100
AcDbEntity
  8
0
 62
     3
100
AcDbLine
 10
161.4619240999996
 20
177.1490905227
 30
0.0
 11
161.1618656707999
 21
177.4492787331999
 31
0.0
  0
LINE
  5
2B7
330
2
100
AcDbEntity
  8
0
 62
     3
100
AcDbLine
 10
169.6117780537
 20
177.1501037598
 30
0.0
 11
169.6117780537
 21
176.3001556397
 31
0.0
  0
LINE
  5
2B8
330
2
100
AcDbEntity
  8
0
 62
     3
100
AcDbLine
 10
147.2644880145999
 20
225.2556178007998
 30
0.0
 11
147.2644880145999
 21
216.976867997
 31
0.0
  0
LINE
  5
2B9
330
2
100
AcDbEntity
  8
0
 62
     3
100
AcDbLine
 10
147.5652540058
 20
202.0506281665999
 30
0.0
 11
147.5652540058
 21
224.9411813413999
 31
0.0
  0
LINE
  5
2BA
330
2
100
AcDbEntity
  8
0
 62
     3
100
AcDbLine
 10
147.2644880145999
 20
210.0230825352999
 30
0.0
 11
147.2644880145999
 21
201.7498628852999
 31
0.0
  0
LINE
  5
2BB
330
2
100
AcDbEntity
  8
0
 62
     3
100
AcDbLine
 10
147.2568878311999
 20
201.7422627198
 30
0.0
 11
147.5636579024
 21
202.0490320668999
 31
0.0
  0
LINE
  5
2BC
330
2
100
AcDbEntity
  8
0
 62
     3
100
AcDbLine
 10
147.2644880145999
 20
216.6759033202999
 30
0.0
 11
147.2644880145999
 21
210.3240203857999
 31
0.0
  0
LINE
  5
2BD
330
2
100
AcDbEntity
  8
0
 62
     3
100
AcDbLine
 10
145.0653913348999
 20
211.9999999999997
 30
0.0
 11
145.0653913348999
 21
214.9999999999999
 31
0.0
  0
LINE
  5
2BE
330
2
100
AcDbEntity
  8
0
 62
     3
100
AcDbLine
 10
145.0653760761999
 20
210.4999999999999
 30
0.0
 11
145.0653760761999
 21
216.4999999999998
 31
0.0
  0
LINE
  5
2BF
330
2
100
AcDbEntity
  8
0
 62
     3
100
AcDbLine
 10
144.7653730244
 20
210.2230224609999
 30
0.0
 11
144.7653730244
 21
216.7769317627
 31
0.0
  0
LINE
  5
2C0
330
2
100
AcDbEntity
  8
0
 62
     3
100
AcDbLine
 10
147.5652413786999
 20
210.2999813852
 30
0.0
 11
145.0653716126
 21
210.4999928024998
 31
0.0
  0
LINE
  5
2C1
330
2
100
AcDbEntity
  8
0
 62
     3
100
AcDbLine
 10
147.2644896265999
 20
210.0230824062998
 30
0.0
 11
144.7653651595
 21
210.2230341932
 31
0.0
  0
LINE
  5
2C2
330
2
100
AcDbEntity
  8
0
 62
     3
100
AcDbLine
 10
145.0653718674999
 20
210.4999683307998
 30
0.0
 11
144.765370071
 21
210.222991954
 31
0.0
  0
LINE
  5
2C3
330
2
100
AcDbEntity
  8
0
 62
     3
100
AcDbLine
 10
147.5652503619999
 20
210.2999782731
 30
0.0
 11
147.2644679248998
 21
210.0230606910999
 31
0.0
  0
LINE
  5
2C4
330
2
100
AcDbEntity
  8
0
 62
     3
100
AcDbLine
 10
144.7653692522
 20
216.7769318550999
 30
0.0
 11
147.2644797045999
 21
216.9768673321
 31
0.0
  0
LINE
  5
2C5
330
2
100
AcDbEntity
  8
0
 62
     3
100
AcDbLine
 10
145.0653728145
 20
216.4999866455
 30
0.0
 11
147.5652589865999
 21
216.6999841822998
 31
0.0
  0
LINE
  5
2C6
330
2
100
AcDbEntity
  8
0
 62
     3
100
AcDbLine
 10
145.0653849492999
 20
216.499976918
 30
0.0
 11
144.7653827730998
 21
216.7769078927999
 31
0.0
  0
LINE
  5
2C7
330
2
100
AcDbEntity
  8
0
 62
     3
100
AcDbLine
 10
147.5652533293999
 20
216.6999722350998
 30
0.0
 11
147.2644705603999
 21
216.9768443655
 31
0.0
  0
LINE
  5
2C8
330
2
100
AcDbEntity
  8
0
 62
     3
100
AcDbLine
 10
147.5637835038996
 20
224.9427186807998
 30
0.0
 11
147.2638202058
 21
225.2563159629999
 31
0.0
  0
LINE
  5
2C9
330
2
100
AcDbEntity
  8
0
 62
     3
100
AcDbLine
 10
183.3119581073999
 20
161.3001708984999
 30
0.0
 11
183.3119581073999
 21
175.7001342774
 31
0.0
  0
LINE
  5
2CA
330
2
100
AcDbEntity
  8
0
 62
     3
100
AcDbLine
 10
183.6119611591998
 20
159.8502166747999
 30
0.0
 11
183.6119611591998
 21
176.3001556397
 31
0.0
  0
LINE
  5
2CB
330
2
100
AcDbEntity
  8
0
 62
     3
100
AcDbLine
 10
184.7617902607
 20
159.8488747875
 30
0.0
 11
184.7617902607
 21
177.1490310497999
 31
0.0
  0
LINE
  5
2CC
330
2
100
AcDbEntity
  8
0
 62
     3
100
AcDbLine
 10
184.4619855731999
 20
160.1498979186
 30
0.0
 11
184.4619855731999
 21
176.8490891058
 31
0.0
  0
LINE
  5
2CD
330
2
100
AcDbEntity
  8
0
 62
     3
100
AcDbLine
 10
183.3119397408999
 20
161.3001746803
 30
0.0
 11
183.0119291131999
 21
161.0001760140999
 31
0.0
  0
LINE
  5
2CE
330
2
100
AcDbEntity
  8
0
 62
     3
100
AcDbLine
 10
182.1620099872999
 20
160.7001953124999
 30
0.0
 11
182.1620099872999
 21
159.8502166747999
 31
0.0
  0
LINE
  5
2CF
330
2
100
AcDbEntity
  8
0
 62
     3
100
AcDbLine
 10
184.4627492211999
 20
159.5498331934999
 30
0.0
 11
184.7627859461
 21
159.8498704747999
 31
0.0
  0
LINE
  5
2D0
330
2
100
AcDbEntity
  8
0
 62
     3
100
AcDbLine
 10
184.1623568981999
 20
159.8496540566999
 30
0.0
 11
184.4622212677999
 21
160.1495184515998
 31
0.0
  0
LINE
  5
2D1
330
2
100
AcDbEntity
  8
0
 62
     3
100
AcDbLine
 10
184.4623180858999
 20
160.1495658028999
 30
0.0
 11
184.7626206455998
 21
159.8496218241999
 31
0.0
  0
LINE
  5
2D2
330
2
100
AcDbEntity
  8
0
 62
     3
100
AcDbLine
 10
184.4623355339998
 20
159.5495540167999
 30
0.0
 11
184.1622032081999
 21
159.8494956971999
 31
0.0
  0
LINE
  5
2D3
330
2
100
AcDbEntity
  8
0
 62
     3
100
AcDbLine
 10
176.0118071872
 20
177.1501037598
 30
0.0
 11
176.0117966604999
 21
176.3001547717998
 31
0.0
  0
LINE
  5
2D4
330
2
100
AcDbEntity
  8
0
 62
     3
100
AcDbLine
 10
183.0119476768
 20
176.0001404921998
 30
0.0
 11
183.3119440164999
 21
175.7001275379
 31
0.0
  0
LINE
  5
2D5
330
2
100
AcDbEntity
  8
0
 62
     3
100
AcDbLine
 10
184.7624887559
 20
177.1496545121
 30
0.0
 11
184.4625382717999
 21
177.4496054007
 31
0.0
  0
LINE
  5
2D6
330
2
100
AcDbEntity
  8
0
 62
     3
100
AcDbLine
 10
184.4625591591999
 20
176.8497620261999
 30
0.0
 11
184.1625219538
 21
177.1497988269999
 31
0.0
  0
LINE
  5
2D7
330
2
100
AcDbEntity
  8
0
 62
     3
100
AcDbLine
 10
184.4623500642999
 20
177.4492480531
 30
0.0
 11
184.1624513183999
 21
177.1494180597999
 31
0.0
  0
LINE
  5
2D8
330
2
100
AcDbEntity
  8
0
 62
     3
100
AcDbLine
 10
184.7622634284999
 20
177.1495044340999
 30
0.0
 11
184.4624676849999
 21
176.8495714383
 31
0.0
  0
LINE
  5
2D9
330
2
100
AcDbEntity
  8
0
100
AcDbLine
 10
210.0
 20
297.0
 30
0.0
 11
0.0
 21
297.0
 31
0.0
  0
TEXT
  5
323
330
2
100
AcDbEntity
  8
0
 62
     7
100
AcDbText
 10
108.0
 20
65.00000295524988
 30
0.0
 40
2.999994089499998
  1
AL6G-M24P*
 11
108.0
 21
66.49999999999988
 31
0.0
100
AcDbText
 73
     2
  0
TEXT
  5
324
330
2
100
AcDbEntity
  8
0
 62
     7
100
AcDbText
 10
108.0
 20
75.00000295524988
 30
0.0
 40
2.999994089499998
  1
AL6G-M23P*
 11
108.0
 21
76.49999999999988
 31
0.0
100
AcDbText
 73
     2
  0
TEXT
  5
326
330
2
100
AcDbEntity
  8
0
 62
     7
100
AcDbText
 10
108.0
 20
85.00000295524989
 30
0.0
 40
2.999994089499998
  1
AL6G-M21P*
 11
108.0
 21
86.49999999999989
 31
0.0
100
AcDbText
 73
     2
  0
TEXT
  5
327
330
2
100
AcDbEntity
  8
0
 62
     7
100
AcDbText
 10
108.0
 20
95.00000295524989
 30
0.0
 40
2.999994089499998
  1
AL6G-M14P*
 11
108.0
 21
96.49999999999989
 31
0.0
100
AcDbText
 73
     2
  0
TEXT
  5
328
330
2
100
AcDbEntity
  8
0
 62
     7
100
AcDbText
 10
108.0
 20
105.0000029552499
 30
0.0
 40
2.999994089499998
  1
AL6G-M13P*
 11
108.0
 21
106.4999999999999
 31
0.0
100
AcDbText
 73
     2
  0
TEXT
  5
32A
330
2
100
AcDbEntity
  8
0
 62
     7
100
AcDbText
 10
108.0
 20
115.0000029552499
 30
0.0
 40
2.999994089499998
  1
AL6G-M11P*
 11
108.0
 21
116.5
 31
0.0
100
AcDbText
 73
     2
  0
TEXT
  5
32B
330
2
100
AcDbEntity
  8
0
 62
     7
100
AcDbText
 10
108.0
 20
60.00000295524991
 30
0.0
 40
2.999994089499998
  1
AL6G-M24*
 11
108.0
 21
61.4999999999999
 31
0.0
100
AcDbText
 73
     2
  0
TEXT
  5
32C
330
2
100
AcDbEntity
  8
0
 62
     7
100
AcDbText
 10
108.0
 20
70.00000295524988
 30
0.0
 40
2.999994089499998
  1
AL6G-M23*
 11
108.0
 21
71.49999999999988
 31
0.0
100
AcDbText
 73
     2
  0
TEXT
  5
32F
330
2
100
AcDbEntity
  8
0
 62
     7
100
AcDbText
 10
108.0
 20
80.00000295524989
 30
0.0
 40
2.999994089499998
  1
AL6G-M21*
 11
108.0
 21
81.49999999999989
 31
0.0
100
AcDbText
 73
     2
  0
TEXT
  5
330
330
2
100
AcDbEntity
  8
0
 62
     7
100
AcDbText
 10
108.0
 20
90.00000295524989
 30
0.0
 40
2.999994089499998
  1
AL6G-M14*
 11
108.0
 21
91.49999999999989
 31
0.0
100
AcDbText
 73
     2
  0
TEXT
  5
331
330
2
100
AcDbEntity
  8
0
 62
     7
100
AcDbText
 10
108.0
 20
100.0000029552498
 30
0.0
 40
2.999994089499998
  1
AL6G-M13*
 11
108.0
 21
101.4999999999998
 31
0.0
100
AcDbText
 73
     2
  0
TEXT
  5
332
330
2
100
AcDbEntity
  8
0
 62
     7
100
AcDbText
 10
108.0
 20
110.0000029552498
 30
0.0
 40
2.999994089499998
  1
AL6G-M11*
 11
108.0
 21
111.4999999999999
 31
0.0
100
AcDbText
 73
     2
  0
TEXT
  5
333
330
2
100
AcDbEntity
  8
0
 62
     7
100
AcDbText
 10
146.0
 20
60.00000295524991
 30
0.0
 40
2.999994089499998
  1
AL6G-A24*
 11
146.0
 21
61.4999999999999
 31
0.0
100
AcDbText
 73
     2
  0
TEXT
  5
334
330
2
100
AcDbEntity
  8
0
 62
     7
100
AcDbText
 10
146.0
 20
65.00000295524988
 30
0.0
 40
2.999994089499998
  1
AL6G-A24P*
 11
146.0
 21
66.49999999999988
 31
0.0
100
AcDbText
 73
     2
  0
TEXT
  5
335
330
2
100
AcDbEntity
  8
0
 62
     7
100
AcDbText
 10
146.0
 20
70.00000295524988
 30
0.0
 40
2.999994089499998
  1
AL6G-A23*
 11
146.0
 21
71.49999999999988
 31
0.0
100
AcDbText
 73
     2
  0
TEXT
  5
337
330
2
100
AcDbEntity
  8
0
 62
     7
100
AcDbText
 10
146.0
 20
75.00000295524988
 30
0.0
 40
2.999994089499998
  1
AL6G-A23P*
 11
146.0
 21
76.49999999999988
 31
0.0
100
AcDbText
 73
     2
  0
TEXT
  5
338
330
2
100
AcDbEntity
  8
0
 62
     7
100
AcDbText
 10
146.0
 20
80.00000295524989
 30
0.0
 40
2.999994089499998
  1
AL6G-A21*
 11
146.0
 21
81.49999999999989
 31
0.0
100
AcDbText
 73
     2
  0
TEXT
  5
33B
330
2
100
AcDbEntity
  8
0
 62
     7
100
AcDbText
 10
146.0
 20
85.00000295524989
 30
0.0
 40
2.999994089499998
  1
AL6G-A21P*
 11
146.0
 21
86.49999999999989
 31
0.0
100
AcDbText
 73
     2
  0
TEXT
  5
33C
330
2
100
AcDbEntity
  8
0
 62
     7
100
AcDbText
 10
146.0
 20
90.00000295524989
 30
0.0
 40
2.999994089499998
  1
AL6G-A14*
 11
146.0
 21
91.49999999999989
 31
0.0
100
AcDbText
 73
     2
  0
TEXT
  5
33D
330
2
100
AcDbEntity
  8
0
 62
     7
100
AcDbText
 10
146.0
 20
95.00000295524989
 30
0.0
 40
2.999994089499998
  1
AL6G-A14P*
 11
146.0
 21
96.49999999999989
 31
0.0
100
AcDbText
 73
     2
  0
TEXT
  5
33E
330
2
100
AcDbEntity
  8
0
 62
     7
100
AcDbText
 10
146.0
 20
100.0000029552498
 30
0.0
 40
2.999994089499998
  1
AL6G-A13*
 11
146.0
 21
101.4999999999998
 31
0.0
100
AcDbText
 73
     2
  0
TEXT
  5
33F
330
2
100
AcDbEntity
  8
0
 62
     7
100
AcDbText
 10
146.0
 20
105.0000029552499
 30
0.0
 40
2.999994089499998
  1
AL6G-A13P*
 11
146.0
 21
106.4999999999999
 31
0.0
100
AcDbText
 73
     2
  0
TEXT
  5
341
330
2
100
AcDbEntity
  8
0
 62
     7
100
AcDbText
 10
146.0
 20
110.0000029552498
 30
0.0
 40
2.999994089499998
  1
AL6G-A11*
 11
146.0
 21
111.4999999999999
 31
0.0
100
AcDbText
 73
     2
  0
TEXT
  5
342
330
2
100
AcDbEntity
  8
0
 62
     7
100
AcDbText
 10
146.0
 20
115.0000029552499
 30
0.0
 40
2.999994089499998
  1
AL6G-A11P*
 11
146.0
 21
116.5
 31
0.0
100
AcDbText
 73
     2
  0
ENDSEC
  0
SECTION
  2
OBJECTS
  0
DICTIONARY
  5
7
330
0
100
AcDbDictionary
281
     1
  3
ACAD_GROUP
350
1F
  3
ACAD_LAYOUT
350
B
  3
ACAD_MLINESTYLE
350
20
  3
ACAD_PLOTSETTINGS
350
21
  3
ACAD_PLOTSTYLENAME
350
6
  3
AcDbVariableDictionary
350
343
  3
ASE_INDEX_DICTIONARY
350
34C
  0
DICTIONARY
  5
1F
102
{ACAD_REACTORS
330
7
102
}
330
7
100
AcDbDictionary
281
     1
  0
DICTIONARY
  5
B
102
{ACAD_REACTORS
330
7
102
}
330
7
100
AcDbDictionary
281
     1
  3
Model
350
A
  3
ﾚｲｱｳﾄ1
350
F
  0
DICTIONARY
  5
20
102
{ACAD_REACTORS
330
7
102
}
330
7
100
AcDbDictionary
281
     1
  3
Standard
350
22
  0
DICTIONARY
  5
21
102
{ACAD_REACTORS
330
7
102
}
330
7
100
AcDbDictionary
281
     1
  0
ACDBDICTIONARYWDFLT
  5
6
102
{ACAD_REACTORS
330
7
102
}
330
7
100
AcDbDictionary
281
     1
  3
Normal
350
5
100
AcDbDictionaryWithDefault
340
5
  0
DICTIONARY
  5
343
102
{ACAD_REACTORS
330
7
102
}
330
7
100
AcDbDictionary
281
     1
  3
DIMASSOC
350
344
  0
DICTIONARY
  5
34C
102
{ACAD_REACTORS
330
7
102
}
330
7
100
AcDbDictionary
281
     1
  3
ASEBlockHierarchyIndexRecord
350
34E
1001
DCO15
1040
1518869359.453
  0
LAYOUT
  5
A
102
{ACAD_REACTORS
330
B
102
}
330
B
100
AcDbPlotSettings
  1

  2
C:\Program Files\AutoCAD 2000i\plotters\DWF Classic.pc3
  4

  6

 40
0.0
 41
0.0
 42
0.0
 43
0.0
 44
0.0
 45
0.0
 46
0.0
 47
0.0
 48
0.0
 49
0.0
140
0.0
141
0.0
142
1.0
143
1.0
 70
  1712
 72
     0
 73
     0
 74
     0
  7

 75
     0
147
1.0
148
0.0
149
0.0
100
AcDbLayout
  1
Model
 70
     1
 71
     0
 10
0.0
 20
0.0
 11
12.0
 21
9.0
 12
0.0
 22
0.0
 32
0.0
 14
0.0
 24
0.0
 34
0.0
 15
0.0
 25
0.0
 35
0.0
146
0.0
 13
0.0
 23
0.0
 33
0.0
 16
1.0
 26
0.0
 36
0.0
 17
0.0
 27
1.0
 37
0.0
 76
     0
330
2
  0
LAYOUT
  5
F
102
{ACAD_REACTORS
330
B
102
}
330
B
100
AcDbPlotSettings
  1

  2
C:\Program Files\AutoCAD 2000i\plotters\DWF Classic.pc3
  4

  6

 40
0.0
 41
0.0
 42
0.0
 43
0.0
 44
0.0
 45
0.0
 46
0.0
 47
0.0
 48
0.0
 49
0.0
140
0.0
141
0.0
142
1.0
143
1.0
 70
   688
 72
     0
 73
     0
 74
     5
  7

 75
    16
147
1.0
148
0.0
149
0.0
100
AcDbLayout
  1
ﾚｲｱｳﾄ1
 70
     1
 71
     1
 10
0.0
 20
0.0
 11
12.0
 21
9.0
 12
0.0
 22
0.0
 32
0.0
 14
1.000000000000000E+20
 24
1.000000000000000E+20
 34
1.000000000000000E+20
 15
-1.000000000000000E+20
 25
-1.000000000000000E+20
 35
-1.000000000000000E+20
146
0.0
 13
0.0
 23
0.0
 33
0.0
 16
1.0
 26
0.0
 36
0.0
 17
0.0
 27
1.0
 37
0.0
 76
     0
330
C
  0
MLINESTYLE
  5
22
102
{ACAD_REACTORS
330
20
102
}
330
20
100
AcDbMlineStyle
  2
STANDARD
 70
     0
  3

 62
   256
 51
90.0
 52
90.0
 71
     2
 49
0.5
 62
   256
  6
BYLAYER
 49
-0.5
 62
   256
  6
BYLAYER
  0
ACDBPLACEHOLDER
  5
5
102
{ACAD_REACTORS
330
6
102
}
330
6
  0
DICTIONARYVAR
  5
344
102
{ACAD_REACTORS
330
343
102
}
330
343
100
DictionaryVariables
280
     0
  1
1
  0
XRECORD
  5
34E
102
{ACAD_REACTORS
330
34C
102
}
330
34C
100
AcDbXrecord
280
     1
  0
ENDSEC
  0
EOF
