  0
SECTION
  2
HEADER
  9
$ACADVER
  1
AC1004
  9
$ANGBASE
 50
0.0000000000
  9
$ANGDIR
 70
     0
  9
$ATTDIA
 70
     0
  9
$ATTMODE
 70
     1
  9
$ATTREQ
 70
     1
  9
$AUNITS
 70
     0
  9
$AUPREC
 70
     0
  9
$AXISMODE
 70
     0
  9
$AXISUNIT
 10
0.0000000000
 20
0.0000000000
  9
$BLIPMODE
 70
     1
  9
$CECOLOR
 62
   256
  9
$CELTYPE
  6
BYLAYER
  9
$CHAMFERA
 40
0.0000000000
  9
$CHAMFERB
 40
0.0000000000
  9
$CLAYER
  8
0
  9
$COORDS
 70
     0
  9
$DIMALT
 70
     0
  9
$DIMALTD
 70
     2
  9
$DIMALTF
 40
25.4000000000
  9
$DIMAPOST
  1

  9
$DIMASO
 70
     1
  9
$DIMASZ
 40
1.9727878447
  9
$DIMBLK
  1

  9
$DIMBLK1
  1

  9
$DIMBLK2
  1

  9
$DIMCEN
 40
9.0000000000E-02
  9
$DIMDLE
 40
0.0000000000
  9
$DIMDLI
 40
0.3800000000
  9
$DIMEXE
 40
3.8099999428
  9
$DIMEXO
 40
2.5399999619
  9
$DIMLFAC
 40
1.0000000000
  9
$DIMLIM
 70
     0
  9
$DIMPOST
  1

  9
$DIMRND
 40
0.0000000000
  9
$DIMSCALE
 40
1.0000000000
  9
$DIMSE1
 70
     0
  9
$DIMSE2
 70
     0
  9
$DIMSHO
 70
     0
  9
$DIMTAD
 70
     0
  9
$DIMTIH
 70
     0
  9
$DIMTM
 40
0.0000000000
  9
$DIMTOH
 70
     1
  9
$DIMTOL
 70
     0
  9
$DIMTP
 40
0.0000000000
  9
$DIMTSZ
 40
0.0000000000
  9
$DIMTXT
 40
3.1999998093
  9
$DIMZIN
 70
     0
  9
$DRAGMODE
 70
     1
  9
$ELEVATION
 40
0.0000000000
  9
$EXTMAX
 10
3.1750000000
 20
154.9749725342
 30
0.0000000000
  9
$EXTMIN
 10
-179.0048492432
 20
-3.1750000000
 30
0.0000000000
  9
$FASTZOOM
 70
     1
  9
$FILLETRAD
 40
6.2500000000E-02
  9
$FILLMODE
 70
     1
  9
$GRIDMODE
 70
     0
  9
$GRIDUNIT
 10
0.0000000000
 20
0.0000000000
  9
$INSBASE
 10
0.0000000000
 20
0.0000000000
 30
0.0000000000
  9
$LIMCHECK
 70
     0
  9
$LIMMAX
 10
3.1750000000
 20
154.9749725342
  9
$LIMMIN
 10
-179.0048492432
 20
-3.1750000000
  9
$LTSCALE
 40
1.0000000000
  9
$LUNITS
 70
     2
  9
$LUPREC
 70
     3
  9
$MEASUREMENT
 70
     0
  9
$MENU
  1
ACAD
  9
$MIRRTEXT
 70
     0
  9
$ORTHOMODE
 70
     0
  9
$OSMODE
 70
     0
  9
$PDMODE
 70
     0
  9
$PDSIZE
 40
0.0000000000
  9
$PLINEWID
 40
0.0000000000
  9
$PROXYGRAPHICS
 70
     0
  9
$QTEXTMODE
 70
     0
  9
$REGENMODE
 70
     1
  9
$SKETCHINC
 40
0.1000000000
  9
$SKPOLY
 70
     0
  9
$SNAPANG
 50
0.0000000000
  9
$SNAPBASE
 10
0.0000000000
 20
0.0000000000
  9
$SNAPISOPAIR
 70
     0
  9
$SNAPMODE
 70
     0
  9
$SNAPSTYLE
 70
     0
  9
$SNAPUNIT
 10
1.0000000000
 20
1.0000000000
  9
$SPLFRAME
 70
     0
  9
$SPLINESEGS
 70
     8
  9
$TDCREATE
 40
2454130.8370601897
  9
$TDINDWG
 40
0.0000000000
  9
$TDUPDATE
 40
2454130.8370601897
  9
$TDUSRTIMER
 40
0.0000000000
  9
$TEXTSIZE
 40
3.1999998093
  9
$TEXTSTYLE
  7
STANDARD
  9
$THICKNESS
 40
0.0000000000
  9
$TRACEWID
 40
5.0000000000E-02
  9
$USERI1
 70
     0
  9
$USERI2
 70
     0
  9
$USERI3
 70
     0
  9
$USERI4
 70
     0
  9
$USERI5
 70
     0
  9
$USERR1
 40
0.0000000000
  9
$USERR2
 40
0.0000000000
  9
$USERR3
 40
0.0000000000
  9
$USERR4
 40
0.0000000000
  9
$USERR5
 40
0.0000000000
  9
$USRTIMER
 70
     1
  9
$VIEWCTR
 10
-87.9149246216
 20
75.8999862671
  9
$VIEWDIR
 10
0.0000000000
 20
0.0000000000
 30
1.0000000000
  9
$VIEWSIZE
 40
158.1499725342
  0
ENDSEC
  0
SECTION
  2
TABLES
  0
TABLE
  2
LTYPE
 70
     3
  0
LTYPE
  2
SOLID
  3
Solid
 70
    64
 72
    65
 73
     0
 40
0.0000000000
  0
LTYPE
  2
CENTERLINE
  3
Centerline
 70
    64
 72
    65
 73
     4
 40
25.4000000000
 49
19.0500000000
 49
-1.5875000000
 49
3.1750000000
 49
-1.5875000000
  0
LTYPE
  2
PHANTOM
  3
Phantom
 70
    64
 72
    65
 73
     6
 40
30.1625000000
 49
19.0500000000
 49
-1.5875000000
 49
3.1750000000
 49
-1.5875000000
 49
3.1750000000
 49
-1.5875000000
  0
ENDTAB
  0
TABLE
  2
LAYER
 70
     4
  0
LAYER
  2
Layer1$C$L1
 70
     0
  6
SOLID
 62
     3
  0
LAYER
  2
Layer3$C$L3
 70
     0
  6
SOLID
 62
     3
  0
LAYER
  2
Layer4$C$L4
 70
     0
  6
SOLID
 62
     3
  0
LAYER
  2
Layer8$C$L8
 70
     0
  6
SOLID
 62
    32
  0
ENDTAB
  0
TABLE
  2
STYLE
 70
     1
  0
STYLE
  2
STANDARD
  3
txt
  4

 40
0.0000000000
 41
1.0000000000
 42
3.1999998093
 50
0.0000000000
 70
     0
 71
     0
  0
ENDTAB
  0
ENDSEC
  0
SECTION
  2
BLOCKS
  0
ENDSEC
  0
SECTION
  2
ENTITIES
  0
TEXT
  8
Layer8$C$L8
 62
     7
 10
-82.7827832205
 20
44.1397790292
 40
3.1999998753
  1
AL-KH6SP
 41
0.8796414482
 72
     5
 11
-63.0788155488
 21
44.1397790292
  0
LINE
  8
Layer1$C$L1
 62
     3
 10
-56.6284332275
 20
131.4903869629
 11
-56.6284332275
 21
108.6903991699
  0
LINE
  8
Layer3$C$L3
  6
CENTERLINE
 62
     3
 10
-31.4302978516
 20
130.0903930664
 11
-58.5591430664
 21
130.0903930664
  0
LINE
  8
Layer1$C$L1
 62
     3
 10
-33.2135925293
 20
131.4903869629
 11
-34.7210693359
 21
131.4903869629
  0
LINE
  8
Layer1$C$L1
 62
     3
 10
-55.1209564209
 20
131.4903869629
 11
-56.6284332275
 21
131.4903869629
  0
LINE
  8
Layer1$C$L1
 62
     3
 10
-34.7210693359
 20
128.0903930664
 11
-44.6209564209
 21
128.0903930664
  0
LINE
  8
Layer1$C$L1
 62
     3
 10
-44.0784454346
 20
125.9903869629
 11
-46.0784454346
 21
125.9903869629
  0
LINE
  8
Layer1$C$L1
 62
     3
 10
-43.8784332275
 20
128.0903930664
 11
-43.8784332275
 21
126.1903839111
  0
LINE
  8
Layer1$C$L1
 62
     3
 10
-46.2784423828
 20
128.0903930664
 11
-46.2784423828
 21
126.1903839111
  0
LINE
  8
Layer1$C$L1
 62
     3
 10
-32.9710693359
 20
108.6903991699
 11
-56.8709564209
 21
108.6903991699
  0
LINE
  8
Layer1$C$L1
 62
     3
 10
-32.9710693359
 20
131.9903869629
 11
-56.8709564209
 21
131.9903869629
  0
LINE
  8
Layer1$C$L1
 62
     3
 10
-32.9710693359
 20
131.9903869629
 11
-32.9710693359
 21
108.6903991699
  0
LINE
  8
Layer1$C$L1
 62
     3
 10
-56.8709564209
 20
131.9903869629
 11
-56.8709564209
 21
108.6903991699
  0
LINE
  8
Layer1$C$L1
 62
     3
 10
-44.6209564209
 20
131.6903839111
 11
-44.6209564209
 21
128.3808135986
  0
LINE
  8
Layer1$C$L1
 62
     3
 10
-34.7210693359
 20
131.6903839111
 11
-34.7210693359
 21
128.0903930664
  0
LINE
  8
Layer1$C$L1
 62
     3
 10
-55.1209564209
 20
131.6903839111
 11
-55.1209564209
 21
128.0903930664
  0
LINE
  8
Layer1$C$L1
 62
     3
 10
-51.6209564209
 20
131.6903839111
 11
-51.6209564209
 21
128.3808135986
  0
LINE
  8
Layer1$C$L1
 62
     3
 10
-34.7210693359
 20
131.6903839111
 11
-44.6209564209
 21
131.6903839111
  0
LINE
  8
Layer1$C$L1
 62
     3
 10
-51.6209564209
 20
131.6903839111
 11
-55.1209564209
 21
131.6903839111
  0
LINE
  8
Layer1$C$L1
 62
     3
 10
-34.7210693359
 20
128.3808135986
 11
-44.6209564209
 21
128.3808135986
  0
LINE
  8
Layer1$C$L1
 62
     3
 10
-44.8809661865
 20
128.3808135986
 11
-55.1209564209
 21
128.3808135986
  0
LINE
  8
Layer1$C$L1
 62
     3
 10
-44.6209564209
 20
129.4903869629
 11
-51.6209564209
 21
129.4903869629
  0
LINE
  8
Layer1$C$L1
 62
     3
 10
-44.6209564209
 20
130.6903839111
 11
-51.6209564209
 21
130.6903839111
  0
LINE
  8
Layer1$C$L1
 62
     3
 10
-46.6209564209
 20
130.4903869629
 11
-46.6209564209
 21
129.6903839111
  0
LINE
  8
Layer1$C$L1
 62
     3
 10
-49.6209564209
 20
130.4903869629
 11
-49.6209564209
 21
129.6903839111
  0
LINE
  8
Layer1$C$L1
 62
     3
 10
-150.3017272949
 20
108.5000000000
 11
-174.2017364502
 21
108.5000000000
  0
LINE
  8
Layer1$C$L1
 62
     3
 10
-150.3017272949
 20
131.8999938965
 11
-174.2017364502
 21
131.8999938965
  0
LINE
  8
Layer1$C$L1
 62
     3
 10
-150.3017272949
 20
131.8999938965
 11
-150.3017272949
 21
108.5000000000
  0
LINE
  8
Layer1$C$L1
 62
     3
 10
-174.2017364502
 20
131.8999938965
 11
-174.2017364502
 21
108.5000000000
  0
LINE
  8
Layer1$C$L1
 62
     3
 10
-162.5517425537
 20
130.5999908447
 11
-162.5517425537
 21
129.3999938965
  0
LINE
  8
Layer1$C$L1
 62
     3
 10
-152.0517272949
 20
130.5999908447
 11
-152.0517272949
 21
129.3999938965
  0
LINE
  8
Layer1$C$L1
 62
     3
 10
-172.4517364502
 20
130.5999908447
 11
-172.4517364502
 21
129.3999938965
  0
LINE
  8
Layer1$C$L1
 62
     3
 10
-155.5517425537
 20
130.5999908447
 11
-155.5517425537
 21
129.3999938965
  0
LINE
  8
Layer1$C$L1
 62
     3
 10
-160.5517425537
 20
130.3999938965
 11
-160.5517425537
 21
129.5999908447
  0
LINE
  8
Layer1$C$L1
 62
     3
 10
-157.5517425537
 20
130.3999938965
 11
-157.5517425537
 21
129.5999908447
  0
LINE
  8
Layer1$C$L1
 62
     3
 10
-152.0517272949
 20
129.3999938965
 11
-172.4517364502
 21
129.3999938965
  0
LINE
  8
Layer1$C$L1
 62
     3
 10
-152.0517272949
 20
130.5999908447
 11
-172.4517364502
 21
130.5999908447
  0
LINE
  8
Layer3$C$L3
  6
CENTERLINE
 62
     3
 10
-162.2517395020
 20
133.1354980469
 11
-162.2517395020
 21
106.8658599854
  0
LINE
  8
Layer3$C$L3
  6
CENTERLINE
 62
     3
 10
-148.5771179199
 20
119.0000000000
 11
-175.8298492432
 21
119.0000000000
  0
LINE
  8
Layer3$C$L3
  6
CENTERLINE
 62
     3
 10
-31.6442871094
 20
119.0903930664
 11
-58.1882934570
 21
119.0903930664
  0
LINE
  8
Layer1$C$L1
 62
     3
 10
-109.0000152588
 20
84.3406066895
 11
-109.0000152588
 21
60.4406127930
  0
LINE
  8
Layer3$C$L3
  6
CENTERLINE
 62
     3
 10
-93.1561126709
 20
72.3906097412
 11
-111.0587310791
 21
72.3906097412
  0
LINE
  8
Layer1$C$L1
 62
     3
 10
-101.3000030518
 20
84.3406066895
 11
-101.3000030518
 21
60.4406127930
  0
LINE
  8
Layer1$C$L1
 62
     3
 10
-101.3000030518
 20
84.3406066895
 11
-109.0000152588
 21
84.3406066895
  0
LINE
  8
Layer1$C$L1
 62
     3
 10
-101.3000030518
 20
60.4406127930
 11
-109.0000152588
 21
60.4406127930
  0
LINE
  8
Layer1$C$L1
 62
     3
 10
-95.5000000000
 20
83.9440155029
 11
-95.5000000000
 21
60.8371887207
  0
LINE
  8
Layer1$C$L1
 62
     3
 10
-97.0000000000
 20
76.9042358398
 11
-97.0000000000
 21
67.8769683838
  0
LINE
  8
Layer1$C$L1
 62
     3
 10
-95.6965589343
 20
84.1439688328
 11
-101.2999894780
 21
84.2405781636
  0
LINE
  8
Layer1$C$L1
 62
     3
 10
-95.6965473761
 20
60.6371266900
 11
-101.2999931762
 21
60.5405097263
  0
LINE
  8
Layer1$C$L1
 62
     3
 10
-97.2861230343
 20
67.5772153109
 11
-101.3000638944
 21
67.3905233755
  0
LINE
  8
Layer1$C$L1
 62
     3
 10
-97.2861247620
 20
77.2039282807
 11
-101.3000651431
 21
77.3906273115
  0
LINE
  8
Layer4$C$L4
  6
PHANTOM
 62
     3
 10
-44.7509613037
 20
131.2099609375
 11
-51.4909515381
 21
131.2099609375
  0
LINE
  8
Layer4$C$L4
  6
PHANTOM
 62
     3
 10
-44.7509613037
 20
130.9499511719
 11
-51.4909515381
 21
130.9499511719
  0
LINE
  8
Layer4$C$L4
  6
PHANTOM
 62
     3
 10
-51.4909515381
 20
128.7899780273
 11
-44.8809661865
 21
128.7899780273
  0
LINE
  8
Layer4$C$L4
  6
PHANTOM
 62
     3
 10
-51.4909515381
 20
129.0499725342
 11
-44.7509613037
 21
129.0499725342
  0
LINE
  8
Layer1$C$L1
 62
     3
 10
-44.6209564209
 20
128.9199676514
 11
-44.6209564209
 21
127.1699523926
  0
LINE
  8
Layer1$C$L1
 62
     3
 10
-44.8809661865
 20
128.9199676514
 11
-44.8809661865
 21
127.2299499512
  0
LINE
  8
Layer1$C$L1
 62
     3
 10
-45.6209564209
 20
127.0299530029
 11
-45.6209564209
 21
126.7699584961
  0
LINE
  8
Layer1$C$L1
 62
     3
 10
-45.0209655762
 20
126.7699584961
 11
-45.6209564209
 21
126.7699584961
  0
LINE
  8
Layer1$C$L1
 62
     3
 10
-45.0809631348
 20
127.0299530029
 11
-45.6209564209
 21
127.0299530029
  0
LINE
  8
Layer1$C$L1
 62
     3
 10
-50.6209564209
 20
128.7899780273
 11
-50.6209564209
 21
128.3808135986
  0
LINE
  8
Layer3$C$L3
  6
CENTERLINE
 62
     3
 10
-44.9210205078
 20
134.1177978516
 11
-44.9210205078
 21
105.7213134766
  0
LINE
  8
Layer1$C$L1
 62
     3
 10
-33.2135925293
 20
108.6903991699
 11
-33.2135925293
 21
131.4903869629
  0
LINE
  8
Layer1$C$L1
 62
     3
 10
-44.8809661865
 20
128.0903930664
 11
-55.1284332275
 21
128.0903930664
  0
LINE
  8
Layer1$C$L1
 62
     3
 10
-153.9017333984
 20
108.7999877930
 11
-170.6017303467
 21
108.7999877930
  0
LINE
  8
Layer1$C$L1
 62
     3
 10
-153.9017333984
 20
129.1999969482
 11
-170.6017303467
 21
129.1999969482
  0
LINE
  8
Layer1$C$L1
 62
     3
 10
-109.4000244141
 20
81.3406066895
 11
-109.4000244141
 21
63.4405975342
  0
LINE
  8
Layer1$C$L1
 62
     3
 10
-109.0000152588
 20
81.3406066895
 11
-109.4000244141
 21
81.3406066895
  0
LINE
  8
Layer1$C$L1
 62
     3
 10
-109.0000152588
 20
63.4405975342
 11
-109.4000244141
 21
63.4405975342
  0
LINE
  8
Layer1$C$L1
 62
     3
 10
-171.2017364502
 20
128.5999908447
 11
-171.2017364502
 21
109.3999938965
  0
LINE
  8
Layer1$C$L1
 62
     3
 10
-153.3017425537
 20
128.5999908447
 11
-153.3017425537
 21
109.3999938965
  0
LINE
  8
Layer1$C$L1
 62
     3
 10
-108.9999694824
 20
131.6999511719
 11
-108.9999694824
 21
108.4999542236
  0
LINE
  8
Layer1$C$L1
 62
     3
 10
-107.4999694824
 20
128.1999511719
 11
-107.4999694824
 21
109.7999572754
  0
LINE
  8
Layer1$C$L1
 62
     3
 10
-101.4015272322
 20
131.8972673089
 11
-108.9999927334
 21
131.6999046973
  0
LINE
  8
Layer1$C$L1
 62
     3
 10
-101.3000101890
 20
108.5999109013
 11
-108.9999832727
 21
108.4999108415
  0
LINE
  8
Layer1$C$L1
 62
     3
 10
-101.4999694824
 20
109.7999572754
 11
-107.7999572754
 21
109.7999572754
  0
LINE
  8
Layer1$C$L1
 62
     3
 10
-107.7999572754
 20
128.1999511719
 11
-107.7999572754
 21
109.7999572754
  0
LINE
  8
Layer1$C$L1
 62
     3
 10
-101.2999725342
 20
109.5999603271
 11
-101.2999725342
 21
108.5999603271
  0
LINE
  8
Layer1$C$L1
 62
     3
 10
-96.2753448486
 20
131.5999603271
 11
-97.9245910645
 21
131.5999603271
  0
LINE
  8
Layer1$C$L1
 62
     3
 10
-98.7970275879
 20
130.5999603271
 11
-100.1041259766
 21
130.5999603271
  0
LINE
  8
Layer1$C$L1
 62
     3
 10
-101.4015232398
 20
131.8972721498
 11
-98.9002797826
 21
129.3960286927
  0
LINE
  8
Layer1$C$L1
 62
     3
 10
-98.5000610352
 20
128.1999511719
 11
-107.7999572754
 21
128.1999511719
  0
LINE
  8
Layer1$C$L1
 62
     3
 10
-95.5000000000
 20
129.1753082275
 11
-95.5000000000
 21
108.8999633789
  0
LINE
  8
Layer3$C$L3
  6
CENTERLINE
 62
     3
 10
-94.4783325195
 20
129.9999542236
 11
-102.2347869873
 21
129.9999542236
  0
LINE
  8
Layer1$C$L1
 62
     3
 10
-101.2999877930
 20
110.5999603271
 11
-101.2999877930
 21
108.5999603271
  0
LINE
  8
Layer1$C$L1
 62
     3
 10
-95.6964544074
 20
108.6999596962
 11
-101.3000231565
 21
108.5999265462
  0
LINE
  8
Layer1$C$L1
 62
     3
 10
-97.8999786377
 20
127.5998687744
 11
-97.8999786377
 21
110.5999603271
  0
LINE
  8
Layer1$C$L1
 62
     3
 10
-98.7002656211
 20
128.4001254183
 11
-97.9000463476
 21
127.5999242895
  0
LINE
  8
Layer1$C$L1
 62
     3
 10
-97.8999786377
 20
110.5999603271
 11
-101.2999877930
 21
110.5999603271
  0
LINE
  8
Layer3$C$L3
  6
CENTERLINE
 62
     3
 10
-94.1097259521
 20
118.9999694824
 11
-139.8204803467
 21
118.9999694824
  0
LINE
  8
Layer1$C$L1
 62
     3
 10
-107.7999572754
 20
126.9999694824
 11
-108.9999694824
 21
126.9999694824
  0
LINE
  8
Layer1$C$L1
 62
     3
 10
-107.7999572754
 20
110.9999694824
 11
-108.9999694824
 21
110.9999694824
  0
LINE
  8
Layer4$C$L4
  6
PHANTOM
 62
     3
 10
-98.5550020939
 20
129.3214453403
 11
-108.9439682312
 21
147.5352448786
  0
LINE
  8
Layer1$C$L1
 62
     3
 10
-103.0636460636
 20
148.9322230322
 11
-104.0545632694
 21
150.6694861157
  0
LINE
  8
Layer4$C$L4
  6
PHANTOM
 62
     3
 10
-108.8724110216
 20
147.8062726780
 11
-104.0545482721
 21
150.6694942434
  0
LINE
  8
Layer4$C$L4
  6
PHANTOM
 62
     3
 10
-97.5942496454
 20
132.4810205418
 11
-106.0169929741
 21
147.2476639713
  0
LINE
  8
Layer4$C$L4
  6
PHANTOM
 62
     3
 10
-96.5029637397
 20
132.1824872537
 11
-97.5942169431
 21
132.4810069246
  0
LINE
  8
Layer4$C$L4
  6
PHANTOM
 62
     3
 10
-106.0170062284
 20
147.2476564112
 11
-103.0636460636
 21
148.9322230322
  0
LINE
  8
Layer4$C$L4
  6
PHANTOM
 62
     3
 10
-95.8091737188
 20
130.9660897870
 11
-96.5029790610
 21
132.1824602375
  0
LINE
  8
Layer1$C$L1
 62
     3
 10
-109.4000244141
 20
129.1999664307
 11
-109.4000244141
 21
108.7999572754
  0
LINE
  8
Layer1$C$L1
 62
     3
 10
-109.0000152588
 20
129.1999664307
 11
-109.4000244141
 21
129.1999664307
  0
LINE
  8
Layer1$C$L1
 62
     3
 10
-109.0000152588
 20
108.7999572754
 11
-109.4000244141
 21
108.7999572754
  0
LINE
  8
Layer1$C$L1
 62
     3
 10
-109.0000152588
 20
110.8999633789
 11
-109.4000244141
 21
110.8999633789
  0
LINE
  8
Layer1$C$L1
 62
     3
 10
-109.0000152588
 20
127.0999603271
 11
-109.4000244141
 21
127.0999603271
  0
LINE
  8
Layer3$C$L3
  6
CENTERLINE
 62
     3
 10
-97.1002502441
 20
132.4722900391
 11
-97.1002502441
 21
128.3115234375
  0
LINE
  8
Layer1$C$L1
 62
     3
 10
-98.7002716064
 20
129.7994537354
 11
-98.7002716064
 21
128.4001464844
  0
LINE
  8
Layer1$C$L1
 62
     3
 10
-98.9002685547
 20
129.3960418701
 11
-98.9002685547
 21
128.1994781494
  0
ARC
  8
Layer1$C$L1
 62
     3
 10
-44.0784606934
 20
126.1904144287
 40
0.1999999881
 50
270.0000179861
 51
360.0000000000
  0
ARC
  8
Layer1$C$L1
 62
     3
 10
-46.0784606934
 20
126.1904144287
 40
0.1999999881
 50
180.0000359722
 51
270.0000179861
  0
ARC
  8
Layer1$C$L1
 62
     3
 10
-46.4209594727
 20
129.6904144287
 40
0.1999999881
 50
180.0000359722
 51
270.0000179861
  0
ARC
  8
Layer1$C$L1
 62
     3
 10
-46.4209594727
 20
130.4904174805
 40
0.1999999881
 50
89.9999273724
 51
179.9999640278
  0
ARC
  8
Layer1$C$L1
 62
     3
 10
-49.8209686279
 20
129.6904144287
 40
0.1999999881
 50
270.0000179861
 51
360.0000000000
  0
ARC
  8
Layer1$C$L1
 62
     3
 10
-49.8209686279
 20
130.4904174805
 40
0.1999999881
 50
0.0000000000
 51
89.9999273724
  0
ARC
  8
Layer1$C$L1
 62
     3
 10
-157.3517761230
 20
129.5999755859
 40
0.1999999881
 50
180.0000359722
 51
270.0000179861
  0
ARC
  8
Layer1$C$L1
 62
     3
 10
-157.3517761230
 20
130.3999786377
 40
0.1999999881
 50
89.9999273724
 51
179.9999640278
  0
ARC
  8
Layer1$C$L1
 62
     3
 10
-160.7517852783
 20
129.5999755859
 40
0.1999999881
 50
270.0000179861
 51
360.0000000000
  0
ARC
  8
Layer1$C$L1
 62
     3
 10
-160.7517852783
 20
130.3999786377
 40
0.1999999881
 50
0.0000000000
 51
89.9999273724
  0
CIRCLE
  8
Layer1$C$L1
 62
     3
 10
-152.2517852783
 20
118.9999847412
 40
1.0000000000
  0
CIRCLE
  8
Layer1$C$L1
 62
     3
 10
-172.2517852783
 20
118.9999847412
 40
1.0000000000
  0
ARC
  8
Layer1$C$L1
 62
     3
 10
-97.3000030518
 20
67.8769989014
 40
0.2999999523
 50
272.6629721397
 51
359.9998727309
  0
ARC
  8
Layer1$C$L1
 62
     3
 10
-97.3000030518
 20
76.9042663574
 40
0.2999999523
 50
359.9993809573
 51
447.3368639358
  0
ARC
  8
Layer1$C$L1
 62
     3
 10
-95.7000122070
 20
83.9440460205
 40
0.1999999881
 50
359.9986159762
 51
449.0121727354
  0
ARC
  8
Layer1$C$L1
 62
     3
 10
-95.7000122070
 20
60.8372192383
 40
0.1999999881
 50
270.9878272646
 51
359.9995995234
  0
CIRCLE
  8
Layer1$C$L1
 62
     3
 10
-44.7509765625
 20
131.0799865723
 40
0.1299999952
  0
CIRCLE
  8
Layer1$C$L1
 62
     3
 10
-51.4909667969
 20
131.0799865723
 40
0.1299999952
  0
ARC
  8
Layer1$C$L1
 62
     3
 10
-44.7509765625
 20
128.9199981689
 40
0.1299999952
 50
0.0000000000
 51
179.9999093863
  0
CIRCLE
  8
Layer1$C$L1
 62
     3
 10
-51.4909667969
 20
128.9199981689
 40
0.1299999952
  0
ARC
  8
Layer1$C$L1
 62
     3
 10
-45.0809783936
 20
127.2299804688
 40
0.1999999881
 50
270.0000179861
 51
360.0000000000
  0
ARC
  8
Layer1$C$L1
 62
     3
 10
-45.0209808350
 20
127.1699829102
 40
0.3999999762
 50
270.0000179861
 51
360.0000000000
  0
ARC
  8
Layer1$C$L1
 62
     3
 10
-159.4517822266
 20
129.4999694824
 40
9.9999964237E-02
 50
180.0000359722
 51
270.0000179861
  0
ARC
  8
Layer1$C$L1
 62
     3
 10
-159.4517822266
 20
130.4999694824
 40
9.9999964237E-02
 50
89.9999273724
 51
179.9999640278
  0
ARC
  8
Layer1$C$L1
 62
     3
 10
-162.6517944336
 20
129.4999694824
 40
9.9999964237E-02
 50
270.0000179861
 51
360.0000000000
  0
ARC
  8
Layer1$C$L1
 62
     3
 10
-162.6517944336
 20
130.4999694824
 40
9.9999964237E-02
 50
0.0000000000
 51
89.9999273724
  0
CIRCLE
  8
Layer1$C$L1
 62
     3
 10
-162.2517852783
 20
118.9999847412
 40
8.0999984741
  0
ARC
  8
Layer1$C$L1
 62
     3
 10
-153.9017639160
 20
109.3999786377
 40
0.5999999046
 50
270.0000179861
 51
360.0000000000
  0
ARC
  8
Layer1$C$L1
 62
     3
 10
-153.9017791748
 20
128.5999755859
 40
0.5999999046
 50
0.0000000000
 51
89.9999273724
  0
ARC
  8
Layer1$C$L1
 62
     3
 10
-170.6017761230
 20
128.5999755859
 40
0.5999999046
 50
89.9999273724
 51
179.9999640278
  0
ARC
  8
Layer1$C$L1
 62
     3
 10
-170.6017608643
 20
109.3999786377
 40
0.5999999046
 50
180.0000359722
 51
270.0000179861
  0
ARC
  8
Layer1$C$L1
 62
     3
 10
-101.4999694824
 20
109.5999908447
 40
0.1999999881
 50
0.0000000000
 51
89.9999273724
  0
ARC
  8
Layer1$C$L1
 62
     3
 10
-97.0999755859
 20
129.9999847412
 40
1.7999992371
 50
117.2659878976
 51
160.5287885910
  0
ARC
  8
Layer1$C$L1
 62
     3
 10
-95.6999969482
 20
108.9000091553
 40
0.1999999881
 50
270.0000179861
 51
360.0000000000
  0
ARC
  8
Layer4$C$L4
  6
PHANTOM
 62
     3
 10
-108.7702484131
 20
147.6344451904
 40
0.1999999881
 50
119.7002126763
 51
209.7000854071
  0
ARC
  8
Layer4$C$L4
  6
PHANTOM
 62
     3
 10
-97.0999755859
 20
129.9999847412
 40
21.7999877930
 50
258.8962067732
 51
468.5919208592
  0
ARC
  8
Layer1$C$L1
 62
     3
 10
-97.0999755859
 20
129.9999847412
 40
1.7999992371
 50
332.7323070596
 51
422.7339214887
  0
ARC
  8
Layer4$C$L4
  6
PHANTOM
 62
     3
 10
-97.2002258301
 20
130.1726684570
 40
1.5999994278
 50
211.7076865523
 51
300.0002305568
  0
ARC
  8
Layer4$C$L4
  6
PHANTOM
 62
     3
 10
-97.2002258301
 20
130.1726684570
 40
1.5999994278
 50
300.0002305568
 51
389.6999950208
  0
ARC
  8
Layer1$C$L1
 62
     3
 10
-97.1002655029
 20
129.7994689941
 40
1.5999994278
 50
0.0000000000
 51
89.9999820139
  0
ARC
  8
Layer1$C$L1
 62
     3
 10
-97.1002655029
 20
129.7994689941
 40
1.5999994278
 50
89.9999820139
 51
180.0000186693
  0
ENDSEC
  0
EOF
