  0
SECTION
  2
HEADER
  9
$ACADVER
  1
AC1015
  9
$ACADMAINTVER
 70
     6
  9
$DWGCODEPAGE
  3
ANSI_932
  9
$INSBASE
 10
0.0
 20
0.0
 30
0.0
  9
$EXTMIN
 10
-174.226272583
 20
16.161290322581
 30
0.0
  9
$EXTMAX
 10
-10.835739096774
 20
141.1654641425
 30
0.0
  9
$LIMMIN
 10
-215.1752441406
 20
-3.175
  9
$LIMMAX
 10
3.175
 20
300.175
  9
$ORTHOMODE
 70
     0
  9
$REGENMODE
 70
     1
  9
$FILLMODE
 70
     1
  9
$QTEXTMODE
 70
     0
  9
$MIRRTEXT
 70
     0
  9
$LTSCALE
 40
1.0
  9
$ATTMODE
 70
     1
  9
$TEXTSIZE
 40
0.2
  9
$TRACEWID
 40
0.05
  9
$TEXTSTYLE
  7
IDEC_TEXT
  9
$CLAYER
  8
中線
  9
$CELTYPE
  6
BYLAYER
  9
$CECOLOR
 62
   256
  9
$CELTSCALE
 40
1.0
  9
$DISPSILH
 70
     0
  9
$DIMSCALE
 40
1.0
  9
$DIMASZ
 40
2.0
  9
$DIMEXO
 40
0.625
  9
$DIMDLI
 40
5.0
  9
$DIMRND
 40
0.0
  9
$DIMDLE
 40
0.0
  9
$DIMEXE
 40
1.25
  9
$DIMTP
 40
0.0
  9
$DIMTM
 40
0.0
  9
$DIMTXT
 40
2.5
  9
$DIMCEN
 40
2.5
  9
$DIMTSZ
 40
0.0
  9
$DIMTOL
 70
     0
  9
$DIMLIM
 70
     0
  9
$DIMTIH
 70
     0
  9
$DIMTOH
 70
     0
  9
$DIMSE1
 70
     0
  9
$DIMSE2
 70
     0
  9
$DIMTAD
 70
     1
  9
$DIMZIN
 70
     0
  9
$DIMBLK
  1
OPEN30
  9
$DIMASO
 70
     1
  9
$DIMSHO
 70
     0
  9
$DIMPOST
  1

  9
$DIMAPOST
  1

  9
$DIMALT
 70
     0
  9
$DIMALTD
 70
     1
  9
$DIMALTF
 40
0.03937007874
  9
$DIMLFAC
 40
1.0
  9
$DIMTOFL
 70
     1
  9
$DIMTVP
 40
0.0
  9
$DIMTIX
 70
     0
  9
$DIMSOXD
 70
     0
  9
$DIMSAH
 70
     0
  9
$DIMBLK1
  1

  9
$DIMBLK2
  1

  9
$DIMSTYLE
  2
IDEC_DIM
  9
$DIMCLRD
 70
   256
  9
$DIMCLRE
 70
   256
  9
$DIMCLRT
 70
   256
  9
$DIMTFAC
 40
0.5
  9
$DIMGAP
 40
0.5
  9
$DIMJUST
 70
     0
  9
$DIMSD1
 70
     0
  9
$DIMSD2
 70
     0
  9
$DIMTOLJ
 70
     2
  9
$DIMTZIN
 70
     8
  9
$DIMALTZ
 70
     0
  9
$DIMALTTZ
 70
     0
  9
$DIMUPT
 70
     0
  9
$DIMDEC
 70
     1
  9
$DIMTDEC
 70
     1
  9
$DIMALTU
 70
     2
  9
$DIMALTTD
 70
     3
  9
$DIMTXSTY
  7
IDEC_TEXT
  9
$DIMAUNIT
 70
     1
  9
$DIMADEC
 70
     1
  9
$DIMALTRND
 40
0.0
  9
$DIMAZIN
 70
     2
  9
$DIMDSEP
 70
    46
  9
$DIMATFIT
 70
     3
  9
$DIMFRAC
 70
     0
  9
$DIMLDRBLK
  1
OPEN30
  9
$DIMLUNIT
 70
     2
  9
$DIMLWD
 70
    13
  9
$DIMLWE
 70
    13
  9
$DIMTMOVE
 70
     0
  9
$LUNITS
 70
     2
  9
$LUPREC
 70
     3
  9
$SKETCHINC
 40
0.1
  9
$FILLETRAD
 40
0.0625
  9
$AUNITS
 70
     0
  9
$AUPREC
 70
     0
  9
$MENU
  1
ACAD
  9
$ELEVATION
 40
0.0
  9
$PELEVATION
 40
0.0
  9
$THICKNESS
 40
0.0
  9
$LIMCHECK
 70
     0
  9
$CHAMFERA
 40
0.0
  9
$CHAMFERB
 40
0.0
  9
$CHAMFERC
 40
0.0
  9
$CHAMFERD
 40
0.0
  9
$SKPOLY
 70
     0
  9
$TDCREATE
 40
2455462.926886574
  9
$TDUCREATE
 40
2455462.551886574
  9
$TDUPDATE
 40
2456094.599958866
  9
$TDUUPDATE
 40
2456094.224958866
  9
$TDINDWG
 40
0.0022178009
  9
$TDUSRTIMER
 40
0.0022178009
  9
$USRTIMER
 70
     1
  9
$ANGBASE
 50
0.0
  9
$ANGDIR
 70
     0
  9
$PDMODE
 70
     0
  9
$PDSIZE
 40
0.0
  9
$PLINEWID
 40
0.0
  9
$SPLFRAME
 70
     0
  9
$SPLINETYPE
 70
     6
  9
$SPLINESEGS
 70
     8
  9
$HANDSEED
  5
429
  9
$SURFTAB1
 70
     6
  9
$SURFTAB2
 70
     6
  9
$SURFTYPE
 70
     6
  9
$SURFU
 70
     6
  9
$SURFV
 70
     6
  9
$UCSBASE
  2

  9
$UCSNAME
  2

  9
$UCSORG
 10
0.0
 20
0.0
 30
0.0
  9
$UCSXDIR
 10
1.0
 20
0.0
 30
0.0
  9
$UCSYDIR
 10
0.0
 20
1.0
 30
0.0
  9
$UCSORTHOREF
  2

  9
$UCSORTHOVIEW
 70
     0
  9
$UCSORGTOP
 10
0.0
 20
0.0
 30
0.0
  9
$UCSORGBOTTOM
 10
0.0
 20
0.0
 30
0.0
  9
$UCSORGLEFT
 10
0.0
 20
0.0
 30
0.0
  9
$UCSORGRIGHT
 10
0.0
 20
0.0
 30
0.0
  9
$UCSORGFRONT
 10
0.0
 20
0.0
 30
0.0
  9
$UCSORGBACK
 10
0.0
 20
0.0
 30
0.0
  9
$PUCSBASE
  2

  9
$PUCSNAME
  2

  9
$PUCSORG
 10
0.0
 20
0.0
 30
0.0
  9
$PUCSXDIR
 10
1.0
 20
0.0
 30
0.0
  9
$PUCSYDIR
 10
0.0
 20
1.0
 30
0.0
  9
$PUCSORTHOREF
  2

  9
$PUCSORTHOVIEW
 70
     0
  9
$PUCSORGTOP
 10
0.0
 20
0.0
 30
0.0
  9
$PUCSORGBOTTOM
 10
0.0
 20
0.0
 30
0.0
  9
$PUCSORGLEFT
 10
0.0
 20
0.0
 30
0.0
  9
$PUCSORGRIGHT
 10
0.0
 20
0.0
 30
0.0
  9
$PUCSORGFRONT
 10
0.0
 20
0.0
 30
0.0
  9
$PUCSORGBACK
 10
0.0
 20
0.0
 30
0.0
  9
$USERI1
 70
     0
  9
$USERI2
 70
     0
  9
$USERI3
 70
     0
  9
$USERI4
 70
     0
  9
$USERI5
 70
     0
  9
$USERR1
 40
0.0
  9
$USERR2
 40
0.0
  9
$USERR3
 40
0.0
  9
$USERR4
 40
0.0
  9
$USERR5
 40
0.0
  9
$WORLDVIEW
 70
     1
  9
$SHADEDGE
 70
     3
  9
$SHADEDIF
 70
    70
  9
$TILEMODE
 70
     1
  9
$MAXACTVP
 70
    32
  9
$PINSBASE
 10
0.0
 20
0.0
 30
0.0
  9
$PLIMCHECK
 70
     0
  9
$PEXTMIN
 10
1.000000000000E+20
 20
1.000000000000E+20
 30
1.000000000000E+20
  9
$PEXTMAX
 10
-1.000000000000E+20
 20
-1.000000000000E+20
 30
-1.000000000000E+20
  9
$PLIMMIN
 10
-215.1752441406
 20
-3.175
  9
$PLIMMAX
 10
3.175
 20
300.175
  9
$UNITMODE
 70
     0
  9
$VISRETAIN
 70
     0
  9
$PLINEGEN
 70
     0
  9
$PSLTSCALE
 70
     1
  9
$TREEDEPTH
 70
  3020
  9
$CMLSTYLE
  2
STANDARD
  9
$CMLJUST
 70
     0
  9
$CMLSCALE
 40
1.0
  9
$PROXYGRAPHICS
 70
     0
  9
$MEASUREMENT
 70
     0
  9
$CELWEIGHT
370
    -1
  9
$ENDCAPS
280
     0
  9
$JOINSTYLE
280
     0
  9
$LWDISPLAY
290
     0
  9
$INSUNITS
 70
     0
  9
$HYPERLINKBASE
  1

  9
$STYLESHEET
  1

  9
$XEDIT
290
     1
  9
$CEPSNTYPE
380
     0
  9
$PSTYLEMODE
290
     1
  9
$FINGERPRINTGUID
  2
{539B63B5-2B7E-430D-A09F-AF7648BA6A41}
  9
$VERSIONGUID
  2
{F973154A-4866-4D03-9716-0206A4496BCB}
  9
$EXTNAMES
290
     1
  9
$PSVPSCALE
 40
0.0
  9
$OLESTARTUP
290
     0
  0
ENDSEC
  0
SECTION
  2
CLASSES
  0
CLASS
  1
ACDBDICTIONARYWDFLT
  2
AcDbDictionaryWithDefault
  3
ObjectDBX Classes
 90
        0
280
     0
281
     0
  0
CLASS
  1
MATERIAL
  2
AcDbMaterial
  3
ObjectDBX Classes
 90
     1153
280
     0
281
     0
  0
CLASS
  1
VISUALSTYLE
  2
AcDbVisualStyle
  3
ObjectDBX Classes
 90
     4095
280
     0
281
     0
  0
CLASS
  1
TABLESTYLE
  2
AcDbTableStyle
  3
ObjectDBX Classes
 90
     4095
280
     0
281
     0
  0
CLASS
  1
DICTIONARYVAR
  2
AcDbDictionaryVar
  3
ObjectDBX Classes
 90
        0
280
     0
281
     0
  0
CLASS
  1
SCALE
  2
AcDbScale
  3
ObjectDBX Classes
 90
     1153
280
     0
281
     0
  0
CLASS
  1
SORTENTSTABLE
  2
AcDbSortentsTable
  3
ObjectDBX Classes
 90
        0
280
     0
281
     0
  0
CLASS
  1
ACDBPLACEHOLDER
  2
AcDbPlaceHolder
  3
ObjectDBX Classes
 90
        0
280
     0
281
     0
  0
CLASS
  1
LAYOUT
  2
AcDbLayout
  3
ObjectDBX Classes
 90
        0
280
     0
281
     0
  0
ENDSEC
  0
SECTION
  2
TABLES
  0
TABLE
  2
VPORT
  5
3
330
0
100
AcDbSymbolTable
 70
     1
  0
VPORT
  5
2CB
330
3
100
AcDbSymbolTableRecord
100
AcDbViewportTableRecord
  2
*Active
 70
     0
 10
0.0
 20
0.0
 11
1.0
 21
1.0
 12
-92.531005839887
 22
78.66337723254
 13
0.0
 23
0.0
 14
0.5
 24
0.5
 15
0.5
 25
0.5
 16
0.0
 26
0.0
 36
1.0
 17
0.0
 27
0.0
 37
0.0
 40
127.504257296318
 41
1.479262672811
 42
50.0
 43
0.0
 44
0.0
 50
0.0
 51
0.0
 71
    16
 72
   100
 73
     1
 74
     3
 75
     0
 76
     0
 77
     0
 78
     0
281
     0
 65
     1
110
0.0
120
0.0
130
0.0
111
1.0
121
0.0
131
0.0
112
0.0
122
1.0
132
0.0
 79
     0
146
0.0
  0
ENDTAB
  0
TABLE
  2
LTYPE
  5
4
330
0
100
AcDbSymbolTable
 70
     9
  0
LTYPE
  5
6
330
4
100
AcDbSymbolTableRecord
100
AcDbLinetypeTableRecord
  2
BYBLOCK
 70
     0
  3

 72
    65
 73
     0
 40
0.0
  0
LTYPE
  5
5
330
4
100
AcDbSymbolTableRecord
100
AcDbLinetypeTableRecord
  2
BYLAYER
 70
     0
  3

 72
    65
 73
     0
 40
0.0
  0
LTYPE
  5
2B
330
4
100
AcDbSymbolTableRecord
100
AcDbLinetypeTableRecord
  2
Continuous
 70
     0
  3
Solid line
 72
    65
 73
     0
 40
0.0
  0
LTYPE
  5
7
330
4
100
AcDbSymbolTableRecord
100
AcDbLinetypeTableRecord
  2
SOLID
 70
     0
  3
Solid
 72
    65
 73
     0
 40
0.0
  0
LTYPE
  5
B
330
4
100
AcDbSymbolTableRecord
100
AcDbLinetypeTableRecord
  2
GAP
 70
     0
  3
Gap
 72
    65
 73
     3
 40
2540.9999980092
 49
0.0
 74
     0
 49
-0.9999980092
 74
     0
 49
2540.0
 74
     0
  0
LTYPE
  5
2F5
330
4
100
AcDbSymbolTableRecord
100
AcDbLinetypeTableRecord
  2
CENTERX2
 70
     0
  3
________  __  ________  __  ________  __  ______
 72
    65
 73
     4
 40
4.0
 49
2.5
 74
     0
 49
-0.5
 74
     0
 49
0.5
 74
     0
 49
-0.5
 74
     0
  0
LTYPE
  5
2F7
330
4
100
AcDbSymbolTableRecord
100
AcDbLinetypeTableRecord
  2
PHANTOMX2
 70
     0
  3
____________    ____    ____    ____________    
 72
    65
 73
     6
 40
5.0
 49
2.5
 74
     0
 49
-0.5
 74
     0
 49
0.5
 74
     0
 49
-0.5
 74
     0
 49
0.5
 74
     0
 49
-0.5
 74
     0
  0
LTYPE
  5
2FD
330
4
100
AcDbSymbolTableRecord
100
AcDbLinetypeTableRecord
  2
DASHEDX2
 70
     0
  3
____  ____  ____  ____  ____  ____  ____  ____  
 72
    65
 73
     2
 40
1.5
 49
1.0
 74
     0
 49
-0.5
 74
     0
  0
ENDTAB
  0
TABLE
  2
LAYER
  5
D
330
0
100
AcDbSymbolTable
 70
    21
  0
LAYER
  5
E
330
D
100
AcDbSymbolTableRecord
100
AcDbLayerTableRecord
  2
0
 70
     0
 62
     7
  6
Continuous
370
    -3
390
2AB
  0
LAYER
  5
16
330
D
100
AcDbSymbolTableRecord
100
AcDbLayerTableRecord
  2
VIEWPORTS
 70
     0
 62
     7
  6
SOLID
370
    -3
390
2AB
  0
LAYER
  5
2F2
330
D
100
AcDbSymbolTableRecord
100
AcDbLayerTableRecord
  2
Defpoints
 70
     0
 62
     7
  6
Continuous
290
     0
370
    -3
390
2AB
  0
LAYER
  5
2F3
330
D
100
AcDbSymbolTableRecord
100
AcDbLayerTableRecord
  2
CENTER
 70
     0
 62
     7
  6
CENTERX2
370
    13
390
2AB
  0
LAYER
  5
2F6
330
D
100
AcDbSymbolTableRecord
100
AcDbLayerTableRecord
  2
PHANTOM
 70
     0
 62
     4
  6
PHANTOMX2
370
    13
390
2AB
  0
LAYER
  5
2F8
330
D
100
AcDbSymbolTableRecord
100
AcDbLayerTableRecord
  2
太線
 70
     0
 62
     5
  6
Continuous
370
    40
390
2AB
  0
LAYER
  5
2F9
330
D
100
AcDbSymbolTableRecord
100
AcDbLayerTableRecord
  2
細線
 70
     0
 62
     7
  6
Continuous
370
    13
390
2AB
  0
LAYER
  5
2FA
330
D
100
AcDbSymbolTableRecord
100
AcDbLayerTableRecord
  2
中線
 70
     0
 62
     3
  6
Continuous
370
    25
390
2AB
  0
LAYER
  5
2FB
330
D
100
AcDbSymbolTableRecord
100
AcDbLayerTableRecord
  2
IDEC_DIM
 70
     0
 62
     2
  6
Continuous
370
    13
390
2AB
  0
LAYER
  5
2FC
330
D
100
AcDbSymbolTableRecord
100
AcDbLayerTableRecord
  2
HIDDEN
 70
     0
 62
     6
  6
DASHEDX2
370
    13
390
2AB
  0
LAYER
  5
2FE
330
D
100
AcDbSymbolTableRecord
100
AcDbLayerTableRecord
  2
CMNT
 70
     0
 62
     7
  6
Continuous
370
    13
390
2AB
  0
LAYER
  5
2FF
330
D
100
AcDbSymbolTableRecord
100
AcDbLayerTableRecord
  2
IDEC_DRAWINGFRAME
 70
     4
 62
     3
  6
Continuous
370
    13
390
2AB
  0
LAYER
  5
300
330
D
100
AcDbSymbolTableRecord
100
AcDbLayerTableRecord
  2
DIF_SCALE_TEXT
 70
     0
 62
   250
  6
Continuous
290
     0
370
     0
390
2AB
  0
LAYER
  5
301
330
D
100
AcDbSymbolTableRecord
100
AcDbLayerTableRecord
  2
DIF_SCALE_AREA
 70
     0
 62
   250
  6
Continuous
290
     0
370
     0
390
2AB
  0
ENDTAB
  0
TABLE
  2
STYLE
  5
17
330
0
100
AcDbSymbolTable
 70
     2
  0
STYLE
  5
18
330
17
100
AcDbSymbolTableRecord
100
AcDbTextStyleTableRecord
  2
STANDARD
 70
     0
 40
0.0
 41
1.0
 50
0.0
 71
     0
 42
3.0
  3
simplex.shx
  4
extfont2.shx
  0
STYLE
  5
303
330
17
100
AcDbSymbolTableRecord
100
AcDbTextStyleTableRecord
  2
IDEC_TEXT
 70
     0
 40
0.0
 41
1.0
 50
0.0
 71
     0
 42
0.2
  3
simplex.shx
  4
extfont2.shx
  0
ENDTAB
  0
TABLE
  2
VIEW
  5
21
330
0
100
AcDbSymbolTable
 70
     0
  0
ENDTAB
  0
TABLE
  2
UCS
  5
22
330
0
100
AcDbSymbolTable
 70
     0
  0
ENDTAB
  0
TABLE
  2
APPID
  5
1F
330
0
100
AcDbSymbolTable
 70
     5
  0
APPID
  5
20
330
1F
100
AcDbSymbolTableRecord
100
AcDbRegAppTableRecord
  2
ACAD
 70
     0
  0
APPID
  5
30A
330
1F
100
AcDbSymbolTableRecord
100
AcDbRegAppTableRecord
  2
BJM_BLN_TBL
 70
     0
  0
APPID
  5
30B
330
1F
100
AcDbSymbolTableRecord
100
AcDbRegAppTableRecord
  2
DENKISCL
 70
     0
  0
APPID
  5
30C
330
1F
100
AcDbSymbolTableRecord
100
AcDbRegAppTableRecord
  2
DENKISCLORG
 70
     0
  0
APPID
  5
402
330
1F
100
AcDbSymbolTableRecord
100
AcDbRegAppTableRecord
  2
ACAD_DSTYLE_DIMTEXT_FILL
 70
     0
  0
ENDTAB
  0
TABLE
  2
DIMSTYLE
  5
19
330
0
100
AcDbSymbolTable
 70
     6
100
AcDbDimStyleTable
  0
DIMSTYLE
105
302
102
{ACAD_REACTORS
330
345
330
35A
102
}
330
19
100
AcDbSymbolTableRecord
100
AcDbDimStyleTableRecord
  2
IDEC_DIM
 70
     0
 41
2.0
 42
0.625
 43
5.0
 44
1.25
 73
     0
 74
     0
 77
     1
 79
     2
140
2.5
141
2.5
143
0.03937007874
146
0.5
147
0.5
171
     1
172
     1
176
   256
177
   256
271
     1
178
   256
179
     1
271
     1
272
     1
274
     3
275
     1
283
     2
284
     8
340
303
341
304
342
304
371
    13
372
    13
1001
ACAD_DSTYLE_DIMTEXT_FILL
1070
   376
1070
     0
  0
ENDTAB
  0
TABLE
  2
BLOCK_RECORD
  5
23
330
0
100
AcDbSymbolTable
 70
    35
  0
BLOCK_RECORD
  5
24
330
23
100
AcDbSymbolTableRecord
100
AcDbBlockTableRecord
  2
*MODEL_SPACE
340
2C7
  0
BLOCK_RECORD
  5
25
330
23
100
AcDbSymbolTableRecord
100
AcDbBlockTableRecord
  2
*PAPER_SPACE
340
2C8
  0
BLOCK_RECORD
  5
27
330
23
100
AcDbSymbolTableRecord
100
AcDbBlockTableRecord
  2
*D1
340
0
  0
BLOCK_RECORD
  5
90
330
23
100
AcDbSymbolTableRecord
100
AcDbBlockTableRecord
  2
*D3
340
0
  0
BLOCK_RECORD
  5
93
330
23
100
AcDbSymbolTableRecord
100
AcDbBlockTableRecord
  2
*D6
340
0
  0
BLOCK_RECORD
  5
94
330
23
100
AcDbSymbolTableRecord
100
AcDbBlockTableRecord
  2
*D7
340
0
  0
BLOCK_RECORD
  5
95
330
23
100
AcDbSymbolTableRecord
100
AcDbBlockTableRecord
  2
*D8
340
0
  0
BLOCK_RECORD
  5
96
330
23
100
AcDbSymbolTableRecord
100
AcDbBlockTableRecord
  2
*D9
340
0
  0
BLOCK_RECORD
  5
97
330
23
100
AcDbSymbolTableRecord
100
AcDbBlockTableRecord
  2
*D10
340
0
  0
BLOCK_RECORD
  5
98
330
23
100
AcDbSymbolTableRecord
100
AcDbBlockTableRecord
  2
*D11
340
0
  0
BLOCK_RECORD
  5
99
330
23
100
AcDbSymbolTableRecord
100
AcDbBlockTableRecord
  2
*D12
340
0
  0
BLOCK_RECORD
  5
9A
330
23
100
AcDbSymbolTableRecord
100
AcDbBlockTableRecord
  2
*D13
340
0
  0
BLOCK_RECORD
  5
304
330
23
100
AcDbSymbolTableRecord
100
AcDbBlockTableRecord
  2
_OPEN30
340
0
102
{BLKREFS
331
37A
331
379
331
388
331
387
331
395
331
394
331
39F
331
39E
331
3AB
331
3AA
331
3B7
331
3B6
331
0
331
3C3
331
3D0
331
3CF
331
3DC
331
3DB
331
3E8
331
3E7
331
3C2
331
3F5
331
3F4
102
}
  0
BLOCK_RECORD
  5
346
330
23
100
AcDbSymbolTableRecord
100
AcDbBlockTableRecord
  2
*D20
340
0
  0
BLOCK_RECORD
  5
34C
102
{ACAD_XDICTIONARY
360
34D
102
}
330
23
100
AcDbSymbolTableRecord
100
AcDbBlockTableRecord
  2
_IDEC_OPEN30
340
0
102
{BLKREFS
331
34B
331
354
102
}
1001
ACAD
1000
DesignCenter Data
1002
{
1070
     1
1070
     4
1002
}
  0
BLOCK_RECORD
  5
35B
330
23
100
AcDbSymbolTableRecord
100
AcDbBlockTableRecord
  2
*D22
340
0
  0
BLOCK_RECORD
  5
361
102
{ACAD_XDICTIONARY
360
362
102
}
330
23
100
AcDbSymbolTableRecord
100
AcDbBlockTableRecord
  2
_IDEC_OPEN30R
340
0
102
{BLKREFS
331
360
331
369
102
}
1001
ACAD
1000
DesignCenter Data
1002
{
1070
     1
1070
     4
1002
}
  0
BLOCK_RECORD
  5
377
330
23
100
AcDbSymbolTableRecord
100
AcDbBlockTableRecord
  2
*D24
340
0
  0
BLOCK_RECORD
  5
383
330
23
100
AcDbSymbolTableRecord
100
AcDbBlockTableRecord
  2
*D25
340
0
  0
BLOCK_RECORD
  5
38F
330
23
100
AcDbSymbolTableRecord
100
AcDbBlockTableRecord
  2
*D26
340
0
  0
BLOCK_RECORD
  5
39A
330
23
100
AcDbSymbolTableRecord
100
AcDbBlockTableRecord
  2
*D27
340
0
  0
BLOCK_RECORD
  5
3A6
330
23
100
AcDbSymbolTableRecord
100
AcDbBlockTableRecord
  2
*D28
340
0
  0
BLOCK_RECORD
  5
3B2
330
23
100
AcDbSymbolTableRecord
100
AcDbBlockTableRecord
  2
*D29
340
0
  0
BLOCK_RECORD
  5
3BE
330
23
100
AcDbSymbolTableRecord
100
AcDbBlockTableRecord
  2
*D30
340
0
  0
BLOCK_RECORD
  5
3CB
330
23
100
AcDbSymbolTableRecord
100
AcDbBlockTableRecord
  2
*D31
340
0
  0
BLOCK_RECORD
  5
3D7
330
23
100
AcDbSymbolTableRecord
100
AcDbBlockTableRecord
  2
*D32
340
0
  0
BLOCK_RECORD
  5
3E3
330
23
100
AcDbSymbolTableRecord
100
AcDbBlockTableRecord
  2
*D33
340
0
  0
BLOCK_RECORD
  5
3F0
330
23
100
AcDbSymbolTableRecord
100
AcDbBlockTableRecord
  2
*D34
340
0
  0
ENDTAB
  0
ENDSEC
  0
SECTION
  2
BLOCKS
  0
BLOCK
  5
9F
330
24
100
AcDbEntity
  8
0
100
AcDbBlockBegin
  2
*MODEL_SPACE
 70
     0
 10
0.0
 20
0.0
 30
0.0
  3
*MODEL_SPACE
  1
*MODEL_SPACE
  0
ENDBLK
  5
376
330
24
100
AcDbEntity
  8
0
100
AcDbBlockEnd
  0
BLOCK
  5
A1
330
25
100
AcDbEntity
 67
     1
  8
0
100
AcDbBlockBegin
  2
*PAPER_SPACE
 70
     0
 10
0.0
 20
0.0
 30
0.0
  3
*PAPER_SPACE
  1
*PAPER_SPACE
  0
ENDBLK
  5
A2
330
25
100
AcDbEntity
 67
     1
  8
0
100
AcDbBlockEnd
  0
BLOCK
  5
A3
330
27
100
AcDbEntity
  8
0
100
AcDbBlockBegin
  2
*D1
 70
     1
 10
0.0
 20
0.0
 30
0.0
  3
*D1
  1
*D1
  0
LINE
  5
A4
330
27
100
AcDbEntity
  8
0
100
AcDbLine
 10
-92.0662841797
 20
115.2666508828
 30
0.0
 11
-90.0833944569
 21
115.0055984983
 31
0.0
  0
LINE
  5
A5
330
27
100
AcDbEntity
  8
0
100
AcDbLine
 10
-92.0662841797
 20
115.2666508828
 30
0.0
 11
-90.0833944569
 21
115.5277032672
 31
0.0
  0
LINE
  5
A6
330
27
100
AcDbEntity
  8
0
100
AcDbLine
 10
-76.501626052
 20
137.4952863635
 30
0.0
 11
-76.0687468241
 21
135.5426943493
 31
0.0
  0
LINE
  5
A7
330
27
100
AcDbEntity
  8
0
100
AcDbLine
 10
-76.501626052
 20
137.4952863635
 30
0.0
 11
-75.5781288255
 21
135.7212646971
 31
0.0
  0
ARC
  5
A8
330
27
100
AcDbEntity
  8
0
100
AcDbCircle
 10
-92.0662841797
 20
131.8302140985
 30
0.0
 40
16.5635632157
100
AcDbArc
 50
270.0
 51
380.0
  0
LINE
  5
A9
330
27
100
AcDbEntity
  8
0
  6
GAP
100
AcDbLine
 10
-92.0662841797
 20
112.7040166855
 30
0.0
 11
-92.0662841797
 21
116.7666479025
 31
0.0
  0
LINE
  5
AA
330
27
100
AcDbEntity
  8
0
  6
GAP
100
AcDbLine
 10
-78.5224580358
 20
136.7597636729
 30
0.0
 11
-77.9111621826
 21
136.9822571678
 31
0.0
  0
TEXT
  5
AB
330
27
100
AcDbEntity
  8
0
100
AcDbText
 10
-81.5839442521
 20
118.7945792646
 30
0.0
 40
2.4999949932
  1
110%%d
 50
54.999999254065
 41
1.49304098983
 72
     5
 11
-76.2316228076
 21
126.4384862552
 31
0.0
100
AcDbText
  0
ENDBLK
  5
AC
330
27
100
AcDbEntity
  8
0
100
AcDbBlockEnd
  0
BLOCK
  5
AD
330
90
100
AcDbEntity
  8
0
100
AcDbBlockBegin
  2
*D3
 70
     1
 10
0.0
 20
0.0
 30
0.0
  3
*D3
  1
*D3
  0
LINE
  5
AE
330
90
100
AcDbEntity
  8
0
100
AcDbLine
 10
-106.0662841797
 20
143.6640167236
 30
0.0
 11
-104.1047136189
 21
143.2738360796
 31
0.0
  0
LINE
  5
AF
330
90
100
AcDbEntity
  8
0
100
AcDbLine
 10
-106.0662841797
 20
143.6640167236
 30
0.0
 11
-104.1047136189
 21
144.0541973677
 31
0.0
  0
LINE
  5
B0
330
90
100
AcDbEntity
  8
0
100
AcDbLine
 10
-74.0662994385
 20
143.6640167236
 30
0.0
 11
-76.0278699993
 21
144.0541973677
 31
0.0
  0
LINE
  5
B1
330
90
100
AcDbEntity
  8
0
100
AcDbLine
 10
-74.0662994385
 20
143.6640167236
 30
0.0
 11
-76.0278699993
 21
143.2738360796
 31
0.0
  0
LINE
  5
B2
330
90
100
AcDbEntity
  8
0
100
AcDbLine
 10
-106.0662841797
 20
143.6640167236
 30
0.0
 11
-74.0662994385
 21
143.6640167236
 31
0.0
  0
LINE
  5
B3
330
90
100
AcDbEntity
  8
0
  6
GAP
100
AcDbLine
 10
-106.0662841797
 20
136.2040166855
 30
0.0
 11
-106.0662841797
 21
145.1640014648
 31
0.0
  0
LINE
  5
B4
330
90
100
AcDbEntity
  8
0
  6
GAP
100
AcDbLine
 10
-74.0662994385
 20
136.7039556503
 30
0.0
 11
-74.0662994385
 21
145.1640014648
 31
0.0
  0
TEXT
  5
B5
330
90
100
AcDbEntity
  8
0
100
AcDbText
 10
-92.2320364983
 20
144.1640167244
 30
0.0
 40
2.4999990463
  1
32
 41
1.0395615095
 72
     5
 11
-87.9005318611
 21
144.1640167244
 31
0.0
100
AcDbText
  0
ENDBLK
  5
B6
330
90
100
AcDbEntity
  8
0
100
AcDbBlockEnd
  0
BLOCK
  5
B7
330
93
100
AcDbEntity
  8
0
100
AcDbBlockBegin
  2
*D6
 70
     1
 10
0.0
 20
0.0
 30
0.0
  3
*D6
  1
*D6
  0
LINE
  5
B8
330
93
100
AcDbEntity
  8
0
100
AcDbLine
 10
-43.1818648656
 20
219.6443348994
 30
0.0
 11
-41.6595247871
 21
220.9414396312
 31
0.0
  0
LINE
  5
B9
330
93
100
AcDbEntity
  8
0
100
AcDbLine
 10
-43.1818648656
 20
219.6443348994
 30
0.0
 11
-42.2717865164
 21
221.4252777391
 31
0.0
  0
LINE
  5
BA
330
93
100
AcDbEntity
  8
0
100
AcDbLine
 10
-33.1375741051
 20
232.3546500452
 30
0.0
 11
-34.6599141837
 21
231.0575453134
 31
0.0
  0
LINE
  5
BB
330
93
100
AcDbEntity
  8
0
100
AcDbLine
 10
-33.1375741051
 20
232.3546500452
 30
0.0
 11
-34.0476524543
 21
230.5737072055
 31
0.0
  0
LINE
  5
BC
330
93
100
AcDbEntity
  8
0
100
AcDbLine
 10
-43.1818648656
 20
219.6443348994
 30
0.0
 11
-33.1375741051
 21
232.3546500452
 31
0.0
  0
LINE
  5
BD
330
93
100
AcDbEntity
  8
0
100
AcDbLine
 10
-33.1375741051
 20
232.3546500452
 30
0.0
 11
-15.8228544815
 21
254.2651610336
 31
0.0
  0
TEXT
  5
BE
330
93
100
AcDbEntity
  8
0
100
AcDbText
 10
-27.3593063936
 20
240.6746598817
 30
0.0
 40
2.4999990979
  1
%%c16.2
 50
51.682545181145
 41
1.285255214822
 72
     5
 11
-20.0545622098
 21
249.9182792522
 31
0.0
100
AcDbText
  0
TEXT
  5
BF
330
93
100
AcDbEntity
  8
0
100
AcDbText
 10
-21.1111852624
 20
251.6053042502
 30
0.0
 40
1.249999549
  1
+0.2
 50
51.682545181532
 41
1.317389108612
 72
     5
 11
-18.2183350294
 21
255.2659945875
 31
0.0
100
AcDbText
  0
TEXT
  5
C0
330
93
100
AcDbEntity
  8
0
100
AcDbText
 10
-19.6400842197
 20
250.4427707928
 30
0.0
 40
1.249999549
  1
 0
 50
51.682545178555
 41
1.155068343853
 72
     5
 11
-18.2972785965
 21
252.141993073
 31
0.0
100
AcDbText
  0
ENDBLK
  5
C1
330
93
100
AcDbEntity
  8
0
100
AcDbBlockEnd
  0
BLOCK
  5
C2
330
94
100
AcDbEntity
  8
0
100
AcDbBlockBegin
  2
*D7
 70
     1
 10
0.0
 20
0.0
 30
0.0
  3
*D7
  1
*D7
  0
LINE
  5
C3
330
94
100
AcDbEntity
  8
0
100
AcDbLine
 10
-106.0662841797
 20
48.171875
 30
0.0
 11
-104.1047136189
 21
47.781694356
 31
0.0
  0
LINE
  5
C4
330
94
100
AcDbEntity
  8
0
100
AcDbLine
 10
-106.0662841797
 20
48.171875
 30
0.0
 11
-104.1047136189
 21
48.562055644
 31
0.0
  0
LINE
  5
C5
330
94
100
AcDbEntity
  8
0
100
AcDbLine
 10
-92.0662841797
 20
48.171875
 30
0.0
 11
-94.0278547405
 21
48.562055644
 31
0.0
  0
LINE
  5
C6
330
94
100
AcDbEntity
  8
0
100
AcDbLine
 10
-92.0662841797
 20
48.171875
 30
0.0
 11
-94.0278547405
 21
47.781694356
 31
0.0
  0
LINE
  5
C7
330
94
100
AcDbEntity
  8
0
100
AcDbLine
 10
-106.0662841797
 20
48.171875
 30
0.0
 11
-92.0662841797
 21
48.171875
 31
0.0
  0
LINE
  5
C8
330
94
100
AcDbEntity
  8
0
  6
GAP
100
AcDbLine
 10
-106.0662841797
 20
55.6318750381
 30
0.0
 11
-106.0662841797
 21
46.671875
 31
0.0
  0
LINE
  5
C9
330
94
100
AcDbEntity
  8
0
  6
GAP
100
AcDbLine
 10
-92.0662841797
 20
55.6318750381
 30
0.0
 11
-92.0662841797
 21
46.671875
 31
0.0
  0
TEXT
  5
CA
330
94
100
AcDbEntity
  8
0
100
AcDbText
 10
-101.2320364983
 20
48.6718750008
 30
0.0
 40
2.4999990463
  1
14
 41
1.299451886875
 72
     5
 11
-96.9005318611
 21
48.6718750008
 31
0.0
100
AcDbText
  0
ENDBLK
  5
CB
330
94
100
AcDbEntity
  8
0
100
AcDbBlockEnd
  0
BLOCK
  5
CC
330
95
100
AcDbEntity
  8
0
100
AcDbBlockBegin
  2
*D8
 70
     1
 10
0.0
 20
0.0
 30
0.0
  3
*D8
  1
*D8
  0
LINE
  5
CD
330
95
100
AcDbEntity
  8
0
100
AcDbLine
 10
-19.2702026367
 20
110.1639709473
 30
0.0
 11
-18.8800219927
 21
112.1255415081
 31
0.0
  0
LINE
  5
CE
330
95
100
AcDbEntity
  8
0
100
AcDbLine
 10
-19.2702026367
 20
110.1639709473
 30
0.0
 11
-19.6603832808
 21
112.1255415081
 31
0.0
  0
LINE
  5
CF
330
95
100
AcDbEntity
  8
0
100
AcDbLine
 10
-19.2702026367
 20
133.6639709473
 30
0.0
 11
-19.6603832808
 21
131.7024003865
 31
0.0
  0
LINE
  5
D0
330
95
100
AcDbEntity
  8
0
100
AcDbLine
 10
-19.2702026367
 20
133.6639709473
 30
0.0
 11
-18.8800219927
 21
131.7024003865
 31
0.0
  0
LINE
  5
D1
330
95
100
AcDbEntity
  8
0
100
AcDbLine
 10
-19.2702026367
 20
110.1639709473
 30
0.0
 11
-19.2702026367
 21
133.6639709473
 31
0.0
  0
LINE
  5
D2
330
95
100
AcDbEntity
  8
0
  6
GAP
100
AcDbLine
 10
-32.0302057266
 20
110.1639709473
 30
0.0
 11
-17.7702178955
 21
110.1639709473
 31
0.0
  0
LINE
  5
D3
330
95
100
AcDbEntity
  8
0
  6
GAP
100
AcDbLine
 10
-32.0302057266
 20
133.6639709473
 30
0.0
 11
-17.7702178955
 21
133.6639709473
 31
0.0
  0
TEXT
  5
D4
330
95
100
AcDbEntity
  8
0
100
AcDbText
 10
-19.8952023983
 20
117.2482195376
 30
0.0
 40
2.4999990979
  1
23.5
 50
90.0
 41
1.244200824864
 72
     5
 11
-19.8952023983
 21
126.5797223569
 31
0.0
100
AcDbText
  0
ENDBLK
  5
D5
330
95
100
AcDbEntity
  8
0
100
AcDbBlockEnd
  0
BLOCK
  5
D6
330
96
100
AcDbEntity
  8
0
100
AcDbBlockBegin
  2
*D9
 70
     1
 10
0.0
 20
0.0
 30
0.0
  3
*D9
  1
*D9
  0
LINE
  5
D7
330
96
100
AcDbEntity
  8
0
100
AcDbLine
 10
-24.2702026367
 20
120.6640167236
 30
0.0
 11
-23.8800219927
 21
122.6255872844
 31
0.0
  0
LINE
  5
D8
330
96
100
AcDbEntity
  8
0
100
AcDbLine
 10
-24.2702026367
 20
120.6640167236
 30
0.0
 11
-24.6603832808
 21
122.6255872844
 31
0.0
  0
LINE
  5
D9
330
96
100
AcDbEntity
  8
0
100
AcDbLine
 10
-24.2702026367
 20
133.6639709473
 30
0.0
 11
-24.6603832808
 21
131.7024003865
 31
0.0
  0
LINE
  5
DA
330
96
100
AcDbEntity
  8
0
100
AcDbLine
 10
-24.2702026367
 20
133.6639709473
 30
0.0
 11
-23.8800219927
 21
131.7024003865
 31
0.0
  0
LINE
  5
DB
330
96
100
AcDbEntity
  8
0
100
AcDbLine
 10
-24.2702026367
 20
120.6640167236
 30
0.0
 11
-24.2702026367
 21
133.6639709473
 31
0.0
  0
LINE
  5
DC
330
96
100
AcDbEntity
  8
0
  6
GAP
100
AcDbLine
 10
-31.7302026749
 20
120.6640167236
 30
0.0
 11
-22.7702178955
 21
120.6640167236
 31
0.0
  0
LINE
  5
DD
330
96
100
AcDbEntity
  8
0
  6
GAP
100
AcDbLine
 10
-32.0302057266
 20
133.6639709473
 30
0.0
 11
-22.7702178955
 21
133.6639709473
 31
0.0
  0
TEXT
  5
DE
330
96
100
AcDbEntity
  8
0
100
AcDbText
 10
-24.7702026375
 20
124.9982338109
 30
0.0
 40
2.4999990463
  1
13
 50
90.0
 41
1.299451886905
 72
     5
 11
-24.7702026375
 21
129.3297384482
 31
0.0
100
AcDbText
  0
ENDBLK
  5
DF
330
96
100
AcDbEntity
  8
0
100
AcDbBlockEnd
  0
BLOCK
  5
E0
330
97
100
AcDbEntity
  8
0
100
AcDbBlockBegin
  2
*D10
 70
     1
 10
0.0
 20
0.0
 30
0.0
  3
*D10
  1
*D10
  0
LINE
  5
E1
330
97
100
AcDbEntity
  8
0
100
AcDbLine
 10
-29.2702026367
 20
120.6640167236
 30
0.0
 11
-28.8800219927
 21
122.6255872844
 31
0.0
  0
LINE
  5
E2
330
97
100
AcDbEntity
  8
0
100
AcDbLine
 10
-29.2702026367
 20
120.6640167236
 30
0.0
 11
-29.6603832808
 21
122.6255872844
 31
0.0
  0
LINE
  5
E3
330
97
100
AcDbEntity
  8
0
100
AcDbLine
 10
-29.2702026367
 20
131.1639709473
 30
0.0
 11
-29.6603832808
 21
129.2024003865
 31
0.0
  0
LINE
  5
E4
330
97
100
AcDbEntity
  8
0
100
AcDbLine
 10
-29.2702026367
 20
131.1639709473
 30
0.0
 11
-28.8800219927
 21
129.2024003865
 31
0.0
  0
LINE
  5
E5
330
97
100
AcDbEntity
  8
0
100
AcDbLine
 10
-29.2702026367
 20
120.6640167236
 30
0.0
 11
-29.2702026367
 21
131.1639709473
 31
0.0
  0
LINE
  5
E6
330
97
100
AcDbEntity
  8
0
  6
GAP
100
AcDbLine
 10
-31.7302026749
 20
120.6640167236
 30
0.0
 11
-27.7702178955
 21
120.6640167236
 31
0.0
  0
LINE
  5
E7
330
97
100
AcDbEntity
  8
0
  6
GAP
100
AcDbLine
 10
-33.0212335587
 20
131.1639709473
 30
0.0
 11
-27.7702178955
 21
131.1639709473
 31
0.0
  0
TEXT
  5
E8
330
97
100
AcDbEntity
  8
0
100
AcDbText
 10
-29.8952023983
 20
121.2482347964
 30
0.0
 40
2.4999990979
  1
10.5
 50
90.0
 41
1.493040989837
 72
     5
 11
-29.8952023983
 21
130.5797376157
 31
0.0
100
AcDbText
  0
ENDBLK
  5
E9
330
97
100
AcDbEntity
  8
0
100
AcDbBlockEnd
  0
BLOCK
  5
EA
330
98
100
AcDbEntity
  8
0
100
AcDbBlockBegin
  2
*D11
 70
     1
 10
0.0
 20
0.0
 30
0.0
  3
*D11
  1
*D11
  0
LINE
  5
EB
330
98
100
AcDbEntity
  8
0
100
AcDbLine
 10
-58.2702026367
 20
143.6639709473
 30
0.0
 11
-56.3086320759
 21
143.2737903032
 31
0.0
  0
LINE
  5
EC
330
98
100
AcDbEntity
  8
0
100
AcDbLine
 10
-58.2702026367
 20
143.6639709473
 30
0.0
 11
-56.3086320759
 21
144.0541515913
 31
0.0
  0
LINE
  5
ED
330
98
100
AcDbEntity
  8
0
100
AcDbLine
 10
-34.2702026367
 20
143.6639709473
 30
0.0
 11
-36.2317731975
 21
144.0541515913
 31
0.0
  0
LINE
  5
EE
330
98
100
AcDbEntity
  8
0
100
AcDbLine
 10
-34.2702026367
 20
143.6639709473
 30
0.0
 11
-36.2317731975
 21
143.2737903032
 31
0.0
  0
LINE
  5
EF
330
98
100
AcDbEntity
  8
0
100
AcDbLine
 10
-58.2702026367
 20
143.6639709473
 30
0.0
 11
-34.2702026367
 21
143.6639709473
 31
0.0
  0
LINE
  5
F0
330
98
100
AcDbEntity
  8
0
  6
GAP
100
AcDbLine
 10
-58.2702026367
 20
135.9039678574
 30
0.0
 11
-58.2702026367
 21
145.1639556885
 31
0.0
  0
LINE
  5
F1
330
98
100
AcDbEntity
  8
0
  6
GAP
100
AcDbLine
 10
-34.2702026367
 20
135.9039678574
 30
0.0
 11
-34.2702026367
 21
145.1639556885
 31
0.0
  0
TEXT
  5
F2
330
98
100
AcDbEntity
  8
0
100
AcDbText
 10
-48.4359549553
 20
144.163970948
 30
0.0
 40
2.4999990463
  1
24
 41
1.0395615095
 72
     5
 11
-44.1044503181
 21
144.163970948
 31
0.0
100
AcDbText
  0
ENDBLK
  5
F3
330
98
100
AcDbEntity
  8
0
100
AcDbBlockEnd
  0
BLOCK
  5
F4
330
99
100
AcDbEntity
  8
0
100
AcDbBlockBegin
  2
*D12
 70
     1
 10
0.0
 20
0.0
 30
0.0
  3
*D12
  1
*D12
  0
LINE
  5
F5
330
99
100
AcDbEntity
  8
0
100
AcDbLine
 10
-77.4099578857
 20
197.5
 30
0.0
 11
-77.0197772417
 21
199.4615705608
 31
0.0
  0
LINE
  5
F6
330
99
100
AcDbEntity
  8
0
100
AcDbLine
 10
-77.4099578857
 20
197.5
 30
0.0
 11
-77.8001385298
 21
199.4615705608
 31
0.0
  0
LINE
  5
F7
330
99
100
AcDbEntity
  8
0
100
AcDbLine
 10
-77.4099578857
 20
226.0
 30
0.0
 11
-77.8001385298
 21
224.0384294392
 31
0.0
  0
LINE
  5
F8
330
99
100
AcDbEntity
  8
0
100
AcDbLine
 10
-77.4099578857
 20
226.0
 30
0.0
 11
-77.0197772417
 21
224.0384294392
 31
0.0
  0
LINE
  5
F9
330
99
100
AcDbEntity
  8
0
100
AcDbLine
 10
-77.4099578857
 20
197.5
 30
0.0
 11
-77.4099578857
 21
226.0
 31
0.0
  0
LINE
  5
FA
330
99
100
AcDbEntity
  8
0
  6
GAP
100
AcDbLine
 10
-73.9499578476
 20
197.5
 30
0.0
 11
-78.9099578857
 21
197.5
 31
0.0
  0
LINE
  5
FB
330
99
100
AcDbEntity
  8
0
  6
GAP
100
AcDbLine
 10
-73.9499578476
 20
226.0
 30
0.0
 11
-78.9099578857
 21
226.0
 31
0.0
  0
TEXT
  5
FC
330
99
100
AcDbEntity
  8
0
100
AcDbText
 10
-78.0349576473
 20
205.3334837196
 30
0.0
 40
2.4999990979
  1
26.5以上
 50
90.0
 41
1.043305886345
 72
     5
 11
-78.0349576473
 21
219.5919923546
 31
0.0
100
AcDbText
  0
ENDBLK
  5
FD
330
99
100
AcDbEntity
  8
0
100
AcDbBlockEnd
  0
BLOCK
  5
FE
330
9A
100
AcDbEntity
  8
0
100
AcDbBlockBegin
  2
*D13
 70
     1
 10
0.0
 20
0.0
 30
0.0
  3
*D13
  1
*D13
  0
LINE
  5
FF
330
9A
100
AcDbEntity
  8
0
100
AcDbLine
 10
-62.1599578857
 20
245.0
 30
0.0
 11
-60.1983873249
 21
244.609819356
 31
0.0
  0
LINE
  5
100
330
9A
100
AcDbEntity
  8
0
100
AcDbLine
 10
-62.1599578857
 20
245.0
 30
0.0
 11
-60.1983873249
 21
245.390180644
 31
0.0
  0
LINE
  5
101
330
9A
100
AcDbEntity
  8
0
100
AcDbLine
 10
-38.1599578857
 20
245.0
 30
0.0
 11
-40.1215284465
 21
245.390180644
 31
0.0
  0
LINE
  5
102
330
9A
100
AcDbEntity
  8
0
100
AcDbLine
 10
-38.1599578857
 20
245.0
 30
0.0
 11
-40.1215284465
 21
244.609819356
 31
0.0
  0
LINE
  5
103
330
9A
100
AcDbEntity
  8
0
100
AcDbLine
 10
-62.1599578857
 20
245.0
 30
0.0
 11
-38.1599578857
 21
245.0
 31
0.0
  0
LINE
  5
104
330
9A
100
AcDbEntity
  8
0
  6
GAP
100
AcDbLine
 10
-62.1599578857
 20
237.7899999619
 30
0.0
 11
-62.1599578857
 21
246.4999847412
 31
0.0
  0
LINE
  5
105
330
9A
100
AcDbEntity
  8
0
  6
GAP
100
AcDbLine
 10
-38.1599578857
 20
237.7899999619
 30
0.0
 11
-38.1599578857
 21
246.4999847412
 31
0.0
  0
TEXT
  5
106
330
9A
100
AcDbEntity
  8
0
100
AcDbText
 10
-57.2892122032
 20
245.6249997616
 30
0.0
 40
2.4999990979
  1
25.0以上
 41
1.07611424755
 72
     5
 11
-43.0307035682
 21
245.6249997616
 31
0.0
100
AcDbText
  0
ENDBLK
  5
107
330
9A
100
AcDbEntity
  8
0
100
AcDbBlockEnd
  0
BLOCK
  5
305
330
304
100
AcDbEntity
  8
0
100
AcDbBlockBegin
  2
_OPEN30
 70
     0
 10
0.0
 20
0.0
 30
0.0
  3
_OPEN30
  1
_OPEN30
  0
LINE
  5
306
330
304
100
AcDbEntity
  8
0
  6
ByBlock
 62
     0
370
    -2
100
AcDbLine
 10
-1.0
 20
0.267949
 30
0.0
 11
0.0
 21
0.0
 31
0.0
  0
LINE
  5
307
330
304
100
AcDbEntity
  8
0
  6
ByBlock
 62
     0
370
    -2
100
AcDbLine
 10
0.0
 20
0.0
 30
0.0
 11
-1.0
 21
-0.267949
 31
0.0
  0
LINE
  5
308
330
304
100
AcDbEntity
  8
0
  6
ByBlock
 62
     0
370
    -2
100
AcDbLine
 10
0.0
 20
0.0
 30
0.0
 11
-1.0
 21
0.0
 31
0.0
  0
ENDBLK
  5
309
330
304
100
AcDbEntity
  8
0
100
AcDbBlockEnd
  0
BLOCK
  5
347
330
346
100
AcDbEntity
  8
0
100
AcDbBlockBegin
  2
*D20
 70
     1
 10
0.0
 20
0.0
 30
0.0
  3
*D20
  1
*D20
  0
LINE
  5
348
330
346
100
AcDbEntity
  8
IDEC_DIM
370
    13
100
AcDbLine
 10
-67.986284281356
 20
2.655404490394
 30
0.0
 11
-67.986284281356
 21
14.744548293611
 31
0.0
  0
LINE
  5
349
330
346
100
AcDbEntity
  8
IDEC_DIM
370
    13
100
AcDbLine
 10
-57.986284281356
 20
3.280404490394
 30
0.0
 11
-57.986284281356
 21
14.744548293611
 31
0.0
  0
LINE
  5
34A
330
346
100
AcDbEntity
  8
IDEC_DIM
370
    13
100
AcDbLine
 10
-65.986284281356
 20
13.494548293611
 30
0.0
 11
-59.986284281356
 21
13.494548293611
 31
0.0
  0
INSERT
  5
34B
330
346
100
AcDbEntity
  8
IDEC_DIM
370
    13
100
AcDbBlockReference
  2
_IDEC_OPEN30
 10
-67.986284281356
 20
13.494548293611
 30
0.0
 41
2.0
 42
2.0
 43
2.0
 50
180.0
  0
INSERT
  5
354
330
346
100
AcDbEntity
  8
IDEC_DIM
370
    13
100
AcDbBlockReference
  2
_IDEC_OPEN30
 10
-57.986284281356
 20
13.494548293611
 30
0.0
 41
2.0
 42
2.0
 43
2.0
  0
MTEXT
  5
355
330
346
100
AcDbEntity
  8
IDEC_DIM
100
AcDbMText
 10
-62.986284281356
 20
15.244548293611
 30
0.0
 40
2.5
 41
0.0
 71
     5
 72
     1
  1
\A2;10.0
  7
IDEC_TEXT
 73
     1
 44
1.0
  0
POINT
  5
356
330
346
100
AcDbEntity
  8
Defpoints
 62
     0
100
AcDbPoint
 10
-67.986284281356
 20
2.030404490394
 30
0.0
  0
POINT
  5
357
330
346
100
AcDbEntity
  8
Defpoints
 62
     0
100
AcDbPoint
 10
-57.986284281356
 20
2.655404490394
 30
0.0
  0
POINT
  5
358
330
346
100
AcDbEntity
  8
Defpoints
 62
     0
100
AcDbPoint
 10
-57.986284281356
 20
13.494548293611
 30
0.0
  0
ENDBLK
  5
359
330
346
100
AcDbEntity
  8
0
100
AcDbBlockEnd
  0
BLOCK
  5
34F
330
34C
100
AcDbEntity
  8
0
100
AcDbBlockBegin
  2
_IDEC_OPEN30
 70
     0
 10
0.0
 20
0.0
 30
0.0
  3
_IDEC_OPEN30
  1
_IDEC_OPEN30
  0
LINE
  5
350
330
34C
100
AcDbEntity
  8
0
  6
ByBlock
 62
     0
370
    -2
100
AcDbLine
 10
-1.0
 20
0.267949
 30
0.0
 11
0.0
 21
0.0
 31
0.0
  0
LINE
  5
351
330
34C
100
AcDbEntity
  8
0
  6
ByBlock
 62
     0
370
    -2
100
AcDbLine
 10
0.0
 20
0.0
 30
0.0
 11
-1.0
 21
-0.267949
 31
0.0
  0
LINE
  5
352
330
34C
100
AcDbEntity
  8
0
  6
ByBlock
 62
     0
370
    -2
100
AcDbLine
 10
0.0
 20
0.0
 30
0.0
 11
-2.0
 21
0.0
 31
0.0
  0
ENDBLK
  5
353
330
34C
100
AcDbEntity
  8
0
100
AcDbBlockEnd
  0
BLOCK
  5
35C
330
35B
100
AcDbEntity
  8
0
100
AcDbBlockBegin
  2
*D22
 70
     1
 10
0.0
 20
0.0
 30
0.0
  3
*D22
  1
*D22
  0
LINE
  5
35D
330
35B
100
AcDbEntity
  8
IDEC_DIM
370
    13
100
AcDbLine
 10
-86.986284281356
 20
1.780574075025
 30
0.0
 11
-86.986284281356
 21
14.744548293611
 31
0.0
  0
LINE
  5
35E
330
35B
100
AcDbEntity
  8
IDEC_DIM
370
    13
100
AcDbLine
 10
-76.986284281356
 20
1.780574075025
 30
0.0
 11
-76.986284281356
 21
14.744548293611
 31
0.0
  0
LINE
  5
35F
330
35B
100
AcDbEntity
  8
IDEC_DIM
370
    13
100
AcDbLine
 10
-84.986284281356
 20
13.494548293611
 30
0.0
 11
-78.986284281356
 21
13.494548293611
 31
0.0
  0
INSERT
  5
360
330
35B
100
AcDbEntity
  8
IDEC_DIM
370
    13
100
AcDbBlockReference
  2
_IDEC_OPEN30R
 10
-86.986284281356
 20
13.494548293611
 30
0.0
 41
2.0
 42
2.0
 43
2.0
 50
180.0
  0
INSERT
  5
369
330
35B
100
AcDbEntity
  8
IDEC_DIM
370
    13
100
AcDbBlockReference
  2
_IDEC_OPEN30R
 10
-76.986284281356
 20
13.494548293611
 30
0.0
 41
2.0
 42
2.0
 43
2.0
  0
MTEXT
  5
36A
330
35B
100
AcDbEntity
  8
IDEC_DIM
100
AcDbMText
 10
-81.986284281356
 20
15.244548293611
 30
0.0
 40
2.5
 41
0.0
 71
     5
 72
     1
  1
\A2;10.0
  7
IDEC_TEXT
 73
     1
 44
1.0
  0
POINT
  5
36B
330
35B
100
AcDbEntity
  8
Defpoints
 62
     0
100
AcDbPoint
 10
-86.986284281356
 20
1.155574075025
 30
0.0
  0
POINT
  5
36C
330
35B
100
AcDbEntity
  8
Defpoints
 62
     0
100
AcDbPoint
 10
-76.986284281356
 20
1.155574075025
 30
0.0
  0
POINT
  5
36D
330
35B
100
AcDbEntity
  8
Defpoints
 62
     0
100
AcDbPoint
 10
-76.986284281356
 20
13.494548293611
 30
0.0
  0
ENDBLK
  5
36E
330
35B
100
AcDbEntity
  8
0
100
AcDbBlockEnd
  0
BLOCK
  5
364
330
361
100
AcDbEntity
  8
0
100
AcDbBlockBegin
  2
_IDEC_OPEN30R
 70
     0
 10
0.0
 20
0.0
 30
0.0
  3
_IDEC_OPEN30R
  1
_IDEC_OPEN30R
  0
LINE
  5
365
330
361
100
AcDbEntity
  8
0
  6
ByBlock
 62
     0
370
    -2
100
AcDbLine
 10
1.0
 20
0.267949
 30
0.0
 11
0.0
 21
0.0
 31
0.0
  0
LINE
  5
366
330
361
100
AcDbEntity
  8
0
  6
ByBlock
 62
     0
370
    -2
100
AcDbLine
 10
0.0
 20
0.0
 30
0.0
 11
1.0
 21
-0.267949
 31
0.0
  0
LINE
  5
367
330
361
100
AcDbEntity
  8
0
  6
ByBlock
 62
     0
370
    -2
100
AcDbLine
 10
-1.0
 20
0.0
 30
0.0
 11
2.0
 21
0.0
 31
0.0
  0
ENDBLK
  5
368
330
361
100
AcDbEntity
  8
0
100
AcDbBlockEnd
  0
BLOCK
  5
381
330
377
100
AcDbEntity
  8
0
100
AcDbBlockBegin
  2
*D24
 70
     1
 10
0.0
 20
0.0
 30
0.0
  3
*D24
  1
*D24
  0
ARC
  5
378
330
377
100
AcDbEntity
  8
IDEC_DIM
370
    13
100
AcDbCircle
 10
-92.0662841797
 20
131.8302140985
 30
0.0
 40
16.56356321577688
100
AcDbArc
 50
276.922501246999
 51
13.07749875288
  0
INSERT
  5
379
330
377
100
AcDbEntity
  8
IDEC_DIM
370
    13
100
AcDbBlockReference
  2
_OPEN30
 10
-92.0662841797
 20
115.266650882723
 30
0.0
 41
2.0
 42
2.0
 43
2.0
 50
183.4612506235
  0
INSERT
  5
37A
330
377
100
AcDbEntity
  8
IDEC_DIM
370
    13
100
AcDbBlockReference
  2
_OPEN30
 10
-76.501626051902
 20
137.495286363511
 30
0.0
 41
2.0
 42
2.0
 43
2.0
 50
106.53874937638
  0
MTEXT
  5
37B
330
377
100
AcDbEntity
  8
IDEC_DIM
100
AcDbMText
 10
-80.126759789322
 20
123.4700691177
 30
0.0
 40
2.5
 41
0.0
 71
     5
 72
     1
  1
\A2;110%%d0'
  7
IDEC_TEXT
 11
0.57357643635191
 21
0.8191520442883868
 31
0.0
 73
     1
 44
1.0
  0
POINT
  5
37C
330
377
100
AcDbEntity
  8
Defpoints
 62
     0
100
AcDbPoint
 10
-82.175210096196
 20
118.544195888454
 30
0.0
  0
POINT
  5
37D
330
377
100
AcDbEntity
  8
Defpoints
 62
     0
100
AcDbPoint
 10
-76.1356388149
 20
137.6284948239
 30
0.0
  0
POINT
  5
37E
330
377
100
AcDbEntity
  8
Defpoints
 62
     0
100
AcDbPoint
 10
-92.0662841797
 20
131.8302140985
 30
0.0
  0
POINT
  5
37F
330
377
100
AcDbEntity
  8
Defpoints
 62
     0
100
AcDbPoint
 10
-92.0662841797
 20
110.1640167236
 30
0.0
  0
POINT
  5
380
330
377
100
AcDbEntity
  8
Defpoints
 62
     0
100
AcDbPoint
 10
-92.0662841797
 20
131.8302140985
 30
0.0
  0
ENDBLK
  5
382
330
377
100
AcDbEntity
  8
0
100
AcDbBlockEnd
  0
BLOCK
  5
38D
330
383
100
AcDbEntity
  8
0
100
AcDbBlockBegin
  2
*D25
 70
     1
 10
0.0
 20
0.0
 30
0.0
  3
*D25
  1
*D25
  0
LINE
  5
384
330
383
100
AcDbEntity
  8
IDEC_DIM
370
    13
100
AcDbLine
 10
-106.0662841797
 20
134.2890167236
 30
0.0
 11
-106.0662841797
 21
144.9140167236
 31
0.0
  0
LINE
  5
385
330
383
100
AcDbEntity
  8
IDEC_DIM
370
    13
100
AcDbLine
 10
-74.0662994385
 20
134.7889556885
 30
0.0
 11
-74.0662994385
 21
144.9140167236
 31
0.0
  0
LINE
  5
386
330
383
100
AcDbEntity
  8
IDEC_DIM
370
    13
100
AcDbLine
 10
-104.0662841797
 20
143.6640167236
 30
0.0
 11
-76.0662994385
 21
143.6640167236
 31
0.0
  0
INSERT
  5
387
330
383
100
AcDbEntity
  8
IDEC_DIM
370
    13
100
AcDbBlockReference
  2
_OPEN30
 10
-106.0662841797
 20
143.6640167236
 30
0.0
 41
2.0
 42
2.0
 43
2.0
 50
180.0
  0
INSERT
  5
388
330
383
100
AcDbEntity
  8
IDEC_DIM
370
    13
100
AcDbBlockReference
  2
_OPEN30
 10
-74.0662994385
 20
143.6640167236
 30
0.0
 41
2.0
 42
2.0
 43
2.0
  0
MTEXT
  5
389
330
383
100
AcDbEntity
  8
IDEC_DIM
100
AcDbMText
 10
-90.0662918091
 20
145.4140167236
 30
0.0
 40
2.5
 41
0.0
 71
     5
 72
     1
  1
\A2;32.0
  7
IDEC_TEXT
 73
     1
 44
1.0
  0
POINT
  5
38A
330
383
100
AcDbEntity
  8
Defpoints
 62
     0
100
AcDbPoint
 10
-106.0662841797
 20
133.6640167236
 30
0.0
  0
POINT
  5
38B
330
383
100
AcDbEntity
  8
Defpoints
 62
     0
100
AcDbPoint
 10
-74.0662994385
 20
134.1639556885
 30
0.0
  0
POINT
  5
38C
330
383
100
AcDbEntity
  8
Defpoints
 62
     0
100
AcDbPoint
 10
-74.0662994385
 20
143.6640167236
 30
0.0
  0
ENDBLK
  5
38E
330
383
100
AcDbEntity
  8
0
100
AcDbBlockEnd
  0
BLOCK
  5
398
330
38F
100
AcDbEntity
  8
0
100
AcDbBlockBegin
  2
*D26
 70
     1
 10
0.0
 20
0.0
 30
0.0
  3
*D26
  1
*D26
  0
LINE
  5
390
330
38F
100
AcDbEntity
  8
IDEC_DIM
370
    13
100
AcDbLine
 10
-52.11307769178
 20
208.342538449881
 30
0.0
 11
-44.42190102659
 21
218.075159855169
 31
0.0
  0
LINE
  5
391
330
38F
100
AcDbEntity
  8
IDEC_DIM
370
    13
100
AcDbLine
 10
-31.89753794411
 20
233.923825089431
 30
0.0
 11
-30.657501783119
 21
235.493000133661
 31
0.0
  0
MTEXT
  5
392
330
38F
100
AcDbEntity
  8
IDEC_DIM
100
AcDbMText
 10
-50.260535603382
 20
213.509293271276
 30
0.0
 40
2.5
 41
0.0
 71
     5
 72
     1
  1
\A2;%%c16.2
  7
IDEC_TEXT
 11
0.6200180804951243
 21
0.7845875221153733
 31
0.0
 73
     1
 44
1.0
  0
LINE
  5
393
330
38F
100
AcDbEntity
  8
IDEC_DIM
370
    13
100
AcDbLine
 10
-33.1375741051
 20
232.3546500452
 30
0.0
 11
-43.1818648656
 21
219.6443348994
 31
0.0
  0
INSERT
  5
394
330
38F
100
AcDbEntity
  8
IDEC_DIM
370
    13
100
AcDbBlockReference
  2
_OPEN30
 10
-33.1375741051
 20
232.3546500452
 30
0.0
 41
2.0
 42
2.0
 43
2.0
 50
231.682545180802
  0
INSERT
  5
395
330
38F
100
AcDbEntity
  8
IDEC_DIM
370
    13
100
AcDbBlockReference
  2
_OPEN30
 10
-43.1818648656
 20
219.6443348994
 30
0.0
 41
2.0
 42
2.0
 43
2.0
 50
51.682545180802
  0
POINT
  5
396
330
38F
100
AcDbEntity
  8
Defpoints
 62
     0
100
AcDbPoint
 10
-43.1818648656
 20
219.6443348994
 30
0.0
  0
POINT
  5
397
330
38F
100
AcDbEntity
  8
Defpoints
 62
     0
100
AcDbPoint
 10
-33.1375741051
 20
232.3546500452
 30
0.0
  0
ENDBLK
  5
399
330
38F
100
AcDbEntity
  8
0
100
AcDbBlockEnd
  0
BLOCK
  5
3A4
330
39A
100
AcDbEntity
  8
0
100
AcDbBlockBegin
  2
*D27
 70
     1
 10
0.0
 20
0.0
 30
0.0
  3
*D27
  1
*D27
  0
LINE
  5
39B
330
39A
100
AcDbEntity
  8
IDEC_DIM
370
    13
100
AcDbLine
 10
-106.0662841797
 20
57.546875
 30
0.0
 11
-106.0662841797
 21
46.921875
 31
0.0
  0
LINE
  5
39C
330
39A
100
AcDbEntity
  8
IDEC_DIM
370
    13
100
AcDbLine
 10
-92.0662841797
 20
57.546875
 30
0.0
 11
-92.0662841797
 21
46.921875
 31
0.0
  0
LINE
  5
39D
330
39A
100
AcDbEntity
  8
IDEC_DIM
370
    13
100
AcDbLine
 10
-104.0662841797
 20
48.171875
 30
0.0
 11
-94.0662841797
 21
48.171875
 31
0.0
  0
INSERT
  5
39E
330
39A
100
AcDbEntity
  8
IDEC_DIM
370
    13
100
AcDbBlockReference
  2
_OPEN30
 10
-106.0662841797
 20
48.171875
 30
0.0
 41
2.0
 42
2.0
 43
2.0
 50
180.0
  0
INSERT
  5
39F
330
39A
100
AcDbEntity
  8
IDEC_DIM
370
    13
100
AcDbBlockReference
  2
_OPEN30
 10
-92.0662841797
 20
48.171875
 30
0.0
 41
2.0
 42
2.0
 43
2.0
  0
MTEXT
  5
3A0
330
39A
100
AcDbEntity
  8
IDEC_DIM
100
AcDbMText
 10
-99.0662841797
 20
49.921875
 30
0.0
 40
2.5
 41
0.0
 71
     5
 72
     1
  1
\A2;14.0
  7
IDEC_TEXT
 73
     1
 44
1.0
  0
POINT
  5
3A1
330
39A
100
AcDbEntity
  8
Defpoints
 62
     0
100
AcDbPoint
 10
-106.0662841797
 20
58.171875
 30
0.0
  0
POINT
  5
3A2
330
39A
100
AcDbEntity
  8
Defpoints
 62
     0
100
AcDbPoint
 10
-92.0662841797
 20
58.171875
 30
0.0
  0
POINT
  5
3A3
330
39A
100
AcDbEntity
  8
Defpoints
 62
     0
100
AcDbPoint
 10
-92.0662841797
 20
48.171875
 30
0.0
  0
ENDBLK
  5
3A5
330
39A
100
AcDbEntity
  8
0
100
AcDbBlockEnd
  0
BLOCK
  5
3B0
330
3A6
100
AcDbEntity
  8
0
100
AcDbBlockBegin
  2
*D28
 70
     1
 10
0.0
 20
0.0
 30
0.0
  3
*D28
  1
*D28
  0
LINE
  5
3A7
330
3A6
100
AcDbEntity
  8
IDEC_DIM
370
    13
100
AcDbLine
 10
-33.9452056885
 20
110.1639709473
 30
0.0
 11
-18.0202026367
 21
110.1639709473
 31
0.0
  0
LINE
  5
3A8
330
3A6
100
AcDbEntity
  8
IDEC_DIM
370
    13
100
AcDbLine
 10
-33.9452056885
 20
133.6639709473
 30
0.0
 11
-18.0202026367
 21
133.6639709473
 31
0.0
  0
LINE
  5
3A9
330
3A6
100
AcDbEntity
  8
IDEC_DIM
370
    13
100
AcDbLine
 10
-19.2702026367
 20
112.1639709473
 30
0.0
 11
-19.2702026367
 21
131.6639709473
 31
0.0
  0
INSERT
  5
3AA
330
3A6
100
AcDbEntity
  8
IDEC_DIM
370
    13
100
AcDbBlockReference
  2
_OPEN30
 10
-19.2702026367
 20
110.1639709473
 30
0.0
 41
2.0
 42
2.0
 43
2.0
 50
270.0
  0
INSERT
  5
3AB
330
3A6
100
AcDbEntity
  8
IDEC_DIM
370
    13
100
AcDbBlockReference
  2
_OPEN30
 10
-19.2702026367
 20
133.6639709473
 30
0.0
 41
2.0
 42
2.0
 43
2.0
 50
90.0
  0
MTEXT
  5
3AC
330
3A6
100
AcDbEntity
  8
IDEC_DIM
100
AcDbMText
 10
-21.0202026367
 20
121.9139709473
 30
0.0
 40
2.5
 41
0.0
 71
     5
 72
     1
  1
\A2;23.5
  7
IDEC_TEXT
 11
0.0
 21
1.0
 31
0.0
 73
     1
 44
1.0
  0
POINT
  5
3AD
330
3A6
100
AcDbEntity
  8
Defpoints
 62
     0
100
AcDbPoint
 10
-34.5702056885
 20
110.1639709473
 30
0.0
  0
POINT
  5
3AE
330
3A6
100
AcDbEntity
  8
Defpoints
 62
     0
100
AcDbPoint
 10
-34.5702056885
 20
133.6639709473
 30
0.0
  0
POINT
  5
3AF
330
3A6
100
AcDbEntity
  8
Defpoints
 62
     0
100
AcDbPoint
 10
-19.2702026367
 20
133.6639709473
 30
0.0
  0
ENDBLK
  5
3B1
330
3A6
100
AcDbEntity
  8
0
100
AcDbBlockEnd
  0
BLOCK
  5
3BC
330
3B2
100
AcDbEntity
  8
0
100
AcDbBlockBegin
  2
*D29
 70
     1
 10
0.0
 20
0.0
 30
0.0
  3
*D29
  1
*D29
  0
LINE
  5
3B3
330
3B2
100
AcDbEntity
  8
IDEC_DIM
370
    13
100
AcDbLine
 10
-33.6452026367
 20
120.6640167236
 30
0.0
 11
-23.0202026367
 21
120.6640167236
 31
0.0
  0
LINE
  5
3B4
330
3B2
100
AcDbEntity
  8
IDEC_DIM
370
    13
100
AcDbLine
 10
-33.9452056885
 20
133.6639709473
 30
0.0
 11
-23.0202026367
 21
133.6639709473
 31
0.0
  0
LINE
  5
3B5
330
3B2
100
AcDbEntity
  8
IDEC_DIM
370
    13
100
AcDbLine
 10
-24.2702026367
 20
122.6640167236
 30
0.0
 11
-24.2702026367
 21
131.6639709473
 31
0.0
  0
INSERT
  5
3B6
330
3B2
100
AcDbEntity
  8
IDEC_DIM
370
    13
100
AcDbBlockReference
  2
_OPEN30
 10
-24.2702026367
 20
120.6640167236
 30
0.0
 41
2.0
 42
2.0
 43
2.0
 50
270.0
  0
INSERT
  5
3B7
330
3B2
100
AcDbEntity
  8
IDEC_DIM
370
    13
100
AcDbBlockReference
  2
_OPEN30
 10
-24.2702026367
 20
133.6639709473
 30
0.0
 41
2.0
 42
2.0
 43
2.0
 50
90.0
  0
MTEXT
  5
3B8
330
3B2
100
AcDbEntity
  8
IDEC_DIM
100
AcDbMText
 10
-26.0202026367
 20
127.16399383545
 30
0.0
 40
2.5
 41
0.0
 71
     5
 72
     1
  1
\A2;13.0
  7
IDEC_TEXT
 11
0.0
 21
1.0
 31
0.0
 73
     1
 44
1.0
  0
POINT
  5
3B9
330
3B2
100
AcDbEntity
  8
Defpoints
 62
     0
100
AcDbPoint
 10
-34.2702026367
 20
120.6640167236
 30
0.0
  0
POINT
  5
3BA
330
3B2
100
AcDbEntity
  8
Defpoints
 62
     0
100
AcDbPoint
 10
-34.5702056885
 20
133.6639709473
 30
0.0
  0
POINT
  5
3BB
330
3B2
100
AcDbEntity
  8
Defpoints
 62
     0
100
AcDbPoint
 10
-24.2702026367
 20
133.6639709473
 30
0.0
  0
ENDBLK
  5
3BD
330
3B2
100
AcDbEntity
  8
0
100
AcDbBlockEnd
  0
BLOCK
  5
3C9
330
3BE
100
AcDbEntity
  8
0
100
AcDbBlockBegin
  2
*D30
 70
     1
 10
0.0
 20
0.0
 30
0.0
  3
*D30
  1
*D30
  0
LINE
  5
3BF
330
3BE
100
AcDbEntity
  8
IDEC_DIM
370
    13
100
AcDbLine
 10
-33.6452026367
 20
120.6640167236
 30
0.0
 11
-28.0202026367
 21
120.6640167236
 31
0.0
  0
LINE
  5
3C0
330
3BE
100
AcDbEntity
  8
IDEC_DIM
370
    13
100
AcDbLine
 10
-34.9362335205
 20
131.1639709473
 30
0.0
 11
-28.0202026367
 21
131.1639709473
 31
0.0
  0
LINE
  5
3C1
330
3BE
100
AcDbEntity
  8
IDEC_DIM
370
    13
100
AcDbLine
 10
-29.2702026367
 20
122.6640167236
 30
0.0
 11
-29.2702026367
 21
129.1639709473
 31
0.0
  0
INSERT
  5
3C2
330
3BE
100
AcDbEntity
  8
IDEC_DIM
370
    13
100
AcDbBlockReference
  2
_OPEN30
 10
-29.2702026367
 20
120.6640167236
 30
0.0
 41
2.0
 42
2.0
 43
2.0
 50
270.0
  0
INSERT
  5
3C3
330
3BE
100
AcDbEntity
  8
IDEC_DIM
370
    13
100
AcDbBlockReference
  2
_OPEN30
 10
-29.2702026367
 20
131.1639709473
 30
0.0
 41
2.0
 42
2.0
 43
2.0
 50
90.0
  0
MTEXT
  5
3C4
330
3BE
100
AcDbEntity
  8
IDEC_DIM
100
AcDbMText
 10
-31.0202026367
 20
125.91399383545
 30
0.0
 40
2.5
 41
0.0
 71
     5
 72
     1
  1
\A2;10.5
  7
IDEC_TEXT
 11
0.0
 21
1.0
 31
0.0
 73
     1
 44
1.0
  0
POINT
  5
3C5
330
3BE
100
AcDbEntity
  8
Defpoints
 62
     0
100
AcDbPoint
 10
-34.2702026367
 20
120.6640167236
 30
0.0
  0
POINT
  5
3C6
330
3BE
100
AcDbEntity
  8
Defpoints
 62
     0
100
AcDbPoint
 10
-35.5612335205
 20
131.1639709473
 30
0.0
  0
POINT
  5
3C7
330
3BE
100
AcDbEntity
  8
Defpoints
 62
     0
100
AcDbPoint
 10
-29.2702026367
 20
131.1639709473
 30
0.0
  0
ENDBLK
  5
3CA
330
3BE
100
AcDbEntity
  8
0
100
AcDbBlockEnd
  0
BLOCK
  5
3D5
330
3CB
100
AcDbEntity
  8
0
100
AcDbBlockBegin
  2
*D31
 70
     1
 10
0.0
 20
0.0
 30
0.0
  3
*D31
  1
*D31
  0
LINE
  5
3CC
330
3CB
100
AcDbEntity
  8
IDEC_DIM
370
    13
100
AcDbLine
 10
-58.2702026367
 20
133.9889678955
 30
0.0
 11
-58.2702026367
 21
144.9139709473
 31
0.0
  0
LINE
  5
3CD
330
3CB
100
AcDbEntity
  8
IDEC_DIM
370
    13
100
AcDbLine
 10
-34.2702026367
 20
133.9889678955
 30
0.0
 11
-34.2702026367
 21
144.9139709473
 31
0.0
  0
LINE
  5
3CE
330
3CB
100
AcDbEntity
  8
IDEC_DIM
370
    13
100
AcDbLine
 10
-56.2702026367
 20
143.6639709473
 30
0.0
 11
-36.2702026367
 21
143.6639709473
 31
0.0
  0
INSERT
  5
3CF
330
3CB
100
AcDbEntity
  8
IDEC_DIM
370
    13
100
AcDbBlockReference
  2
_OPEN30
 10
-58.2702026367
 20
143.6639709473
 30
0.0
 41
2.0
 42
2.0
 43
2.0
 50
180.0
  0
INSERT
  5
3D0
330
3CB
100
AcDbEntity
  8
IDEC_DIM
370
    13
100
AcDbBlockReference
  2
_OPEN30
 10
-34.2702026367
 20
143.6639709473
 30
0.0
 41
2.0
 42
2.0
 43
2.0
  0
MTEXT
  5
3D1
330
3CB
100
AcDbEntity
  8
IDEC_DIM
100
AcDbMText
 10
-46.2702026367
 20
145.4139709473
 30
0.0
 40
2.5
 41
0.0
 71
     5
 72
     1
  1
\A2;24.0
  7
IDEC_TEXT
 73
     1
 44
1.0
  0
POINT
  5
3D2
330
3CB
100
AcDbEntity
  8
Defpoints
 62
     0
100
AcDbPoint
 10
-58.2702026367
 20
133.3639678955
 30
0.0
  0
POINT
  5
3D3
330
3CB
100
AcDbEntity
  8
Defpoints
 62
     0
100
AcDbPoint
 10
-34.2702026367
 20
133.3639678955
 30
0.0
  0
POINT
  5
3D4
330
3CB
100
AcDbEntity
  8
Defpoints
 62
     0
100
AcDbPoint
 10
-34.2702026367
 20
143.6639709473
 30
0.0
  0
ENDBLK
  5
3D6
330
3CB
100
AcDbEntity
  8
0
100
AcDbBlockEnd
  0
BLOCK
  5
3E1
330
3D7
100
AcDbEntity
  8
0
100
AcDbBlockBegin
  2
*D32
 70
     1
 10
0.0
 20
0.0
 30
0.0
  3
*D32
  1
*D32
  0
LINE
  5
3D8
330
3D7
100
AcDbEntity
  8
IDEC_DIM
370
    13
100
AcDbLine
 10
-72.0349578857
 20
197.5
 30
0.0
 11
-78.6599578857
 21
197.5
 31
0.0
  0
LINE
  5
3D9
330
3D7
100
AcDbEntity
  8
IDEC_DIM
370
    13
100
AcDbLine
 10
-72.0349578857
 20
226.0
 30
0.0
 11
-78.6599578857
 21
226.0
 31
0.0
  0
LINE
  5
3DA
330
3D7
100
AcDbEntity
  8
IDEC_DIM
370
    13
100
AcDbLine
 10
-77.4099578857
 20
199.5
 30
0.0
 11
-77.4099578857
 21
224.0
 31
0.0
  0
INSERT
  5
3DB
330
3D7
100
AcDbEntity
  8
IDEC_DIM
370
    13
100
AcDbBlockReference
  2
_OPEN30
 10
-77.4099578857
 20
197.5
 30
0.0
 41
2.0
 42
2.0
 43
2.0
 50
270.0
  0
INSERT
  5
3DC
330
3D7
100
AcDbEntity
  8
IDEC_DIM
370
    13
100
AcDbBlockReference
  2
_OPEN30
 10
-77.4099578857
 20
226.0
 30
0.0
 41
2.0
 42
2.0
 43
2.0
 50
90.0
  0
MTEXT
  5
3DD
330
3D7
100
AcDbEntity
  8
IDEC_DIM
100
AcDbMText
 10
-79.1599578857
 20
211.75
 30
0.0
 40
2.5
 41
0.0
 71
     5
 72
     1
  1
\A2;28.5
  7
IDEC_TEXT
 11
0.0
 21
1.0
 31
0.0
 73
     1
 44
1.0
  0
POINT
  5
3DE
330
3D7
100
AcDbEntity
  8
Defpoints
 62
     0
100
AcDbPoint
 10
-71.4099578857
 20
197.5
 30
0.0
  0
POINT
  5
3DF
330
3D7
100
AcDbEntity
  8
Defpoints
 62
     0
100
AcDbPoint
 10
-71.4099578857
 20
226.0
 30
0.0
  0
POINT
  5
3E0
330
3D7
100
AcDbEntity
  8
Defpoints
 62
     0
100
AcDbPoint
 10
-77.4099578857
 20
226.0
 30
0.0
  0
ENDBLK
  5
3E2
330
3D7
100
AcDbEntity
  8
0
100
AcDbBlockEnd
  0
BLOCK
  5
3ED
330
3E3
100
AcDbEntity
  8
0
100
AcDbBlockBegin
  2
*D33
 70
     1
 10
0.0
 20
0.0
 30
0.0
  3
*D33
  1
*D33
  0
LINE
  5
3E4
330
3E3
100
AcDbEntity
  8
IDEC_DIM
370
    13
100
AcDbLine
 10
-62.1599578857
 20
235.875
 30
0.0
 11
-62.1599578857
 21
246.25
 31
0.0
  0
LINE
  5
3E5
330
3E3
100
AcDbEntity
  8
IDEC_DIM
370
    13
100
AcDbLine
 10
-38.1599578857
 20
235.875
 30
0.0
 11
-38.1599578857
 21
246.25
 31
0.0
  0
LINE
  5
3E6
330
3E3
100
AcDbEntity
  8
IDEC_DIM
370
    13
100
AcDbLine
 10
-60.1599578857
 20
245.0
 30
0.0
 11
-40.1599578857
 21
245.0
 31
0.0
  0
INSERT
  5
3E7
330
3E3
100
AcDbEntity
  8
IDEC_DIM
370
    13
100
AcDbBlockReference
  2
_OPEN30
 10
-62.1599578857
 20
245.0
 30
0.0
 41
2.0
 42
2.0
 43
2.0
 50
180.0
  0
INSERT
  5
3E8
330
3E3
100
AcDbEntity
  8
IDEC_DIM
370
    13
100
AcDbBlockReference
  2
_OPEN30
 10
-38.1599578857
 20
245.0
 30
0.0
 41
2.0
 42
2.0
 43
2.0
  0
MTEXT
  5
3E9
330
3E3
100
AcDbEntity
  8
IDEC_DIM
100
AcDbMText
 10
-50.1599578857
 20
246.75
 30
0.0
 40
2.5
 41
0.0
 71
     5
 72
     1
  1
\A2;24.0
  7
IDEC_TEXT
 73
     1
 44
1.0
  0
POINT
  5
3EA
330
3E3
100
AcDbEntity
  8
Defpoints
 62
     0
100
AcDbPoint
 10
-62.1599578857
 20
235.25
 30
0.0
  0
POINT
  5
3EB
330
3E3
100
AcDbEntity
  8
Defpoints
 62
     0
100
AcDbPoint
 10
-38.1599578857
 20
235.25
 30
0.0
  0
POINT
  5
3EC
330
3E3
100
AcDbEntity
  8
Defpoints
 62
     0
100
AcDbPoint
 10
-38.1599578857
 20
245.0
 30
0.0
  0
ENDBLK
  5
3EE
330
3E3
100
AcDbEntity
  8
0
100
AcDbBlockEnd
  0
BLOCK
  5
3FA
330
3F0
100
AcDbEntity
  8
0
100
AcDbBlockBegin
  2
*D34
 70
     1
 10
0.0
 20
0.0
 30
0.0
  3
*D34
  1
*D34
  0
LINE
  5
3F1
330
3F0
100
AcDbEntity
  8
IDEC_DIM
370
    13
100
AcDbLine
 10
-106.0662841797
 20
57.546875
 30
0.0
 11
-106.0662841797
 21
52.263690369855
 31
0.0
  0
LINE
  5
3F2
330
3F0
100
AcDbEntity
  8
IDEC_DIM
370
    13
100
AcDbLine
 10
-92.0662872791
 20
57.8468780518
 30
0.0
 11
-92.0662872791
 21
52.263690369855
 31
0.0
  0
LINE
  5
3F3
330
3F0
100
AcDbEntity
  8
IDEC_DIM
370
    13
100
AcDbLine
 10
-104.0662841797
 20
53.513690369855
 30
0.0
 11
-94.0662872791
 21
53.513690369855
 31
0.0
  0
INSERT
  5
3F4
330
3F0
100
AcDbEntity
  8
IDEC_DIM
370
    13
100
AcDbBlockReference
  2
_OPEN30
 10
-106.0662841797
 20
53.513690369855
 30
0.0
 41
2.0
 42
2.0
 43
2.0
 50
180.0
  0
INSERT
  5
3F5
330
3F0
100
AcDbEntity
  8
IDEC_DIM
370
    13
100
AcDbBlockReference
  2
_OPEN30
 10
-92.0662872791
 20
53.513690369855
 30
0.0
 41
2.0
 42
2.0
 43
2.0
  0
MTEXT
  5
3F6
330
3F0
100
AcDbEntity
  8
IDEC_DIM
100
AcDbMText
 10
-99.0662857294
 20
55.263690369855
 30
0.0
 40
2.5
 41
0.0
 71
     5
 72
     1
  1
\A2;14.0
  7
IDEC_TEXT
 73
     1
 44
1.0
  0
POINT
  5
3F7
330
3F0
100
AcDbEntity
  8
Defpoints
 62
     0
100
AcDbPoint
 10
-106.0662841797
 20
58.171875
 30
0.0
  0
POINT
  5
3F8
330
3F0
100
AcDbEntity
  8
Defpoints
 62
     0
100
AcDbPoint
 10
-92.0662872791
 20
58.4718780518
 30
0.0
  0
POINT
  5
3F9
330
3F0
100
AcDbEntity
  8
Defpoints
 62
     0
100
AcDbPoint
 10
-92.0662872791
 20
53.513690369855
 30
0.0
  0
ENDBLK
  5
3FB
330
3F0
100
AcDbEntity
  8
0
100
AcDbBlockEnd
  0
ENDSEC
  0
SECTION
  2
ENTITIES
  0
LINE
  5
12A
330
24
100
AcDbEntity
  8
PHANTOM
100
AcDbLine
 10
-98.4415605052
 20
133.128001212
 30
0.0
 11
-76.3588125939
 21
141.1654641425
 31
0.0
  0
LINE
  5
12B
330
24
100
AcDbEntity
  8
PHANTOM
100
AcDbLine
 10
-98.4415605052
 20
133.128001212
 30
0.0
 11
-97.4155000752
 21
130.3089233496
 31
0.0
  0
LINE
  5
12C
330
24
100
AcDbEntity
  8
PHANTOM
100
AcDbLine
 10
-76.3588125939
 20
141.1654641425
 30
0.0
 11
-74.3066917339
 21
135.5273084178
 31
0.0
  0
LINE
  5
12D
330
24
100
AcDbEntity
  8
PHANTOM
100
AcDbLine
 10
-75.2463843547
 20
135.1852882744
 30
0.0
 11
-74.3066917339
 21
135.5273084178
 31
0.0
  0
LINE
  5
12E
330
24
100
AcDbEntity
  8
PHANTOM
100
AcDbLine
 10
-93.4737247449
 20
131.3179476262
 30
0.0
 11
-76.1356388149
 21
137.6284948239
 31
0.0
  0
LINE
  5
12F
330
24
100
AcDbEntity
  8
PHANTOM
100
AcDbLine
 10
-76.1356388149
 20
137.6284948239
 30
0.0
 11
-75.2463843547
 21
135.1852882744
 31
0.0
  0
LINE
  5
130
330
24
100
AcDbEntity
  8
PHANTOM
100
AcDbLine
 10
-97.4155000752
 20
130.3089233496
 30
0.0
 11
-96.5697967905
 21
130.6167341723
 31
0.0
  0
ARC
  5
132
330
24
100
AcDbEntity
  8
PHANTOM
100
AcDbCircle
 10
-95.0662841797
 20
131.1640167236
 30
0.0
 40
1.5999994278
100
AcDbArc
 50
199.9999640278
 51
365.5226044494
  0
ARC
  5
133
330
24
100
AcDbEntity
  8
中線
 62
     5
100
AcDbCircle
 10
-95.0662841797
 20
131.1640167236
 30
0.0
 40
1.5999994278
100
AcDbArc
 50
109.9999820139
 51
275.5226224355
  0
LINE
  5
13A
330
24
100
AcDbEntity
  8
中線
 62
     5
100
AcDbLine
 10
-93.5662841797
 20
132.7640228271
 30
0.0
 11
-95.0662841797
 21
132.7640228271
 31
0.0
  0
LINE
  5
13B
330
24
100
AcDbEntity
  8
中線
 62
     5
100
AcDbLine
 10
-95.0662841797
 20
133.6640167236
 30
0.0
 11
-95.0662841797
 21
132.7640228271
 31
0.0
  0
LINE
  5
13C
330
24
100
AcDbEntity
  8
中線
 62
     5
100
AcDbLine
 10
-93.5662841797
 20
133.6640167236
 30
0.0
 11
-93.5662841797
 21
132.7640228271
 31
0.0
  0
LINE
  5
13D
330
24
100
AcDbEntity
  8
中線
 62
     5
100
AcDbLine
 10
-95.4662780762
 20
111.1640167236
 30
0.0
 11
-98.0662841797
 21
111.1640167236
 31
0.0
  0
LINE
  5
13E
330
24
100
AcDbEntity
  8
中線
 62
     5
100
AcDbLine
 10
-95.4662780762
 20
129.6148376465
 30
0.0
 11
-95.4662780762
 21
111.1640167236
 31
0.0
  0
LINE
  5
13F
330
24
100
AcDbEntity
  8
中線
 62
     5
100
AcDbLine
 10
-98.0662841797
 20
111.1640167236
 30
0.0
 11
-98.0662841797
 21
110.1640167236
 31
0.0
  0
LINE
  5
140
330
24
100
AcDbEntity
  8
中線
 62
     5
100
AcDbLine
 10
-92.0662841797
 20
110.1640167236
 30
0.0
 11
-98.0662841797
 21
110.1640167236
 31
0.0
  0
LINE
  5
141
330
24
100
AcDbEntity
  8
中線
 62
     5
100
AcDbLine
 10
-92.0662841797
 20
133.6640167236
 30
0.0
 11
-95.0662841797
 21
133.6640167236
 31
0.0
  0
LINE
  5
142
330
24
100
AcDbEntity
  8
中線
 62
     5
100
AcDbLine
 10
-92.0662841797
 20
133.6640167236
 30
0.0
 11
-92.0662841797
 21
110.1640167236
 31
0.0
  0
LINE
  5
143
330
24
100
AcDbEntity
  8
PHANTOM
100
AcDbLine
 10
-96.666305542
 20
132.6639709473
 30
0.0
 11
-96.666305542
 21
131.1639709473
 31
0.0
  0
LINE
  5
144
330
24
100
AcDbEntity
  8
中線
 62
     5
100
AcDbLine
 10
-97.5662841797
 20
132.6639709473
 30
0.0
 11
-96.666305542
 21
132.6639709473
 31
0.0
  0
LINE
  5
145
330
24
100
AcDbEntity
  8
中線
100
AcDbLine
 10
-102.0662841797
 20
130.6640167236
 30
0.0
 11
-96.7662963867
 21
130.6640167236
 31
0.0
  0
LINE
  5
146
330
24
100
AcDbEntity
  8
中線
100
AcDbLine
 10
-102.0662841797
 20
131.6640167236
 30
0.0
 11
-96.7662963867
 21
131.6640167236
 31
0.0
  0
LINE
  5
147
330
24
100
AcDbEntity
  8
中線
100
AcDbLine
 10
-96.7662963867
 20
131.6640167236
 30
0.0
 11
-96.7662963867
 21
130.6640167236
 31
0.0
  0
LINE
  5
148
330
24
100
AcDbEntity
  8
中線
100
AcDbLine
 10
-97.0662841797
 20
132.6640167236
 30
0.0
 11
-97.0662841797
 21
131.8640289307
 31
0.0
  0
LINE
  5
149
330
24
100
AcDbEntity
  8
中線
100
AcDbLine
 10
-102.0662841797
 20
130.6640167236
 30
0.0
 11
-102.0662841797
 21
129.6640167236
 31
0.0
  0
LINE
  5
14A
330
24
100
AcDbEntity
  8
中線
100
AcDbLine
 10
-102.0662841797
 20
133.6640167236
 30
0.0
 11
-102.0662841797
 21
131.6640167236
 31
0.0
  0
LINE
  5
14B
330
24
100
AcDbEntity
  8
中線
100
AcDbLine
 10
-102.0662841797
 20
130.4640197754
 30
0.0
 11
-96.5050354004
 21
130.4640197754
 31
0.0
  0
LINE
  5
14C
330
24
100
AcDbEntity
  8
中線
100
AcDbLine
 10
-102.0662841797
 20
131.8640289307
 30
0.0
 11
-96.5050354004
 21
131.8640289307
 31
0.0
  0
LINE
  5
14D
330
24
100
AcDbEntity
  8
中線
100
AcDbLine
 10
-104.5662841797
 20
129.6640167236
 30
0.0
 11
-95.6230621338
 21
129.6640167236
 31
0.0
  0
LINE
  5
14E
330
24
100
AcDbEntity
  8
中線
100
AcDbLine
 10
-100.0662841797
 20
132.6640167236
 30
0.0
 11
-95.6230621338
 21
132.6640167236
 31
0.0
  0
LINE
  5
14F
330
24
100
AcDbEntity
  8
中線
100
AcDbLine
 10
-100.0662841797
 20
133.6640167236
 30
0.0
 11
-100.0662841797
 21
132.6640167236
 31
0.0
  0
LINE
  5
150
330
24
100
AcDbEntity
  8
中線
100
AcDbLine
 10
-104.5662841797
 20
111.6640167236
 30
0.0
 11
-98.0662841797
 21
111.6640167236
 31
0.0
  0
LINE
  5
151
330
24
100
AcDbEntity
  8
中線
100
AcDbLine
 10
-98.0662841797
 20
111.6640167236
 30
0.0
 11
-98.0662841797
 21
110.1640167236
 31
0.0
  0
LINE
  5
152
330
24
100
AcDbEntity
  8
中線
100
AcDbLine
 10
-104.5662841797
 20
129.6640167236
 30
0.0
 11
-104.5662841797
 21
111.6640167236
 31
0.0
  0
LINE
  5
153
330
24
100
AcDbEntity
  8
中線
100
AcDbLine
 10
-106.0662841797
 20
110.1640167236
 30
0.0
 11
-98.0662841797
 21
110.1640167236
 31
0.0
  0
LINE
  5
154
330
24
100
AcDbEntity
  8
中線
100
AcDbLine
 10
-106.0662841797
 20
133.6640167236
 30
0.0
 11
-100.0662841797
 21
133.6640167236
 31
0.0
  0
LINE
  5
155
330
24
100
AcDbEntity
  8
中線
100
AcDbLine
 10
-106.0662841797
 20
133.6640167236
 30
0.0
 11
-106.0662841797
 21
110.1640167236
 31
0.0
  0
LINE
  5
156
330
24
100
AcDbEntity
  8
CENTER
100
AcDbLine
 10
-138.0588531494
 20
120.6640167236
 30
0.0
 11
-88.9759521484
 21
120.6640167236
 31
0.0
  0
LINE
  5
15A
330
24
100
AcDbEntity
  8
PHANTOM
100
AcDbLine
 10
-111.7658843994
 20
122.3564434052
 30
0.0
 11
-111.7658843994
 21
121.2639921904
 31
0.0
  0
LINE
  5
15B
330
24
100
AcDbEntity
  8
PHANTOM
100
AcDbLine
 10
-111.7658843994
 20
122.3564434052
 30
0.0
 11
-108.7658843994
 21
122.3564434052
 31
0.0
  0
LINE
  5
15C
330
24
100
AcDbEntity
  8
PHANTOM
100
AcDbLine
 10
-111.7658843994
 20
121.2639921904
 30
0.0
 11
-108.7658843994
 21
121.2639921904
 31
0.0
  0
LINE
  5
15D
330
24
100
AcDbEntity
  8
PHANTOM
100
AcDbLine
 10
-111.7658843994
 20
124.5842571259
 30
0.0
 11
-111.7658843994
 21
123.5418071747
 31
0.0
  0
LINE
  5
15E
330
24
100
AcDbEntity
  8
PHANTOM
100
AcDbLine
 10
-111.7658843994
 20
122.3564434052
 30
0.0
 11
-108.7658843994
 21
122.3564434052
 31
0.0
  0
LINE
  5
15F
330
24
100
AcDbEntity
  8
PHANTOM
100
AcDbLine
 10
-111.7658843994
 20
123.5418071747
 30
0.0
 11
-108.7658843994
 21
123.5418071747
 31
0.0
  0
LINE
  5
160
330
24
100
AcDbEntity
  8
PHANTOM
100
AcDbLine
 10
-111.7658843994
 20
124.5842571259
 30
0.0
 11
-108.7658843994
 21
124.5842571259
 31
0.0
  0
LINE
  5
161
330
24
100
AcDbEntity
  8
PHANTOM
100
AcDbLine
 10
-111.7658843994
 20
125.6234722137
 30
0.0
 11
-111.7658843994
 21
126.4984874725
 31
0.0
  0
LINE
  5
162
330
24
100
AcDbEntity
  8
PHANTOM
100
AcDbLine
 10
-111.7658843994
 20
125.6234722137
 30
0.0
 11
-108.7658843994
 21
125.6234722137
 31
0.0
  0
LINE
  5
163
330
24
100
AcDbEntity
  8
PHANTOM
100
AcDbLine
 10
-111.7658843994
 20
126.4984874725
 30
0.0
 11
-108.7658843994
 21
126.4984874725
 31
0.0
  0
LINE
  5
164
330
24
100
AcDbEntity
  8
PHANTOM
100
AcDbLine
 10
-111.7658843994
 20
127.3671855927
 30
0.0
 11
-108.7658843994
 21
127.3671855927
 31
0.0
  0
LINE
  5
165
330
24
100
AcDbEntity
  8
PHANTOM
100
AcDbLine
 10
-111.7658843994
 20
127.3671855927
 30
0.0
 11
-111.7658843994
 21
128.0540752411
 31
0.0
  0
LINE
  5
166
330
24
100
AcDbEntity
  8
PHANTOM
100
AcDbLine
 10
-111.7658843994
 20
128.0540752411
 30
0.0
 11
-108.7658843994
 21
128.0540752411
 31
0.0
  0
LINE
  5
167
330
24
100
AcDbEntity
  8
PHANTOM
100
AcDbLine
 10
-111.7658843994
 20
128.6540660858
 30
0.0
 11
-108.7658843994
 21
128.6540660858
 31
0.0
  0
LINE
  5
168
330
24
100
AcDbEntity
  8
PHANTOM
100
AcDbLine
 10
-111.7658872604
 20
129.0771894455
 30
0.0
 11
-111.7658872604
 21
128.6540784836
 31
0.0
  0
LINE
  5
169
330
24
100
AcDbEntity
  8
PHANTOM
100
AcDbLine
 10
-111.7658843994
 20
129.0771923065
 30
0.0
 11
-108.7658843994
 21
129.0771923065
 31
0.0
  0
LINE
  5
16A
330
24
100
AcDbEntity
  8
PHANTOM
100
AcDbLine
 10
-111.7658843994
 20
120.0639649034
 30
0.0
 11
-111.7658843994
 21
118.9715127945
 31
0.0
  0
LINE
  5
16B
330
24
100
AcDbEntity
  8
PHANTOM
100
AcDbLine
 10
-108.7658843994
 20
118.9715127945
 30
0.0
 11
-111.7658843994
 21
118.9715127945
 31
0.0
  0
LINE
  5
16C
330
24
100
AcDbEntity
  8
PHANTOM
100
AcDbLine
 10
-108.7658843994
 20
120.0639649034
 30
0.0
 11
-111.7658843994
 21
120.0639649034
 31
0.0
  0
LINE
  5
16D
330
24
100
AcDbEntity
  8
PHANTOM
100
AcDbLine
 10
-111.7658843994
 20
117.786149025
 30
0.0
 11
-111.7658843994
 21
116.7436990738
 31
0.0
  0
LINE
  5
16E
330
24
100
AcDbEntity
  8
PHANTOM
100
AcDbLine
 10
-108.7658843994
 20
118.9715127945
 30
0.0
 11
-111.7658843994
 21
118.9715127945
 31
0.0
  0
LINE
  5
16F
330
24
100
AcDbEntity
  8
PHANTOM
100
AcDbLine
 10
-108.7658843994
 20
117.786149025
 30
0.0
 11
-111.7658843994
 21
117.786149025
 31
0.0
  0
LINE
  5
170
330
24
100
AcDbEntity
  8
PHANTOM
100
AcDbLine
 10
-108.7658843994
 20
116.7436990738
 30
0.0
 11
-111.7658843994
 21
116.7436990738
 31
0.0
  0
LINE
  5
171
330
24
100
AcDbEntity
  8
PHANTOM
100
AcDbLine
 10
-111.7658843994
 20
114.8294687271
 30
0.0
 11
-111.7658843994
 21
115.7044839859
 31
0.0
  0
LINE
  5
172
330
24
100
AcDbEntity
  8
PHANTOM
100
AcDbLine
 10
-108.7658843994
 20
115.7044839859
 30
0.0
 11
-111.7658843994
 21
115.7044839859
 31
0.0
  0
LINE
  5
173
330
24
100
AcDbEntity
  8
PHANTOM
100
AcDbLine
 10
-108.7658843994
 20
114.8294687271
 30
0.0
 11
-111.7658843994
 21
114.8294687271
 31
0.0
  0
LINE
  5
174
330
24
100
AcDbEntity
  8
PHANTOM
100
AcDbLine
 10
-108.7658843994
 20
113.960770607
 30
0.0
 11
-111.7658843994
 21
113.960770607
 31
0.0
  0
LINE
  5
175
330
24
100
AcDbEntity
  8
PHANTOM
100
AcDbLine
 10
-111.7658843994
 20
113.2738809586
 30
0.0
 11
-111.7658843994
 21
113.960770607
 31
0.0
  0
LINE
  5
176
330
24
100
AcDbEntity
  8
PHANTOM
100
AcDbLine
 10
-108.7658843994
 20
113.2738809586
 30
0.0
 11
-111.7658843994
 21
113.2738809586
 31
0.0
  0
LINE
  5
177
330
24
100
AcDbEntity
  8
PHANTOM
100
AcDbLine
 10
-108.7658843994
 20
112.6738901138
 30
0.0
 11
-111.7658843994
 21
112.6738901138
 31
0.0
  0
LINE
  5
178
330
24
100
AcDbEntity
  8
PHANTOM
100
AcDbLine
 10
-111.7659044266
 20
112.6738710403
 30
0.0
 11
-111.7659044266
 21
112.2507600784
 31
0.0
  0
LINE
  5
179
330
24
100
AcDbEntity
  8
PHANTOM
100
AcDbLine
 10
-108.7658843994
 20
112.2507638931
 30
0.0
 11
-111.7658843994
 21
112.2507638931
 31
0.0
  0
LINE
  5
17A
330
24
100
AcDbEntity
  8
PHANTOM
100
AcDbLine
 10
-113.7658691406
 20
112.2848672867
 30
0.0
 11
-112.5658721924
 21
112.2848672867
 31
0.0
  0
LINE
  5
17B
330
24
100
AcDbEntity
  8
PHANTOM
100
AcDbLine
 10
-113.7658691406
 20
117.6639871597
 30
0.0
 11
-113.7658691406
 21
112.2848672867
 31
0.0
  0
LINE
  5
17C
330
24
100
AcDbEntity
  8
PHANTOM
100
AcDbLine
 10
-112.5658721924
 20
117.6639871597
 30
0.0
 11
-113.7658691406
 21
117.6639871597
 31
0.0
  0
LINE
  5
17D
330
24
100
AcDbEntity
  8
PHANTOM
100
AcDbLine
 10
-113.7658691406
 20
123.6639842987
 30
0.0
 11
-112.5658721924
 21
123.6639842987
 31
0.0
  0
LINE
  5
17E
330
24
100
AcDbEntity
  8
PHANTOM
100
AcDbLine
 10
-113.7658691406
 20
129.0431499481
 30
0.0
 11
-113.7658691406
 21
123.6639842987
 31
0.0
  0
LINE
  5
17F
330
24
100
AcDbEntity
  8
PHANTOM
100
AcDbLine
 10
-112.5658721924
 20
129.0431499481
 30
0.0
 11
-113.7658691406
 21
129.0431499481
 31
0.0
  0
LINE
  5
180
330
24
100
AcDbEntity
  8
PHANTOM
100
AcDbLine
 10
-112.5658721924
 20
123.6639842987
 30
0.0
 11
-112.5658721924
 21
117.6639871597
 31
0.0
  0
LINE
  5
181
330
24
100
AcDbEntity
  8
PHANTOM
100
AcDbLine
 10
-112.5659040329
 20
111.7639853614
 30
0.0
 11
-112.5658887741
 21
112.2848746436
 31
0.0
  0
LINE
  5
182
330
24
100
AcDbEntity
  8
PHANTOM
100
AcDbLine
 10
-112.5658721924
 20
129.5639781952
 30
0.0
 11
-112.5658721924
 21
129.0431499481
 31
0.0
  0
LINE
  5
183
330
24
100
AcDbEntity
  8
PHANTOM
100
AcDbLine
 10
-108.7658996582
 20
111.7639780045
 30
0.0
 11
-112.5658874512
 21
111.7639780045
 31
0.0
  0
LINE
  5
184
330
24
100
AcDbEntity
  8
PHANTOM
100
AcDbLine
 10
-108.7659053802
 20
129.5639591217
 30
0.0
 11
-108.7659053802
 21
111.7639741898
 31
0.0
  0
LINE
  5
185
330
24
100
AcDbEntity
  8
PHANTOM
100
AcDbLine
 10
-112.5658721924
 20
129.5639781952
 30
0.0
 11
-108.7658843994
 21
129.5639781952
 31
0.0
  0
LINE
  5
186
330
24
100
AcDbEntity
  8
PHANTOM
100
AcDbLine
 10
-115.9662475586
 20
128.0637969971
 30
0.0
 11
-125.9662475586
 21
128.0637969971
 31
0.0
  0
LINE
  5
187
330
24
100
AcDbEntity
  8
PHANTOM
100
AcDbLine
 10
-125.9662475586
 20
113.2644958496
 30
0.0
 11
-115.9662475586
 21
113.2644958496
 31
0.0
  0
LINE
  5
188
330
24
100
AcDbEntity
  8
PHANTOM
100
AcDbLine
 10
-107.8223253854
 20
129.6139899118
 30
0.0
 11
-106.8752701368
 21
129.2929490649
 31
0.0
  0
LINE
  5
189
330
24
100
AcDbEntity
  8
PHANTOM
100
AcDbLine
 10
-107.8223554936
 20
111.7139843971
 30
0.0
 11
-106.875301015
 21
112.0350096981
 31
0.0
  0
LINE
  5
18A
330
24
100
AcDbEntity
  8
PHANTOM
100
AcDbLine
 10
-108.7664489746
 20
129.6140136719
 30
0.0
 11
-107.8223419189
 21
129.6140136719
 31
0.0
  0
LINE
  5
18B
330
24
100
AcDbEntity
  8
PHANTOM
100
AcDbLine
 10
-108.7664489746
 20
111.7140045166
 30
0.0
 11
-107.8223571777
 21
111.7140045166
 31
0.0
  0
LINE
  5
18C
330
24
100
AcDbEntity
  8
PHANTOM
100
AcDbLine
 10
-108.7664346516
 20
114.4990804518
 30
0.0
 11
-107.8223491118
 21
111.7139766111
 31
0.0
  0
LINE
  5
18D
330
24
100
AcDbEntity
  8
PHANTOM
100
AcDbLine
 10
-108.7664422957
 20
126.8288437089
 30
0.0
 11
-107.8223376779
 21
129.6139895006
 31
0.0
  0
LINE
  5
18E
330
24
100
AcDbEntity
  8
PHANTOM
100
AcDbLine
 10
-107.7664381202
 20
126.6639981877
 30
0.0
 11
-106.875282601
 21
129.2929420541
 31
0.0
  0
LINE
  5
18F
330
24
100
AcDbEntity
  8
PHANTOM
100
AcDbLine
 10
-107.7664426138
 20
114.663984658
 30
0.0
 11
-106.8752814338
 21
112.0350105658
 31
0.0
  0
LINE
  5
190
330
24
100
AcDbEntity
  8
PHANTOM
100
AcDbLine
 10
-107.7664489746
 20
114.6639881134
 30
0.0
 11
-107.7664489746
 21
126.6639699936
 31
0.0
  0
LINE
  5
191
330
24
100
AcDbEntity
  8
PHANTOM
100
AcDbLine
 10
-104.5662841797
 20
111.9640045166
 30
0.0
 11
-103.9662780762
 21
111.9640045166
 31
0.0
  0
LINE
  5
192
330
24
100
AcDbEntity
  8
PHANTOM
100
AcDbLine
 10
-104.5662841797
 20
129.3640136719
 30
0.0
 11
-103.9662780762
 21
129.3640136719
 31
0.0
  0
LINE
  5
193
330
24
100
AcDbEntity
  8
PHANTOM
100
AcDbLine
 10
-104.5662841797
 20
111.9640045166
 30
0.0
 11
-104.5662841797
 21
129.3640136719
 31
0.0
  0
LINE
  5
194
330
24
100
AcDbEntity
  8
PHANTOM
100
AcDbLine
 10
-103.9662780762
 20
111.6645202637
 30
0.0
 11
-103.9662780762
 21
129.663772583
 31
0.0
  0
LINE
  5
195
330
24
100
AcDbEntity
  8
PHANTOM
100
AcDbLine
 10
-104.8642425537
 20
112.6645202637
 30
0.0
 11
-107.0886697769
 21
112.6645202637
 31
0.0
  0
LINE
  5
196
330
24
100
AcDbEntity
  8
PHANTOM
100
AcDbLine
 10
-104.5662841797
 20
113.2644958496
 30
0.0
 11
-107.2920484543
 21
113.2644958496
 31
0.0
  0
LINE
  5
197
330
24
100
AcDbEntity
  8
PHANTOM
100
AcDbLine
 10
-104.5662841797
 20
116.6644287109
 30
0.0
 11
-107.7664480209
 21
116.6644287109
 31
0.0
  0
LINE
  5
198
330
24
100
AcDbEntity
  8
PHANTOM
100
AcDbLine
 10
-115.5663604736
 20
124.6638946533
 30
0.0
 11
-113.765868187
 21
124.6638946533
 31
0.0
  0
LINE
  5
199
330
24
100
AcDbEntity
  8
PHANTOM
100
AcDbLine
 10
-115.9662628174
 20
128.0637969971
 30
0.0
 11
-113.765868187
 21
128.0637969971
 31
0.0
  0
LINE
  5
19A
330
24
100
AcDbEntity
  8
PHANTOM
100
AcDbLine
 10
-115.5663604736
 20
128.6638946533
 30
0.0
 11
-113.765868187
 21
128.6638946533
 31
0.0
  0
LINE
  5
19B
330
24
100
AcDbEntity
  8
PHANTOM
100
AcDbLine
 10
-108.7664489746
 20
111.7639636993
 30
0.0
 11
-108.7664489746
 21
129.5639181137
 31
0.0
  0
LINE
  5
19C
330
24
100
AcDbEntity
  8
PHANTOM
100
AcDbLine
 10
-104.5645443969
 20
113.2638655563
 30
0.0
 11
-104.8645307815
 21
112.6639079802
 31
0.0
  0
LINE
  5
19D
330
24
100
AcDbEntity
  8
PHANTOM
100
AcDbLine
 10
-104.5652985258
 20
128.0631941493
 30
0.0
 11
-104.8652906368
 21
128.6632853409
 31
0.0
  0
LINE
  5
19E
330
24
100
AcDbEntity
  8
PHANTOM
100
AcDbLine
 10
-107.2919359207
 20
128.0637969971
 30
0.0
 11
-104.5662841797
 21
128.0637969971
 31
0.0
  0
LINE
  5
19F
330
24
100
AcDbEntity
  8
PHANTOM
100
AcDbLine
 10
-115.9673952703
 20
128.0632735612
 30
0.0
 11
-115.5673504181
 21
128.6633411405
 31
0.0
  0
LINE
  5
1A0
330
24
100
AcDbEntity
  8
PHANTOM
100
AcDbLine
 10
-104.5662841797
 20
128.0637969971
 30
0.0
 11
-104.5662841797
 21
124.6638946533
 31
0.0
  0
LINE
  5
1A1
330
24
100
AcDbEntity
  8
PHANTOM
100
AcDbLine
 10
-107.7664489746
 20
124.6638946533
 30
0.0
 11
-104.5662841797
 21
124.6638946533
 31
0.0
  0
LINE
  5
1A2
330
24
100
AcDbEntity
  8
PHANTOM
100
AcDbLine
 10
-107.0885152817
 20
128.6638946533
 30
0.0
 11
-104.8655548096
 21
128.6638946533
 31
0.0
  0
LINE
  5
1A3
330
24
100
AcDbEntity
  8
PHANTOM
100
AcDbLine
 10
-115.5663604736
 20
124.6638946533
 30
0.0
 11
-115.5663604736
 21
128.6638946533
 31
0.0
  0
LINE
  5
1A4
330
24
100
AcDbEntity
  8
PHANTOM
100
AcDbLine
 10
-113.7658691406
 20
113.2644958496
 30
0.0
 11
-115.9662628174
 21
113.2644958496
 31
0.0
  0
ARC
  5
1A5
330
24
100
AcDbEntity
  8
PHANTOM
100
AcDbCircle
 10
-95.7663269043
 20
120.663772583
 30
0.0
 40
20.200012207
100
AcDbArc
 50
168.5787949053
 51
191.4211331503
  0
LINE
  5
1A6
330
24
100
AcDbEntity
  8
PHANTOM
100
AcDbLine
 10
-115.9662628174
 20
113.2644958496
 30
0.0
 11
-115.9662628174
 21
128.0637969971
 31
0.0
  0
LINE
  5
1A7
330
24
100
AcDbEntity
  8
PHANTOM
100
AcDbLine
 10
-115.5681100672
 20
112.6633285363
 30
0.0
 11
-115.968087207
 21
113.2632945469
 31
0.0
  0
LINE
  5
1A8
330
24
100
AcDbEntity
  8
PHANTOM
100
AcDbLine
 10
-104.5662841797
 20
116.6644287109
 30
0.0
 11
-104.5662841797
 21
113.2644958496
 31
0.0
  0
LINE
  5
1A9
330
24
100
AcDbEntity
  8
PHANTOM
100
AcDbLine
 10
-113.7658691406
 20
116.6644287109
 30
0.0
 11
-115.5663604736
 21
116.6644287109
 31
0.0
  0
LINE
  5
1AA
330
24
100
AcDbEntity
  8
PHANTOM
100
AcDbLine
 10
-113.7658691406
 20
112.6645202637
 30
0.0
 11
-115.5663604736
 21
112.6645202637
 31
0.0
  0
LINE
  5
1AB
330
24
100
AcDbEntity
  8
PHANTOM
100
AcDbLine
 10
-115.5663604736
 20
112.6645202637
 30
0.0
 11
-115.5663604736
 21
116.6644287109
 31
0.0
  0
LINE
  5
1AC
330
24
100
AcDbEntity
  8
PHANTOM
100
AcDbLine
 10
-120.9666900635
 20
121.4637603164
 30
0.0
 11
-120.9666900635
 21
121.0637359023
 31
0.0
  0
LINE
  5
1AD
330
24
100
AcDbEntity
  8
PHANTOM
100
AcDbLine
 10
-120.9666900635
 20
120.263931334
 30
0.0
 11
-120.9666900635
 21
119.86390692
 31
0.0
  0
LINE
  5
1AE
330
24
100
AcDbEntity
  8
PHANTOM
100
AcDbLine
 10
-125.966644924
 20
123.1634562943
 30
0.0
 11
-120.9666487508
 21
123.1136516673
 31
0.0
  0
LINE
  5
1AF
330
24
100
AcDbEntity
  8
PHANTOM
100
AcDbLine
 10
-120.9664936818
 20
118.2141599566
 30
0.0
 11
-125.9664859806
 21
118.1639891343
 31
0.0
  0
LINE
  5
1B0
330
24
100
AcDbEntity
  8
PHANTOM
100
AcDbLine
 10
-120.9664459229
 20
123.1137838364
 30
0.0
 11
-120.9664459229
 21
118.2140817642
 31
0.0
  0
LINE
  5
1B1
330
24
100
AcDbEntity
  8
PHANTOM
100
AcDbLine
 10
-94.9682386117
 20
112.1644911327
 30
0.0
 11
-103.9743600352
 21
111.9643543963
 31
0.0
  0
LINE
  5
1B2
330
24
100
AcDbEntity
  8
PHANTOM
100
AcDbLine
 10
-103.9738177196
 20
129.3569190418
 30
0.0
 11
-94.9675284909
 21
129.1567785764
 31
0.0
  0
LINE
  5
1B3
330
24
100
AcDbEntity
  8
PHANTOM
100
AcDbLine
 10
-95.2661895752
 20
111.857635498
 30
0.0
 11
-95.2661895752
 21
129.4705352783
 31
0.0
  0
LINE
  5
1B4
330
24
100
AcDbEntity
  8
PHANTOM
100
AcDbLine
 10
-94.9676818079
 20
129.1567175089
 30
0.0
 11
-95.2675607281
 21
129.4702265781
 31
0.0
  0
LINE
  5
1B5
330
24
100
AcDbEntity
  8
PHANTOM
100
AcDbLine
 10
-95.2746962671
 20
111.8568493901
 30
0.0
 11
-94.9677535622
 21
112.1637913705
 31
0.0
  0
LINE
  5
1B6
330
24
100
AcDbEntity
  8
PHANTOM
100
AcDbLine
 10
-103.9670024294
 20
129.663606021
 30
0.0
 11
-95.2675069651
 21
129.4702832189
 31
0.0
  0
LINE
  5
1B7
330
24
100
AcDbEntity
  8
PHANTOM
100
AcDbLine
 10
-125.9662475586
 20
113.2644958496
 30
0.0
 11
-125.9662475586
 21
128.0637969971
 31
0.0
  0
LINE
  5
1B8
330
24
100
AcDbEntity
  8
PHANTOM
100
AcDbLine
 10
-95.2750811687
 20
111.8576715797
 30
0.0
 11
-103.9676966177
 21
111.6645016673
 31
0.0
  0
LINE
  5
1B9
330
24
100
AcDbEntity
  8
PHANTOM
100
AcDbLine
 10
-94.9662628174
 20
112.1645202637
 30
0.0
 11
-94.9662628174
 21
129.1569366455
 31
0.0
  0
LINE
  5
1BA
330
24
100
AcDbEntity
  8
PHANTOM
100
AcDbLine
 10
-132.36328125
 20
121.2639464736
 30
0.0
 11
-130.9633178711
 21
121.2639464736
 31
0.0
  0
LINE
  5
1BB
330
24
100
AcDbEntity
  8
PHANTOM
100
AcDbLine
 10
-132.36328125
 20
120.0639649034
 30
0.0
 11
-130.9633178711
 21
120.0639649034
 31
0.0
  0
LINE
  5
1BC
330
24
100
AcDbEntity
  8
PHANTOM
100
AcDbLine
 10
-126.2633209229
 20
122.0639486313
 30
0.0
 11
-133.4633178711
 21
122.0639486313
 31
0.0
  0
LINE
  5
1BD
330
24
100
AcDbEntity
  8
PHANTOM
100
AcDbLine
 10
-133.0670377217
 20
119.4498192647
 30
0.0
 11
-131.067150253
 21
119.8783674937
 31
0.0
  0
LINE
  5
1BE
330
24
100
AcDbEntity
  8
PHANTOM
100
AcDbLine
 10
-131.066774915
 20
121.4492253476
 30
0.0
 11
-133.0667818662
 21
121.8777985444
 31
0.0
  0
LINE
  5
1BF
330
24
100
AcDbEntity
  8
PHANTOM
100
AcDbLine
 10
-132.9475405878
 20
120.8135692912
 30
0.0
 11
-133.9607241815
 21
120.8135672288
 31
0.0
  0
LINE
  5
1C0
330
24
100
AcDbEntity
  8
PHANTOM
100
AcDbLine
 10
-132.9476776123
 20
120.5139160752
 30
0.0
 11
-133.9607391357
 21
120.5139160752
 31
0.0
  0
ARC
  5
1C1
330
24
100
AcDbEntity
  8
PHANTOM
100
AcDbCircle
 10
-133.2665405273
 20
121.5138702393
 30
0.0
 40
0.1999999285
100
AcDbArc
 50
179.9999640278
 51
269.9999460417
  0
ARC
  5
1C2
330
24
100
AcDbEntity
  8
PHANTOM
100
AcDbCircle
 10
-133.2665405273
 20
119.8139190674
 30
0.0
 40
0.1999999285
100
AcDbArc
 50
90.0000366554
 51
179.9999640278
  0
LINE
  5
1C3
330
24
100
AcDbEntity
  8
PHANTOM
100
AcDbLine
 10
-133.2666168213
 20
121.3137359023
 30
0.0
 11
-130.6377105713
 21
121.3137359023
 31
0.0
  0
LINE
  5
1C4
330
24
100
AcDbEntity
  8
PHANTOM
100
AcDbLine
 10
-133.2666168213
 20
120.013931334
 30
0.0
 11
-130.6377105713
 21
120.013931334
 31
0.0
  0
LINE
  5
1C5
330
24
100
AcDbEntity
  8
PHANTOM
100
AcDbLine
 10
-130.3202056885
 20
120.5638580918
 30
0.0
 11
-125.9662628174
 21
120.5638580918
 31
0.0
  0
LINE
  5
1C6
330
24
100
AcDbEntity
  8
PHANTOM
100
AcDbLine
 10
-130.3202056885
 20
120.7639312148
 30
0.0
 11
-125.9662628174
 21
120.7639312148
 31
0.0
  0
LINE
  5
1C7
330
24
100
AcDbEntity
  8
PHANTOM
100
AcDbLine
 10
-133.4665679932
 20
122.0637350082
 30
0.0
 11
-125.9662628174
 21
122.0637350082
 31
0.0
  0
LINE
  5
1C8
330
24
100
AcDbEntity
  8
PHANTOM
100
AcDbLine
 10
-133.4665679932
 20
121.9637594223
 30
0.0
 11
-125.9662628174
 21
121.9637594223
 31
0.0
  0
LINE
  5
1C9
330
24
100
AcDbEntity
  8
PHANTOM
100
AcDbLine
 10
-130.6385462894
 20
121.3137424521
 30
0.0
 11
-130.3210414444
 21
120.7638078355
 31
0.0
  0
LINE
  5
1CA
330
24
100
AcDbEntity
  8
PHANTOM
100
AcDbLine
 10
-130.3208955347
 20
120.5633465194
 30
0.0
 11
-130.638461377
 21
120.0133061867
 31
0.0
  0
LINE
  5
1CB
330
24
100
AcDbEntity
  8
PHANTOM
100
AcDbLine
 10
-133.4665679932
 20
122.0637350082
 30
0.0
 11
-133.4665679932
 21
121.5138091445
 31
0.0
  0
LINE
  5
1CC
330
24
100
AcDbEntity
  8
PHANTOM
100
AcDbLine
 10
-133.4665679932
 20
119.8138580918
 30
0.0
 11
-133.4665679932
 21
119.2640542984
 31
0.0
  0
ARC
  5
1CD
330
24
100
AcDbEntity
  8
PHANTOM
100
AcDbCircle
 10
-132.3665161133
 20
120.6640167236
 30
0.0
 40
0.5999994278
100
AcDbArc
 50
90.0000366554
 51
269.9998914002
  0
LINE
  5
1CE
330
24
100
AcDbEntity
  8
PHANTOM
100
AcDbLine
 10
-133.4665679932
 20
122.0637350082
 30
0.0
 11
-133.4665679932
 21
121.9482564926
 31
0.0
  0
ARC
  5
1CF
330
24
100
AcDbEntity
  8
PHANTOM
100
AcDbCircle
 10
-132.0665893555
 20
120.6640167236
 30
0.0
 40
1.8999996185
100
AcDbArc
 50
137.4630758394
 51
222.5368522163
  0
LINE
  5
1D0
330
24
100
AcDbEntity
  8
PHANTOM
100
AcDbLine
 10
-133.4665679932
 20
119.3794107437
 30
0.0
 11
-133.4665679932
 21
119.2640542984
 31
0.0
  0
LINE
  5
1D1
330
24
100
AcDbEntity
  8
PHANTOM
100
AcDbLine
 10
-132.3665924072
 20
121.2638091445
 30
0.0
 11
-130.9666900635
 21
121.2638091445
 31
0.0
  0
LINE
  5
1D2
330
24
100
AcDbEntity
  8
PHANTOM
100
AcDbLine
 10
-132.3665924072
 20
120.0638580918
 30
0.0
 11
-130.9666900635
 21
120.0638580918
 31
0.0
  0
ARC
  5
1D3
330
24
100
AcDbEntity
  8
PHANTOM
100
AcDbCircle
 10
-130.9666137695
 20
120.6640167236
 30
0.0
 40
0.5999994278
100
AcDbArc
 50
270.0000726276
 51
449.9999820139
  0
LINE
  5
1D4
330
24
100
AcDbEntity
  8
PHANTOM
100
AcDbLine
 10
-125.9662628174
 20
119.363907814
 30
0.0
 11
-133.4665679932
 21
119.363907814
 31
0.0
  0
LINE
  5
1D5
330
24
100
AcDbEntity
  8
PHANTOM
100
AcDbLine
 10
-125.9662628174
 20
119.2640542984
 30
0.0
 11
-133.4665679932
 21
119.2640542984
 31
0.0
  0
LINE
  5
1D6
330
24
100
AcDbEntity
  8
PHANTOM
100
AcDbLine
 10
-126.9662017822
 20
115.4639596939
 30
0.0
 11
-126.9662017822
 21
119.2640542984
 31
0.0
  0
ARC
  5
1D7
330
24
100
AcDbEntity
  8
PHANTOM
100
AcDbCircle
 10
-126.6661987305
 20
126.0639953613
 30
0.0
 40
0.2999997735
100
AcDbArc
 50
89.9999820139
 51
180.0000186693
  0
ARC
  5
1D8
330
24
100
AcDbEntity
  8
PHANTOM
100
AcDbCircle
 10
-126.6661987305
 20
125.1139984131
 30
0.0
 40
0.2999997735
100
AcDbArc
 50
89.9999820139
 51
179.9999640278
  0
ARC
  5
1D9
330
24
100
AcDbEntity
  8
PHANTOM
100
AcDbCircle
 10
-126.6661987305
 20
115.4640197754
 30
0.0
 40
0.2999997735
100
AcDbArc
 50
179.9999640278
 51
269.9999460417
  0
ARC
  5
1DA
330
24
100
AcDbEntity
  8
PHANTOM
100
AcDbCircle
 10
-126.6661987305
 20
116.0640106201
 30
0.0
 40
0.2999997735
100
AcDbArc
 50
179.9999640278
 51
269.9999460417
  0
LINE
  5
1DB
330
24
100
AcDbEntity
  8
PHANTOM
100
AcDbLine
 10
-126.6661987305
 20
125.413939476
 30
0.0
 11
-125.9662475586
 21
125.413939476
 31
0.0
  0
LINE
  5
1DC
330
24
100
AcDbEntity
  8
PHANTOM
100
AcDbLine
 10
-126.6661987305
 20
115.7639627457
 30
0.0
 11
-125.9662475586
 21
115.7639627457
 31
0.0
  0
LINE
  5
1DD
330
24
100
AcDbEntity
  8
PHANTOM
100
AcDbLine
 10
-125.9662628174
 20
126.3639450073
 30
0.0
 11
-126.6662139893
 21
126.3639450073
 31
0.0
  0
LINE
  5
1DE
330
24
100
AcDbEntity
  8
PHANTOM
100
AcDbLine
 10
-126.6661987305
 20
115.1639719009
 30
0.0
 11
-125.9662475586
 21
115.1639719009
 31
0.0
  0
LINE
  5
1DF
330
24
100
AcDbEntity
  8
PHANTOM
100
AcDbLine
 10
-126.9662017822
 20
122.0637197495
 30
0.0
 11
-126.9662017822
 21
126.0639486313
 31
0.0
  0
LINE
  5
1E0
330
24
100
AcDbEntity
  8
PHANTOM
100
AcDbLine
 10
-126.2662506104
 20
114.2639627457
 30
0.0
 11
-133.4633178711
 21
114.2639627457
 31
0.0
  0
LINE
  5
1E1
330
24
100
AcDbEntity
  8
PHANTOM
100
AcDbLine
 10
-126.2662506104
 20
127.0639486313
 30
0.0
 11
-126.2662506104
 21
126.3639364243
 31
0.0
  0
LINE
  5
1E2
330
24
100
AcDbEntity
  8
PHANTOM
100
AcDbLine
 10
-126.2662506104
 20
115.1639566422
 30
0.0
 11
-126.2662506104
 21
114.2639627457
 31
0.0
  0
LINE
  5
1E3
330
24
100
AcDbEntity
  8
PHANTOM
100
AcDbLine
 10
-134.9829406738
 20
125.663939476
 30
0.0
 11
-129.5147857666
 21
125.663939476
 31
0.0
  0
LINE
  5
1E4
330
24
100
AcDbEntity
  8
PHANTOM
100
AcDbLine
 10
-134.8649291992
 20
115.6639566422
 30
0.0
 11
-129.5147857666
 21
115.6639566422
 31
0.0
  0
LINE
  5
1E5
330
24
100
AcDbEntity
  8
PHANTOM
100
AcDbLine
 10
-132.36328125
 20
116.2639627457
 30
0.0
 11
-130.9633178711
 21
116.2639627457
 31
0.0
  0
LINE
  5
1E6
330
24
100
AcDbEntity
  8
PHANTOM
100
AcDbLine
 10
-132.36328125
 20
115.0639657974
 30
0.0
 11
-130.9633178711
 21
115.0639657974
 31
0.0
  0
ARC
  5
1E7
330
24
100
AcDbEntity
  8
PHANTOM
100
AcDbCircle
 10
-132.3632659912
 20
115.6640167236
 30
0.0
 40
0.599998951
100
AcDbArc
 50
89.9999820139
 51
269.9998914002
  0
ARC
  5
1E8
330
24
100
AcDbEntity
  8
PHANTOM
100
AcDbCircle
 10
-130.9633178711
 20
115.6640167236
 30
0.0
 40
0.599998951
100
AcDbArc
 50
270.0000726276
 51
449.9999820139
  0
LINE
  5
1E9
330
24
100
AcDbEntity
  8
PHANTOM
100
AcDbLine
 10
-132.3633270264
 20
126.2639455795
 30
0.0
 11
-130.9633178711
 21
126.2639455795
 31
0.0
  0
LINE
  5
1EA
330
24
100
AcDbEntity
  8
PHANTOM
100
AcDbLine
 10
-132.3633270264
 20
125.0639486313
 30
0.0
 11
-130.9633178711
 21
125.0639486313
 31
0.0
  0
ARC
  5
1EB
330
24
100
AcDbEntity
  8
PHANTOM
100
AcDbCircle
 10
-132.3633117676
 20
125.6640014648
 30
0.0
 40
0.599998951
100
AcDbArc
 50
89.9999820139
 51
269.9998914002
  0
ARC
  5
1EC
330
24
100
AcDbEntity
  8
PHANTOM
100
AcDbCircle
 10
-130.9633178711
 20
125.6640014648
 30
0.0
 40
0.599998951
100
AcDbArc
 50
270.0000726276
 51
449.9999820139
  0
ARC
  5
1ED
330
24
100
AcDbEntity
  8
PHANTOM
100
AcDbCircle
 10
-131.7662506104
 20
125.6640014648
 30
0.0
 40
2.1999979019
100
AcDbArc
 50
140.4787409617
 51
219.5211324524
  0
ARC
  5
1EE
330
24
100
AcDbEntity
  8
PHANTOM
100
AcDbCircle
 10
-131.7662506104
 20
115.6640167236
 30
0.0
 40
2.1999979019
100
AcDbArc
 50
140.4787956032
 51
219.5211870939
  0
LINE
  5
1EF
330
24
100
AcDbEntity
  8
PHANTOM
100
AcDbLine
 10
-126.9662017822
 20
117.0639657974
 30
0.0
 11
-133.4633178711
 21
117.0639657974
 31
0.0
  0
LINE
  5
1F0
330
24
100
AcDbEntity
  8
PHANTOM
100
AcDbLine
 10
-133.4633178711
 20
117.0639657974
 30
0.0
 11
-133.4633178711
 21
114.2639627457
 31
0.0
  0
LINE
  5
1F1
330
24
100
AcDbEntity
  8
PHANTOM
100
AcDbLine
 10
-126.966217041
 20
124.2639455795
 30
0.0
 11
-133.4633178711
 21
124.2639455795
 31
0.0
  0
LINE
  5
1F2
330
24
100
AcDbEntity
  8
PHANTOM
100
AcDbLine
 10
-126.2662506104
 20
127.0639486313
 30
0.0
 11
-133.4633178711
 21
127.0639486313
 31
0.0
  0
LINE
  5
1F3
330
24
100
AcDbEntity
  8
PHANTOM
100
AcDbLine
 10
-133.4633178711
 20
127.0639486313
 30
0.0
 11
-133.4633178711
 21
124.2639455795
 31
0.0
  0
CIRCLE
  5
201
330
24
100
AcDbEntity
  8
中線
100
AcDbCircle
 10
-159.8009643555
 20
120.6640014648
 30
0.0
 40
8.0999994278
  0
ARC
  5
205
330
24
100
AcDbEntity
  8
中線
100
AcDbCircle
 10
-92.3662872314
 20
81.871887207
 30
0.0
 40
0.2999999523
100
AcDbArc
 50
0.0
 51
89.9999820139
  0
ARC
  5
206
330
24
100
AcDbEntity
  8
中線
100
AcDbCircle
 10
-92.3662872314
 20
58.4718780518
 30
0.0
 40
0.2999999523
100
AcDbArc
 50
270.0000179861
 51
360.0
  0
CIRCLE
  5
207
330
24
100
AcDbEntity
  8
中線
 62
     5
100
AcDbCircle
 10
-46.2702026367
 20
112.1639404297
 30
0.0
 40
0.5
  0
ARC
  5
208
330
24
100
AcDbEntity
  8
中線
100
AcDbCircle
 10
-148.100982666
 20
110.4639282227
 30
0.0
 40
0.2999999523
100
AcDbArc
 50
270.0000179861
 51
360.0029142121
  0
ARC
  5
209
330
24
100
AcDbEntity
  8
中線
100
AcDbCircle
 10
-171.5009918213
 20
110.4639129639
 30
0.0
 40
0.2999999523
100
AcDbArc
 50
179.9999640278
 51
270.0002192493
  0
ARC
  5
20A
330
24
100
AcDbEntity
  8
中線
100
AcDbCircle
 10
-171.5009918213
 20
133.3639068604
 30
0.0
 40
0.2999999523
100
AcDbArc
 50
89.9997634479
 51
179.9999640278
  0
ARC
  5
20B
330
24
100
AcDbEntity
  8
中線
100
AcDbCircle
 10
-148.100982666
 20
133.3639221191
 30
0.0
 40
0.2999999523
100
AcDbArc
 50
0.0029142121
 51
89.9999820139
  0
ARC
  5
20C
330
24
100
AcDbEntity
  8
中線
 62
     5
100
AcDbCircle
 10
-57.970199585
 20
133.3639221191
 30
0.0
 40
0.2999999523
100
AcDbArc
 50
89.9999820139
 51
179.9999640278
  0
ARC
  5
20D
330
24
100
AcDbEntity
  8
中線
 62
     5
100
AcDbCircle
 10
-57.970199585
 20
110.4639129639
 30
0.0
 40
0.2999999523
100
AcDbArc
 50
180.0000359722
 51
270.0000179861
  0
ARC
  5
20E
330
24
100
AcDbEntity
  8
中線
 62
     5
100
AcDbCircle
 10
-34.5701904297
 20
110.4638977051
 30
0.0
 40
0.2999999523
100
AcDbArc
 50
270.0000179861
 51
360.0
  0
ARC
  5
20F
330
24
100
AcDbEntity
  8
中線
 62
     5
100
AcDbCircle
 10
-34.5701904297
 20
133.3639068604
 30
0.0
 40
0.2999999523
100
AcDbArc
 50
0.0
 51
89.9999820139
  0
CIRCLE
  5
210
330
24
100
AcDbEntity
  8
中線
100
AcDbCircle
 10
-170.2009887695
 20
120.6638946533
 30
0.0
 40
1.0
  0
CIRCLE
  5
211
330
24
100
AcDbEntity
  8
中線
100
AcDbCircle
 10
-149.4009857178
 20
120.6639099121
 30
0.0
 40
1.0
  0
LINE
  5
21D
330
24
100
AcDbEntity
  8
CENTER
100
AcDbLine
 10
-60.2102966309
 20
120.6640167236
 30
0.0
 11
-32.0771484375
 21
120.6640167236
 31
0.0
  0
LINE
  5
22C
330
24
100
AcDbEntity
  8
中線
100
AcDbLine
 10
-106.0662841797
 20
69.671875
 30
0.0
 11
-99.5662841797
 21
69.671875
 31
0.0
  0
LINE
  5
22D
330
24
100
AcDbEntity
  8
中線
100
AcDbLine
 10
-106.0662841797
 20
70.671875
 30
0.0
 11
-99.5662841797
 21
70.671875
 31
0.0
  0
LINE
  5
22E
330
24
100
AcDbEntity
  8
中線
 62
     5
100
AcDbLine
 10
-98.0662841797
 20
58.171875
 30
0.0
 11
-92.3662872314
 21
58.171875
 31
0.0
  0
LINE
  5
22F
330
24
100
AcDbEntity
  8
中線
 62
     5
100
AcDbLine
 10
-92.0662841797
 20
81.871887207
 30
0.0
 11
-92.0662841797
 21
58.4718780518
 31
0.0
  0
LINE
  5
230
330
24
100
AcDbEntity
  8
中線
 62
     5
100
AcDbLine
 10
-98.0662841797
 20
82.171875
 30
0.0
 11
-92.3662872314
 21
82.171875
 31
0.0
  0
LINE
  5
231
330
24
100
AcDbEntity
  8
中線
 62
     5
100
AcDbLine
 10
-98.0662841797
 20
82.171875
 30
0.0
 11
-98.0662841797
 21
58.171875
 31
0.0
  0
LINE
  5
232
330
24
100
AcDbEntity
  8
CENTER
100
AcDbLine
 10
-44.8182830811
 20
112.1639556885
 30
0.0
 11
-47.9691314697
 21
112.1639556885
 31
0.0
  0
LINE
  5
233
330
24
100
AcDbEntity
  8
中線
100
AcDbLine
 10
-50.3702087402
 20
133.6639251709
 30
0.0
 11
-42.170211792
 21
133.6639251709
 31
0.0
  0
LINE
  5
234
330
24
100
AcDbEntity
  8
中線
 62
     5
100
AcDbLine
 10
-52.9202270508
 20
132.2639465332
 30
0.0
 11
-52.9202270508
 21
130.063949585
 31
0.0
  0
LINE
  5
235
330
24
100
AcDbEntity
  8
中線
 62
     5
100
AcDbLine
 10
-55.3202209473
 20
132.2639465332
 30
0.0
 11
-55.3202209473
 21
130.063949585
 31
0.0
  0
LINE
  5
236
330
24
100
AcDbEntity
  8
中線
 62
     5
100
AcDbLine
 10
-52.9202270508
 20
132.2639465332
 30
0.0
 11
-55.3202209473
 21
132.2639465332
 31
0.0
  0
LINE
  5
237
330
24
100
AcDbEntity
  8
中線
 62
     5
100
AcDbLine
 10
-52.9202270508
 20
130.063949585
 30
0.0
 11
-55.3202209473
 21
130.063949585
 31
0.0
  0
LINE
  5
238
330
24
100
AcDbEntity
  8
CENTER
100
AcDbLine
 10
-35.5612487793
 20
131.1639556885
 30
0.0
 11
-56.5587768555
 21
131.1639556885
 31
0.0
  0
LINE
  5
239
330
24
100
AcDbEntity
  8
中線
 62
     5
100
AcDbLine
 10
-39.620223999
 20
130.063949585
 30
0.0
 11
-39.620223999
 21
132.2639465332
 31
0.0
  0
LINE
  5
23A
330
24
100
AcDbEntity
  8
中線
 62
     5
100
AcDbLine
 10
-37.2202301025
 20
130.063949585
 30
0.0
 11
-37.2202301025
 21
132.2639465332
 31
0.0
  0
LINE
  5
23B
330
24
100
AcDbEntity
  8
中線
 62
     5
100
AcDbLine
 10
-37.2202301025
 20
132.2639465332
 30
0.0
 11
-39.620223999
 21
132.2639465332
 31
0.0
  0
LINE
  5
23C
330
24
100
AcDbEntity
  8
中線
 62
     5
100
AcDbLine
 10
-37.2202301025
 20
130.063949585
 30
0.0
 11
-39.620223999
 21
130.063949585
 31
0.0
  0
LINE
  5
23D
330
24
100
AcDbEntity
  8
中線
 62
     5
100
AcDbLine
 10
-50.370223999
 20
133.6639556885
 30
0.0
 11
-57.9702301025
 21
133.6639556885
 31
0.0
  0
LINE
  5
23E
330
24
100
AcDbEntity
  8
中線
 62
     5
100
AcDbLine
 10
-42.1702270508
 20
132.6639556885
 30
0.0
 11
-50.370223999
 21
132.6639556885
 31
0.0
  0
LINE
  5
23F
330
24
100
AcDbEntity
  8
中線
 62
     5
100
AcDbLine
 10
-42.1702270508
 20
129.063949585
 30
0.0
 11
-50.370223999
 21
129.063949585
 31
0.0
  0
LINE
  5
240
330
24
100
AcDbEntity
  8
中線
 62
     5
100
AcDbLine
 10
-50.370223999
 20
129.063949585
 30
0.0
 11
-50.370223999
 21
133.6639556885
 31
0.0
  0
LINE
  5
241
330
24
100
AcDbEntity
  8
中線
 62
     5
100
AcDbLine
 10
-42.1702270508
 20
129.063949585
 30
0.0
 11
-42.1702270508
 21
133.6639556885
 31
0.0
  0
LINE
  5
242
330
24
100
AcDbEntity
  8
中線
 62
     5
100
AcDbLine
 10
-34.5702209473
 20
110.1639556885
 30
0.0
 11
-57.9702301025
 21
110.1639556885
 31
0.0
  0
LINE
  5
243
330
24
100
AcDbEntity
  8
中線
 62
     5
100
AcDbLine
 10
-58.2702178955
 20
110.4639434814
 30
0.0
 11
-58.2702178955
 21
133.3639526367
 31
0.0
  0
LINE
  5
244
330
24
100
AcDbEntity
  8
中線
 62
     5
100
AcDbLine
 10
-34.2702178955
 20
110.4639434814
 30
0.0
 11
-34.2702178955
 21
133.3639526367
 31
0.0
  0
LINE
  5
245
330
24
100
AcDbEntity
  8
中線
 62
     5
100
AcDbLine
 10
-34.5702209473
 20
133.6639556885
 30
0.0
 11
-42.1702270508
 21
133.6639556885
 31
0.0
  0
LINE
  5
246
330
24
100
AcDbEntity
  8
CENTER
100
AcDbLine
 10
-46.2702178955
 20
108.776473999
 30
0.0
 11
-46.2702178955
 21
136.2621612549
 31
0.0
  0
LINE
  5
247
330
24
100
AcDbEntity
  8
中線
100
AcDbLine
 10
-99.5662841797
 20
70.671875
 30
0.0
 11
-99.5662841797
 21
69.671875
 31
0.0
  0
LINE
  5
248
330
24
100
AcDbEntity
  8
中線
100
AcDbLine
 10
-106.0662841797
 20
58.171875
 30
0.0
 11
-98.0662841797
 21
58.171875
 31
0.0
  0
LINE
  5
249
330
24
100
AcDbEntity
  8
中線
100
AcDbLine
 10
-106.0662841797
 20
82.171875
 30
0.0
 11
-98.0662841797
 21
82.171875
 31
0.0
  0
LINE
  5
24A
330
24
100
AcDbEntity
  8
中線
100
AcDbLine
 10
-106.0662841797
 20
82.171875
 30
0.0
 11
-106.0662841797
 21
58.171875
 31
0.0
  0
LINE
  5
24B
330
24
100
AcDbEntity
  8
CENTER
100
AcDbLine
 10
-108.7075195313
 20
70.171875
 30
0.0
 11
-90.357131958
 21
70.171875
 31
0.0
  0
LINE
  5
24C
330
24
100
AcDbEntity
  8
中線
100
AcDbLine
 10
-160.3009643555
 20
110.9640045166
 30
0.0
 11
-159.3009643555
 21
110.9640045166
 31
0.0
  0
LINE
  5
24D
330
24
100
AcDbEntity
  8
中線
100
AcDbLine
 10
-160.3009643555
 20
110.1640167236
 30
0.0
 11
-160.3009643555
 21
110.9640045166
 31
0.0
  0
LINE
  5
24E
330
24
100
AcDbEntity
  8
中線
100
AcDbLine
 10
-159.3009643555
 20
110.1640167236
 30
0.0
 11
-159.3009643555
 21
110.9640045166
 31
0.0
  0
LINE
  5
24F
330
24
100
AcDbEntity
  8
中線
100
AcDbLine
 10
-168.8009643555
 20
131.6640014648
 30
0.0
 11
-166.6009521484
 21
131.6640014648
 31
0.0
  0
LINE
  5
250
330
24
100
AcDbEntity
  8
中線
100
AcDbLine
 10
-169.8009643555
 20
130.4639892578
 30
0.0
 11
-166.6009521484
 21
130.4639892578
 31
0.0
  0
LINE
  5
251
330
24
100
AcDbEntity
  8
中線
100
AcDbLine
 10
-169.8009643555
 20
132.6640014648
 30
0.0
 11
-166.6009521484
 21
132.6640014648
 31
0.0
  0
LINE
  5
252
330
24
100
AcDbEntity
  8
中線
100
AcDbLine
 10
-168.8009643555
 20
132.6640014648
 30
0.0
 11
-168.8009643555
 21
130.4639892578
 31
0.0
  0
LINE
  5
253
330
24
100
AcDbEntity
  8
中線
100
AcDbLine
 10
-166.6009521484
 20
132.6640014648
 30
0.0
 11
-166.6009521484
 21
130.4639892578
 31
0.0
  0
LINE
  5
254
330
24
100
AcDbEntity
  8
中線
100
AcDbLine
 10
-169.8009643555
 20
132.6640014648
 30
0.0
 11
-169.8009643555
 21
130.4639892578
 31
0.0
  0
LINE
  5
255
330
24
100
AcDbEntity
  8
中線
100
AcDbLine
 10
-153.0009613037
 20
131.6640014648
 30
0.0
 11
-150.8009643555
 21
131.6640014648
 31
0.0
  0
LINE
  5
256
330
24
100
AcDbEntity
  8
中線
100
AcDbLine
 10
-153.0009613037
 20
130.4639892578
 30
0.0
 11
-149.8009643555
 21
130.4639892578
 31
0.0
  0
LINE
  5
257
330
24
100
AcDbEntity
  8
中線
100
AcDbLine
 10
-153.0009613037
 20
132.6640014648
 30
0.0
 11
-149.8009643555
 21
132.6640014648
 31
0.0
  0
LINE
  5
258
330
24
100
AcDbEntity
  8
中線
100
AcDbLine
 10
-150.8009643555
 20
130.4639892578
 30
0.0
 11
-150.8009643555
 21
132.6640014648
 31
0.0
  0
LINE
  5
259
330
24
100
AcDbEntity
  8
中線
100
AcDbLine
 10
-153.0009613037
 20
130.4639892578
 30
0.0
 11
-153.0009613037
 21
132.6640014648
 31
0.0
  0
LINE
  5
25A
330
24
100
AcDbEntity
  8
CENTER
100
AcDbLine
 10
-170.200958252
 20
118.8044891357
 30
0.0
 11
-170.200958252
 21
122.7100372314
 31
0.0
  0
LINE
  5
25B
330
24
100
AcDbEntity
  8
CENTER
100
AcDbLine
 10
-149.4009552002
 20
118.6609039307
 30
0.0
 11
-149.4009552002
 21
122.461151123
 31
0.0
  0
LINE
  5
25C
330
24
100
AcDbEntity
  8
中線
100
AcDbLine
 10
-149.8009643555
 20
130.4639892578
 30
0.0
 11
-149.8009643555
 21
132.6640014648
 31
0.0
  0
LINE
  5
25D
330
24
100
AcDbEntity
  8
中線
100
AcDbLine
 10
-171.5009613037
 20
110.1640167236
 30
0.0
 11
-148.1009521484
 21
110.1640167236
 31
0.0
  0
LINE
  5
25E
330
24
100
AcDbEntity
  8
中線
100
AcDbLine
 10
-171.5009613037
 20
133.6640014648
 30
0.0
 11
-148.1009521484
 21
133.6640014648
 31
0.0
  0
LINE
  5
25F
330
24
100
AcDbEntity
  8
中線
100
AcDbLine
 10
-171.8009643555
 20
110.4640350342
 30
0.0
 11
-171.8009643555
 21
133.3640289307
 31
0.0
  0
LINE
  5
260
330
24
100
AcDbEntity
  8
中線
100
AcDbLine
 10
-147.8009643555
 20
110.4640350342
 30
0.0
 11
-147.8009643555
 21
133.3640289307
 31
0.0
  0
LINE
  5
261
330
24
100
AcDbEntity
  8
CENTER
100
AcDbLine
 10
-159.8009643555
 20
108.9240722656
 30
0.0
 11
-159.8009643555
 21
135.2987365723
 31
0.0
  0
LINE
  5
262
330
24
100
AcDbEntity
  8
CENTER
100
AcDbLine
 10
-174.226272583
 20
120.6640167236
 30
0.0
 11
-145.3591308594
 21
120.6640167236
 31
0.0
  0
LINE
  5
263
330
24
100
AcDbEntity
  8
中線
100
AcDbLine
 10
-50.2701873779
 20
133.1639251709
 30
0.0
 11
-42.2701873779
 21
133.1639251709
 31
0.0
  0
LINE
  5
264
330
24
100
AcDbEntity
  8
中線
100
AcDbLine
 10
-42.2701873779
 20
133.6639251709
 30
0.0
 11
-42.2701873779
 21
132.6639404297
 31
0.0
  0
LINE
  5
265
330
24
100
AcDbEntity
  8
中線
100
AcDbLine
 10
-50.2701873779
 20
133.6639251709
 30
0.0
 11
-50.2701873779
 21
132.6639404297
 31
0.0
  0
TEXT
  5
26C
330
24
100
AcDbEntity
  8
CMNT
100
AcDbText
 10
-180.0
 20
227.0
 30
0.0
 40
2.9999980927
  1

 72
     5
 11
-180.0
 21
227.0
 31
0.0
100
AcDbText
  0
TEXT
  5
26E
330
24
100
AcDbEntity
  8
CMNT
100
AcDbText
 10
-180.0
 20
227.0
 30
0.0
 40
2.9999980927
  1

 72
     5
 11
-180.0
 21
227.0
 31
0.0
100
AcDbText
  0
TEXT
  5
271
330
24
100
AcDbEntity
  8
CMNT
100
AcDbText
 10
-77.25
 20
18.5
 30
0.0
 40
1.5
  1

 72
     5
 11
-77.25
 21
18.5
 31
0.0
100
AcDbText
  0
TEXT
  5
272
330
24
100
AcDbEntity
  8
CMNT
100
AcDbText
 10
-77.25
 20
18.5
 30
0.0
 40
1.5
  1

 72
     5
 11
-77.25
 21
18.5
 31
0.0
100
AcDbText
  0
TEXT
  5
372
330
24
100
AcDbEntity
  8
CMNT
100
AcDbText
 10
-77.088134006146
 20
31.277007786656
 30
0.0
 40
5.0
  1
MA4-H00715B
 41
1.01327611875
 72
     5
 11
-23.046741006146
 21
31.277007786656
 31
0.0
100
AcDbText
  0
TEXT
  5
374
330
24
100
AcDbEntity
  8
CMNT
100
AcDbText
 10
-78.36341310292
 20
42.379513952553
 30
0.0
 40
4.167171
  1
AL-KH6(110°開閉タイプ)
 41
0.867237715204
 72
     5
 11
-21.41212910292
 21
42.379513952553
 31
0.0
100
AcDbText
  0
VIEWPORT
  5
128
330
25
100
AcDbEntity
 67
     1
  8
0
  6
SOLID
100
AcDbViewport
 10
-106.000122
 20
148.5
 30
0.0
 40
218.350244
 41
303.35
 68
     2
 69
     1
 12
-106.000122
 22
148.5
 13
0.0
 23
0.0
 14
1.0
 24
1.0
 15
0.0
 25
0.0
 16
0.0
 26
0.0
 36
1.0
 17
0.0
 27
0.0
 37
0.0
 42
0.0
 43
0.0
 44
0.0
 45
303.35
 50
0.0
 51
0.0
 72
   100
 90
      160
  1

281
     0
 71
     1
 74
     0
110
0.0
120
0.0
130
0.0
111
1.0
121
0.0
131
0.0
112
0.0
122
1.0
132
0.0
 79
     0
146
0.0
  0
VIEWPORT
  5
2A5
330
25
100
AcDbEntity
 67
     1
  8
VIEWPORTS
  6
SOLID
100
AcDbViewport
 10
-106.0001220703
 20
148.5
 30
0.0
 40
218.3502441406
 41
303.35
 68
     1
 69
     2
 12
-106.0001220703
 22
148.5
 13
0.0
 23
0.0
 14
1.0
 24
1.0
 15
0.0
 25
0.0
 16
0.0
 26
0.0
 36
1.0
 17
0.0
 27
0.0
 37
0.0
 42
0.0
 43
0.0
 44
0.0
 45
303.35
 50
0.0
 51
0.0
 72
   100
 90
      160
  1

281
     0
 71
     1
 74
     0
110
0.0
120
0.0
130
0.0
111
1.0
121
0.0
131
0.0
112
0.0
122
1.0
132
0.0
 79
     0
146
0.0
  0
ENDSEC
  0
SECTION
  2
OBJECTS
  0
DICTIONARY
  5
2A6
330
0
100
AcDbDictionary
281
     1
  3
ACAD_COLOR
350
2C1
  3
ACAD_GROUP
350
2A7
  3
ACAD_LAYOUT
350
2C6
  3
ACAD_MATERIAL
350
2AC
  3
ACAD_MLEADERSTYLE
350
2EF
  3
ACAD_MLINESTYLE
350
2A8
  3
ACAD_PLOTSETTINGS
350
2C5
  3
ACAD_PLOTSTYLENAME
350
2AA
  3
ACAD_SCALELIST
350
2CC
  3
ACAD_TABLESTYLE
350
2C2
  3
ACAD_VISUALSTYLE
350
2B0
  3
ACDBHEADERROUNDTRIPXREC
350
3FE
  3
AcDbVariableDictionary
350
2C9
  3
DWGPROPS
350
401
  0
DICTIONARY
  5
34D
330
34C
100
AcDbDictionary
280
     1
281
     1
  3
ACAD_SORTENTS
360
34E
  0
DICTIONARY
  5
362
330
361
100
AcDbDictionary
280
     1
281
     1
  3
ACAD_SORTENTS
360
363
  0
DICTIONARY
  5
2C1
102
{ACAD_REACTORS
330
2A6
102
}
330
2A6
100
AcDbDictionary
281
     1
  0
DICTIONARY
  5
2A7
102
{ACAD_REACTORS
330
2A6
102
}
330
2A6
100
AcDbDictionary
281
     1
  0
DICTIONARY
  5
2C6
102
{ACAD_REACTORS
330
2A6
102
}
330
2A6
100
AcDbDictionary
281
     1
  3
Model
350
2C7
  3
レイアウト1
350
2C8
  0
DICTIONARY
  5
2AC
102
{ACAD_REACTORS
330
2A6
102
}
330
2A6
100
AcDbDictionary
281
     1
  3
ByBlock
350
2AE
  3
ByLayer
350
2AD
  3
Global
350
2AF
  0
DICTIONARY
  5
2EF
102
{ACAD_REACTORS
330
2A6
102
}
330
2A6
100
AcDbDictionary
281
     1
  0
DICTIONARY
  5
2A8
102
{ACAD_REACTORS
330
2A6
102
}
330
2A6
100
AcDbDictionary
281
     1
  3
STANDARD
350
2A9
  0
DICTIONARY
  5
2C5
102
{ACAD_REACTORS
330
2A6
102
}
330
2A6
100
AcDbDictionary
281
     1
  0
ACDBDICTIONARYWDFLT
  5
2AA
102
{ACAD_REACTORS
330
2A6
102
}
330
2A6
100
AcDbDictionary
281
     1
  3
Normal
350
2AB
100
AcDbDictionaryWithDefault
340
2AB
  0
DICTIONARY
  5
2CC
102
{ACAD_REACTORS
330
2A6
102
}
330
2A6
100
AcDbDictionary
281
     1
  3
A0
350
2CD
  3
A1
350
2CE
  3
A2
350
2CF
  3
A3
350
2D0
  3
A4
350
2D1
  3
A5
350
2D2
  3
A6
350
2D3
  3
A7
350
2D4
  3
A8
350
2D5
  3
A9
350
2D6
  3
B0
350
2D7
  3
B1
350
2D8
  3
B2
350
2D9
  3
B3
350
2DA
  3
B4
350
2DB
  3
B5
350
2DC
  3
B6
350
2DD
  3
B7
350
2DE
  3
B8
350
2DF
  3
B9
350
2E0
  3
C0
350
2E1
  3
C1
350
2E2
  3
C2
350
2E3
  3
C3
350
2E4
  3
C4
350
2E5
  3
C5
350
2E6
  3
C6
350
2E7
  3
C7
350
2E8
  3
C8
350
2E9
  3
C9
350
2EA
  3
D0
350
2EB
  3
D1
350
2EC
  3
D2
350
2ED
  0
DICTIONARY
  5
2C2
102
{ACAD_REACTORS
330
2A6
102
}
330
2A6
100
AcDbDictionary
281
     1
  3
Standard
350
2C3
  0
DICTIONARY
  5
2B0
102
{ACAD_REACTORS
330
2A6
102
}
330
2A6
100
AcDbDictionary
281
     1
  3
2dWireframe
350
2B6
  3
3D Hidden
350
2B8
  3
3dWireframe
350
2B7
  3
Basic
350
2B5
  3
Brighten
350
2BC
  3
ColorChange
350
2C0
  3
Conceptual
350
2B9
  3
Dim
350
2BB
  3
Facepattern
350
2BF
  3
Flat
350
2B1
  3
FlatWithEdges
350
2B2
  3
Gouraud
350
2B3
  3
GouraudWithEdges
350
2B4
  3
Linepattern
350
2BE
  3
Realistic
350
2BA
  3
Thicken
350
2BD
  0
DICTIONARY
  5
3FE
102
{ACAD_REACTORS
330
2A6
102
}
330
2A6
100
AcDbDictionary
281
     1
  3
COLORDICT
350
3FF
  3
MATERIALDICT
350
400
  0
DICTIONARY
  5
2C9
102
{ACAD_REACTORS
330
2A6
102
}
330
2A6
100
AcDbDictionary
281
     1
  3
CANNOSCALE
350
2EE
  3
CTABLESTYLE
350
2CA
  3
DIMASSOC
350
3FC
  3
HIDETEXT
350
3FD
  3
XCLIPFRAME
350
2F0
  0
XRECORD
  5
401
102
{ACAD_REACTORS
330
2A6
102
}
330
2A6
100
AcDbXrecord
280
     1
  1
DWGPROPS COOKIE
  2

  3

  4

  6

  7

  8
3167
  9

300
=
301
=
302
=
303
=
304
=
305
=
306
=
307
=
308
=
309
=
 40
0.0
 41
2455462.551886574
 42
2456094.224958866
  1

 90
        0
  0
SORTENTSTABLE
  5
34E
102
{ACAD_REACTORS
330
34D
330
34D
102
}
330
34D
100
AcDbSortentsTable
330
34C
  0
SORTENTSTABLE
  5
363
102
{ACAD_REACTORS
330
362
330
362
102
}
330
362
100
AcDbSortentsTable
330
361
  0
LAYOUT
  5
2C7
102
{ACAD_REACTORS
330
2C6
102
}
330
2C6
100
AcDbPlotSettings
  1

  2
Microsoft XPS Document Writer
  4

  6

 40
0.0
 41
0.0
 42
0.0
 43
0.0
 44
0.0
 45
0.0
 46
0.0
 47
0.0
 48
0.0
 49
0.0
140
0.0
141
0.0
142
1.0
143
1.0
 70
  1712
 72
     0
 73
     0
 74
     0
  7

 75
     0
147
1.0
148
0.0
149
0.0
100
AcDbLayout
  1
Model
 70
     1
 71
     0
 10
0.0
 20
0.0
 11
12.0
 21
9.0
 12
0.0
 22
0.0
 32
0.0
 14
-174.226272583
 24
16.161290322581
 34
0.0
 15
-10.835739096774
 25
141.1654641425
 35
0.0
146
0.0
 13
0.0
 23
0.0
 33
0.0
 16
1.0
 26
0.0
 36
0.0
 17
0.0
 27
1.0
 37
0.0
 76
     0
330
24
331
2CB
  0
LAYOUT
  5
2C8
102
{ACAD_REACTORS
330
2C6
102
}
330
2C6
100
AcDbPlotSettings
  1

  2
Microsoft XPS Document Writer
  4

  6

 40
0.0
 41
0.0
 42
0.0
 43
0.0
 44
0.0
 45
0.0
 46
0.0
 47
0.0
 48
0.0
 49
0.0
140
0.0
141
0.0
142
1.0
143
1.0
 70
   688
 72
     0
 73
     0
 74
     5
  7

 75
    16
147
1.0
148
0.0
149
0.0
100
AcDbLayout
  1
レイアウト1
 70
     1
 71
     1
 10
0.0
 20
0.0
 11
12.0
 21
9.0
 12
0.0
 22
0.0
 32
0.0
 14
1.000000000000E+20
 24
1.000000000000E+20
 34
1.000000000000E+20
 15
-1.000000000000E+20
 25
-1.000000000000E+20
 35
-1.000000000000E+20
146
0.0
 13
0.0
 23
0.0
 33
0.0
 16
1.0
 26
0.0
 36
0.0
 17
0.0
 27
1.0
 37
0.0
 76
     0
330
25
331
2A5
  0
MATERIAL
  5
2AE
102
{ACAD_REACTORS
330
2AC
102
}
102
{ACAD_XDICTIONARY
360
403
102
}
330
2AC
100
AcDbMaterial
  1
ByBlock
  0
MATERIAL
  5
2AD
102
{ACAD_REACTORS
330
2AC
102
}
102
{ACAD_XDICTIONARY
360
405
102
}
330
2AC
100
AcDbMaterial
  1
ByLayer
  0
MATERIAL
  5
2AF
102
{ACAD_REACTORS
330
2AC
102
}
102
{ACAD_XDICTIONARY
360
407
102
}
330
2AC
100
AcDbMaterial
  1
Global
  0
MLINESTYLE
  5
2A9
102
{ACAD_REACTORS
330
2A8
102
}
330
2A8
100
AcDbMlineStyle
  2
STANDARD
 70
     0
  3

 62
   256
 51
90.0
 52
90.0
 71
     2
 49
1.5
 62
   256
  6
Continuous
 49
0.5
 62
   256
  6
Continuous
  0
ACDBPLACEHOLDER
  5
2AB
102
{ACAD_REACTORS
330
2AA
102
}
330
2AA
  0
SCALE
  5
2CD
102
{ACAD_REACTORS
330
2CC
102
}
330
2CC
100
AcDbScale
 70
     0
300
1:1
140
1.0
141
1.0
290
     1
  0
SCALE
  5
2CE
102
{ACAD_REACTORS
330
2CC
102
}
330
2CC
100
AcDbScale
 70
     0
300
1:2
140
1.0
141
2.0
290
     0
  0
SCALE
  5
2CF
102
{ACAD_REACTORS
330
2CC
102
}
330
2CC
100
AcDbScale
 70
     0
300
1:4
140
1.0
141
4.0
290
     0
  0
SCALE
  5
2D0
102
{ACAD_REACTORS
330
2CC
102
}
330
2CC
100
AcDbScale
 70
     0
300
1:5
140
1.0
141
5.0
290
     0
  0
SCALE
  5
2D1
102
{ACAD_REACTORS
330
2CC
102
}
330
2CC
100
AcDbScale
 70
     0
300
1:8
140
1.0
141
8.0
290
     0
  0
SCALE
  5
2D2
102
{ACAD_REACTORS
330
2CC
102
}
330
2CC
100
AcDbScale
 70
     0
300
1:10
140
1.0
141
10.0
290
     0
  0
SCALE
  5
2D3
102
{ACAD_REACTORS
330
2CC
102
}
330
2CC
100
AcDbScale
 70
     0
300
1:16
140
1.0
141
16.0
290
     0
  0
SCALE
  5
2D4
102
{ACAD_REACTORS
330
2CC
102
}
330
2CC
100
AcDbScale
 70
     0
300
1:20
140
1.0
141
20.0
290
     0
  0
SCALE
  5
2D5
102
{ACAD_REACTORS
330
2CC
102
}
330
2CC
100
AcDbScale
 70
     0
300
1:30
140
1.0
141
30.0
290
     0
  0
SCALE
  5
2D6
102
{ACAD_REACTORS
330
2CC
102
}
330
2CC
100
AcDbScale
 70
     0
300
1:40
140
1.0
141
40.0
290
     0
  0
SCALE
  5
2D7
102
{ACAD_REACTORS
330
2CC
102
}
330
2CC
100
AcDbScale
 70
     0
300
1:50
140
1.0
141
50.0
290
     0
  0
SCALE
  5
2D8
102
{ACAD_REACTORS
330
2CC
102
}
330
2CC
100
AcDbScale
 70
     0
300
1:100
140
1.0
141
100.0
290
     0
  0
SCALE
  5
2D9
102
{ACAD_REACTORS
330
2CC
102
}
330
2CC
100
AcDbScale
 70
     0
300
2:1
140
2.0
141
1.0
290
     0
  0
SCALE
  5
2DA
102
{ACAD_REACTORS
330
2CC
102
}
330
2CC
100
AcDbScale
 70
     0
300
4:1
140
4.0
141
1.0
290
     0
  0
SCALE
  5
2DB
102
{ACAD_REACTORS
330
2CC
102
}
330
2CC
100
AcDbScale
 70
     0
300
8:1
140
8.0
141
1.0
290
     0
  0
SCALE
  5
2DC
102
{ACAD_REACTORS
330
2CC
102
}
330
2CC
100
AcDbScale
 70
     0
300
10:1
140
10.0
141
1.0
290
     0
  0
SCALE
  5
2DD
102
{ACAD_REACTORS
330
2CC
102
}
330
2CC
100
AcDbScale
 70
     0
300
100:1
140
100.0
141
1.0
290
     0
  0
SCALE
  5
2DE
102
{ACAD_REACTORS
330
2CC
102
}
330
2CC
100
AcDbScale
 70
     0
300
1/128" = 1'-0"
140
0.0078125
141
12.0
290
     0
  0
SCALE
  5
2DF
102
{ACAD_REACTORS
330
2CC
102
}
330
2CC
100
AcDbScale
 70
     0
300
1/64" = 1'-0"
140
0.015625
141
12.0
290
     0
  0
SCALE
  5
2E0
102
{ACAD_REACTORS
330
2CC
102
}
330
2CC
100
AcDbScale
 70
     0
300
1/32" = 1'-0"
140
0.03125
141
12.0
290
     0
  0
SCALE
  5
2E1
102
{ACAD_REACTORS
330
2CC
102
}
330
2CC
100
AcDbScale
 70
     0
300
1/16" = 1'-0"
140
0.0625
141
12.0
290
     0
  0
SCALE
  5
2E2
102
{ACAD_REACTORS
330
2CC
102
}
330
2CC
100
AcDbScale
 70
     0
300
3/32" = 1'-0"
140
0.09375
141
12.0
290
     0
  0
SCALE
  5
2E3
102
{ACAD_REACTORS
330
2CC
102
}
330
2CC
100
AcDbScale
 70
     0
300
1/8" = 1'-0"
140
0.125
141
12.0
290
     0
  0
SCALE
  5
2E4
102
{ACAD_REACTORS
330
2CC
102
}
330
2CC
100
AcDbScale
 70
     0
300
3/16" = 1'-0"
140
0.1875
141
12.0
290
     0
  0
SCALE
  5
2E5
102
{ACAD_REACTORS
330
2CC
102
}
330
2CC
100
AcDbScale
 70
     0
300
1/4" = 1'-0"
140
0.25
141
12.0
290
     0
  0
SCALE
  5
2E6
102
{ACAD_REACTORS
330
2CC
102
}
330
2CC
100
AcDbScale
 70
     0
300
3/8" = 1'-0"
140
0.375
141
12.0
290
     0
  0
SCALE
  5
2E7
102
{ACAD_REACTORS
330
2CC
102
}
330
2CC
100
AcDbScale
 70
     0
300
1/2" = 1'-0"
140
0.5
141
12.0
290
     0
  0
SCALE
  5
2E8
102
{ACAD_REACTORS
330
2CC
102
}
330
2CC
100
AcDbScale
 70
     0
300
3/4" = 1'-0"
140
0.75
141
12.0
290
     0
  0
SCALE
  5
2E9
102
{ACAD_REACTORS
330
2CC
102
}
330
2CC
100
AcDbScale
 70
     0
300
1" = 1'-0"
140
1.0
141
12.0
290
     0
  0
SCALE
  5
2EA
102
{ACAD_REACTORS
330
2CC
102
}
330
2CC
100
AcDbScale
 70
     0
300
1-1/2" = 1'-0"
140
1.5
141
12.0
290
     0
  0
SCALE
  5
2EB
102
{ACAD_REACTORS
330
2CC
102
}
330
2CC
100
AcDbScale
 70
     0
300
3" = 1'-0"
140
3.0
141
12.0
290
     0
  0
SCALE
  5
2EC
102
{ACAD_REACTORS
330
2CC
102
}
330
2CC
100
AcDbScale
 70
     0
300
6" = 1'-0"
140
6.0
141
12.0
290
     0
  0
SCALE
  5
2ED
102
{ACAD_REACTORS
330
2CC
102
}
330
2CC
100
AcDbScale
 70
     0
300
1'-0" = 1'-0"
140
12.0
141
12.0
290
     0
  0
TABLESTYLE
  5
2C3
102
{ACAD_REACTORS
330
2C2
102
}
330
2C2
100
AcDbTableStyle
  3
Standard
 70
     0
 71
     0
 40
0.06
 41
0.06
280
     0
281
     0
  7
STANDARD
140
0.18
170
     2
 62
     0
 63
   257
283
     0
274
    -2
284
     1
 64
     0
275
    -2
285
     1
 65
     0
276
    -2
286
     1
 66
     0
277
    -2
287
     1
 67
     0
278
    -2
288
     1
 68
     0
279
    -2
289
     1
 69
     0
  7
STANDARD
140
0.25
170
     5
 62
     0
 63
   257
283
     0
274
    -2
284
     1
 64
     0
275
    -2
285
     1
 65
     0
276
    -2
286
     1
 66
     0
277
    -2
287
     1
 67
     0
278
    -2
288
     1
 68
     0
279
    -2
289
     1
 69
     0
  7
STANDARD
140
0.18
170
     5
 62
     0
 63
   257
283
     0
274
    -2
284
     1
 64
     0
275
    -2
285
     1
 65
     0
276
    -2
286
     1
 66
     0
277
    -2
287
     1
 67
     0
278
    -2
288
     1
 68
     0
279
    -2
289
     1
 69
     0
  0
VISUALSTYLE
  5
2B6
102
{ACAD_REACTORS
330
2B0
102
}
102
{ACAD_XDICTIONARY
360
409
102
}
330
2B0
100
AcDbVisualStyle
  2
2dWireframe
 70
     4
 71
     0
 72
     2
 73
     0
 90
        0
 40
-0.6
 41
-30.0
 62
     5
 63
     7
 74
     1
 91
        4
 64
     7
 65
   257
 75
     1
175
     1
 42
1.0
 92
        0
 66
   257
 43
1.0
 76
     1
 77
     6
 78
     2
 67
     7
 79
     5
170
     0
171
     0
290
     0
174
     0
 93
        1
 44
0.0
173
     0
291
     0
 45
0.0
1001
ACAD
1000
AcDbSavedByObjectVersion
1070
     0
  0
VISUALSTYLE
  5
2B8
102
{ACAD_REACTORS
330
2B0
102
}
102
{ACAD_XDICTIONARY
360
40B
102
}
330
2B0
100
AcDbVisualStyle
  2
3D Hidden
 70
     6
 71
     1
 72
     2
 73
     2
 90
        0
 40
-0.6
 41
-30.0
 62
     5
 63
     7
 74
     2
 91
        2
 64
     7
 65
   257
 75
     2
175
     1
 42
40.0
 92
        0
 66
   257
 43
1.0
 76
     1
 77
     6
 78
     2
 67
     7
 79
     3
170
     0
171
     0
290
     0
174
     0
 93
        1
 44
0.0
173
     0
291
     0
 45
0.0
1001
ACAD
1000
AcDbSavedByObjectVersion
1070
     0
  0
VISUALSTYLE
  5
2B7
102
{ACAD_REACTORS
330
2B0
102
}
102
{ACAD_XDICTIONARY
360
40D
102
}
330
2B0
100
AcDbVisualStyle
  2
3dWireframe
 70
     5
 71
     0
 72
     2
 73
     0
 90
        0
 40
-0.6
 41
-30.0
 62
     5
 63
     7
 74
     1
 91
        4
 64
     7
 65
   257
 75
     1
175
     1
 42
1.0
 92
        0
 66
   257
 43
1.0
 76
     1
 77
     6
 78
     2
 67
     7
 79
     5
170
     0
171
     0
290
     0
174
     0
 93
        1
 44
0.0
173
     0
291
     0
 45
0.0
1001
ACAD
1000
AcDbSavedByObjectVersion
1070
     0
  0
VISUALSTYLE
  5
2B5
102
{ACAD_REACTORS
330
2B0
102
}
102
{ACAD_XDICTIONARY
360
40F
102
}
330
2B0
100
AcDbVisualStyle
  2
Basic
 70
     7
 71
     1
 72
     0
 73
     1
 90
        0
 40
-0.6
 41
-30.0
 62
     5
 63
     7
 74
     0
 91
        4
 64
     7
 65
   257
 75
     1
175
     1
 42
1.0
 92
        8
 66
     7
 43
1.0
 76
     1
 77
     6
 78
     2
 67
     7
 79
     5
170
     0
171
     0
290
     0
174
     0
 93
        1
 44
0.0
173
     0
291
     1
 45
0.0
1001
ACAD
1000
AcDbSavedByObjectVersion
1070
     0
  0
VISUALSTYLE
  5
2BC
102
{ACAD_REACTORS
330
2B0
102
}
102
{ACAD_XDICTIONARY
360
411
102
}
330
2B0
100
AcDbVisualStyle
  2
Brighten
 70
    12
 71
     2
 72
     2
 73
     0
 90
        0
 40
-0.6
 41
-30.0
 62
     5
 63
     7
 74
     1
 91
        4
 64
     7
 65
   257
 75
     1
175
     1
 42
1.0
 92
        8
 66
     7
 43
1.0
 76
     1
 77
     6
 78
     2
 67
     7
 79
     5
170
     0
171
     0
290
     0
174
     0
 93
        1
 44
50.0
173
     0
291
     1
 45
0.0
1001
ACAD
1000
AcDbSavedByObjectVersion
1070
     0
  0
VISUALSTYLE
  5
2C0
102
{ACAD_REACTORS
330
2B0
102
}
102
{ACAD_XDICTIONARY
360
413
102
}
330
2B0
100
AcDbVisualStyle
  2
ColorChange
 70
    16
 71
     2
 72
     2
 73
     3
 90
        0
 40
-0.6
 41
-30.0
 62
     5
 63
     8
 74
     1
 91
        4
 64
     7
 65
   257
 75
     1
175
     1
 42
1.0
 92
        8
 66
     8
 43
1.0
 76
     1
 77
     6
 78
     2
 67
     7
 79
     5
170
     0
171
     0
290
     0
174
     0
 93
        1
 44
0.0
173
     0
291
     1
 45
0.0
1001
ACAD
1000
AcDbSavedByObjectVersion
1070
     0
  0
VISUALSTYLE
  5
2B9
102
{ACAD_REACTORS
330
2B0
102
}
102
{ACAD_XDICTIONARY
360
415
102
}
330
2B0
100
AcDbVisualStyle
  2
Conceptual
 70
     9
 71
     3
 72
     2
 73
     0
 90
        0
 40
-0.6
 41
-30.0
 62
     5
 63
     7
 74
     2
 91
        2
 64
     7
 65
   257
 75
     1
175
     1
 42
40.0
 92
        8
 66
     7
 43
1.0
 76
     1
 77
     6
 78
     2
 67
     7
 79
     3
170
     0
171
     0
290
     0
174
     0
 93
        1
 44
0.0
173
     0
291
     0
 45
0.0
1001
ACAD
1000
AcDbSavedByObjectVersion
1070
     0
  0
VISUALSTYLE
  5
2BB
102
{ACAD_REACTORS
330
2B0
102
}
102
{ACAD_XDICTIONARY
360
417
102
}
330
2B0
100
AcDbVisualStyle
  2
Dim
 70
    11
 71
     2
 72
     2
 73
     0
 90
        0
 40
-0.6
 41
-30.0
 62
     5
 63
     7
 74
     1
 91
        4
 64
     7
 65
   257
 75
     1
175
     1
 42
1.0
 92
        8
 66
     7
 43
1.0
 76
     1
 77
     6
 78
     2
 67
     7
 79
     5
170
     0
171
     0
290
     0
174
     0
 93
        1
 44
-50.0
173
     0
291
     1
 45
0.0
1001
ACAD
1000
AcDbSavedByObjectVersion
1070
     0
  0
VISUALSTYLE
  5
2BF
102
{ACAD_REACTORS
330
2B0
102
}
102
{ACAD_XDICTIONARY
360
419
102
}
330
2B0
100
AcDbVisualStyle
  2
Facepattern
 70
    15
 71
     2
 72
     2
 73
     0
 90
        0
 40
-0.6
 41
-30.0
 62
     5
 63
     7
 74
     1
 91
        4
 64
     7
 65
   257
 75
     1
175
     1
 42
1.0
 92
        8
 66
     7
 43
1.0
 76
     1
 77
     6
 78
     2
 67
     7
 79
     5
170
     0
171
     0
290
     0
174
     0
 93
        1
 44
0.0
173
     0
291
     1
 45
0.0
1001
ACAD
1000
AcDbSavedByObjectVersion
1070
     0
  0
VISUALSTYLE
  5
2B1
102
{ACAD_REACTORS
330
2B0
102
}
102
{ACAD_XDICTIONARY
360
41B
102
}
330
2B0
100
AcDbVisualStyle
  2
Flat
 70
     0
 71
     2
 72
     1
 73
     1
 90
        2
 40
-0.6
 41
30.0
 62
     5
 63
     7
 74
     0
 91
        4
 64
     7
 65
   257
 75
     1
175
     1
 42
1.0
 92
        8
 66
     7
 43
1.0
 76
     1
 77
     6
 78
     2
 67
     7
 79
     5
170
     0
171
     0
290
     0
174
     0
 93
       13
 44
0.0
173
     0
291
     1
 45
0.0
1001
ACAD
1000
AcDbSavedByObjectVersion
1070
     0
  0
VISUALSTYLE
  5
2B2
102
{ACAD_REACTORS
330
2B0
102
}
102
{ACAD_XDICTIONARY
360
41D
102
}
330
2B0
100
AcDbVisualStyle
  2
FlatWithEdges
 70
     1
 71
     2
 72
     1
 73
     1
 90
        2
 40
-0.6
 41
30.0
 62
     5
 63
     7
 74
     1
 91
        4
 64
     7
 65
   257
 75
     1
175
     1
 42
1.0
 92
        0
 66
   257
 43
1.0
 76
     1
 77
     6
 78
     2
 67
     7
 79
     5
170
     0
171
     0
290
     0
174
     0
 93
       13
 44
0.0
173
     0
291
     1
 45
0.0
1001
ACAD
1000
AcDbSavedByObjectVersion
1070
     0
  0
VISUALSTYLE
  5
2B3
102
{ACAD_REACTORS
330
2B0
102
}
102
{ACAD_XDICTIONARY
360
41F
102
}
330
2B0
100
AcDbVisualStyle
  2
Gouraud
 70
     2
 71
     2
 72
     2
 73
     1
 90
        2
 40
-0.6
 41
30.0
 62
     5
 63
     7
 74
     0
 91
        4
 64
     7
 65
   257
 75
     1
175
     1
 42
1.0
 92
        0
 66
     7
 43
1.0
 76
     1
 77
     6
 78
     2
 67
     7
 79
     5
170
     0
171
     0
290
     0
174
     0
 93
       13
 44
0.0
173
     0
291
     1
 45
0.0
1001
ACAD
1000
AcDbSavedByObjectVersion
1070
     0
  0
VISUALSTYLE
  5
2B4
102
{ACAD_REACTORS
330
2B0
102
}
102
{ACAD_XDICTIONARY
360
421
102
}
330
2B0
100
AcDbVisualStyle
  2
GouraudWithEdges
 70
     3
 71
     2
 72
     2
 73
     1
 90
        2
 40
-0.6
 41
30.0
 62
     5
 63
     7
 74
     1
 91
        4
 64
     7
 65
   257
 75
     1
175
     1
 42
1.0
 92
        0
 66
   257
 43
1.0
 76
     1
 77
     6
 78
     2
 67
     7
 79
     5
170
     0
171
     0
290
     0
174
     0
 93
       13
 44
0.0
173
     0
291
     1
 45
0.0
1001
ACAD
1000
AcDbSavedByObjectVersion
1070
     0
  0
VISUALSTYLE
  5
2BE
102
{ACAD_REACTORS
330
2B0
102
}
102
{ACAD_XDICTIONARY
360
423
102
}
330
2B0
100
AcDbVisualStyle
  2
Linepattern
 70
    14
 71
     2
 72
     2
 73
     0
 90
        0
 40
-0.6
 41
-30.0
 62
     5
 63
     7
 74
     1
 91
        4
 64
     7
 65
   257
 75
     7
175
     7
 42
1.0
 92
        8
 66
     7
 43
1.0
 76
     1
 77
     6
 78
     2
 67
     7
 79
     5
170
     0
171
     0
290
     0
174
     0
 93
        1
 44
0.0
173
     0
291
     1
 45
0.0
1001
ACAD
1000
AcDbSavedByObjectVersion
1070
     0
  0
VISUALSTYLE
  5
2BA
102
{ACAD_REACTORS
330
2B0
102
}
102
{ACAD_XDICTIONARY
360
425
102
}
330
2B0
100
AcDbVisualStyle
  2
Realistic
 70
     8
 71
     2
 72
     2
 73
     0
 90
        0
 40
-0.6
 41
-30.0
 62
     5
 63
     7
 74
     1
 91
        0
 64
     7
 65
   257
 75
     1
175
     1
 42
1.0
 92
        8
 66
     8
 43
1.0
 76
     1
 77
     6
 78
     2
 67
     7
 79
     5
170
     0
171
     0
290
     0
174
     0
 93
       13
 44
0.0
173
     0
291
     0
 45
0.0
1001
ACAD
1000
AcDbSavedByObjectVersion
1070
     0
  0
VISUALSTYLE
  5
2BD
102
{ACAD_REACTORS
330
2B0
102
}
102
{ACAD_XDICTIONARY
360
427
102
}
330
2B0
100
AcDbVisualStyle
  2
Thicken
 70
    13
 71
     2
 72
     2
 73
     0
 90
        0
 40
-0.6
 41
-30.0
 62
     5
 63
     7
 74
     1
 91
        4
 64
     7
 65
   257
 75
     1
175
     1
 42
1.0
 92
       12
 66
     7
 43
1.0
 76
     1
 77
     6
 78
     2
 67
     7
 79
     5
170
     0
171
     0
290
     0
174
     0
 93
        1
 44
0.0
173
     0
291
     1
 45
0.0
1001
ACAD
1000
AcDbSavedByObjectVersion
1070
     0
  0
XRECORD
  5
3FF
102
{ACAD_REACTORS
330
3FE
102
}
330
3FE
100
AcDbXrecord
280
     1
340
2C1
  0
XRECORD
  5
400
102
{ACAD_REACTORS
330
3FE
102
}
330
3FE
100
AcDbXrecord
280
     1
340
2AC
  0
DICTIONARYVAR
  5
2EE
102
{ACAD_REACTORS
330
2C9
102
}
330
2C9
100
DictionaryVariables
280
     0
  1
1:1
  0
DICTIONARYVAR
  5
2CA
102
{ACAD_REACTORS
330
2C9
102
}
330
2C9
100
DictionaryVariables
280
     0
  1
Standard
  0
DICTIONARYVAR
  5
3FC
102
{ACAD_REACTORS
330
2C9
102
}
330
2C9
100
DictionaryVariables
280
     0
  1
1
  0
DICTIONARYVAR
  5
3FD
102
{ACAD_REACTORS
330
2C9
102
}
330
2C9
100
DictionaryVariables
280
     0
  1
0
  0
DICTIONARYVAR
  5
2F0
102
{ACAD_REACTORS
330
2C9
102
}
330
2C9
100
DictionaryVariables
280
     0
  1
0
  0
DICTIONARY
  5
403
330
2AE
100
AcDbDictionary
280
     1
281
     1
  3
ACAD_XREC_ROUNDTRIP
360
404
  0
DICTIONARY
  5
405
330
2AD
100
AcDbDictionary
280
     1
281
     1
  3
ACAD_XREC_ROUNDTRIP
360
406
  0
DICTIONARY
  5
407
330
2AF
100
AcDbDictionary
280
     1
281
     1
  3
ACAD_XREC_ROUNDTRIP
360
408
  0
DICTIONARY
  5
409
330
2B6
100
AcDbDictionary
280
     1
281
     1
  3
ACAD_XREC_ROUNDTRIP
360
40A
  0
DICTIONARY
  5
40B
330
2B8
100
AcDbDictionary
280
     1
281
     1
  3
ACAD_XREC_ROUNDTRIP
360
40C
  0
DICTIONARY
  5
40D
330
2B7
100
AcDbDictionary
280
     1
281
     1
  3
ACAD_XREC_ROUNDTRIP
360
40E
  0
DICTIONARY
  5
40F
330
2B5
100
AcDbDictionary
280
     1
281
     1
  3
ACAD_XREC_ROUNDTRIP
360
410
  0
DICTIONARY
  5
411
330
2BC
100
AcDbDictionary
280
     1
281
     1
  3
ACAD_XREC_ROUNDTRIP
360
412
  0
DICTIONARY
  5
413
330
2C0
100
AcDbDictionary
280
     1
281
     1
  3
ACAD_XREC_ROUNDTRIP
360
414
  0
DICTIONARY
  5
415
330
2B9
100
AcDbDictionary
280
     1
281
     1
  3
ACAD_XREC_ROUNDTRIP
360
416
  0
DICTIONARY
  5
417
330
2BB
100
AcDbDictionary
280
     1
281
     1
  3
ACAD_XREC_ROUNDTRIP
360
418
  0
DICTIONARY
  5
419
330
2BF
100
AcDbDictionary
280
     1
281
     1
  3
ACAD_XREC_ROUNDTRIP
360
41A
  0
DICTIONARY
  5
41B
330
2B1
100
AcDbDictionary
280
     1
281
     1
  3
ACAD_XREC_ROUNDTRIP
360
41C
  0
DICTIONARY
  5
41D
330
2B2
100
AcDbDictionary
280
     1
281
     1
  3
ACAD_XREC_ROUNDTRIP
360
41E
  0
DICTIONARY
  5
41F
330
2B3
100
AcDbDictionary
280
     1
281
     1
  3
ACAD_XREC_ROUNDTRIP
360
420
  0
DICTIONARY
  5
421
330
2B4
100
AcDbDictionary
280
     1
281
     1
  3
ACAD_XREC_ROUNDTRIP
360
422
  0
DICTIONARY
  5
423
330
2BE
100
AcDbDictionary
280
     1
281
     1
  3
ACAD_XREC_ROUNDTRIP
360
424
  0
DICTIONARY
  5
425
330
2BA
100
AcDbDictionary
280
     1
281
     1
  3
ACAD_XREC_ROUNDTRIP
360
426
  0
DICTIONARY
  5
427
330
2BD
100
AcDbDictionary
280
     1
281
     1
  3
ACAD_XREC_ROUNDTRIP
360
428
  0
XRECORD
  5
404
102
{ACAD_REACTORS
330
403
102
}
330
403
100
AcDbXrecord
280
     1
102
MATERIAL
148
0.0
149
0.0
149
0.0
 93
        0
 94
       63
282
     0
 72
     1
 77
     1
171
     1
175
     1
179
     1
273
     0
  0
XRECORD
  5
406
102
{ACAD_REACTORS
330
405
102
}
330
405
100
AcDbXrecord
280
     1
102
MATERIAL
148
0.0
149
0.0
149
0.0
 93
        0
 94
       63
282
     0
 72
     1
 77
     1
171
     1
175
     1
179
     1
273
     0
  0
XRECORD
  5
408
102
{ACAD_REACTORS
330
407
102
}
330
407
100
AcDbXrecord
280
     1
102
MATERIAL
148
0.0
149
0.0
149
0.0
 93
        0
 94
       63
282
     0
 72
     1
 77
     1
171
     1
175
     1
179
     1
273
     0
  0
XRECORD
  5
40A
102
{ACAD_REACTORS
330
409
102
}
330
409
100
AcDbXrecord
280
     1
102
RTVSPropertyOp0
 70
     1
102
RTVSPropertyOp1
 70
     1
102
RTVSPropertyOp2
 70
     1
102
RTVSPropertyOp3
 70
     1
102
RTVSPropertyOp4
 70
     1
102
RTVSPropertyOp5
 70
     1
102
RTVSPropertyOp6
 70
     1
102
RTVSPropertyOp7
 70
     1
102
RTVSPropertyOp8
 70
     1
102
RTVSPropertyOp9
 70
     1
102
RTVSPropertyOp10
 70
     1
102
RTVSPropertyOp11
 70
     1
102
RTVSPropertyOp12
 70
     1
102
RTVSPropertyOp13
 70
     1
102
RTVSPropertyOp14
 70
     1
102
RTVSPropertyOp15
 70
     1
102
RTVSPropertyOp16
 70
     1
102
RTVSPropertyOp17
 70
     1
102
RTVSPropertyOp18
 70
     1
102
RTVSPropertyOp19
 70
     1
102
RTVSPropertyOp20
 70
     1
102
RTVSPropertyOp21
 70
     1
102
RTVSPropertyOp22
 70
     1
102
RTVSPropertyOp23
 70
     1
102
RTVSPropertyOp24
 70
     1
102
RTVSPropertyOp25
 70
     1
102
RTVSPropertyOp26
 70
     1
102
RTVSPropertyOp27
 70
     1
102
RTVSPropertyOp28
 70
     1
102
RTVSPropertyOp29
 70
     1
102
RTVSPropertyOp30
 70
     1
102
RTVSPropertyOp31
 70
     1
102
RTVSPropertyOp32
 70
     1
  0
XRECORD
  5
40C
102
{ACAD_REACTORS
330
40B
102
}
330
40B
100
AcDbXrecord
280
     1
102
RTVSPropertyOp0
 70
     1
102
RTVSPropertyOp1
 70
     1
102
RTVSPropertyOp2
 70
     1
102
RTVSPropertyOp3
 70
     1
102
RTVSPropertyOp4
 70
     1
102
RTVSPropertyOp5
 70
     1
102
RTVSPropertyOp6
 70
     1
102
RTVSPropertyOp7
 70
     1
102
RTVSPropertyOp8
 70
     1
102
RTVSPropertyOp9
 70
     1
102
RTVSPropertyOp10
 70
     1
102
RTVSPropertyOp11
 70
     1
102
RTVSPropertyOp12
 70
     1
102
RTVSPropertyOp13
 70
     1
102
RTVSPropertyOp14
 70
     1
102
RTVSPropertyOp15
 70
     1
102
RTVSPropertyOp16
 70
     1
102
RTVSPropertyOp17
 70
     1
102
RTVSPropertyOp18
 70
     1
102
RTVSPropertyOp19
 70
     1
102
RTVSPropertyOp20
 70
     1
102
RTVSPropertyOp21
 70
     1
102
RTVSPropertyOp22
 70
     1
102
RTVSPropertyOp23
 70
     1
102
RTVSPropertyOp24
 70
     1
102
RTVSPropertyOp25
 70
     1
102
RTVSPropertyOp26
 70
     1
102
RTVSPropertyOp27
 70
     1
102
RTVSPropertyOp28
 70
     1
102
RTVSPropertyOp29
 70
     1
102
RTVSPropertyOp30
 70
     1
102
RTVSPropertyOp31
 70
     1
102
RTVSPropertyOp32
 70
     1
  0
XRECORD
  5
40E
102
{ACAD_REACTORS
330
40D
102
}
330
40D
100
AcDbXrecord
280
     1
102
RTVSPropertyOp0
 70
     1
102
RTVSPropertyOp1
 70
     1
102
RTVSPropertyOp2
 70
     1
102
RTVSPropertyOp3
 70
     1
102
RTVSPropertyOp4
 70
     1
102
RTVSPropertyOp5
 70
     1
102
RTVSPropertyOp6
 70
     1
102
RTVSPropertyOp7
 70
     1
102
RTVSPropertyOp8
 70
     1
102
RTVSPropertyOp9
 70
     1
102
RTVSPropertyOp10
 70
     1
102
RTVSPropertyOp11
 70
     1
102
RTVSPropertyOp12
 70
     1
102
RTVSPropertyOp13
 70
     1
102
RTVSPropertyOp14
 70
     1
102
RTVSPropertyOp15
 70
     1
102
RTVSPropertyOp16
 70
     1
102
RTVSPropertyOp17
 70
     1
102
RTVSPropertyOp18
 70
     1
102
RTVSPropertyOp19
 70
     1
102
RTVSPropertyOp20
 70
     1
102
RTVSPropertyOp21
 70
     1
102
RTVSPropertyOp22
 70
     1
102
RTVSPropertyOp23
 70
     1
102
RTVSPropertyOp24
 70
     1
102
RTVSPropertyOp25
 70
     1
102
RTVSPropertyOp26
 70
     1
102
RTVSPropertyOp27
 70
     1
102
RTVSPropertyOp28
 70
     1
102
RTVSPropertyOp29
 70
     1
102
RTVSPropertyOp30
 70
     1
102
RTVSPropertyOp31
 70
     1
102
RTVSPropertyOp32
 70
     1
  0
XRECORD
  5
410
102
{ACAD_REACTORS
330
40F
102
}
330
40F
100
AcDbXrecord
280
     1
102
RTVSPropertyOp0
 70
     1
102
RTVSPropertyOp1
 70
     1
102
RTVSPropertyOp2
 70
     1
102
RTVSPropertyOp3
 70
     1
102
RTVSPropertyOp4
 70
     1
102
RTVSPropertyOp5
 70
     1
102
RTVSPropertyOp6
 70
     1
102
RTVSPropertyOp7
 70
     1
102
RTVSPropertyOp8
 70
     1
102
RTVSPropertyOp9
 70
     1
102
RTVSPropertyOp10
 70
     1
102
RTVSPropertyOp11
 70
     1
102
RTVSPropertyOp12
 70
     1
102
RTVSPropertyOp13
 70
     1
102
RTVSPropertyOp14
 70
     1
102
RTVSPropertyOp15
 70
     1
102
RTVSPropertyOp16
 70
     1
102
RTVSPropertyOp17
 70
     1
102
RTVSPropertyOp18
 70
     1
102
RTVSPropertyOp19
 70
     1
102
RTVSPropertyOp20
 70
     1
102
RTVSPropertyOp21
 70
     1
102
RTVSPropertyOp22
 70
     1
102
RTVSPropertyOp23
 70
     1
102
RTVSPropertyOp24
 70
     1
102
RTVSPropertyOp25
 70
     1
102
RTVSPropertyOp26
 70
     1
102
RTVSPropertyOp27
 70
     1
102
RTVSPropertyOp28
 70
     1
102
RTVSPropertyOp29
 70
     1
102
RTVSPropertyOp30
 70
     1
102
RTVSPropertyOp31
 70
     1
102
RTVSPropertyOp32
 70
     1
  0
XRECORD
  5
412
102
{ACAD_REACTORS
330
411
102
}
330
411
100
AcDbXrecord
280
     1
102
RTVSPropertyOp0
 70
     1
102
RTVSPropertyOp1
 70
     1
102
RTVSPropertyOp2
 70
     1
102
RTVSPropertyOp3
 70
     1
102
RTVSPropertyOp4
 70
     1
102
RTVSPropertyOp5
 70
     1
102
RTVSPropertyOp6
 70
     1
102
RTVSPropertyOp7
 70
     1
102
RTVSPropertyOp8
 70
     1
102
RTVSPropertyOp9
 70
     1
102
RTVSPropertyOp10
 70
     1
102
RTVSPropertyOp11
 70
     1
102
RTVSPropertyOp12
 70
     1
102
RTVSPropertyOp13
 70
     1
102
RTVSPropertyOp14
 70
     1
102
RTVSPropertyOp15
 70
     1
102
RTVSPropertyOp16
 70
     1
102
RTVSPropertyOp17
 70
     1
102
RTVSPropertyOp18
 70
     1
102
RTVSPropertyOp19
 70
     1
102
RTVSPropertyOp20
 70
     1
102
RTVSPropertyOp21
 70
     1
102
RTVSPropertyOp22
 70
     1
102
RTVSPropertyOp23
 70
     1
102
RTVSPropertyOp24
 70
     1
102
RTVSPropertyOp25
 70
     1
102
RTVSPropertyOp26
 70
     1
102
RTVSPropertyOp27
 70
     1
102
RTVSPropertyOp28
 70
     1
102
RTVSPropertyOp29
 70
     1
102
RTVSPropertyOp30
 70
     1
102
RTVSPropertyOp31
 70
     1
102
RTVSPropertyOp32
 70
     1
  0
XRECORD
  5
414
102
{ACAD_REACTORS
330
413
102
}
330
413
100
AcDbXrecord
280
     1
102
RTVSPropertyOp0
 70
     1
102
RTVSPropertyOp1
 70
     1
102
RTVSPropertyOp2
 70
     1
102
RTVSPropertyOp3
 70
     1
102
RTVSPropertyOp4
 70
     1
102
RTVSPropertyOp5
 70
     1
102
RTVSPropertyOp6
 70
     1
102
RTVSPropertyOp7
 70
     1
102
RTVSPropertyOp8
 70
     1
102
RTVSPropertyOp9
 70
     1
102
RTVSPropertyOp10
 70
     1
102
RTVSPropertyOp11
 70
     1
102
RTVSPropertyOp12
 70
     1
102
RTVSPropertyOp13
 70
     1
102
RTVSPropertyOp14
 70
     1
102
RTVSPropertyOp15
 70
     1
102
RTVSPropertyOp16
 70
     1
102
RTVSPropertyOp17
 70
     1
102
RTVSPropertyOp18
 70
     1
102
RTVSPropertyOp19
 70
     1
102
RTVSPropertyOp20
 70
     1
102
RTVSPropertyOp21
 70
     1
102
RTVSPropertyOp22
 70
     1
102
RTVSPropertyOp23
 70
     1
102
RTVSPropertyOp24
 70
     1
102
RTVSPropertyOp25
 70
     1
102
RTVSPropertyOp26
 70
     1
102
RTVSPropertyOp27
 70
     1
102
RTVSPropertyOp28
 70
     1
102
RTVSPropertyOp29
 70
     1
102
RTVSPropertyOp30
 70
     1
102
RTVSPropertyOp31
 70
     1
102
RTVSPropertyOp32
 70
     1
  0
XRECORD
  5
416
102
{ACAD_REACTORS
330
415
102
}
330
415
100
AcDbXrecord
280
     1
102
RTVSPropertyOp0
 70
     1
102
RTVSPropertyOp1
 70
     1
102
RTVSPropertyOp2
 70
     1
102
RTVSPropertyOp3
 70
     1
102
RTVSPropertyOp4
 70
     1
102
RTVSPropertyOp5
 70
     1
102
RTVSPropertyOp6
 70
     1
102
RTVSPropertyOp7
 70
     1
102
RTVSPropertyOp8
 70
     1
102
RTVSPropertyOp9
 70
     1
102
RTVSPropertyOp10
 70
     1
102
RTVSPropertyOp11
 70
     1
102
RTVSPropertyOp12
 70
     1
102
RTVSPropertyOp13
 70
     1
102
RTVSPropertyOp14
 70
     1
102
RTVSPropertyOp15
 70
     1
102
RTVSPropertyOp16
 70
     1
102
RTVSPropertyOp17
 70
     1
102
RTVSPropertyOp18
 70
     1
102
RTVSPropertyOp19
 70
     1
102
RTVSPropertyOp20
 70
     1
102
RTVSPropertyOp21
 70
     1
102
RTVSPropertyOp22
 70
     1
102
RTVSPropertyOp23
 70
     1
102
RTVSPropertyOp24
 70
     1
102
RTVSPropertyOp25
 70
     1
102
RTVSPropertyOp26
 70
     1
102
RTVSPropertyOp27
 70
     1
102
RTVSPropertyOp28
 70
     1
102
RTVSPropertyOp29
 70
     1
102
RTVSPropertyOp30
 70
     1
102
RTVSPropertyOp31
 70
     1
102
RTVSPropertyOp32
 70
     1
  0
XRECORD
  5
418
102
{ACAD_REACTORS
330
417
102
}
330
417
100
AcDbXrecord
280
     1
102
RTVSPropertyOp0
 70
     1
102
RTVSPropertyOp1
 70
     1
102
RTVSPropertyOp2
 70
     1
102
RTVSPropertyOp3
 70
     1
102
RTVSPropertyOp4
 70
     1
102
RTVSPropertyOp5
 70
     1
102
RTVSPropertyOp6
 70
     1
102
RTVSPropertyOp7
 70
     1
102
RTVSPropertyOp8
 70
     1
102
RTVSPropertyOp9
 70
     1
102
RTVSPropertyOp10
 70
     1
102
RTVSPropertyOp11
 70
     1
102
RTVSPropertyOp12
 70
     1
102
RTVSPropertyOp13
 70
     1
102
RTVSPropertyOp14
 70
     1
102
RTVSPropertyOp15
 70
     1
102
RTVSPropertyOp16
 70
     1
102
RTVSPropertyOp17
 70
     1
102
RTVSPropertyOp18
 70
     1
102
RTVSPropertyOp19
 70
     1
102
RTVSPropertyOp20
 70
     1
102
RTVSPropertyOp21
 70
     1
102
RTVSPropertyOp22
 70
     1
102
RTVSPropertyOp23
 70
     1
102
RTVSPropertyOp24
 70
     1
102
RTVSPropertyOp25
 70
     1
102
RTVSPropertyOp26
 70
     1
102
RTVSPropertyOp27
 70
     1
102
RTVSPropertyOp28
 70
     1
102
RTVSPropertyOp29
 70
     1
102
RTVSPropertyOp30
 70
     1
102
RTVSPropertyOp31
 70
     1
102
RTVSPropertyOp32
 70
     1
  0
XRECORD
  5
41A
102
{ACAD_REACTORS
330
419
102
}
330
419
100
AcDbXrecord
280
     1
102
RTVSPropertyOp0
 70
     1
102
RTVSPropertyOp1
 70
     1
102
RTVSPropertyOp2
 70
     1
102
RTVSPropertyOp3
 70
     1
102
RTVSPropertyOp4
 70
     1
102
RTVSPropertyOp5
 70
     1
102
RTVSPropertyOp6
 70
     1
102
RTVSPropertyOp7
 70
     1
102
RTVSPropertyOp8
 70
     1
102
RTVSPropertyOp9
 70
     1
102
RTVSPropertyOp10
 70
     1
102
RTVSPropertyOp11
 70
     1
102
RTVSPropertyOp12
 70
     1
102
RTVSPropertyOp13
 70
     1
102
RTVSPropertyOp14
 70
     1
102
RTVSPropertyOp15
 70
     1
102
RTVSPropertyOp16
 70
     1
102
RTVSPropertyOp17
 70
     1
102
RTVSPropertyOp18
 70
     1
102
RTVSPropertyOp19
 70
     1
102
RTVSPropertyOp20
 70
     1
102
RTVSPropertyOp21
 70
     1
102
RTVSPropertyOp22
 70
     1
102
RTVSPropertyOp23
 70
     1
102
RTVSPropertyOp24
 70
     1
102
RTVSPropertyOp25
 70
     1
102
RTVSPropertyOp26
 70
     1
102
RTVSPropertyOp27
 70
     1
102
RTVSPropertyOp28
 70
     1
102
RTVSPropertyOp29
 70
     1
102
RTVSPropertyOp30
 70
     1
102
RTVSPropertyOp31
 70
     1
102
RTVSPropertyOp32
 70
     1
  0
XRECORD
  5
41C
102
{ACAD_REACTORS
330
41B
102
}
330
41B
100
AcDbXrecord
280
     1
102
RTVSPropertyOp0
 70
     1
102
RTVSPropertyOp1
 70
     1
102
RTVSPropertyOp2
 70
     1
102
RTVSPropertyOp3
 70
     1
102
RTVSPropertyOp4
 70
     1
102
RTVSPropertyOp5
 70
     1
102
RTVSPropertyOp6
 70
     1
102
RTVSPropertyOp7
 70
     1
102
RTVSPropertyOp8
 70
     1
102
RTVSPropertyOp9
 70
     1
102
RTVSPropertyOp10
 70
     1
102
RTVSPropertyOp11
 70
     1
102
RTVSPropertyOp12
 70
     1
102
RTVSPropertyOp13
 70
     1
102
RTVSPropertyOp14
 70
     1
102
RTVSPropertyOp15
 70
     1
102
RTVSPropertyOp16
 70
     1
102
RTVSPropertyOp17
 70
     1
102
RTVSPropertyOp18
 70
     1
102
RTVSPropertyOp19
 70
     1
102
RTVSPropertyOp20
 70
     1
102
RTVSPropertyOp21
 70
     1
102
RTVSPropertyOp22
 70
     1
102
RTVSPropertyOp23
 70
     1
102
RTVSPropertyOp24
 70
     1
102
RTVSPropertyOp25
 70
     1
102
RTVSPropertyOp26
 70
     1
102
RTVSPropertyOp27
 70
     1
102
RTVSPropertyOp28
 70
     1
102
RTVSPropertyOp29
 70
     1
102
RTVSPropertyOp30
 70
     1
102
RTVSPropertyOp31
 70
     1
102
RTVSPropertyOp32
 70
     1
  0
XRECORD
  5
41E
102
{ACAD_REACTORS
330
41D
102
}
330
41D
100
AcDbXrecord
280
     1
102
RTVSPropertyOp0
 70
     1
102
RTVSPropertyOp1
 70
     1
102
RTVSPropertyOp2
 70
     1
102
RTVSPropertyOp3
 70
     1
102
RTVSPropertyOp4
 70
     1
102
RTVSPropertyOp5
 70
     1
102
RTVSPropertyOp6
 70
     1
102
RTVSPropertyOp7
 70
     1
102
RTVSPropertyOp8
 70
     1
102
RTVSPropertyOp9
 70
     1
102
RTVSPropertyOp10
 70
     1
102
RTVSPropertyOp11
 70
     1
102
RTVSPropertyOp12
 70
     1
102
RTVSPropertyOp13
 70
     1
102
RTVSPropertyOp14
 70
     1
102
RTVSPropertyOp15
 70
     1
102
RTVSPropertyOp16
 70
     1
102
RTVSPropertyOp17
 70
     1
102
RTVSPropertyOp18
 70
     1
102
RTVSPropertyOp19
 70
     1
102
RTVSPropertyOp20
 70
     1
102
RTVSPropertyOp21
 70
     1
102
RTVSPropertyOp22
 70
     1
102
RTVSPropertyOp23
 70
     1
102
RTVSPropertyOp24
 70
     1
102
RTVSPropertyOp25
 70
     1
102
RTVSPropertyOp26
 70
     1
102
RTVSPropertyOp27
 70
     1
102
RTVSPropertyOp28
 70
     1
102
RTVSPropertyOp29
 70
     1
102
RTVSPropertyOp30
 70
     1
102
RTVSPropertyOp31
 70
     1
102
RTVSPropertyOp32
 70
     1
  0
XRECORD
  5
420
102
{ACAD_REACTORS
330
41F
102
}
330
41F
100
AcDbXrecord
280
     1
102
RTVSPropertyOp0
 70
     1
102
RTVSPropertyOp1
 70
     1
102
RTVSPropertyOp2
 70
     1
102
RTVSPropertyOp3
 70
     1
102
RTVSPropertyOp4
 70
     1
102
RTVSPropertyOp5
 70
     1
102
RTVSPropertyOp6
 70
     1
102
RTVSPropertyOp7
 70
     1
102
RTVSPropertyOp8
 70
     1
102
RTVSPropertyOp9
 70
     1
102
RTVSPropertyOp10
 70
     1
102
RTVSPropertyOp11
 70
     1
102
RTVSPropertyOp12
 70
     1
102
RTVSPropertyOp13
 70
     1
102
RTVSPropertyOp14
 70
     1
102
RTVSPropertyOp15
 70
     1
102
RTVSPropertyOp16
 70
     1
102
RTVSPropertyOp17
 70
     1
102
RTVSPropertyOp18
 70
     1
102
RTVSPropertyOp19
 70
     1
102
RTVSPropertyOp20
 70
     1
102
RTVSPropertyOp21
 70
     1
102
RTVSPropertyOp22
 70
     1
102
RTVSPropertyOp23
 70
     1
102
RTVSPropertyOp24
 70
     1
102
RTVSPropertyOp25
 70
     1
102
RTVSPropertyOp26
 70
     1
102
RTVSPropertyOp27
 70
     1
102
RTVSPropertyOp28
 70
     1
102
RTVSPropertyOp29
 70
     1
102
RTVSPropertyOp30
 70
     1
102
RTVSPropertyOp31
 70
     1
102
RTVSPropertyOp32
 70
     1
  0
XRECORD
  5
422
102
{ACAD_REACTORS
330
421
102
}
330
421
100
AcDbXrecord
280
     1
102
RTVSPropertyOp0
 70
     1
102
RTVSPropertyOp1
 70
     1
102
RTVSPropertyOp2
 70
     1
102
RTVSPropertyOp3
 70
     1
102
RTVSPropertyOp4
 70
     1
102
RTVSPropertyOp5
 70
     1
102
RTVSPropertyOp6
 70
     1
102
RTVSPropertyOp7
 70
     1
102
RTVSPropertyOp8
 70
     1
102
RTVSPropertyOp9
 70
     1
102
RTVSPropertyOp10
 70
     1
102
RTVSPropertyOp11
 70
     1
102
RTVSPropertyOp12
 70
     1
102
RTVSPropertyOp13
 70
     1
102
RTVSPropertyOp14
 70
     1
102
RTVSPropertyOp15
 70
     1
102
RTVSPropertyOp16
 70
     1
102
RTVSPropertyOp17
 70
     1
102
RTVSPropertyOp18
 70
     1
102
RTVSPropertyOp19
 70
     1
102
RTVSPropertyOp20
 70
     1
102
RTVSPropertyOp21
 70
     1
102
RTVSPropertyOp22
 70
     1
102
RTVSPropertyOp23
 70
     1
102
RTVSPropertyOp24
 70
     1
102
RTVSPropertyOp25
 70
     1
102
RTVSPropertyOp26
 70
     1
102
RTVSPropertyOp27
 70
     1
102
RTVSPropertyOp28
 70
     1
102
RTVSPropertyOp29
 70
     1
102
RTVSPropertyOp30
 70
     1
102
RTVSPropertyOp31
 70
     1
102
RTVSPropertyOp32
 70
     1
  0
XRECORD
  5
424
102
{ACAD_REACTORS
330
423
102
}
330
423
100
AcDbXrecord
280
     1
102
RTVSPropertyOp0
 70
     1
102
RTVSPropertyOp1
 70
     1
102
RTVSPropertyOp2
 70
     1
102
RTVSPropertyOp3
 70
     1
102
RTVSPropertyOp4
 70
     1
102
RTVSPropertyOp5
 70
     1
102
RTVSPropertyOp6
 70
     1
102
RTVSPropertyOp7
 70
     1
102
RTVSPropertyOp8
 70
     1
102
RTVSPropertyOp9
 70
     1
102
RTVSPropertyOp10
 70
     1
102
RTVSPropertyOp11
 70
     1
102
RTVSPropertyOp12
 70
     1
102
RTVSPropertyOp13
 70
     1
102
RTVSPropertyOp14
 70
     1
102
RTVSPropertyOp15
 70
     1
102
RTVSPropertyOp16
 70
     1
102
RTVSPropertyOp17
 70
     1
102
RTVSPropertyOp18
 70
     1
102
RTVSPropertyOp19
 70
     1
102
RTVSPropertyOp20
 70
     1
102
RTVSPropertyOp21
 70
     1
102
RTVSPropertyOp22
 70
     1
102
RTVSPropertyOp23
 70
     1
102
RTVSPropertyOp24
 70
     1
102
RTVSPropertyOp25
 70
     1
102
RTVSPropertyOp26
 70
     1
102
RTVSPropertyOp27
 70
     1
102
RTVSPropertyOp28
 70
     1
102
RTVSPropertyOp29
 70
     1
102
RTVSPropertyOp30
 70
     1
102
RTVSPropertyOp31
 70
     1
102
RTVSPropertyOp32
 70
     1
  0
XRECORD
  5
426
102
{ACAD_REACTORS
330
425
102
}
330
425
100
AcDbXrecord
280
     1
102
RTVSPropertyOp0
 70
     1
102
RTVSPropertyOp1
 70
     1
102
RTVSPropertyOp2
 70
     1
102
RTVSPropertyOp3
 70
     1
102
RTVSPropertyOp4
 70
     1
102
RTVSPropertyOp5
 70
     1
102
RTVSPropertyOp6
 70
     1
102
RTVSPropertyOp7
 70
     1
102
RTVSPropertyOp8
 70
     1
102
RTVSPropertyOp9
 70
     1
102
RTVSPropertyOp10
 70
     1
102
RTVSPropertyOp11
 70
     1
102
RTVSPropertyOp12
 70
     1
102
RTVSPropertyOp13
 70
     1
102
RTVSPropertyOp14
 70
     1
102
RTVSPropertyOp15
 70
     1
102
RTVSPropertyOp16
 70
     1
102
RTVSPropertyOp17
 70
     1
102
RTVSPropertyOp18
 70
     1
102
RTVSPropertyOp19
 70
     1
102
RTVSPropertyOp20
 70
     1
102
RTVSPropertyOp21
 70
     1
102
RTVSPropertyOp22
 70
     1
102
RTVSPropertyOp23
 70
     1
102
RTVSPropertyOp24
 70
     1
102
RTVSPropertyOp25
 70
     1
102
RTVSPropertyOp26
 70
     1
102
RTVSPropertyOp27
 70
     1
102
RTVSPropertyOp28
 70
     1
102
RTVSPropertyOp29
 70
     1
102
RTVSPropertyOp30
 70
     1
102
RTVSPropertyOp31
 70
     1
102
RTVSPropertyOp32
 70
     1
  0
XRECORD
  5
428
102
{ACAD_REACTORS
330
427
102
}
330
427
100
AcDbXrecord
280
     1
102
RTVSPropertyOp0
 70
     1
102
RTVSPropertyOp1
 70
     1
102
RTVSPropertyOp2
 70
     1
102
RTVSPropertyOp3
 70
     1
102
RTVSPropertyOp4
 70
     1
102
RTVSPropertyOp5
 70
     1
102
RTVSPropertyOp6
 70
     1
102
RTVSPropertyOp7
 70
     1
102
RTVSPropertyOp8
 70
     1
102
RTVSPropertyOp9
 70
     1
102
RTVSPropertyOp10
 70
     1
102
RTVSPropertyOp11
 70
     1
102
RTVSPropertyOp12
 70
     1
102
RTVSPropertyOp13
 70
     1
102
RTVSPropertyOp14
 70
     1
102
RTVSPropertyOp15
 70
     1
102
RTVSPropertyOp16
 70
     1
102
RTVSPropertyOp17
 70
     1
102
RTVSPropertyOp18
 70
     1
102
RTVSPropertyOp19
 70
     1
102
RTVSPropertyOp20
 70
     1
102
RTVSPropertyOp21
 70
     1
102
RTVSPropertyOp22
 70
     1
102
RTVSPropertyOp23
 70
     1
102
RTVSPropertyOp24
 70
     1
102
RTVSPropertyOp25
 70
     1
102
RTVSPropertyOp26
 70
     1
102
RTVSPropertyOp27
 70
     1
102
RTVSPropertyOp28
 70
     1
102
RTVSPropertyOp29
 70
     1
102
RTVSPropertyOp30
 70
     1
102
RTVSPropertyOp31
 70
     1
102
RTVSPropertyOp32
 70
     1
  0
ENDSEC
  0
SECTION
  2
THUMBNAILIMAGE
 90
    16364
310
28000000B40000005500000001000800000000000000000000000000000000000000000000000000FFFFFF000000FF0000FFFF0000FF0000FFFF0000FF000000FF00FF000000000080808000C0C0C0000000FF007F7FFF000000A5005252A50000007F003F3F7F0000004C0026264C000000260013132600003FFF007F9FFF
310
000029A5005267A500001F7F003F4F7F0000134C00262F4C000009260013172600007FFF007FBFFF000052A500527CA500003F7F003F5F7F0000264C0026394C0000132600131C260000BFFF007FDFFF00007CA5005291A500005F7F003F6F7F0000394C0026424C00001C26001321260000FFFF007FFFFF0000A5A50052A5
310
A500007F7F003F7F7F00004C4C00264C4C00002626001326260000FFBF007FFFDF0000A57C0052A59100007F5F003F7F6F00004C3900264C420000261C001326210000FF7F007FFFBF0000A5520052A57C00007F3F003F7F5F00004C2600264C39000026130013261C0000FF3F007FFF9F0000A5290052A56700007F1F003F
310
7F4F00004C1300264C2F00002609001326170000FF00007FFF7F0000A5000052A55200007F00003F7F3F00004C0000264C260000260000132613003FFF00009FFF7F0029A5000067A552001F7F00004F7F3F00134C00002F4C260009260000172613007FFF0000BFFF7F0052A500007CA552003F7F00005F7F3F00264C0000
310
394C2600132600001C261300BFFF0000DFFF7F007CA5000091A552005F7F00006F7F3F00394C0000424C26001C26000021261300FFFF0000FFFF7F00A5A50000A5A552007F7F00007F7F3F004C4C00004C4C26002626000026261300FFBF0000FFDF7F00A57C0000A59152007F5F00007F6F3F004C3900004C422600261C00
310
0026211300FF7F0000FFBF7F00A5520000A57C52007F3F00007F5F3F004C2600004C39260026130000261C1300FF3F0000FF9F7F00A5290000A56752007F1F00007F4F3F004C1300004C2F26002609000026171300FF000000FF7F7F00A5000000A55252007F0000007F3F3F004C0000004C2626002600000026131300FF00
310
3F00FF7F9F00A5002900A55267007F001F007F3F4F004C0013004C262F002600090026131700FF007F00FF7FBF00A5005200A5527C007F003F007F3F5F004C0026004C2639002600130026131C00FF00BF00FF7FDF00A5007C00A55291007F005F007F3F6F004C0039004C26420026001C0026132100FF00FF00FF7FFF00A5
310
00A500A552A5007F007F007F3F7F004C004C004C264C002600260026132600BF00FF00DF7FFF007C00A5009152A5005F007F006F3F7F0039004C0042264C001C002600211326007F00FF00BF7FFF005200A5007C52A5003F007F005F3F7F0026004C0039264C00130026001C1326003F00FF009F7FFF002900A5006752A500
310
1F007F004F3F7F0013004C002F264C000900260017132600000000002D2D2D005B5B5B0089898900B7B7B700B3B3B30000000000000000000000000000000000000000000000000000000000000000000000000000000000000000000000000000000000000000000000000000000000000000000000000000000000000000
310
00000000000000000000000000000000000000000000000000000000000000000000000000000000000000000000000000000000000000000000000000000000000000000000000000000000000000000000000000000000000000000000000000000000000000000000000000000000000000000000000000000000000000
310
00000000000000000000000000000000000000000000000000000000000000000000000000000000000000000000000000000000000000000000000000000000000000000000000000000000000000000000000000000000000000000000000000000000000000000000000000000000000000000000000000000000000000
310
00000000000000000000000000000000000000000000000000000000000000000000000000000000000000000000000000000000000000000000000000000000000000000000000000000000000000000000000000000000000000000000000000000000000000000000000000000000000000000000000000000000000000
310
00000000000000000000000000000000000000000000000000000000000000000000000000000000000000000000000000000000000000000000000000000000000000000000000000000000000000000000000000000000000000000000000000000000000000000000000000000000000000000000000000000000000000
310
00000000000000000000000000000000000000000000000000000000000000000000000000000000000000000000000000000000000000000000000000000000000000000000000000000000000000000000000000000000000000000000000000000000000000000000000000000000000000000000000000000000000000
310
00000000000000000000000000000000000000000000000000000000000000000000000000000000000000000000000000000000000000000000000000000000000000000000000000000000000000000000000000000000000000000000000000000000000000000000000000000000000000000000000000000000000000
310
00000000000000000000000000000000000000000000000000000000000000000000000000000000000000000000000000000000000000000000000000000000000000000000000000000000000000000000000000000000000000000000000000000000000000000000000000000000000000000000000000000000000000
310
00000000000000000000000000000000000000000000000000000000000000000000000000000000000000000000000000000000000000000000000000000000000000000000000000000000000000000000000000000000000000000000000000000000000000000000000000000000000000000000000000000000000000
310
00000000000000000000000000000000000000000000000000000000000000000000000000000000000000000000000000000000000000000000000000000000000000000000000000000000000000000000000000000000000000000000000000000000000000000000000000000000000000000000000000000000000000
310
00000000000000000000000000000000000000000000000000000000000000000000000000000000000000000000000000000000000000000000000000000000000000000000000000000000000000000000000000000000000000000000000000000000000000000000000000000000000000000000000000000000000000
310
00000000000000000000000000000000000000000000000000000000000000000000000000000000000000000000000000000000000000000000000000000000000000000000000000000000000000000000000000000000000000000000000000000000000000000000000000000000000000000000000000000000000000
310
00000000000000000000000000000000000000000000000000000000000000000000000000000000000000000000000000000000000000000000000000000000000000000000000000000000000000000000000000000000000000000000000000000000000000000000000000000000000000000000000000000000000000
310
00000000000000000000000000000000000000000000000000000000000000000000000000000000000000000000000000000000000000000000000000000000000000000000000000000000000000000000000000000000000000000000000000000000000000000000000000000000000000000000000000000000000000
310
00000000000000000000000000000000000000000000000000000000000000000000000000000000000000000000000000000000000000000000000000000000000000000000000000000000000000000000000000000000000000000000000000000000000000000000000000000000000000000000000000000000000000
310
00000000000000000000000000000000000000000000000000000000000000000000000000000000000000070007000700000000070000000000070000000707000707070007000007000707070707070000000000000000000000000000000000000000000000000000000000000000000000000000000000000000000000
310
00000000000000000000000000000000000000000000000000000000000000000000000000000000000000000000000000000000000000000000000000000000000000000000000000000000000000000000000000000000000000000000000007070707070007000707000707070007000700070007070007000700000700
310
07000707000700000000000000000000000000000000000000000000000000000000000000000000000000000000000000000000000000000000000000000000000000000000000000000000000000000000000000000000000000000000000000000000000000000000000000000000000000000000000000000000000000
310
00000000000000000000000000000000000000000000070700070007070007070000000000070707000700070700070000070007000707070707070000000000000000000000000000000000000000000000000000000000000000000000000000000000000000000000000000000000000000000000000000000000000000
310
00000000000000000000000000000000000000000000000000000000000000000000000000000000000000000000000000000000000000000000000000000000000000000000000000000007000007000700000007000000000000000700070707070707000707000700070700070707000000000000000000000000000000
310
00000000000000000000000000000000000000000000000000000000000000000000000000000000000000000000000000000000000000000000000000000000000000000000000000000000000000000000000000000000000000000000000000000000000000000000000000000000000000000000000000000000000000
310
00000000000000000000000000000000000000000000000000000000000000000000000000000000000000000000000000000000000000000000000000000000000000000000000000000000000000000000000000000000000000000000000000000000000000000000000000000000000000000000000000000000000000
310
00000000000000000000000000000000000000000000000000000000000000000000000000000000000000000000000000000000000000000000000000000000000000000000000000000000000000000000000000000000000000000000000000000000000000000000000000000000000000000000000000000000000000
310
00000000000000000000000000000000000000000000000000000000000000000000000000000000000000000000000000000000000000000000000000000000000000000000000000000000000000000000000000000000000000000000000000000000000000000000000000000000000000000000000000000700000000
310
00000000000000000000000000000000000700000000000000000000000000000000000000000000000000000000000000000000000000000000000000000000000000000000000000000000000000000000000000000000000000000000000000000000000000000000000000000000000000000000000000000000000000
310
00000000000000000000000000000000000000000000000000000000000000000700000707000000070007000007070707070007000707000707070700070000000000000000070000000000000000000000000000000000000000000000000000000000000000000000000000000000000000000000000000000000000000
310
00000000000000000000000000000000000000000000000000000000000000000000000000000000000000000000000000000000000000000000000000000000000000000000000000000000000000000000000000070007070000000007070700070707070007000700070700070707070707070700070000070707000000
310
00000000000000000000000000000000000000000000000000000000000000000000000000000000000000000000000000000000000000000000000000000000000000000000000000000000000000000000000000000000000000000000000000000000000000000000000000000000000000000000000000000000000000
310
00000000000000000000000007000700070700070707070707070700070007070007000707070707070707070700000007070000000000000000000000000000000000000000000000000000000000000000000000000000000000000000000000000000000000000000000000000000000000000000000000000000000000
310
00000000000000000000000000000000000000000000000000000000000000000000000000000000000000000000000000000000000000000000000000000000000700000000000000000000070700070700000000070707070707070707070700000007070707000000000000000000000000000000000000000000000000
310
00000000000000000000000000000000000000000000000000000000000000000000000000000000000000000000000000000000000000000000000000000000000000000000000000000000000000000000000000000000000000000000000000000000000000000000000000000000000000000000000000000000000000
310
00000000000000000000000000000000000000000000000000000000000000000000000000000000000000000000000000000000000000000000000000000000000000000000000000000000000000000000000000000000000000000000000000000000000000000000000000000000000000000000000000000000000000
310
00000000000000000000000000000000000000000000000000000000000000000000000000000000000000000000000000000000000000000000000000000000000000000000000000000000000000000000000000000000000000000000000000000000000000000000000000000000000000000000000000000000000000
310
00000000000000000000000000000000000000000000000000000000000000000000000000000000000000000000000000000000000000000000000000000000000000000000000000000000000000000000000000000000000000000000000000000000000000000000000000000000000000000000000000000000000000
310
00000000000000000000000000000000000000000000000000000000000000000000000000000000000000000000000000000000000000000000000000000000000000000000000000000000000000000000000000000000000000000000000000000000000000000000000000000000000000000000000000000000000000
310
00000000000000000000000000000000000000000000000000000000000000000000000000000000000000000000000000000000000000000000000000000000000000000000000000000000000000000000000000000000000000000000000000000000000000000000000000000000000000000000000000000000000000
310
00000000000000000000000000000000000000000000000000000000000000000000000000000000000000000000000000000000000000000000000000000000000000000000000000000000000000000000000000000000000000000000000000000000000000000000000000000000000000000000000000000000000000
310
00000000000000000000000000000000000000000000000000000000000000000000000000000000000000000000000000000000000000000000000000000000000000000000000000000000000000000000000000000000000000000000000000000000000000000000000000000000000000000000000000000000000000
310
00000000000000000000000000000000000000000000000000000000000000000000000000000000000000000000000000000000000000000000000000000000000000000000000000000000000000000000000000000000000000000000000000000000000000000000000000000000000000000000000000000000000000
310
00000000000000000000000000000000000000000000000000000000000000000000000000000000000000000000000000000000000000000000000000000000000000000000000000000000000000000000000000000000000000000000000000000000000000000000000000000000000000000000000000000000000000
310
00000000000000000000000000000000000000000000000000000000000000000000000000000000000000000000000000000000000000000000000000000000000000000000000000000000000000000000000000000000000303030303050505050300000000000000000000000000000000000000000000000000000000
310
00000000000000000000000000000000000000000000000000000000000000000000000000000000000000000000000000000000000000000000000000000000000000000000000000000000000000000000000000000000000000000000000000000000000000000000000000000000000000000000000000000000000000
310
00000000000000000000000000000003000000000500000005000000000000000000000000000000000000000000000000000000000000000000000000000000000000000000000000000000000000000000000000000000000000000000000000000000000000000000000000000000000000000000000000000000000000
310
00000000000000000000000000000000000000000000000000000000000000000000000000000000000000000000000000000000000000000000000000000000000000000300000000050000000500000000000000000000000000000000000000000000000000000000000000000000000000000000000000000000000000
310
00000000000000000000000000000000000000000000000000000000000000000000000000000000000000000000000000000000000000000000000000000000000000000000000000000000000000000000000000000000000000000000000000000000000000000000000000000000000000000000000000030000000005
310
00000005000000000000000000000000000000000000000000000000000000000000000000000000000000000000000000000000000000000000000000000000000000000000000000000000000000000000000000000000000000000000000000000000000000000000000000000000000000000000000000000000000000
310
00000000000000000000000000000000000000000000000000000000000000000000000000000000000000000000000300000000050000000500000000000000000000000000000000000000000000000000000000000000000000000000000000000000000000000000000000000000000000000000000000000000000000
310
00000000000000000000000000000000000000000000000000000000000000000000000000000000000000000000000000000000000000000000000000000000000000000000000000000000000000000000000000000000000000000000000000000000030000000005000000050000000000000000000000000000000000
310
00000000000000000000000000000000000000000000000000000000000000000000000000000000000000000000000000000000000000000000000000000000000000000000000000000000000000000000000000000000000000000000000000000000000000000000000000000000000000000000000000000000000000
310
00000000000000000000000000000000000000000000000000000300000000050000000500000000000000000000000000000000000000000000000000000000000000000000000000000000000000000000000000000000000000000000000000000000000000000000000000000000000000000000000000000000000000
310
00000000000000000000000000000000000000000000000000000000000000000000000000000000000000000000000000000000000000000000000000000000000000000000000000000000000000030000000005000000050000000000000000000000000000000000000000000000000000000000000000000000000000
310
00000000000000000000000000000000000000000000000000000000000000000000000000000000000000000000000000000000000000000000000000000000000000000000000000000000000000000000000000000000000000000000000000000000000000000000000000000000000000000000000000000000000000
310
00000007070707030707070707070700000000000000000000000000000000000000000000000000000000000000000000000000000000000000000000000000000000000000000000000000000000000000000000000000000000000000000000000000000000000000000000000000000000000000000000000000000000
310
00000000000000000000000000000000000000000000000000000000000000000000000000000000000000000000000000000000000000000000030000000005000000050000000000000000000000000000000000000000000000000000000000000000000000000000000000000000000000000000000000000000000000
310
00000000000000000000000000000000000000000000000000000000000000000000000000000000000000000000000000000000000000000000000000000000000000000000000000000000000000000000000000000000000000000000000000000000000000000000000000000003000000000500000005000000000000
310
00000000000000000000000000000000000000000000000000000000000000000000000000000000000000000000000000000000000000000000000000000000000000000000000000000000000000000000000000000000000000000000000000000000000000000000000000000000000000000000000000000000000000
310
00000000000000000000000000000000000000000000000000000000000000000000000000030000000005000000050000000000000000000000000000000000000000000000000000000000000000000000000000000000000000000000000000000000000000000000000000000000000000000000000000000000000000
310
00000000000000000000000000000000000000000000000000000000000000000000000000000000000000000000000000000000000000000000000000000000000000000000000000000000000000000000000000000000000003000000000500000005000000000000000000000000000000000000000000000000000000
310
00000000000000000000000000000000000000000000000000000000000000000000000000000000000000000000000000000000000000000000000000000000000000000000000000000000000000000000000000000000000000000000000000000000000000000000000000000000000000000000000000000000000000
310
00000000000000000000000000000000030000000005000000050000000000000000000000000000000000000000000000000000000000000000000000000000000000000000000000000000000000000000000000000000000000000000000000000000000000000000000000000000000000000000000000000000000000
310
00000000000000000000000000000000000000000000000000000000000000000000000000000000000000000000000000000000000000000000000000000000000000000003000000000500000005000000000000000000000000000000000000000000000000000000000000000000000000000000000000000000000000
310
00000000000000000000000000000000000000000000000000000000000000000000000000000000000000000000000000000000000000000000000000000000000000000000000000000000000000000000000000000000000000000000000000000000000000000000000000000000000000000000000000000300000000
310
05000000050000000000000000000000000000000000000000000000000000000000000000000000000000000000000000000000000000000000000000000000000000000000000000000000000000000000000000000000000000000000000000000000000000000000000000000000000000000000000000000000000000
310
00000000000000000000000000000000000000000000000000000000000000000000000000000000000000000000000003030303030505050505000000000000000000000000000000000000000000000000000000000000000000000000000000000000000000000000000000000000000000000000000000000000000000
310
00000000000000000000000000000000000000000000000000000000000000000000000000000000000000000000000000000000000000000000000000000000000000000000000000000000000000000000000000000000000000000000000000000000000000000000000000000000000000000000000000000000000000
310
00000000000000000000000000000000000000000000000000000000000000000000000000000000000000000000000000000000000000000000000000000000000000000000000000000000000000000000000000000000000000000000000000000000000000000000000000000000000000000000000000000000000000
310
00000000000000000000000000000000000000000000000000000000000000000000000000000000000000000000000000000000000000000000000000000000000000000000000000000000000000000000000000000000000000000000000000000000000000000000000000000000000000000000000000000000000000
310
00000000000000000000000000000000000000000000000000000000000000000000000000000000000000000000000000000000000000000000000000000000000000000000000000000000000000000000000000000000000000000000000000000000000000000000000000000000000000000000000000000000000000
310
00000000000000000000000000000000000000000000000000000000000000000000000000000000000000000000000000000000000000000000000000000000000000000000000000000000000000000000000000000000000000000000000000000000000000000000000000000000000000000000000000000000000000
310
00000000000000000000000000000000000000000000000000000000000000000000000000000000000000000000000000000000000000000000000000000000000000000000000000000000000000000000000000000000000000000000000000000000000000000000000000000000000000000000000000000000000000
310
00000000000000000000000000000000000000000000000000000000000000000000000000000000000000000000000000000000000000000000000000000000000000000000000000000000000000000000000000000000000000000000000000000000000000000000000000000000000000000000000000000000000000
310
00000000000000000000000000000000000000000000000000000000000000000000000000000000000000000000000000000000000000000000000000000000000000000000000000000000000000000000000000000000000000000000000000000000000000000000000000000000000000000000000000000000000000
310
00000000000000000000000000000000000000000000000000000000000000000000000000000000000000000000000000000000000000000000000000000000000000000000000000000000000000000000000000000000000000000000000000000000000000000000000000000000000000000000000000000000000000
310
00000000000000000000000000000000000000000000000000000000000000000000000000000000000000000000000000000000000000000000000000000000000000000000000000000000000000000000000000000000000000000000000000000000000000000000000000000000000000000000000000000000000000
310
00000000000000000000000000000000000000000000000000000000000000000000000000000000000000000000000000000000000000000000000000000000000000000000000000000000000000000000000000000000000000000000000000000000000000000000000000000000000000000000000000000000000000
310
00000000000000000000000000000000000000000000000000000000000000000000000000000000000000000000000000000000000000000000000000000000000000000000000000000000000000000000000000000000000000000000000000000000000000000000000000000000000000000000000000000000000000
310
00000000000000000000000000000000000000000000000000000000000000000000000000000000000000000000000000000000000000000000000000000000000000000000000000000000000000000000000000000000000000000000000000000000000000000000000000000000000000000000000000000000000000
310
00000000000000000000000000000000000000000000000000000000000000000000000000000000000000000000000000000000000000000000000000000000000000000000000000000000000000000000000000000000000000000000000000000000000000000000000000000000000000000000000000000000000000
310
00000000000000000000000000000000000000000000000000000000000000000000000000000000000000000000000000000000000000000000000000000000000000000000000000000000000000000000000000000000000000000000000000000000000000000000000000000000000000000000000000000000000000
310
00000000000000000000000000000000000000000000000000000000000000000000000000000000000000000000000000000000000000000000000000000000000000000000000000000000000000000000000000000000000000000000000000000000000000000000000000000000000000000000000000000000000000
310
00000000000000000000000000000000000000000000000000000000000000000000000000000000000000000000000000000000000000000000000000000000000000000000000000000000000000000000000000000000000000000000000000000000000000000000000000000000000000000000000000000000000000
310
00000000000000000000000000000000000000000000000000000000000000000000000000000000000000000000000000000000000000000000000000000000000000000000000000000000000000000000000000000000000000000000000000000000000000000000000000000000000000000000000000000000000000
310
00000000000000000000000000000000000000000000000000000000000000000000000000000000000000000000000000000000000000000000000000000000000000000000000000000000000000000000000000000000000000000000000000000000000000000000000000000000000000000000000000000000000000
310
00000000000000000000000000000000000000000000000000000000000000000000000000000000000000000000000000000000000000000000000000000000000000000000000000000000000000000000000000000000000000000000000000000000000000000000000000000000000000000000000000000000000000
310
00000000000000000000000000000000000000000000000000000000000000000000000000000000000000000000000000000000000000000000000000000000000000000000000000000000000000000000000000000000000000000000000000000000000000000000000000000000000000000000000000000000000000
310
00000000000000000000000000000000000000000000000000000000000000000000000000000000000000000000000000000000000000000000000000000000000000000000000000000000000000000000000000000000000000000000000000000000000000000000000000000000000000000000000000000000000000
310
00000000000000000000000000000000000000000000000000000000000000000000000000000000000000000000000000000000000000000000000000000000000000000000000000000000000000000000000000000000000000000000000000000000000000000000000000000000000000000000000000000000000000
310
00000000000000000000000000000000000000000000000000000000000000000000000000000000000000000000000000000000000000000000000000000000000000000000000000000000000000000000000000000000000000000000000000000000000000000000000000000000000000000000000000000000000000
310
00000000000000000000000000000000000000000000000000000000000000000000000000000000000000000000000000000000000000000000000000000000000000000003030303030303030703030303030303030000000000000000000000000000000000000000000000000000000303030303000505050500000000
310
00000000000000000000000000000000000000050505050505050705050505050505050000000000000000000000000000000000000000000000000000000000000000000000000000000000000000000000000000000000000000000000000000000000000000000000000000000000000000000000000000000300000000
310
00000003000000000000000300000000000000000000000000000000000000000000000000000003030303030305050005000000000000000000000000000000000000000000000500000000000000070000000000000005000000000000000000000000000000000000000000000000000000000000000000000000000000
310
00000000000000000000000000000000000000000000000000000000000000000000000000000000000000000000000003000000000000000700000000000000030000000000000000000000000000000000000000000404040404040404040404040404000500000000000000000000000000000000000000000000050000
310
00000000000707000000000000050000000000000000000000000000000000000000000000000000000000000000000000000000000000000000000000000000000000000000000000000000000000000000000000000000000000000000000000000000000300000000000303070303000000000003000000000000000000
310
00040404040404040404040404040404040404040000000000050005000000000000000000000000000000000000000000000500000000000000070000000000000005000000000000000000000000000000000000000000000000000000000000000000000000000000000000000000000000000000000000000000000000
310
00000000000000000000000000000000000000000000000000000003000000030300000700000303000000030000000000000000040404000004040000000000040404040404040304000000000004000500000000000000000000000000000000000000000000050000000000000000000000000000000500000000000000
310
00000000000000000000000000000000000000000000000000000000000000000000000000000000000000000000000000000000000000000000000000000000000000000000000000000000000000000300000003000000070000000003000003000000000000000000040404000404000000000004000404040404040400
310
00000000040005000000000000000000000000000000000000000000000500000000000000070000000000000005000000000000000000000000000000000000000000000000000000000000000000000000000000000000000000000000000000000000000000000000000000000000000000000000000000000000000000
310
00000000000003070003000000000700000000030007030000000000000000000000000004040404040000040400040404040304000000000004000500000000000000000000000000000000000000000000050000000000000007000000000000000500000000000000000000000000000000000000000000000000000000
310
00000000000000000000000000000000000000000000000000000000000000000000000000000000000000000000000000000000000000000000070707030707070707070700070707070707070000000000070704040404040404070704070704040704040404070407070707070407050700000000000000000000000000
310
00000000000000070507070707070700070707070707070005000000000000000000000000000000000000000000000000000000000000000000000000000000000000000000000000000000000000000000000000000000000000000000000000000000000000000000000000000000030703030000000007000000000300
310
07030000000000000000000404040404040000040000000400040404000304000000000004000500000000000000000000000000000000000000000000050000000000000007000000000000000500000000000000000000000000000000000000000000000000000000000000000000000000000000000000000000000000
310
00000000000000000000000000000000000000000000000000000000000000000000000000000300000300000000000000000003000003000000000000000000000000000404040404000004040404040404030400000000000400050000000000000000000000000000000000000000000005000000000000000700000000
310
00000005000000000000000000000000000000000000000000000000000000000000000000000000000000000000000000000000000000000000000000000000000000000000000000000000000000000000000000000000000000030000000300000007000000030000000300000000000000000004040400040400000000
310
00040404040404040404000000000004000500000000000000000000000000000000000000000000050000000000000007000000000000000500000000000000000000000000000000000000000000000000000000000000000000000000000000000000000000000000000000000000000000000000000000000000000000
310
00000000000000000000000000000000000300000003000000070000000300000003000000000000000004040400000404000000000004040404040404030400000000000400050000000000000000000000000000000000000000000005000000000000000700000000000000050000000000000000000000000000000000
310
00000000000000000000000000000000000000000000000000000000000000000000000000000000000000000000000000000000000000000000000000000000000000000000030000000003030007000303000000000300000000000000000004040404040404040404040404040404040404040000000000040005000000
310
00000000000000000000000000000000000000050000000000000000000000000000000500000000000000000000000000000000000000000000000000000000000000000000000000000000000000000000000000000000000000000000000000000000000000000000000000000000000000000000000000000003000000
310
00000003070300000000000003000000000000000000000000000000000000000000040404040404040404040404040404050000000000000000000000000000000000000000000005000000000505050705050500000000050000000000000000000000000000000000000000000000000000000000000000000000000000
310
00000000000000000000000000000000000000000000000000000000000000000000000000000000000000000000000000030303030000000007000000000303030300000000000000000000000000000000000000000000000000000003000003030305050405000000000000000000000000000000000000000000000500
310
07070705000707070705050505070500000000000000000000000000000000000000000000000000000000000000000000000000000000000000000000000000000000000000000000000000000000000000000000000000000000000000000000000000000003030303030000000700000000030300030000000000000000
310
00000000000000000000000000000000000000030000030303030004050004000000000000000000000000000000000000000005000505000505050705050500050500050000000000000000000000000000000000000000000000000000000000000000000000000000000000000000000000000000000000000000000000
310
00000000000000000000000000000000000000000000000000000000030303030303030307030303030303030300000000000000000000000000000000000000000000000000000003030303030404050505000404000000000000000000000000000000000000000505050505030303030303030505050505000000000000
310
00000000000000000000000000000000000000000000000000000000000000000000000000000000000000000000000000000000000000000000000000000000000000000000000000000000000000000000000000000000000000000000000000000000000000000000000000000000000000000000000000000000000000
310
00000000000404040000000004040000000000040000000000000000000000000000000000000700000000000000000000000000000000000000000000000000000000000000000000000000000000000000000000000000000000000000000000000000000000000000000000000000000000000000000000000000000000
310
00000000000000000000000000000000000000000000000000000000000000000000000000000000000000000000000000000000000000000000000000040404000000000404000404000000000000000000000000000000000000000000000000000000000000000000000000000000000000000000000000000000000000
310
00000000000000000000000000000000000000000000000000000000000000000000000000000000000000000000000000000000000000000000000000000000000000000000000000000000000000000000000000000000000000000000000000000000000000000000000000000000000000000000040400000004040400
310
00000000000000000000000000000000000000000000000000000000000000000000000000000000000000000000000000000000000000000000000000000000000000000000000000000000000000000000000000000000000000000000000000000000000000000000000000000000000000000000000000000000000000
310
00000000000000000000000000000000000000000000000000000000000000000000000000000000000000000000000404000400000000000000000000000000000000000000000000000000000000000000000000000000000000000000000000000000000000000000000000000000000000000000000000000000000000
310
00000000000000000000000000000000000000000000000000000000000000000000000000000000000000000000000000000000000000000000000000000000000000000000000000000000000000000000000000000000000000000000000000000000000004040000000000000000000000000000000000000000000000
310
00000000000000000000000000000000000000000000000000000000000000000000000000000000000000000000000000000000000000000000000000000000000000000000000000000000000000000000000000000000000000000000000000000000000000000000000000000000000000000000000000000000000000
310
000000000000000000000000000000000000000000000000000000000000000000000000000000000000000000000000000000000000000000000000000000000000000000000000000000000000000000000000000000000000000000000000000000000000000000000000
  0
ENDSEC
  0
EOF
