  0
SECTION
  2
HEADER
  9
$ACADVER
  1
AC1015
  9
$ACADMAINTVER
 70
     6
  9
$DWGCODEPAGE
  3
ANSI_932
  9
$INSBASE
 10
0.0
 20
0.0
 30
0.0
  9
$EXTMIN
 10
-210.0
 20
0.0
 30
0.0
  9
$EXTMAX
 10
0.0
 20
297.0
 30
0.0
  9
$LIMMIN
 10
0.0
 20
0.0
  9
$LIMMAX
 10
-210.0
 20
297.0
  9
$ORTHOMODE
 70
     0
  9
$REGENMODE
 70
     1
  9
$FILLMODE
 70
     1
  9
$QTEXTMODE
 70
     0
  9
$MIRRTEXT
 70
     1
  9
$LTSCALE
 40
1.0
  9
$ATTMODE
 70
     1
  9
$TEXTSIZE
 40
2.5
  9
$TRACEWID
 40
1.0
  9
$TEXTSTYLE
  7
IDEC_TEXT
  9
$CLAYER
  8
中線
  9
$CELTYPE
  6
ByLayer
  9
$CECOLOR
 62
   256
  9
$CELTSCALE
 40
1.0
  9
$DISPSILH
 70
     0
  9
$DIMSCALE
 40
1.0
  9
$DIMASZ
 40
2.0
  9
$DIMEXO
 40
0.625
  9
$DIMDLI
 40
5.0
  9
$DIMRND
 40
0.0
  9
$DIMDLE
 40
0.0
  9
$DIMEXE
 40
1.25
  9
$DIMTP
 40
0.0
  9
$DIMTM
 40
0.0
  9
$DIMTXT
 40
2.5
  9
$DIMCEN
 40
0.0
  9
$DIMTSZ
 40
0.0
  9
$DIMTOL
 70
     0
  9
$DIMLIM
 70
     0
  9
$DIMTIH
 70
     0
  9
$DIMTOH
 70
     0
  9
$DIMSE1
 70
     0
  9
$DIMSE2
 70
     0
  9
$DIMTAD
 70
     1
  9
$DIMZIN
 70
     0
  9
$DIMBLK
  1
OPEN30
  9
$DIMASO
 70
     1
  9
$DIMSHO
 70
     1
  9
$DIMPOST
  1

  9
$DIMAPOST
  1

  9
$DIMALT
 70
     0
  9
$DIMALTD
 70
     1
  9
$DIMALTF
 40
0.03937007874
  9
$DIMLFAC
 40
1.0
  9
$DIMTOFL
 70
     1
  9
$DIMTVP
 40
0.0
  9
$DIMTIX
 70
     0
  9
$DIMSOXD
 70
     0
  9
$DIMSAH
 70
     0
  9
$DIMBLK1
  1
OPEN30
  9
$DIMBLK2
  1
OPEN30
  9
$DIMSTYLE
  2
IDEC_DIM
  9
$DIMCLRD
 70
   256
  9
$DIMCLRE
 70
   256
  9
$DIMCLRT
 70
   256
  9
$DIMTFAC
 40
0.5
  9
$DIMGAP
 40
0.5
  9
$DIMJUST
 70
     0
  9
$DIMSD1
 70
     0
  9
$DIMSD2
 70
     0
  9
$DIMTOLJ
 70
     2
  9
$DIMTZIN
 70
     8
  9
$DIMALTZ
 70
     0
  9
$DIMALTTZ
 70
     0
  9
$DIMUPT
 70
     0
  9
$DIMDEC
 70
     1
  9
$DIMTDEC
 70
     1
  9
$DIMALTU
 70
     2
  9
$DIMALTTD
 70
     3
  9
$DIMTXSTY
  7
IDEC_TEXT
  9
$DIMAUNIT
 70
     1
  9
$DIMADEC
 70
     1
  9
$DIMALTRND
 40
0.0
  9
$DIMAZIN
 70
     2
  9
$DIMDSEP
 70
    46
  9
$DIMATFIT
 70
     3
  9
$DIMFRAC
 70
     0
  9
$DIMLDRBLK
  1
OPEN30
  9
$DIMLUNIT
 70
     2
  9
$DIMLWD
 70
    13
  9
$DIMLWE
 70
    13
  9
$DIMTMOVE
 70
     0
  9
$LUNITS
 70
     2
  9
$LUPREC
 70
     4
  9
$SKETCHINC
 40
1.0
  9
$FILLETRAD
 40
10.0
  9
$AUNITS
 70
     1
  9
$AUPREC
 70
     0
  9
$MENU
  1
.
  9
$ELEVATION
 40
0.0
  9
$PELEVATION
 40
0.0
  9
$THICKNESS
 40
0.0
  9
$LIMCHECK
 70
     0
  9
$CHAMFERA
 40
5.0
  9
$CHAMFERB
 40
5.0
  9
$CHAMFERC
 40
20.0
  9
$CHAMFERD
 40
0.0
  9
$SKPOLY
 70
     0
  9
$TDCREATE
 40
2455692.565455474
  9
$TDUCREATE
 40
2455692.190455474
  9
$TDUPDATE
 40
2457458.550194467
  9
$TDUUPDATE
 40
2457458.175194467
  9
$TDINDWG
 40
3.3375345486
  9
$TDUSRTIMER
 40
3.3375345486
  9
$USRTIMER
 70
     1
  9
$ANGBASE
 50
0.0
  9
$ANGDIR
 70
     0
  9
$PDMODE
 70
     0
  9
$PDSIZE
 40
0.0
  9
$PLINEWID
 40
0.0
  9
$SPLFRAME
 70
     0
  9
$SPLINETYPE
 70
     6
  9
$SPLINESEGS
 70
     8
  9
$HANDSEED
  5
1FF3
  9
$SURFTAB1
 70
     6
  9
$SURFTAB2
 70
     6
  9
$SURFTYPE
 70
     6
  9
$SURFU
 70
     6
  9
$SURFV
 70
     6
  9
$UCSBASE
  2

  9
$UCSNAME
  2

  9
$UCSORG
 10
0.0
 20
0.0
 30
0.0
  9
$UCSXDIR
 10
1.0
 20
0.0
 30
0.0
  9
$UCSYDIR
 10
0.0
 20
1.0
 30
0.0
  9
$UCSORTHOREF
  2

  9
$UCSORTHOVIEW
 70
     0
  9
$UCSORGTOP
 10
0.0
 20
0.0
 30
0.0
  9
$UCSORGBOTTOM
 10
0.0
 20
0.0
 30
0.0
  9
$UCSORGLEFT
 10
0.0
 20
0.0
 30
0.0
  9
$UCSORGRIGHT
 10
0.0
 20
0.0
 30
0.0
  9
$UCSORGFRONT
 10
0.0
 20
0.0
 30
0.0
  9
$UCSORGBACK
 10
0.0
 20
0.0
 30
0.0
  9
$PUCSBASE
  2

  9
$PUCSNAME
  2

  9
$PUCSORG
 10
0.0
 20
0.0
 30
0.0
  9
$PUCSXDIR
 10
1.0
 20
0.0
 30
0.0
  9
$PUCSYDIR
 10
0.0
 20
1.0
 30
0.0
  9
$PUCSORTHOREF
  2

  9
$PUCSORTHOVIEW
 70
     0
  9
$PUCSORGTOP
 10
0.0
 20
0.0
 30
0.0
  9
$PUCSORGBOTTOM
 10
0.0
 20
0.0
 30
0.0
  9
$PUCSORGLEFT
 10
0.0
 20
0.0
 30
0.0
  9
$PUCSORGRIGHT
 10
0.0
 20
0.0
 30
0.0
  9
$PUCSORGFRONT
 10
0.0
 20
0.0
 30
0.0
  9
$PUCSORGBACK
 10
0.0
 20
0.0
 30
0.0
  9
$USERI1
 70
     0
  9
$USERI2
 70
     0
  9
$USERI3
 70
     0
  9
$USERI4
 70
     0
  9
$USERI5
 70
     0
  9
$USERR1
 40
0.0
  9
$USERR2
 40
0.0
  9
$USERR3
 40
0.0
  9
$USERR4
 40
0.0
  9
$USERR5
 40
0.0
  9
$WORLDVIEW
 70
     1
  9
$SHADEDGE
 70
     3
  9
$SHADEDIF
 70
    70
  9
$TILEMODE
 70
     1
  9
$MAXACTVP
 70
    64
  9
$PINSBASE
 10
0.0
 20
0.0
 30
0.0
  9
$PLIMCHECK
 70
     0
  9
$PEXTMIN
 10
9.7
 20
13.5
 30
0.0
  9
$PEXTMAX
 10
247.3
 20
181.5
 30
0.0
  9
$PLIMMIN
 10
-20.0
 20
-7.5
  9
$PLIMMAX
 10
277.0
 20
202.5
  9
$UNITMODE
 70
     0
  9
$VISRETAIN
 70
     1
  9
$PLINEGEN
 70
     0
  9
$PSLTSCALE
 70
     1
  9
$TREEDEPTH
 70
  3020
  9
$CMLSTYLE
  2
Standard
  9
$CMLJUST
 70
     0
  9
$CMLSCALE
 40
20.0
  9
$PROXYGRAPHICS
 70
     1
  9
$MEASUREMENT
 70
     1
  9
$CELWEIGHT
370
    -1
  9
$ENDCAPS
280
     0
  9
$JOINSTYLE
280
     0
  9
$LWDISPLAY
290
     0
  9
$INSUNITS
 70
     4
  9
$HYPERLINKBASE
  1

  9
$STYLESHEET
  1

  9
$XEDIT
290
     1
  9
$CEPSNTYPE
380
     0
  9
$PSTYLEMODE
290
     1
  9
$FINGERPRINTGUID
  2
{C2BA42B3-0400-405A-BB68-4DC0BEC5C1B9}
  9
$VERSIONGUID
  2
{FAEB1C32-E019-11D5-929B-00C0DF256EC4}
  9
$EXTNAMES
290
     1
  9
$PSVPSCALE
 40
0.0
  9
$OLESTARTUP
290
     0
  0
ENDSEC
  0
SECTION
  2
CLASSES
  0
CLASS
  1
ACDBDICTIONARYWDFLT
  2
AcDbDictionaryWithDefault
  3
ObjectDBX Classes
 90
        0
280
     0
281
     0
  0
CLASS
  1
VISUALSTYLE
  2
AcDbVisualStyle
  3
ObjectDBX Classes
 90
     4095
280
     0
281
     0
  0
CLASS
  1
MATERIAL
  2
AcDbMaterial
  3
ObjectDBX Classes
 90
     1153
280
     0
281
     0
  0
CLASS
  1
SCALE
  2
AcDbScale
  3
ObjectDBX Classes
 90
     1153
280
     0
281
     0
  0
CLASS
  1
DICTIONARYVAR
  2
AcDbDictionaryVar
  3
ObjectDBX Classes
 90
        0
280
     0
281
     0
  0
CLASS
  1
DIMASSOC
  2
AcDbDimAssoc
  3
"AcDbDimAssoc|Product Desc:     AcDim ARX App For Dimension|Company:          Autodesk, Inc.|WEB Address:      www.autodesk.com"
 90
        0
280
     0
281
     0
  0
CLASS
  1
TABLESTYLE
  2
AcDbTableStyle
  3
ObjectDBX Classes
 90
     4095
280
     0
281
     0
  0
CLASS
  1
SORTENTSTABLE
  2
AcDbSortentsTable
  3
ObjectDBX Classes
 90
        0
280
     0
281
     0
  0
CLASS
  1
SUN
  2
AcDbSun
  3
SCENEOE
 90
     1153
280
     0
281
     0
  0
CLASS
  1
MLEADERSTYLE
  2
AcDbMLeaderStyle
  3
ACDB_MLEADERSTYLE_CLASS
 90
     4095
280
     0
281
     0
  0
CLASS
  1
ACDBPLACEHOLDER
  2
AcDbPlaceHolder
  3
ObjectDBX Classes
 90
        0
280
     0
281
     0
  0
CLASS
  1
LAYOUT
  2
AcDbLayout
  3
ObjectDBX Classes
 90
        0
280
     0
281
     0
  0
ENDSEC
  0
SECTION
  2
TABLES
  0
TABLE
  2
VPORT
  5
8
102
{ACAD_XDICTIONARY
360
1FB0
102
}
330
0
100
AcDbSymbolTable
 70
     1
  0
VPORT
  5
29
330
8
100
AcDbSymbolTableRecord
100
AcDbViewportTableRecord
  2
*Active
 70
     0
 10
0.0
 20
0.0
 11
1.0
 21
1.0
 12
-105.0
 22
148.5
 13
0.0
 23
0.0
 14
5.0
 24
5.0
 15
5.0
 25
5.0
 16
0.0
 26
0.0
 36
1.000000000000003
 17
0.0
 27
0.0
 37
-0.244761739403
 40
302.94
 41
1.188157894737
 42
50.0
 43
0.0
 44
0.0
 50
0.0
 51
0.0
 71
    16
 72
   100
 73
     1
 74
     3
 75
     0
 76
     0
 77
     0
 78
     0
281
     0
 65
     1
110
0.0
120
0.0
130
0.0
111
1.0
121
0.0
131
0.0
112
0.0
122
1.0
132
0.0
 79
     0
146
0.0
1001
ACAD_NAV_VCDISPLAY
1070
     0
  0
ENDTAB
  0
TABLE
  2
LTYPE
  5
5
330
0
100
AcDbSymbolTable
 70
     8
  0
LTYPE
  5
14
330
5
100
AcDbSymbolTableRecord
100
AcDbLinetypeTableRecord
  2
ByBlock
 70
     0
  3

 72
    65
 73
     0
 40
0.0
  0
LTYPE
  5
15
330
5
100
AcDbSymbolTableRecord
100
AcDbLinetypeTableRecord
  2
ByLayer
 70
     0
  3

 72
    65
 73
     0
 40
0.0
  0
LTYPE
  5
16
330
5
100
AcDbSymbolTableRecord
100
AcDbLinetypeTableRecord
  2
Continuous
 70
     0
  3
Solid line
 72
    65
 73
     0
 40
0.0
  0
LTYPE
  5
70
330
5
100
AcDbSymbolTableRecord
100
AcDbLinetypeTableRecord
  2
CENTERX2
 70
     0
  3
________  __  ________  __  ________  __  ______
 72
    65
 73
     4
 40
4.0
 49
2.5
 74
     0
 49
-0.5
 74
     0
 49
0.5
 74
     0
 49
-0.5
 74
     0
  0
LTYPE
  5
75
330
5
100
AcDbSymbolTableRecord
100
AcDbLinetypeTableRecord
  2
PHANTOMX2
 70
     0
  3
____________    ____    ____    ____________    
 72
    65
 73
     6
 40
5.0
 49
2.5
 74
     0
 49
-0.5
 74
     0
 49
0.5
 74
     0
 49
-0.5
 74
     0
 49
0.5
 74
     0
 49
-0.5
 74
     0
  0
LTYPE
  5
78
330
5
100
AcDbSymbolTableRecord
100
AcDbLinetypeTableRecord
  2
DASHEDX2
 70
     0
  3
____  ____  ____  ____  ____  ____  ____  ____  
 72
    65
 73
     2
 40
1.5
 49
1.0
 74
     0
 49
-0.5
 74
     0
  0
LTYPE
  5
1CE5
330
5
100
AcDbSymbolTableRecord
100
AcDbLinetypeTableRecord
  2
SOLID
 70
     0
  3
Solid
 72
    65
 73
     0
 40
0.0
  0
LTYPE
  5
1CEA
330
5
100
AcDbSymbolTableRecord
100
AcDbLinetypeTableRecord
  2
CENTERLINE
 70
     0
  3
Centerline
 72
    65
 73
     4
 40
25.4
 49
19.05
 74
     0
 49
-1.5875
 74
     0
 49
3.175
 74
     0
 49
-1.5875
 74
     0
  0
LTYPE
  5
1CEB
330
5
100
AcDbSymbolTableRecord
100
AcDbLinetypeTableRecord
  2
PHANTOM
 70
     0
  3
Phantom
 72
    65
 73
     6
 40
30.1625
 49
19.05
 74
     0
 49
-1.5875
 74
     0
 49
3.175
 74
     0
 49
-1.5875
 74
     0
 49
3.175
 74
     0
 49
-1.5875
 74
     0
  0
LTYPE
  5
1CEC
330
5
100
AcDbSymbolTableRecord
100
AcDbLinetypeTableRecord
  2
GAP
 70
     0
  3
Gap
 72
    65
 73
     3
 40
2540.9999980092
 49
0.0
 74
     0
 49
-0.9999980092
 74
     0
 49
2540.0
 74
     0
  0
ENDTAB
  0
TABLE
  2
LAYER
  5
2
330
0
100
AcDbSymbolTable
 70
    25
  0
LAYER
  5
10
330
2
100
AcDbSymbolTableRecord
100
AcDbLayerTableRecord
  2
0
 70
     0
 62
     7
  6
Continuous
370
    -3
390
F
  0
LAYER
  5
6D
330
2
100
AcDbSymbolTableRecord
100
AcDbLayerTableRecord
  2
DEFPOINTS
 70
     0
 62
   250
  6
Continuous
290
     0
370
     0
390
F
  0
LAYER
  5
6E
330
2
100
AcDbSymbolTableRecord
100
AcDbLayerTableRecord
  2
CENTER
 70
     0
 62
     7
  6
CENTERX2
370
    13
390
F
  0
LAYER
  5
73
330
2
100
AcDbSymbolTableRecord
100
AcDbLayerTableRecord
  2
PHANTOM
 70
     0
 62
     4
  6
PHANTOMX2
370
    13
390
F
  0
LAYER
  5
79
330
2
100
AcDbSymbolTableRecord
100
AcDbLayerTableRecord
  2
太線
 70
     0
 62
     5
  6
Continuous
370
    40
390
F
  0
LAYER
  5
7B
330
2
100
AcDbSymbolTableRecord
100
AcDbLayerTableRecord
  2
細線
 70
     0
 62
     7
  6
Continuous
370
    13
390
F
  0
LAYER
  5
7D
330
2
100
AcDbSymbolTableRecord
100
AcDbLayerTableRecord
  2
中線
 70
     0
 62
     3
  6
Continuous
370
    25
390
F
  0
LAYER
  5
7F
330
2
100
AcDbSymbolTableRecord
100
AcDbLayerTableRecord
  2
IDEC_DIM
 70
     0
 62
     2
  6
Continuous
370
    13
390
F
  0
LAYER
  5
81
330
2
100
AcDbSymbolTableRecord
100
AcDbLayerTableRecord
  2
HIDDEN
 70
     0
 62
     6
  6
DASHEDX2
370
    13
390
F
  0
LAYER
  5
AD
330
2
100
AcDbSymbolTableRecord
100
AcDbLayerTableRecord
  2
CMNT
 70
     0
 62
     7
  6
Continuous
370
    13
390
F
  0
LAYER
  5
337
330
2
100
AcDbSymbolTableRecord
100
AcDbLayerTableRecord
  2
IDEC_DRAWINGFRAME
 70
     4
 62
     3
  6
Continuous
370
    13
390
F
  0
LAYER
  5
AFE
330
2
100
AcDbSymbolTableRecord
100
AcDbLayerTableRecord
  2
DIF_SCALE_TEXT
 70
     0
 62
   250
  6
Continuous
290
     0
370
     0
390
F
  0
LAYER
  5
B00
330
2
100
AcDbSymbolTableRecord
100
AcDbLayerTableRecord
  2
DIF_SCALE_AREA
 70
     0
 62
   250
  6
Continuous
290
     0
370
     0
390
F
  0
LAYER
  5
19BB
330
2
100
AcDbSymbolTableRecord
100
AcDbLayerTableRecord
  2
GRID
 70
     4
 62
    -9
  6
DASHEDX2
370
     5
390
F
  0
LAYER
  5
1CE3
330
2
100
AcDbSymbolTableRecord
100
AcDbLayerTableRecord
  2
Layer1$C$L1$V_PV
 70
     0
 62
     3
  6
SOLID
370
    -3
390
1CE3
  0
LAYER
  5
1CE2
330
2
100
AcDbSymbolTableRecord
100
AcDbLayerTableRecord
  2
Layer0$C$L0$V_PV
 70
     0
 62
     3
  6
SOLID
370
    -3
390
1CE3
  0
LAYER
  5
1CE6
330
2
100
AcDbSymbolTableRecord
100
AcDbLayerTableRecord
  2
Layer3$C$L3$V_PV
 70
     0
 62
     3
  6
SOLID
370
    -3
390
1CE3
  0
LAYER
  5
1CE7
330
2
100
AcDbSymbolTableRecord
100
AcDbLayerTableRecord
  2
Layer4$C$L4$V_PV
 70
     0
 62
     3
  6
SOLID
370
    -3
390
1CE3
  0
LAYER
  5
1CE8
330
2
100
AcDbSymbolTableRecord
100
AcDbLayerTableRecord
  2
Layer8$C$L8$V_PV
 70
     0
 62
    32
  6
SOLID
370
    -3
390
1CE3
  0
LAYER
  5
1CE9
330
2
100
AcDbSymbolTableRecord
100
AcDbLayerTableRecord
  2
Layer9$C$L9$V_PV
 70
     0
 62
     1
  6
SOLID
370
    -3
390
1CE3
  0
ENDTAB
  0
TABLE
  2
STYLE
  5
3
330
0
100
AcDbSymbolTable
 70
     2
  0
STYLE
  5
11
330
3
100
AcDbSymbolTableRecord
100
AcDbTextStyleTableRecord
  2
Standard
 70
     0
 40
0.0
 41
1.0
 50
0.0
 71
     0
 42
2.5
  3
simplex.shx
  4
extfont2.shx
  0
STYLE
  5
124
330
3
100
AcDbSymbolTableRecord
100
AcDbTextStyleTableRecord
  2
IDEC_TEXT
 70
     0
 40
0.0
 41
1.0
 50
0.0
 71
     0
 42
2.5
  3
simplex.shx
  4
extfont2.shx
  0
ENDTAB
  0
TABLE
  2
VIEW
  5
6
330
0
100
AcDbSymbolTable
 70
     0
  0
ENDTAB
  0
TABLE
  2
UCS
  5
7
330
0
100
AcDbSymbolTable
 70
     0
  0
ENDTAB
  0
TABLE
  2
APPID
  5
9
330
0
100
AcDbSymbolTable
 70
     7
  0
APPID
  5
12
330
9
100
AcDbSymbolTableRecord
100
AcDbRegAppTableRecord
  2
ACAD
 70
     0
  0
APPID
  5
C3
330
9
100
AcDbSymbolTableRecord
100
AcDbRegAppTableRecord
  2
BJM_BLN_TBL
 70
     0
  0
APPID
  5
AEF
330
9
100
AcDbSymbolTableRecord
100
AcDbRegAppTableRecord
  2
DENKISCL
 70
     0
  0
APPID
  5
AF0
330
9
100
AcDbSymbolTableRecord
100
AcDbRegAppTableRecord
  2
DENKISCLORG
 70
     0
  0
APPID
  5
1CE0
330
9
100
AcDbSymbolTableRecord
100
AcDbRegAppTableRecord
  2
ACAD_NAV_VCDISPLAY
 70
     0
  0
APPID
  5
1FB2
330
9
100
AcDbSymbolTableRecord
100
AcDbRegAppTableRecord
  2
ACAD_DSTYLE_DIMTEXT_FILL
 70
     0
  0
APPID
  5
1FF0
330
9
100
AcDbSymbolTableRecord
100
AcDbRegAppTableRecord
  2
ACAD_MLEADERVER
 70
     0
  0
ENDTAB
  0
TABLE
  2
DIMSTYLE
  5
A
330
0
100
AcDbSymbolTable
 70
     7
100
AcDbDimStyleTable
  0
DIMSTYLE
105
61
330
A
100
AcDbSymbolTableRecord
100
AcDbDimStyleTableRecord
  2
IDEC_DIM
 70
     0
 41
2.0
 42
0.625
 43
5.0
 44
1.25
 73
     0
 74
     0
 77
     1
 79
     2
140
2.5
141
2.5
143
0.03937007874
146
0.5
147
0.5
171
     1
172
     1
176
   256
177
   256
271
     1
178
   256
179
     1
271
     1
272
     1
274
     3
275
     1
283
     2
284
     8
340
124
341
63
342
63
371
    13
372
    13
1001
ACAD_DSTYLE_DIMTEXT_FILL
1070
   376
1070
     0
  0
DIMSTYLE
105
1CED
330
A
100
AcDbSymbolTableRecord
100
AcDbDimStyleTableRecord
  2
STANDARD
 70
     0
 42
0.0
 44
0.0
 73
     0
 74
     0
 77
     3
140
0.156
143
1.0
147
0.078
171
     0
178
     0
271
     2
272
     2
275
     1
340
11
  0
DIMSTYLE
105
1CEF
330
A
100
AcDbSymbolTableRecord
100
AcDbDimStyleTableRecord
  2
DIM1
 70
     0
 41
2.0000000005
 42
2.5399999619
 44
3.8099999428
 77
     3
140
2.4999990979
143
1.0
147
1.249999549
171
     0
178
     0
271
     1
272
     1
274
     0
275
     1
340
0
  0
DIMSTYLE
105
1CF0
330
A
100
AcDbSymbolTableRecord
100
AcDbDimStyleTableRecord
  2
DIM2
 70
     0
 41
2.0000000005
 42
2.5399999619
 44
3.8099999428
 73
     0
 74
     0
 77
     3
140
2.4999990979
143
1.0
147
1.249999549
171
     0
178
     0
271
     0
272
     0
274
     0
275
     1
340
0
  0
DIMSTYLE
105
1CF1
330
A
100
AcDbSymbolTableRecord
100
AcDbDimStyleTableRecord
  2
DIM3
 70
     0
 41
2.0000000005
 42
2.5399999619
 44
3.8099999428
 73
     0
 74
     0
 77
     3
140
2.4999990979
143
1.0
147
1.249999549
171
     0
178
     0
271
     1
272
     1
274
     0
275
     1
340
0
  0
DIMSTYLE
105
1CF2
330
A
100
AcDbSymbolTableRecord
100
AcDbDimStyleTableRecord
  2
DIM4
 70
     0
 41
2.0000000005
 42
2.5399999619
 44
3.8099999428
 77
     3
140
2.4999990979
143
1.0
147
1.249999549
171
     0
178
     0
271
     0
272
     0
274
     0
275
     1
340
0
  0
ENDTAB
  0
TABLE
  2
BLOCK_RECORD
  5
1
330
0
100
AcDbSymbolTable
 70
   214
  0
BLOCK_RECORD
  5
1F
102
{ACAD_XDICTIONARY
360
56C
102
}
330
1
100
AcDbSymbolTableRecord
100
AcDbBlockTableRecord
  2
*Model_Space
340
22
  0
BLOCK_RECORD
  5
1B
330
1
100
AcDbSymbolTableRecord
100
AcDbBlockTableRecord
  2
*Paper_Space
340
1E
  0
BLOCK_RECORD
  5
63
330
1
100
AcDbSymbolTableRecord
100
AcDbBlockTableRecord
  2
_OPEN30
340
0
  0
BLOCK_RECORD
  5
19B3
102
{ACAD_XDICTIONARY
360
19B4
102
}
330
1
100
AcDbSymbolTableRecord
100
AcDbBlockTableRecord
  2
_IDEC_OPEN30
340
0
102
{BLKREFS
331
1C7B
331
1C84
102
}
1001
ACAD
1000
DesignCenter Data
1002
{
1070
     1
1070
     4
1002
}
  0
BLOCK_RECORD
  5
1C91
102
{ACAD_XDICTIONARY
360
1C92
102
}
330
1
100
AcDbSymbolTableRecord
100
AcDbBlockTableRecord
  2
_IDEC_OPEN30R
340
0
102
{BLKREFS
331
1C90
331
1C99
102
}
1001
ACAD
1000
DesignCenter Data
1002
{
1070
     1
1070
     4
1002
}
  0
BLOCK_RECORD
  5
1D14
330
1
100
AcDbSymbolTableRecord
100
AcDbBlockTableRecord
  2
BLOCK0
340
0
102
{BLKREFS
331
0
331
1EE8
102
}
  0
BLOCK_RECORD
  5
1E1E
330
1
100
AcDbSymbolTableRecord
100
AcDbBlockTableRecord
  2
*D200
340
0
  0
BLOCK_RECORD
  5
1E2A
330
1
100
AcDbSymbolTableRecord
100
AcDbBlockTableRecord
  2
*D201
340
0
  0
BLOCK_RECORD
  5
1E36
330
1
100
AcDbSymbolTableRecord
100
AcDbBlockTableRecord
  2
*D202
340
0
  0
BLOCK_RECORD
  5
1E42
330
1
100
AcDbSymbolTableRecord
100
AcDbBlockTableRecord
  2
*D203
340
0
  0
BLOCK_RECORD
  5
1E4E
330
1
100
AcDbSymbolTableRecord
100
AcDbBlockTableRecord
  2
*D204
340
0
  0
BLOCK_RECORD
  5
1E5A
330
1
100
AcDbSymbolTableRecord
100
AcDbBlockTableRecord
  2
*D205
340
0
  0
BLOCK_RECORD
  5
1E7A
330
1
100
AcDbSymbolTableRecord
100
AcDbBlockTableRecord
  2
Cadra_attr_4
340
0
102
{BLKREFS
331
0
331
1F9F
102
}
  0
BLOCK_RECORD
  5
1E81
330
1
100
AcDbSymbolTableRecord
100
AcDbBlockTableRecord
  2
CADRA_ARROW22_5OPEN
340
0
  0
BLOCK_RECORD
  5
1E8B
330
1
100
AcDbSymbolTableRecord
100
AcDbBlockTableRecord
  2
*D208
340
0
  0
BLOCK_RECORD
  5
1E9A
330
1
100
AcDbSymbolTableRecord
100
AcDbBlockTableRecord
  2
*D209
340
0
  0
BLOCK_RECORD
  5
1EA9
330
1
100
AcDbSymbolTableRecord
100
AcDbBlockTableRecord
  2
*D210
340
0
  0
BLOCK_RECORD
  5
1EB8
330
1
100
AcDbSymbolTableRecord
100
AcDbBlockTableRecord
  2
*D211
340
0
  0
BLOCK_RECORD
  5
1EC7
330
1
100
AcDbSymbolTableRecord
100
AcDbBlockTableRecord
  2
*D212
340
0
  0
BLOCK_RECORD
  5
1ED6
330
1
100
AcDbSymbolTableRecord
100
AcDbBlockTableRecord
  2
*D213
340
0
  0
ENDTAB
  0
ENDSEC
  0
SECTION
  2
BLOCKS
  0
BLOCK
  5
20
330
1F
100
AcDbEntity
  8
0
100
AcDbBlockBegin
  2
*Model_Space
 70
     0
 10
0.0
 20
0.0
 30
0.0
  3
*Model_Space
  1

  0
ENDBLK
  5
21
330
1F
100
AcDbEntity
  8
0
100
AcDbBlockEnd
  0
BLOCK
  5
1C
330
1B
100
AcDbEntity
 67
     1
  8
0
100
AcDbBlockBegin
  2
*Paper_Space
 70
     0
 10
0.0
 20
0.0
 30
0.0
  3
*Paper_Space
  1

  0
ENDBLK
  5
1D
330
1B
100
AcDbEntity
 67
     1
  8
0
100
AcDbBlockEnd
  0
BLOCK
  5
64
330
63
100
AcDbEntity
  8
0
100
AcDbBlockBegin
  2
_OPEN30
 70
     0
 10
0.0
 20
0.0
 30
0.0
  3
_OPEN30
  1

  0
LINE
  5
66
330
63
100
AcDbEntity
  8
0
  6
ByBlock
 62
     0
370
    -2
100
AcDbLine
 10
-1.0
 20
0.267949
 30
0.0
 11
0.0
 21
0.0
 31
0.0
  0
LINE
  5
67
330
63
100
AcDbEntity
  8
0
  6
ByBlock
 62
     0
370
    -2
100
AcDbLine
 10
0.0
 20
0.0
 30
0.0
 11
-1.0
 21
-0.267949
 31
0.0
  0
LINE
  5
68
330
63
100
AcDbEntity
  8
0
  6
ByBlock
 62
     0
370
    -2
100
AcDbLine
 10
0.0
 20
0.0
 30
0.0
 11
-1.0
 21
0.0
 31
0.0
  0
ENDBLK
  5
65
330
63
100
AcDbEntity
  8
0
100
AcDbBlockEnd
  0
BLOCK
  5
19B6
330
19B3
100
AcDbEntity
  8
0
100
AcDbBlockBegin
  2
_IDEC_OPEN30
 70
     0
 10
0.0
 20
0.0
 30
0.0
  3
_IDEC_OPEN30
  1

  0
LINE
  5
19B7
330
19B3
100
AcDbEntity
  8
0
  6
ByBlock
 62
     0
370
    -2
100
AcDbLine
 10
-1.0
 20
0.267949
 30
0.0
 11
0.0
 21
0.0
 31
0.0
  0
LINE
  5
19B8
330
19B3
100
AcDbEntity
  8
0
  6
ByBlock
 62
     0
370
    -2
100
AcDbLine
 10
0.0
 20
0.0
 30
0.0
 11
-1.0
 21
-0.267949
 31
0.0
  0
LINE
  5
19B9
330
19B3
100
AcDbEntity
  8
0
  6
ByBlock
 62
     0
370
    -2
100
AcDbLine
 10
0.0
 20
0.0
 30
0.0
 11
-2.0
 21
0.0
 31
0.0
  0
ENDBLK
  5
19BA
330
19B3
100
AcDbEntity
  8
0
100
AcDbBlockEnd
  0
BLOCK
  5
1CA5
330
1C91
100
AcDbEntity
  8
0
100
AcDbBlockBegin
  2
_IDEC_OPEN30R
 70
     0
 10
0.0
 20
0.0
 30
0.0
  3
_IDEC_OPEN30R
  1

  0
LINE
  5
1C95
330
1C91
100
AcDbEntity
  8
0
  6
ByBlock
 62
     0
370
    -2
100
AcDbLine
 10
1.0
 20
0.267949
 30
0.0
 11
0.0
 21
0.0
 31
0.0
  0
LINE
  5
1C96
330
1C91
100
AcDbEntity
  8
0
  6
ByBlock
 62
     0
370
    -2
100
AcDbLine
 10
0.0
 20
0.0
 30
0.0
 11
1.0
 21
-0.267949
 31
0.0
  0
LINE
  5
1C97
330
1C91
100
AcDbEntity
  8
0
  6
ByBlock
 62
     0
370
    -2
100
AcDbLine
 10
-1.0
 20
0.0
 30
0.0
 11
2.0
 21
0.0
 31
0.0
  0
ENDBLK
  5
1CA6
330
1C91
100
AcDbEntity
  8
0
100
AcDbBlockEnd
  0
BLOCK
  5
1E89
330
1D14
100
AcDbEntity
  8
0
100
AcDbBlockBegin
  2
BLOCK0
 70
     0
 10
0.0
 20
0.0
 30
0.0
  3
BLOCK0
  1

  0
POINT
  5
1D16
330
1D14
100
AcDbEntity
  8
0
100
AcDbPoint
 10
0.0
 20
0.0
 30
0.0
  0
LINE
  5
1D17
330
1D14
100
AcDbEntity
  8
0
  6
PHANTOM
100
AcDbLine
 10
-10.7267856956
 20
-3.5499556581
 30
0.0
 11
-11.1067745192
 21
3.5500199425
 31
0.0
  0
LINE
  5
1D18
330
1D14
100
AcDbEntity
  8
0
  6
PHANTOM
100
AcDbLine
 10
-11.9999628067
 20
3.5500173569
 30
0.0
 11
-11.9999628067
 21
-3.5499725342
 31
0.0
  0
LINE
  5
1D19
330
1D14
100
AcDbEntity
  8
0
  6
PHANTOM
100
AcDbLine
 10
-11.5867696257
 20
-1.6821355769
 30
0.0
 11
-11.9999950014
 21
-1.0613114001
 31
0.0
  0
LINE
  5
1D1A
330
1D14
100
AcDbEntity
  8
0
  6
PHANTOM
100
AcDbLine
 10
-11.2421539666
 20
-1.0208553228
 30
0.0
 11
-11.5867582428
 21
-1.6821337703
 31
0.0
  0
LINE
  5
1D1B
330
1D14
100
AcDbEntity
  8
0
  6
PHANTOM
100
AcDbLine
 10
-11.9999510878
 20
-1.0613013766
 30
0.0
 11
-11.6767734737
 21
-0.000027168065
 31
0.0
  0
LINE
  5
1D1C
330
1D14
100
AcDbEntity
  8
0
  6
PHANTOM
100
AcDbLine
 10
-11.2421631591
 20
-1.020835456
 30
0.0
 11
-11.6768163091
 21
-0.000005265299
 31
0.0
  0
LINE
  5
1D1D
330
1D14
100
AcDbEntity
  8
0
  6
PHANTOM
100
AcDbLine
 10
-10.355695462
 20
-3.5499598208
 30
0.0
 11
-10.7356842856
 21
3.5500157798
 31
0.0
  0
LINE
  5
1D1E
330
1D14
100
AcDbEntity
  8
0
  6
PHANTOM
100
AcDbLine
 10
-11.1067691326
 20
-3.5499537579
 30
0.0
 11
-11.4867579562
 21
3.5500218427
 31
0.0
  0
LINE
  5
1D1F
330
1D14
100
AcDbEntity
  8
0
  6
PHANTOM
100
AcDbLine
 10
-11.4867659019
 20
-3.5499525712
 30
0.0
 11
-11.5867338744
 21
-1.6820814085
 31
0.0
  0
LINE
  5
1D20
330
1D14
100
AcDbEntity
  8
0
  6
PHANTOM
100
AcDbLine
 10
-11.9999584038
 20
-1.06126532
 30
0.0
 11
-11.8667645759
 21
-3.5499514865
 31
0.0
  0
LINE
  5
1D21
330
1D14
100
AcDbEntity
  8
0
  6
PHANTOM
100
AcDbLine
 10
-21.9999542236
 20
0.5000151992
 30
0.0
 11
-21.9999542236
 21
-0.4999847412
 31
0.0
  0
LINE
  5
1D22
330
1D14
100
AcDbEntity
  8
0
  6
PHANTOM
100
AcDbLine
 10
-27.4999030795
 20
-2.6000274927
 30
0.0
 11
-26.8998878041
 21
-2.7000293558
 31
0.0
  0
LINE
  5
1D23
330
1D14
100
AcDbEntity
  8
0
  6
PHANTOM
100
AcDbLine
 10
-27.4999389648
 20
-2.3999786377
 30
0.0
 11
-27.4999389648
 21
-2.5999755859
 31
0.0
  0
LINE
  5
1D24
330
1D14
100
AcDbEntity
  8
0
  6
PHANTOM
100
AcDbLine
 10
-26.8999008878
 20
-2.2999631671
 30
0.0
 11
-27.4999012933
 21
-2.3999613252
 31
0.0
  0
LINE
  5
1D25
330
1D14
100
AcDbEntity
  8
0
  6
PHANTOM
100
AcDbLine
 10
-26.8999328613
 20
-2.2999725342
 30
0.0
 11
-26.8999328613
 21
-2.6999816895
 31
0.0
  0
LINE
  5
1D26
330
1D14
100
AcDbEntity
  8
0
  6
PHANTOM
100
AcDbLine
 10
-21.9999389648
 20
-2.6999816895
 30
0.0
 11
-26.8999328613
 21
-2.6999816895
 31
0.0
  0
LINE
  5
1D27
330
1D14
100
AcDbEntity
  8
0
  6
PHANTOM
100
AcDbLine
 10
-21.9999389648
 20
-2.2999725342
 30
0.0
 11
-26.8999328613
 21
-2.2999725342
 31
0.0
  0
LINE
  5
1D28
330
1D14
100
AcDbEntity
  8
0
  6
PHANTOM
100
AcDbLine
 10
-26.4796600342
 20
-0.1999969482
 30
0.0
 11
-24.5200805664
 21
-0.1999969482
 31
0.0
  0
LINE
  5
1D29
330
1D14
100
AcDbEntity
  8
0
  6
PHANTOM
100
AcDbLine
 10
-26.4796600342
 20
0.2000121474
 30
0.0
 11
-24.5200805664
 21
0.2000121474
 31
0.0
  0
LINE
  5
1D2A
330
1D14
100
AcDbEntity
  8
0
  6
PHANTOM
100
AcDbLine
 10
-20.9999389648
 20
0.5000151992
 30
0.0
 11
-20.9999389648
 21
-0.4999847412
 31
0.0
  0
LINE
  5
1D2B
330
1D14
100
AcDbEntity
  8
0
  6
PHANTOM
100
AcDbLine
 10
-21.9999389648
 20
-0.4999847412
 30
0.0
 11
-21.9999389648
 21
-3.5499725342
 31
0.0
  0
ARC
  5
1D2C
330
1D14
100
AcDbEntity
  8
0
  6
PHANTOM
100
AcDbCircle
 10
-25.4999389648
 20
0.000030517578
 30
0.0
 40
1.0
100
AcDbArc
 50
153.2562763704
 51
206.7435424022
  0
LINE
  5
1D2D
330
1D14
100
AcDbEntity
  8
0
  6
PHANTOM
100
AcDbLine
 10
-26.3928985596
 20
-0.4499969482
 30
0.0
 11
-24.606842041
 21
-0.4499969482
 31
0.0
  0
LINE
  5
1D2E
330
1D14
100
AcDbEntity
  8
0
  6
PHANTOM
100
AcDbLine
 10
-26.3928985596
 20
0.4500121474
 30
0.0
 11
-24.606842041
 21
0.4500121474
 31
0.0
  0
ARC
  5
1D2F
330
1D14
100
AcDbEntity
  8
0
  6
PHANTOM
100
AcDbCircle
 10
-25.4999389648
 20
0.000030517578
 30
0.0
 40
1.0
100
AcDbArc
 50
333.2562952671
 51
386.7436125254
  0
LINE
  5
1D30
330
1D14
100
AcDbEntity
  8
0
  6
PHANTOM
100
AcDbLine
 10
-26.8998837202
 20
-0.9000146302
 30
0.0
 11
-26.8998704708
 21
-0.6928460511
 31
0.0
  0
LINE
  5
1D31
330
1D14
100
AcDbEntity
  8
0
  6
PHANTOM
100
AcDbLine
 10
-26.8998565674
 20
0.9000090957
 30
0.0
 11
-26.8998565674
 21
0.6928405166
 31
0.0
  0
ARC
  5
1D32
330
1D14
100
AcDbEntity
  8
0
  6
PHANTOM
100
AcDbCircle
 10
-26.7999267578
 20
0.000030517578
 30
0.0
 40
0.6999999881
100
AcDbArc
 50
98.2079569433
 51
261.7898400933
  0
LINE
  5
1D33
330
1D14
100
AcDbEntity
  8
0
  6
PHANTOM
100
AcDbLine
 10
-21.9999542236
 20
-0.8999938965
 30
0.0
 11
-26.8998718262
 21
-0.8999938965
 31
0.0
  0
LINE
  5
1D34
330
1D14
100
AcDbEntity
  8
0
  6
PHANTOM
100
AcDbLine
 10
-21.9999542236
 20
0.9000090957
 30
0.0
 11
-26.8998718262
 21
0.9000090957
 31
0.0
  0
LINE
  5
1D35
330
1D14
100
AcDbEntity
  8
0
  6
PHANTOM
100
AcDbLine
 10
-28.9999437594
 20
-0.1000336978
 30
0.0
 11
-28.399928484
 21
-0.2000355609
 31
0.0
  0
LINE
  5
1D36
330
1D14
100
AcDbEntity
  8
0
  6
PHANTOM
100
AcDbLine
 10
-28.9999847412
 20
0.1000060439
 30
0.0
 11
-28.9999847412
 21
-0.099990844727
 31
0.0
  0
LINE
  5
1D37
330
1D14
100
AcDbEntity
  8
0
  6
PHANTOM
100
AcDbLine
 10
-28.3999310143
 20
0.2000218089
 30
0.0
 11
-28.9999314198
 21
0.1000236508
 31
0.0
  0
LINE
  5
1D38
330
1D14
100
AcDbEntity
  8
0
  6
PHANTOM
100
AcDbLine
 10
-27.4998685678
 20
2.3999792073
 30
0.0
 11
-26.8998681985
 21
2.2999807954
 31
0.0
  0
LINE
  5
1D39
330
1D14
100
AcDbEntity
  8
0
  6
PHANTOM
100
AcDbLine
 10
-27.4999389648
 20
2.6000204086
 30
0.0
 11
-27.4999389648
 21
2.4000234604
 31
0.0
  0
LINE
  5
1D3A
330
1D14
100
AcDbEntity
  8
0
  6
PHANTOM
100
AcDbLine
 10
-26.8999099204
 20
2.6999961374
 30
0.0
 11
-27.499925232
 21
2.5999945281
 31
0.0
  0
LINE
  5
1D3B
330
1D14
100
AcDbEntity
  8
0
  6
PHANTOM
100
AcDbLine
 10
-28.3999786377
 20
0.2000121474
 30
0.0
 11
-28.3999786377
 21
-0.1999969482
 31
0.0
  0
LINE
  5
1D3C
330
1D14
100
AcDbEntity
  8
0
  6
PHANTOM
100
AcDbLine
 10
-26.8999328613
 20
2.3000173569
 30
0.0
 11
-26.8999328613
 21
2.7000265121
 31
0.0
  0
LINE
  5
1D3D
330
1D14
100
AcDbEntity
  8
0
  6
PHANTOM
100
AcDbLine
 10
-27.4707489014
 20
-0.1999969482
 30
0.0
 11
-28.3999786377
 21
-0.1999969482
 31
0.0
  0
LINE
  5
1D3E
330
1D14
100
AcDbEntity
  8
0
  6
PHANTOM
100
AcDbLine
 10
-27.4707489014
 20
0.2000121474
 30
0.0
 11
-28.3999786377
 21
0.2000121474
 31
0.0
  0
LINE
  5
1D3F
330
1D14
100
AcDbEntity
  8
0
  6
PHANTOM
100
AcDbLine
 10
-21.9999389648
 20
2.7000265121
 30
0.0
 11
-26.8999328613
 21
2.7000265121
 31
0.0
  0
LINE
  5
1D40
330
1D14
100
AcDbEntity
  8
0
  6
PHANTOM
100
AcDbLine
 10
-21.9999389648
 20
2.3000173569
 30
0.0
 11
-26.8999328613
 21
2.3000173569
 31
0.0
  0
ARC
  5
1D41
330
1D14
100
AcDbEntity
  8
0
  6
PHANTOM
100
AcDbCircle
 10
-23.4999847412
 20
0.000045776367
 30
0.0
 40
2.4999990463
100
AcDbArc
 50
323.1301675772
 51
348.4630284352
  0
ARC
  5
1D42
330
1D14
100
AcDbEntity
  8
0
  6
PHANTOM
100
AcDbCircle
 10
-23.4999847412
 20
0.000045776367
 30
0.0
 40
2.4999990463
100
AcDbArc
 50
11.5369886403
 51
36.8699417058
  0
LINE
  5
1D43
330
1D14
100
AcDbEntity
  8
0
  6
PHANTOM
100
AcDbLine
 10
-21.4999389648
 20
-1.4999847412
 30
0.0
 11
-21.4999389648
 21
-0.4999847412
 31
0.0
  0
LINE
  5
1D44
330
1D14
100
AcDbEntity
  8
0
  6
PHANTOM
100
AcDbLine
 10
-21.4999389648
 20
1.5000143051
 30
0.0
 11
-21.4999389648
 21
0.5000151992
 31
0.0
  0
LINE
  5
1D45
330
1D14
100
AcDbEntity
  8
0
  6
PHANTOM
100
AcDbLine
 10
-21.4999389648
 20
-1.4999847412
 30
0.0
 11
-21.9999389648
 21
-1.4999847412
 31
0.0
  0
LINE
  5
1D46
330
1D14
100
AcDbEntity
  8
0
  6
PHANTOM
100
AcDbLine
 10
-21.4999389648
 20
1.5000143051
 30
0.0
 11
-21.9999389648
 21
1.5000143051
 31
0.0
  0
LINE
  5
1D47
330
1D14
100
AcDbEntity
  8
0
  6
PHANTOM
100
AcDbLine
 10
-19.9999389648
 20
-1.4999847412
 30
0.0
 11
-19.9999389648
 21
-0.4999847412
 31
0.0
  0
LINE
  5
1D48
330
1D14
100
AcDbEntity
  8
0
  6
PHANTOM
100
AcDbLine
 10
-18.7999267578
 20
-1.4999847412
 30
0.0
 11
-18.7999267578
 21
-0.4999847412
 31
0.0
  0
LINE
  5
1D49
330
1D14
100
AcDbEntity
  8
0
  6
PHANTOM
100
AcDbLine
 10
-18.7999267578
 20
1.5000143051
 30
0.0
 11
-18.7999267578
 21
0.5000151992
 31
0.0
  0
LINE
  5
1D4A
330
1D14
100
AcDbEntity
  8
0
  6
PHANTOM
100
AcDbLine
 10
-19.9999389648
 20
1.5000143051
 30
0.0
 11
-19.9999389648
 21
0.5000151992
 31
0.0
  0
LINE
  5
1D4B
330
1D14
100
AcDbEntity
  8
0
  6
PHANTOM
100
AcDbLine
 10
-18.7999267578
 20
-1.4999847412
 30
0.0
 11
-19.9999389648
 21
-1.4999847412
 31
0.0
  0
LINE
  5
1D4C
330
1D14
100
AcDbEntity
  8
0
  6
PHANTOM
100
AcDbLine
 10
-18.7999267578
 20
1.5000143051
 30
0.0
 11
-19.9999389648
 21
1.5000143051
 31
0.0
  0
LINE
  5
1D4D
330
1D14
100
AcDbEntity
  8
0
  6
PHANTOM
100
AcDbLine
 10
-21.9999389648
 20
-0.4999847412
 30
0.0
 11
-17.9999389648
 21
-0.4999847412
 31
0.0
  0
LINE
  5
1D4E
330
1D14
100
AcDbEntity
  8
0
  6
PHANTOM
100
AcDbLine
 10
-21.9999389648
 20
0.5000151992
 30
0.0
 11
-17.9999389648
 21
0.5000151992
 31
0.0
  0
LINE
  5
1D4F
330
1D14
100
AcDbEntity
  8
0
  6
PHANTOM
100
AcDbLine
 10
-21.9999389648
 20
3.5500173569
 30
0.0
 11
-21.9999389648
 21
0.5000151992
 31
0.0
  0
LINE
  5
1D50
330
1D14
100
AcDbEntity
  8
0
  6
PHANTOM
100
AcDbLine
 10
9.0000390086
 20
-3.5500266523
 30
0.0
 11
8.8000322045
 21
-3.7500332372
 31
0.0
  0
LINE
  5
1D51
330
1D14
100
AcDbEntity
  8
0
  6
PHANTOM
100
AcDbLine
 10
8.8000363138
 20
3.7499642512
 30
0.0
 11
9.0000321092
 21
3.5499682367
 31
0.0
  0
LINE
  5
1D52
330
1D14
100
AcDbEntity
  8
0
  6
PHANTOM
100
AcDbLine
 10
8.799987793
 20
-3.7499694824
 30
0.0
 11
5.5
 21
-3.7499694824
 31
0.0
  0
LINE
  5
1D53
330
1D14
100
AcDbEntity
  8
0
  6
PHANTOM
100
AcDbLine
 10
8.799987793
 20
3.7500143051
 30
0.0
 11
5.5
 21
3.7500143051
 31
0.0
  0
LINE
  5
1D54
330
1D14
100
AcDbEntity
  8
0
  6
PHANTOM
100
AcDbLine
 10
9.0
 20
3.5500173569
 30
0.0
 11
9.0
 21
-3.5499725342
 31
0.0
  0
LINE
  5
1D55
330
1D14
100
AcDbEntity
  8
0
  6
PHANTOM
100
AcDbLine
 10
-14.9999475479
 20
1.8000173569
 30
0.0
 11
-16.4999389648
 21
1.8000173569
 31
0.0
  0
LINE
  5
1D56
330
1D14
100
AcDbEntity
  8
0
  6
PHANTOM
100
AcDbLine
 10
-16.4999389648
 20
1.8000173569
 30
0.0
 11
-16.4999389648
 21
1.0000143051
 31
0.0
  0
LINE
  5
1D57
330
1D14
100
AcDbEntity
  8
0
  6
PHANTOM
100
AcDbLine
 10
-14.9999475479
 20
-1.7999725342
 30
0.0
 11
-16.4999389648
 21
-1.7999725342
 31
0.0
  0
LINE
  5
1D58
330
1D14
100
AcDbEntity
  8
0
  6
PHANTOM
100
AcDbLine
 10
-16.4999389648
 20
-0.9999847412
 30
0.0
 11
-16.4999389648
 21
-1.7999725342
 31
0.0
  0
LINE
  5
1D59
330
1D14
100
AcDbEntity
  8
0
  6
PHANTOM
100
AcDbLine
 10
-14.9999475479
 20
-0.9999847412
 30
0.0
 11
-14.9999475479
 21
-1.7999725342
 31
0.0
  0
LINE
  5
1D5A
330
1D14
100
AcDbEntity
  8
0
  6
PHANTOM
100
AcDbLine
 10
-14.9999475479
 20
1.8000173569
 30
0.0
 11
-14.9999475479
 21
1.0000143051
 31
0.0
  0
LINE
  5
1D5B
330
1D14
100
AcDbEntity
  8
0
  6
PHANTOM
100
AcDbLine
 10
-14.9999475479
 20
-0.9999847412
 30
0.0
 11
-16.4999389648
 21
-0.9999847412
 31
0.0
  0
LINE
  5
1D5C
330
1D14
100
AcDbEntity
  8
0
  6
PHANTOM
100
AcDbLine
 10
-14.9999475479
 20
1.0000143051
 30
0.0
 11
-16.4999389648
 21
1.0000143051
 31
0.0
  0
LINE
  5
1D5D
330
1D14
100
AcDbEntity
  8
0
  6
PHANTOM
100
AcDbLine
 10
-6.2999658585
 20
-0.8999785781
 30
0.0
 11
-5.0999832153
 21
-0.8999785781
 31
0.0
  0
LINE
  5
1D5E
330
1D14
100
AcDbEntity
  8
0
  6
PHANTOM
100
AcDbLine
 10
-6.2999658585
 20
-1.7999715805
 30
0.0
 11
-3.9000015259
 21
-1.7999715805
 31
0.0
  0
LINE
  5
1D5F
330
1D14
100
AcDbEntity
  8
0
  6
PHANTOM
100
AcDbLine
 10
-6.2999658585
 20
-2.6999807358
 30
0.0
 11
-2.7000112534
 21
-2.6999807358
 31
0.0
  0
LINE
  5
1D60
330
1D14
100
AcDbEntity
  8
0
  6
PHANTOM
100
AcDbLine
 10
-1.4999990463
 20
0.9000242949
 30
0.0
 11
-2.7000112534
 21
0.9000242949
 31
0.0
  0
LINE
  5
1D61
330
1D14
100
AcDbEntity
  8
0
  6
PHANTOM
100
AcDbLine
 10
-1.4999990463
 20
1.8000164032
 30
0.0
 11
-3.9000015259
 21
1.8000164032
 31
0.0
  0
LINE
  5
1D62
330
1D14
100
AcDbEntity
  8
0
  6
PHANTOM
100
AcDbLine
 10
-1.4999990463
 20
2.7000255585
 30
0.0
 11
-5.0999832153
 21
2.7000255585
 31
0.0
  0
LINE
  5
1D63
330
1D14
100
AcDbEntity
  8
0
  6
PHANTOM
100
AcDbLine
 10
-6.2999658585
 20
-3.5999746323
 30
0.0
 11
-1.4999990463
 21
-3.5999746323
 31
0.0
  0
LINE
  5
1D64
330
1D14
100
AcDbEntity
  8
0
  6
PHANTOM
100
AcDbLine
 10
-1.4999990463
 20
3.600019455
 30
0.0
 11
-6.2999658585
 21
3.600019455
 31
0.0
  0
LINE
  5
1D65
330
1D14
100
AcDbEntity
  8
0
  6
PHANTOM
100
AcDbLine
 10
-6.2999658585
 20
4.5000133514
 30
0.0
 11
-6.2999658585
 21
-4.4999685287
 31
0.0
  0
ARC
  5
1D66
330
1D14
100
AcDbEntity
  8
0
  6
PHANTOM
100
AcDbCircle
 10
-7.299996376
 20
-4.0499572754
 30
0.0
 40
0.1999999881
100
AcDbArc
 50
179.9999093863
 51
269.9998367587
  0
ARC
  5
1D67
330
1D14
100
AcDbEntity
  8
0
  6
PHANTOM
100
AcDbCircle
 10
-7.299996376
 20
-1.7999572754
 30
0.0
 40
0.1999999881
100
AcDbArc
 50
89.9999273724
 51
179.9998001033
  0
ARC
  5
1D68
330
1D14
100
AcDbEntity
  8
0
  6
PHANTOM
100
AcDbCircle
 10
-7.2999973297
 20
1.8000335693
 30
0.0
 40
0.1999999881
100
AcDbArc
 50
179.9999093863
 51
269.9998367587
  0
ARC
  5
1D69
330
1D14
100
AcDbEntity
  8
0
  6
PHANTOM
100
AcDbCircle
 10
-7.2999973297
 20
4.0500335693
 30
0.0
 40
0.1999999881
100
AcDbArc
 50
89.9999273724
 51
179.9998001033
  0
LINE
  5
1D6A
330
1D14
100
AcDbEntity
  8
0
  6
PHANTOM
100
AcDbLine
 10
-7.4999628067
 20
-1.7999715805
 30
0.0
 11
-7.4999628067
 21
-4.0499715805
 31
0.0
  0
LINE
  5
1D6B
330
1D14
100
AcDbEntity
  8
0
  6
PHANTOM
100
AcDbLine
 10
-7.4999628067
 20
1.8000164032
 30
0.0
 11
-7.4999628067
 21
4.0500164032
 31
0.0
  0
LINE
  5
1D6C
330
1D14
100
AcDbEntity
  8
0
  6
PHANTOM
100
AcDbLine
 10
-6.2999658585
 20
-4.2499685287
 30
0.0
 11
-7.2999658585
 21
-4.2499685287
 31
0.0
  0
LINE
  5
1D6D
330
1D14
100
AcDbEntity
  8
0
  6
PHANTOM
100
AcDbLine
 10
-6.2999658585
 20
4.2500133514
 30
0.0
 11
-7.2999658585
 21
4.2500133514
 31
0.0
  0
LINE
  5
1D6E
330
1D14
100
AcDbEntity
  8
0
  6
PHANTOM
100
AcDbLine
 10
-6.2999658585
 20
-1.5999746323
 30
0.0
 11
-7.2999658585
 21
-1.5999746323
 31
0.0
  0
LINE
  5
1D6F
330
1D14
100
AcDbEntity
  8
0
  6
PHANTOM
100
AcDbLine
 10
-6.2999658585
 20
1.600019455
 30
0.0
 11
-7.2999658585
 21
1.600019455
 31
0.0
  0
LINE
  5
1D70
330
1D14
100
AcDbEntity
  8
0
  6
PHANTOM
100
AcDbLine
 10
-1.4999990463
 20
-4.4999685287
 30
0.0
 11
-6.2999658585
 21
-4.4999685287
 31
0.0
  0
LINE
  5
1D71
330
1D14
100
AcDbEntity
  8
0
  6
PHANTOM
100
AcDbLine
 10
-6.2999658585
 20
4.5000133514
 30
0.0
 11
-1.4999990463
 21
4.5000133514
 31
0.0
  0
LINE
  5
1D72
330
1D14
100
AcDbEntity
  8
0
  6
PHANTOM
100
AcDbLine
 10
-1.4999990463
 20
4.5000133514
 30
0.0
 11
-1.4999990463
 21
-4.4999685287
 31
0.0
  0
LINE
  5
1D73
330
1D14
100
AcDbEntity
  8
0
  6
PHANTOM
100
AcDbLine
 10
-21.9999389648
 20
-3.5499725342
 30
0.0
 11
-7.499961853
 21
-3.5499725342
 31
0.0
  0
LINE
  5
1D74
330
1D14
100
AcDbEntity
  8
0
  6
PHANTOM
100
AcDbLine
 10
-21.9999389648
 20
3.5500173569
 30
0.0
 11
-7.499961853
 21
3.5500173569
 31
0.0
  0
LINE
  5
1D75
330
1D14
100
AcDbEntity
  8
0
  6
PHANTOM
100
AcDbLine
 10
-17.9999389648
 20
3.5500173569
 30
0.0
 11
-17.9999389648
 21
-3.5499725342
 31
0.0
  0
LINE
  5
1D76
330
1D14
100
AcDbEntity
  8
0
  6
PHANTOM
100
AcDbLine
 10
-1.4999980927
 20
-3.9999694824
 30
0.0
 11
-1.1999969482
 21
-3.9999694824
 31
0.0
  0
LINE
  5
1D77
330
1D14
100
AcDbEntity
  8
0
  6
PHANTOM
100
AcDbLine
 10
-1.1999969482
 20
4.0000143051
 30
0.0
 11
-1.4999980927
 21
4.0000143051
 31
0.0
  0
LINE
  5
1D78
330
1D14
100
AcDbEntity
  8
0
  6
PHANTOM
100
AcDbLine
 10
5.5000379841
 20
-4.2000207401
 30
0.0
 11
5.2963298667
 21
-4.4037276728
 31
0.0
  0
LINE
  5
1D79
330
1D14
100
AcDbEntity
  8
0
  6
PHANTOM
100
AcDbLine
 10
5.3000653646
 20
4.4036017192
 30
0.0
 11
5.5000252738
 21
4.1962354824
 31
0.0
  0
LINE
  5
1D7A
330
1D14
100
AcDbEntity
  8
0
  6
PHANTOM
100
AcDbLine
 10
5.3000289078
 20
4.4036239127
 30
0.0
 11
0.000009350423
 21
4.4999882551
 31
0.0
  0
LINE
  5
1D7B
330
1D14
100
AcDbEntity
  8
0
  6
PHANTOM
100
AcDbLine
 10
5.5
 20
-4.1999816895
 30
0.0
 11
5.5
 21
4.1962881088
 31
0.0
  0
LINE
  5
1D7C
330
1D14
100
AcDbEntity
  8
0
  6
PHANTOM
100
AcDbLine
 10
-0.000010051206
 20
-4.4999580803
 30
0.0
 11
5.2962942473
 21
-4.4036614462
 31
0.0
  0
LINE
  5
1D7D
330
1D14
100
AcDbEntity
  8
0
  6
PHANTOM
100
AcDbLine
 10
0.0
 20
4.5000143051
 30
0.0
 11
0.0
 21
-4.4999694824
 31
0.0
  0
POINT
  5
1D7E
330
1D14
100
AcDbEntity
  8
0
100
AcDbPoint
 10
1.0
 20
0.0
 30
0.0
  0
POINT
  5
1D7F
330
1D14
100
AcDbEntity
  8
0
100
AcDbPoint
 10
0.0
 20
0.0
 30
0.0
  0
ENDBLK
  5
1E8A
330
1D14
100
AcDbEntity
  8
0
100
AcDbBlockEnd
  0
BLOCK
  5
1E98
330
1E1E
100
AcDbEntity
  8
0
100
AcDbBlockBegin
  2
*D200
 70
     1
 10
0.0
 20
0.0
 30
0.0
  3
*D200
  1

  0
LINE
  5
1E20
330
1E1E
100
AcDbEntity
  8
0
100
AcDbLine
 10
-104.5662994385
 20
55.171875
 30
0.0
 11
-102.6047288772
 21
54.7816943559
 31
0.0
  0
LINE
  5
1E21
330
1E1E
100
AcDbEntity
  8
0
100
AcDbLine
 10
-104.5662994385
 20
55.171875
 30
0.0
 11
-102.6047288772
 21
55.5620556441
 31
0.0
  0
LINE
  5
1E22
330
1E1E
100
AcDbEntity
  8
0
100
AcDbLine
 10
-92.0662841797
 20
55.171875
 30
0.0
 11
-94.027854741
 21
55.5620556441
 31
0.0
  0
LINE
  5
1E23
330
1E1E
100
AcDbEntity
  8
0
100
AcDbLine
 10
-92.0662841797
 20
55.171875
 30
0.0
 11
-94.027854741
 21
54.7816943559
 31
0.0
  0
LINE
  5
1E24
330
1E1E
100
AcDbEntity
  8
0
100
AcDbLine
 10
-104.5662994385
 20
55.171875
 30
0.0
 11
-92.0662841797
 21
55.171875
 31
0.0
  0
LINE
  5
1E25
330
1E1E
100
AcDbEntity
  8
0
  6
GAP
100
AcDbLine
 10
-104.5662994385
 20
62.6318750381
 30
0.0
 11
-104.5662994385
 21
53.671875
 31
0.0
  0
LINE
  5
1E26
330
1E1E
100
AcDbEntity
  8
0
  6
GAP
100
AcDbLine
 10
-92.0662841797
 20
62.9318780899
 30
0.0
 11
-92.0662841797
 21
53.671875
 31
0.0
  0
TEXT
  5
1E27
330
1E1E
100
AcDbEntity
  8
0
100
AcDbText
 10
-102.9820355893
 20
55.7968747616
 30
0.0
 40
2.4999990979
  1
12.5
 41
1.399725927957
 72
     5
 11
-93.6505327701
 21
55.7968747616
 31
0.0
100
AcDbText
  0
ENDBLK
  5
1E99
330
1E1E
100
AcDbEntity
  8
0
100
AcDbBlockEnd
  0
BLOCK
  5
1EA7
330
1E2A
100
AcDbEntity
  8
0
100
AcDbBlockBegin
  2
*D201
 70
     1
 10
0.0
 20
0.0
 30
0.0
  3
*D201
  1

  0
LINE
  5
1E2C
330
1E2A
100
AcDbEntity
  8
0
100
AcDbLine
 10
-40.2702178955
 20
117.1638946533
 30
0.0
 11
-39.8800372514
 21
119.1254652146
 31
0.0
  0
LINE
  5
1E2D
330
1E2A
100
AcDbEntity
  8
0
100
AcDbLine
 10
-40.2702178955
 20
117.1638946533
 30
0.0
 11
-40.6603985396
 21
119.1254652146
 31
0.0
  0
LINE
  5
1E2E
330
1E2A
100
AcDbEntity
  8
0
100
AcDbLine
 10
-40.2702178955
 20
123.1638946533
 30
0.0
 11
-40.6603985396
 21
121.202324092
 31
0.0
  0
LINE
  5
1E2F
330
1E2A
100
AcDbEntity
  8
0
100
AcDbLine
 10
-40.2702178955
 20
123.1638946533
 30
0.0
 11
-39.8800372514
 21
121.202324092
 31
0.0
  0
LINE
  5
1E30
330
1E2A
100
AcDbEntity
  8
0
100
AcDbLine
 10
-40.2702178955
 20
117.1638946533
 30
0.0
 11
-40.2702178955
 21
123.1638946533
 31
0.0
  0
LINE
  5
1E31
330
1E2A
100
AcDbEntity
  8
0
  6
GAP
100
AcDbLine
 10
-43.7302179337
 20
117.1638946533
 30
0.0
 11
-38.7702331543
 21
117.1638946533
 31
0.0
  0
LINE
  5
1E32
330
1E2A
100
AcDbEntity
  8
0
  6
GAP
100
AcDbLine
 10
-44.2170190811
 20
123.1638946533
 30
0.0
 11
-38.7702331543
 21
123.1638946533
 31
0.0
  0
TEXT
  5
1E33
330
1E2A
100
AcDbEntity
  8
0
100
AcDbText
 10
-40.8952176571
 20
119.2481418132
 30
0.0
 40
2.4999990979
  1
6
 50
90.0
 41
1.098903804708
 72
     5
 11
-40.8952176571
 21
121.0796474935
 31
0.0
100
AcDbText
  0
ENDBLK
  5
1EA8
330
1E2A
100
AcDbEntity
  8
0
100
AcDbBlockEnd
  0
BLOCK
  5
1EB6
330
1E36
100
AcDbEntity
  8
0
100
AcDbBlockBegin
  2
*D202
 70
     1
 10
0.0
 20
0.0
 30
0.0
  3
*D202
  1

  0
LINE
  5
1E38
330
1E36
100
AcDbEntity
  8
0
100
AcDbLine
 10
-34.2702178955
 20
117.1638946533
 30
0.0
 11
-33.8800372514
 21
119.1254652146
 31
0.0
  0
LINE
  5
1E39
330
1E36
100
AcDbEntity
  8
0
100
AcDbLine
 10
-34.2702178955
 20
117.1638946533
 30
0.0
 11
-34.6603985396
 21
119.1254652146
 31
0.0
  0
LINE
  5
1E3A
330
1E36
100
AcDbEntity
  8
0
100
AcDbLine
 10
-34.2702178955
 20
125.6638946533
 30
0.0
 11
-34.6603985396
 21
123.702324092
 31
0.0
  0
LINE
  5
1E3B
330
1E36
100
AcDbEntity
  8
0
100
AcDbLine
 10
-34.2702178955
 20
125.6638946533
 30
0.0
 11
-33.8800372514
 21
123.702324092
 31
0.0
  0
LINE
  5
1E3C
330
1E36
100
AcDbEntity
  8
0
100
AcDbLine
 10
-34.2702178955
 20
117.1638946533
 30
0.0
 11
-34.2702178955
 21
125.6638946533
 31
0.0
  0
LINE
  5
1E3D
330
1E36
100
AcDbEntity
  8
0
  6
GAP
100
AcDbLine
 10
-43.7302179337
 20
117.1638946533
 30
0.0
 11
-32.7702331543
 21
117.1638946533
 31
0.0
  0
LINE
  5
1E3E
330
1E36
100
AcDbEntity
  8
0
  6
GAP
100
AcDbLine
 10
-44.0302209854
 20
125.6638946533
 30
0.0
 11
-32.7702331543
 21
125.6638946533
 31
0.0
  0
TEXT
  5
1E3F
330
1E36
100
AcDbEntity
  8
0
100
AcDbText
 10
-34.8952176571
 20
117.9981427669
 30
0.0
 40
2.4999990979
  1
8.5
 50
90.0
 41
1.366301247596
 72
     5
 11
-34.8952176571
 21
124.8296465398
 31
0.0
100
AcDbText
  0
ENDBLK
  5
1EB7
330
1E36
100
AcDbEntity
  8
0
100
AcDbBlockEnd
  0
BLOCK
  5
1EC5
330
1E42
100
AcDbEntity
  8
0
100
AcDbBlockBegin
  2
*D203
 70
     1
 10
0.0
 20
0.0
 30
0.0
  3
*D203
  1

  0
LINE
  5
1E44
330
1E42
100
AcDbEntity
  8
0
100
AcDbLine
 10
-28.2702178955
 20
111.1638946533
 30
0.0
 11
-27.8800372514
 21
113.1254652146
 31
0.0
  0
LINE
  5
1E45
330
1E42
100
AcDbEntity
  8
0
100
AcDbLine
 10
-28.2702178955
 20
111.1638946533
 30
0.0
 11
-28.6603985396
 21
113.1254652146
 31
0.0
  0
LINE
  5
1E46
330
1E42
100
AcDbEntity
  8
0
100
AcDbLine
 10
-28.2702178955
 20
125.6638946533
 30
0.0
 11
-28.6603985396
 21
123.702324092
 31
0.0
  0
LINE
  5
1E47
330
1E42
100
AcDbEntity
  8
0
100
AcDbLine
 10
-28.2702178955
 20
125.6638946533
 30
0.0
 11
-27.8800372514
 21
123.702324092
 31
0.0
  0
LINE
  5
1E48
330
1E42
100
AcDbEntity
  8
0
100
AcDbLine
 10
-28.2702178955
 20
111.1638946533
 30
0.0
 11
-28.2702178955
 21
125.6638946533
 31
0.0
  0
LINE
  5
1E49
330
1E42
100
AcDbEntity
  8
0
  6
GAP
100
AcDbLine
 10
-44.0302209854
 20
111.1638946533
 30
0.0
 11
-26.7702331543
 21
111.1638946533
 31
0.0
  0
LINE
  5
1E4A
330
1E42
100
AcDbEntity
  8
0
  6
GAP
100
AcDbLine
 10
-44.0302209854
 20
125.6638946533
 30
0.0
 11
-26.7702331543
 21
125.6638946533
 31
0.0
  0
TEXT
  5
1E4B
330
1E42
100
AcDbEntity
  8
0
100
AcDbText
 10
-28.8952176571
 20
113.7481432437
 30
0.0
 40
2.4999990979
  1
14.5
 50
90.0
 41
1.399725927972
 72
     5
 11
-28.8952176571
 21
123.079646063
 31
0.0
100
AcDbText
  0
ENDBLK
  5
1EC6
330
1E42
100
AcDbEntity
  8
0
100
AcDbBlockEnd
  0
BLOCK
  5
1ED4
330
1E4E
100
AcDbEntity
  8
0
100
AcDbBlockBegin
  2
*D204
 70
     1
 10
0.0
 20
0.0
 30
0.0
  3
*D204
  1

  0
LINE
  5
1E50
330
1E4E
100
AcDbEntity
  8
0
100
AcDbLine
 10
-56.2702178955
 20
131.6638946533
 30
0.0
 11
-54.3086473342
 21
131.2737140092
 31
0.0
  0
LINE
  5
1E51
330
1E4E
100
AcDbEntity
  8
0
100
AcDbLine
 10
-56.2702178955
 20
131.6638946533
 30
0.0
 11
-54.3086473342
 21
132.0540752975
 31
0.0
  0
LINE
  5
1E52
330
1E4E
100
AcDbEntity
  8
0
100
AcDbLine
 10
-46.2702178955
 20
131.6638946533
 30
0.0
 11
-48.2317884568
 21
132.0540752975
 31
0.0
  0
LINE
  5
1E53
330
1E4E
100
AcDbEntity
  8
0
100
AcDbLine
 10
-46.2702178955
 20
131.6638946533
 30
0.0
 11
-48.2317884568
 21
131.2737140092
 31
0.0
  0
LINE
  5
1E54
330
1E4E
100
AcDbEntity
  8
0
100
AcDbLine
 10
-56.2702178955
 20
131.6638946533
 30
0.0
 11
-46.2702178955
 21
131.6638946533
 31
0.0
  0
LINE
  5
1E55
330
1E4E
100
AcDbEntity
  8
0
  6
GAP
100
AcDbLine
 10
-56.2702178955
 20
127.9038915634
 30
0.0
 11
-56.2702178955
 21
133.1638793945
 31
0.0
  0
LINE
  5
1E56
330
1E4E
100
AcDbEntity
  8
0
  6
GAP
100
AcDbLine
 10
-46.2702178955
 20
127.9038915634
 30
0.0
 11
-46.2702178955
 21
133.1638793945
 31
0.0
  0
TEXT
  5
1E57
330
1E4E
100
AcDbEntity
  8
0
100
AcDbText
 10
-53.4359702588
 20
132.2888944149
 30
0.0
 40
2.4999990979
  1
10
 41
1.433877944137
 72
     5
 11
-49.1044655322
 21
132.2888944149
 31
0.0
100
AcDbText
  0
ENDBLK
  5
1ED5
330
1E4E
100
AcDbEntity
  8
0
100
AcDbBlockEnd
  0
BLOCK
  5
1EE2
330
1E5A
100
AcDbEntity
  8
0
100
AcDbBlockBegin
  2
*D205
 70
     1
 10
0.0
 20
0.0
 30
0.0
  3
*D205
  1

  0
LINE
  5
1E5C
330
1E5A
100
AcDbEntity
  8
0
100
AcDbLine
 10
-104.5662841797
 20
131.6638946533
 30
0.0
 11
-102.6047136184
 21
131.2737140092
 31
0.0
  0
LINE
  5
1E5D
330
1E5A
100
AcDbEntity
  8
0
100
AcDbLine
 10
-104.5662841797
 20
131.6638946533
 30
0.0
 11
-102.6047136184
 21
132.0540752975
 31
0.0
  0
LINE
  5
1E5E
330
1E5A
100
AcDbEntity
  8
0
100
AcDbLine
 10
-83.0662994385
 20
131.6638946533
 30
0.0
 11
-85.0278699998
 21
132.0540752975
 31
0.0
  0
LINE
  5
1E5F
330
1E5A
100
AcDbEntity
  8
0
100
AcDbLine
 10
-83.0662994385
 20
131.6638946533
 30
0.0
 11
-85.0278699998
 21
131.2737140092
 31
0.0
  0
LINE
  5
1E60
330
1E5A
100
AcDbEntity
  8
0
100
AcDbLine
 10
-104.5662841797
 20
131.6638946533
 30
0.0
 11
-83.0662994385
 21
131.6638946533
 31
0.0
  0
LINE
  5
1E61
330
1E5A
100
AcDbEntity
  8
0
  6
GAP
100
AcDbLine
 10
-104.5662841797
 20
128.2038946152
 30
0.0
 11
-104.5662841797
 21
133.1638793945
 31
0.0
  0
LINE
  5
1E62
330
1E5A
100
AcDbEntity
  8
0
  6
GAP
100
AcDbLine
 10
-83.0662994385
 20
128.4038610458
 30
0.0
 11
-83.0662994385
 21
133.1638793945
 31
0.0
  0
TEXT
  5
1E63
330
1E5A
100
AcDbEntity
  8
0
100
AcDbText
 10
-98.4820355893
 20
132.2888944149
 30
0.0
 40
2.4999990979
  1
21.5
 41
1.399725927957
 72
     5
 11
-89.1505327701
 21
132.2888944149
 31
0.0
100
AcDbText
  0
ENDBLK
  5
1EE3
330
1E5A
100
AcDbEntity
  8
0
100
AcDbBlockEnd
  0
BLOCK
  5
1EE4
330
1E7A
100
AcDbEntity
  8
0
100
AcDbBlockBegin
  2
Cadra_attr_4
 70
     2
 10
0.0
 20
0.0
 30
0.0
  3
Cadra_attr_4
  1

  0
TEXT
  5
1E7C
330
1E7A
100
AcDbEntity
  8
0
100
AcDbText
 10
-66.666667
 20
16.0
 30
0.0
 40
5.0
  1
MA4-H00720
 41
0.996154061538
 72
     5
 11
-17.333323
 21
16.0
 31
0.0
100
AcDbText
  0
ATTDEF
  5
1E7D
330
1E7A
100
AcDbEntity
  8
0
100
AcDbText
 10
-41.999993
 20
18.5
 30
0.0
 40
0.156
  1
・^HV  ・
100
AcDbAttributeDefinition
  3

  2
20
 70
     0
  0
ENDBLK
  5
1EE5
330
1E7A
100
AcDbEntity
  8
0
100
AcDbBlockEnd
  0
BLOCK
  5
1EE6
330
1E81
100
AcDbEntity
  8
0
100
AcDbBlockBegin
  2
CADRA_ARROW22_5OPEN
 70
     0
 10
0.0
 20
0.0
 30
0.0
  3
CADRA_ARROW22_5OPEN
  1

  0
LINE
  5
1E83
330
1E81
100
AcDbEntity
  8
0
100
AcDbLine
 10
0.0
 20
0.0
 30
0.0
 11
-0.9807852804
 21
0.195090322
 31
0.0
  0
LINE
  5
1E84
330
1E81
100
AcDbEntity
  8
0
100
AcDbLine
 10
0.0
 20
0.0
 30
0.0
 11
-0.9807852804
 21
-0.195090322
 31
0.0
  0
LINE
  5
1E85
330
1E81
100
AcDbEntity
  8
0
100
AcDbLine
 10
0.0
 20
0.0
 30
0.0
 11
-0.9914448614
 21
0.0
 31
0.0
  0
ENDBLK
  5
1EE7
330
1E81
100
AcDbEntity
  8
0
100
AcDbBlockEnd
  0
BLOCK
  5
1E8C
330
1E8B
100
AcDbEntity
  8
0
100
AcDbBlockBegin
  2
*D208
 70
     1
 10
0.0
 20
0.0
 30
0.0
  3
*D208
  1

  0
LINE
  5
1E8E
330
1E8B
100
AcDbEntity
  8
Layer9$C$L9$V_PV
 62
     0
370
    -2
100
AcDbLine
 10
-104.5662994385
 20
62.6318750381
 30
0.0
 11
-104.5662994385
 21
51.3618750572
 31
0.0
  0
LINE
  5
1E8F
330
1E8B
100
AcDbEntity
  8
Layer9$C$L9$V_PV
 62
     0
370
    -2
100
AcDbLine
 10
-92.0662841797
 20
62.9318780899
 30
0.0
 11
-92.0662841797
 21
51.3618750572
 31
0.0
  0
LINE
  5
1E90
330
1E8B
100
AcDbEntity
  8
Layer9$C$L9$V_PV
 62
     0
370
    -2
100
AcDbLine
 10
-92.0662841797
 20
55.171875
 30
0.0
 11
-72.5662904938
 21
55.171875
 31
0.0
  0
LINE
  5
1E91
330
1E8B
100
AcDbEntity
  8
Layer9$C$L9$V_PV
 62
     0
370
    -2
100
AcDbLine
 10
-102.566299438
 20
55.171875
 30
0.0
 11
-94.0662841802
 21
55.171875
 31
0.0
  0
SOLID
  5
1E92
330
1E8B
100
AcDbEntity
  8
Layer9$C$L9$V_PV
 62
     0
100
AcDbTrace
 10
-102.566299438
 20
55.505208333417
 30
0.0
 11
-102.566299438
 21
54.838541666583
 31
0.0
 12
-104.5662994385
 22
55.171875
 32
0.0
 13
-104.5662994385
 23
55.171875
 33
0.0
  0
SOLID
  5
1E93
330
1E8B
100
AcDbEntity
  8
Layer9$C$L9$V_PV
 62
     0
100
AcDbTrace
 10
-94.0662841802
 20
54.838541666583
 30
0.0
 11
-94.0662841802
 21
55.505208333417
 31
0.0
 12
-92.0662841797
 22
55.171875
 32
0.0
 13
-92.0662841797
 23
55.171875
 33
0.0
  0
MTEXT
  5
1E94
330
1E8B
100
AcDbEntity
  8
Layer9$C$L9$V_PV
 62
     0
100
AcDbMText
 10
-81.3162873365
 20
57.67187409795
 30
0.0
 40
2.4999990979
 41
0.0
 71
     5
 72
     1
  1
\A1;12.512.5
 73
     1
 44
1.0
  0
POINT
  5
1E95
330
1E8B
100
AcDbEntity
  8
DEFPOINTS
 62
     0
100
AcDbPoint
 10
-104.5662994385
 20
65.171875
 30
0.0
  0
POINT
  5
1E96
330
1E8B
100
AcDbEntity
  8
DEFPOINTS
 62
     0
100
AcDbPoint
 10
-92.0662841797
 20
65.4718780518
 30
0.0
  0
POINT
  5
1E97
330
1E8B
100
AcDbEntity
  8
DEFPOINTS
 62
     0
100
AcDbPoint
 10
-92.0662841797
 20
55.171875
 30
0.0
  0
ENDBLK
  5
1E8D
330
1E8B
100
AcDbEntity
  8
0
100
AcDbBlockEnd
  0
BLOCK
  5
1E9B
330
1E9A
100
AcDbEntity
  8
0
100
AcDbBlockBegin
  2
*D209
 70
     1
 10
0.0
 20
0.0
 30
0.0
  3
*D209
  1

  0
LINE
  5
1E9D
330
1E9A
100
AcDbEntity
  8
Layer9$C$L9$V_PV
 62
     0
370
    -2
100
AcDbLine
 10
-43.7302179336
 20
117.1638946533
 30
0.0
 11
-36.4602179527
 21
117.1638946533
 31
0.0
  0
LINE
  5
1E9E
330
1E9A
100
AcDbEntity
  8
Layer9$C$L9$V_PV
 62
     0
370
    -2
100
AcDbLine
 10
-44.2170190811
 20
123.1638946533
 30
0.0
 11
-36.4602179527
 21
123.1638946533
 31
0.0
  0
LINE
  5
1E9F
330
1E9A
100
AcDbEntity
  8
Layer9$C$L9$V_PV
 62
     0
370
    -2
100
AcDbLine
 10
-40.2702178955
 20
125.1638946538
 30
0.0
 11
-40.2702178955
 21
133.592463763286
 31
0.0
  0
LINE
  5
1EA0
330
1E9A
100
AcDbEntity
  8
Layer9$C$L9$V_PV
 62
     0
370
    -2
100
AcDbLine
 10
-40.2702178955
 20
115.1638946528
 30
0.0
 11
-40.2702178955
 21
113.1638946523
 31
0.0
  0
SOLID
  5
1EA1
330
1E9A
100
AcDbEntity
  8
Layer9$C$L9$V_PV
 62
     0
100
AcDbTrace
 10
-39.936884562083
 20
115.1638946528
 30
0.0
 11
-40.603551228917
 21
115.1638946528
 31
0.0
 12
-40.2702178955
 22
117.1638946533
 32
0.0
 13
-40.2702178955
 23
117.1638946533
 33
0.0
  0
SOLID
  5
1EA2
330
1E9A
100
AcDbEntity
  8
Layer9$C$L9$V_PV
 62
     0
100
AcDbTrace
 10
-40.603551228917
 20
125.1638946538
 30
0.0
 11
-39.936884562083
 21
125.1638946538
 31
0.0
 12
-40.2702178955
 22
123.1638946533
 32
0.0
 13
-40.2702178955
 23
123.1638946533
 33
0.0
  0
MTEXT
  5
1EA3
330
1E9A
100
AcDbEntity
  8
Layer9$C$L9$V_PV
 62
     0
100
AcDbMText
 10
-42.77021699345
 20
130.378179208793
 30
0.0
 40
2.4999990979
 41
0.0
 71
     5
 72
     1
  1
\A1;66
 11
0.0
 21
1.0
 31
0.0
 73
     1
 44
1.0
  0
POINT
  5
1EA4
330
1E9A
100
AcDbEntity
  8
DEFPOINTS
 62
     0
100
AcDbPoint
 10
-46.2702178955
 20
117.1638946533
 30
0.0
  0
POINT
  5
1EA5
330
1E9A
100
AcDbEntity
  8
DEFPOINTS
 62
     0
100
AcDbPoint
 10
-46.757019043
 20
123.1638946533
 30
0.0
  0
POINT
  5
1EA6
330
1E9A
100
AcDbEntity
  8
DEFPOINTS
 62
     0
100
AcDbPoint
 10
-40.2702178955
 20
123.1638946533
 30
0.0
  0
ENDBLK
  5
1E9C
330
1E9A
100
AcDbEntity
  8
0
100
AcDbBlockEnd
  0
BLOCK
  5
1EAA
330
1EA9
100
AcDbEntity
  8
0
100
AcDbBlockBegin
  2
*D210
 70
     1
 10
0.0
 20
0.0
 30
0.0
  3
*D210
  1

  0
LINE
  5
1EAC
330
1EA9
100
AcDbEntity
  8
Layer9$C$L9$V_PV
 62
     0
370
    -2
100
AcDbLine
 10
-43.7302179336
 20
117.1638946533
 30
0.0
 11
-30.4602179527
 21
117.1638946533
 31
0.0
  0
LINE
  5
1EAD
330
1EA9
100
AcDbEntity
  8
Layer9$C$L9$V_PV
 62
     0
370
    -2
100
AcDbLine
 10
-44.0302209854
 20
125.6638946533
 30
0.0
 11
-30.4602179527
 21
125.6638946533
 31
0.0
  0
LINE
  5
1EAE
330
1EA9
100
AcDbEntity
  8
Layer9$C$L9$V_PV
 62
     0
370
    -2
100
AcDbLine
 10
-34.2702178955
 20
125.6638946533
 30
0.0
 11
-34.2702178955
 21
141.354365904305
 31
0.0
  0
LINE
  5
1EAF
330
1EA9
100
AcDbEntity
  8
Layer9$C$L9$V_PV
 62
     0
370
    -2
100
AcDbLine
 10
-34.2702178955
 20
119.1638946538
 30
0.0
 11
-34.2702178955
 21
123.6638946528
 31
0.0
  0
SOLID
  5
1EB0
330
1EA9
100
AcDbEntity
  8
Layer9$C$L9$V_PV
 62
     0
100
AcDbTrace
 10
-34.603551228917
 20
119.1638946538
 30
0.0
 11
-33.936884562083
 21
119.1638946538
 31
0.0
 12
-34.2702178955
 22
117.1638946533
 32
0.0
 13
-34.2702178955
 23
117.1638946533
 33
0.0
  0
SOLID
  5
1EB1
330
1EA9
100
AcDbEntity
  8
Layer9$C$L9$V_PV
 62
     0
100
AcDbTrace
 10
-33.936884562083
 20
123.6638946528
 30
0.0
 11
-34.603551228917
 21
123.6638946528
 31
0.0
 12
-34.2702178955
 22
125.6638946533
 32
0.0
 13
-34.2702178955
 23
125.6638946533
 33
0.0
  0
MTEXT
  5
1EB2
330
1EA9
100
AcDbEntity
  8
Layer9$C$L9$V_PV
 62
     0
100
AcDbMText
 10
-36.77021699345
 20
134.509130279052
 30
0.0
 40
2.4999990979
 41
0.0
 71
     5
 72
     1
  1
\A1;8.58.5
 11
0.0
 21
1.0
 31
0.0
 73
     1
 44
1.0
  0
POINT
  5
1EB3
330
1EA9
100
AcDbEntity
  8
DEFPOINTS
 62
     0
100
AcDbPoint
 10
-46.2702178955
 20
117.1638946533
 30
0.0
  0
POINT
  5
1EB4
330
1EA9
100
AcDbEntity
  8
DEFPOINTS
 62
     0
100
AcDbPoint
 10
-46.5702209473
 20
125.6638946533
 30
0.0
  0
POINT
  5
1EB5
330
1EA9
100
AcDbEntity
  8
DEFPOINTS
 62
     0
100
AcDbPoint
 10
-34.2702178955
 20
125.6638946533
 30
0.0
  0
ENDBLK
  5
1EAB
330
1EA9
100
AcDbEntity
  8
0
100
AcDbBlockEnd
  0
BLOCK
  5
1EB9
330
1EB8
100
AcDbEntity
  8
0
100
AcDbBlockBegin
  2
*D211
 70
     1
 10
0.0
 20
0.0
 30
0.0
  3
*D211
  1

  0
LINE
  5
1EBB
330
1EB8
100
AcDbEntity
  8
Layer9$C$L9$V_PV
 62
     0
370
    -2
100
AcDbLine
 10
-44.0302209854
 20
111.1638946533
 30
0.0
 11
-24.4602179527
 21
111.1638946533
 31
0.0
  0
LINE
  5
1EBC
330
1EB8
100
AcDbEntity
  8
Layer9$C$L9$V_PV
 62
     0
370
    -2
100
AcDbLine
 10
-44.0302209854
 20
125.6638946533
 30
0.0
 11
-24.4602179527
 21
125.6638946533
 31
0.0
  0
LINE
  5
1EBD
330
1EB8
100
AcDbEntity
  8
Layer9$C$L9$V_PV
 62
     0
370
    -2
100
AcDbLine
 10
-28.2702178955
 20
125.6638946533
 30
0.0
 11
-28.2702178955
 21
145.1638883392
 31
0.0
  0
LINE
  5
1EBE
330
1EB8
100
AcDbEntity
  8
Layer9$C$L9$V_PV
 62
     0
370
    -2
100
AcDbLine
 10
-28.2702178955
 20
113.1638946538
 30
0.0
 11
-28.2702178955
 21
123.6638946528
 31
0.0
  0
SOLID
  5
1EBF
330
1EB8
100
AcDbEntity
  8
Layer9$C$L9$V_PV
 62
     0
100
AcDbTrace
 10
-28.603551228917
 20
113.1638946538
 30
0.0
 11
-27.936884562083
 21
113.1638946538
 31
0.0
 12
-28.2702178955
 22
111.1638946533
 32
0.0
 13
-28.2702178955
 23
111.1638946533
 33
0.0
  0
SOLID
  5
1EC0
330
1EB8
100
AcDbEntity
  8
Layer9$C$L9$V_PV
 62
     0
100
AcDbTrace
 10
-27.936884562083
 20
123.6638946528
 30
0.0
 11
-28.603551228917
 21
123.6638946528
 31
0.0
 12
-28.2702178955
 22
125.6638946533
 32
0.0
 13
-28.2702178955
 23
125.6638946533
 33
0.0
  0
MTEXT
  5
1EC1
330
1EB8
100
AcDbEntity
  8
Layer9$C$L9$V_PV
 62
     0
100
AcDbMText
 10
-30.77021699345
 20
136.4138914965
 30
0.0
 40
2.4999990979
 41
0.0
 71
     5
 72
     1
  1
\A1;14.514.5
 11
0.0
 21
1.0
 31
0.0
 73
     1
 44
1.0
  0
POINT
  5
1EC2
330
1EB8
100
AcDbEntity
  8
DEFPOINTS
 62
     0
100
AcDbPoint
 10
-46.5702209473
 20
111.1638946533
 30
0.0
  0
POINT
  5
1EC3
330
1EB8
100
AcDbEntity
  8
DEFPOINTS
 62
     0
100
AcDbPoint
 10
-46.5702209473
 20
125.6638946533
 30
0.0
  0
POINT
  5
1EC4
330
1EB8
100
AcDbEntity
  8
DEFPOINTS
 62
     0
100
AcDbPoint
 10
-28.2702178955
 20
125.6638946533
 30
0.0
  0
ENDBLK
  5
1EBA
330
1EB8
100
AcDbEntity
  8
0
100
AcDbBlockEnd
  0
BLOCK
  5
1EC8
330
1EC7
100
AcDbEntity
  8
0
100
AcDbBlockBegin
  2
*D212
 70
     1
 10
0.0
 20
0.0
 30
0.0
  3
*D212
  1

  0
LINE
  5
1ECA
330
1EC7
100
AcDbEntity
  8
Layer9$C$L9$V_PV
 62
     0
370
    -2
100
AcDbLine
 10
-56.2702178955
 20
127.9038915635
 30
0.0
 11
-56.2702178955
 21
135.4738945961
 31
0.0
  0
LINE
  5
1ECB
330
1EC7
100
AcDbEntity
  8
Layer9$C$L9$V_PV
 62
     0
370
    -2
100
AcDbLine
 10
-46.2702178955
 20
127.9038915635
 30
0.0
 11
-46.2702178955
 21
135.4738945961
 31
0.0
  0
LINE
  5
1ECC
330
1EC7
100
AcDbEntity
  8
Layer9$C$L9$V_PV
 62
     0
370
    -2
100
AcDbLine
 10
-46.2702178955
 20
131.6638946533
 30
0.0
 11
-33.913078775029
 21
131.6638946533
 31
0.0
  0
LINE
  5
1ECD
330
1EC7
100
AcDbEntity
  8
Layer9$C$L9$V_PV
 62
     0
370
    -2
100
AcDbLine
 10
-54.270217895
 20
131.6638946533
 30
0.0
 11
-48.270217896
 21
131.6638946533
 31
0.0
  0
SOLID
  5
1ECE
330
1EC7
100
AcDbEntity
  8
Layer9$C$L9$V_PV
 62
     0
100
AcDbTrace
 10
-54.270217895
 20
131.997227986717
 30
0.0
 11
-54.270217895
 21
131.330561319883
 31
0.0
 12
-56.2702178955
 22
131.6638946533
 32
0.0
 13
-56.2702178955
 23
131.6638946533
 33
0.0
  0
SOLID
  5
1ECF
330
1EC7
100
AcDbEntity
  8
Layer9$C$L9$V_PV
 62
     0
100
AcDbTrace
 10
-48.270217896
 20
131.330561319883
 30
0.0
 11
-48.270217896
 21
131.997227986717
 31
0.0
 12
-46.2702178955
 22
131.6638946533
 32
0.0
 13
-46.2702178955
 23
131.6638946533
 33
0.0
  0
MTEXT
  5
1ED0
330
1EC7
100
AcDbEntity
  8
Layer9$C$L9$V_PV
 62
     0
100
AcDbMText
 10
-39.091648335014
 20
134.16389375125
 30
0.0
 40
2.4999990979
 41
0.0
 71
     5
 72
     1
  1
\A1;1010
 73
     1
 44
1.0
  0
POINT
  5
1ED1
330
1EC7
100
AcDbEntity
  8
DEFPOINTS
 62
     0
100
AcDbPoint
 10
-56.2702178955
 20
125.3638916016
 30
0.0
  0
POINT
  5
1ED2
330
1EC7
100
AcDbEntity
  8
DEFPOINTS
 62
     0
100
AcDbPoint
 10
-46.2702178955
 20
125.3638916016
 30
0.0
  0
POINT
  5
1ED3
330
1EC7
100
AcDbEntity
  8
DEFPOINTS
 62
     0
100
AcDbPoint
 10
-46.2702178955
 20
131.6638946533
 30
0.0
  0
ENDBLK
  5
1EC9
330
1EC7
100
AcDbEntity
  8
0
100
AcDbBlockEnd
  0
BLOCK
  5
1ED7
330
1ED6
100
AcDbEntity
  8
0
100
AcDbBlockBegin
  2
*D213
 70
     1
 10
0.0
 20
0.0
 30
0.0
  3
*D213
  1

  0
LINE
  5
1ED9
330
1ED6
100
AcDbEntity
  8
Layer9$C$L9$V_PV
 62
     0
370
    -2
100
AcDbLine
 10
-104.5662841797
 20
128.2038946152
 30
0.0
 11
-104.5662841797
 21
135.4738945961
 31
0.0
  0
LINE
  5
1EDA
330
1ED6
100
AcDbEntity
  8
Layer9$C$L9$V_PV
 62
     0
370
    -2
100
AcDbLine
 10
-83.0662994385
 20
128.4038610459
 30
0.0
 11
-83.0662994385
 21
135.4738945961
 31
0.0
  0
LINE
  5
1EDB
330
1ED6
100
AcDbEntity
  8
Layer9$C$L9$V_PV
 62
     0
370
    -2
100
AcDbLine
 10
-102.5662841792
 20
131.6638946533
 30
0.0
 11
-85.066299439
 21
131.6638946533
 31
0.0
  0
SOLID
  5
1EDC
330
1ED6
100
AcDbEntity
  8
Layer9$C$L9$V_PV
 62
     0
100
AcDbTrace
 10
-102.5662841792
 20
131.997227986717
 30
0.0
 11
-102.5662841792
 21
131.330561319883
 31
0.0
 12
-104.5662841797
 22
131.6638946533
 32
0.0
 13
-104.5662841797
 23
131.6638946533
 33
0.0
  0
SOLID
  5
1EDD
330
1ED6
100
AcDbEntity
  8
Layer9$C$L9$V_PV
 62
     0
100
AcDbTrace
 10
-85.066299439
 20
131.330561319883
 30
0.0
 11
-85.066299439
 21
131.997227986717
 31
0.0
 12
-83.0662994385
 22
131.6638946533
 32
0.0
 13
-83.0662994385
 23
131.6638946533
 33
0.0
  0
MTEXT
  5
1EDE
330
1ED6
100
AcDbEntity
  8
Layer9$C$L9$V_PV
 62
     0
100
AcDbMText
 10
-93.8162918091
 20
134.16389375125
 30
0.0
 40
2.4999990979
 41
0.0
 71
     5
 72
     1
  1
\A1;21.521.5
 73
     1
 44
1.0
  0
POINT
  5
1EDF
330
1ED6
100
AcDbEntity
  8
DEFPOINTS
 62
     0
100
AcDbPoint
 10
-104.5662841797
 20
125.6638946533
 30
0.0
  0
POINT
  5
1EE0
330
1ED6
100
AcDbEntity
  8
DEFPOINTS
 62
     0
100
AcDbPoint
 10
-83.0662994385
 20
125.863861084
 30
0.0
  0
POINT
  5
1EE1
330
1ED6
100
AcDbEntity
  8
DEFPOINTS
 62
     0
100
AcDbPoint
 10
-83.0662994385
 20
131.6638946533
 30
0.0
  0
ENDBLK
  5
1ED8
330
1ED6
100
AcDbEntity
  8
0
100
AcDbBlockEnd
  0
ENDSEC
  0
SECTION
  2
ENTITIES
  0
TEXT
  5
19AF
330
1F
100
AcDbEntity
  8
CMNT
100
AcDbText
 10
-7.397472362376
 20
5.75
 30
0.0
 40
2.5
  1
*
 72
     2
 11
-6.2069961719
 21
5.75
 31
0.0
100
AcDbText
  0
LINE
  5
19BC
330
1F
100
AcDbEntity
  8
GRID
  6
Continuous
 62
   250
100
AcDbLine
 10
-210.0
 20
10.0
 30
0.0
 11
0.0
 21
10.0
 31
0.0
  0
LINE
  5
19BD
330
1F
100
AcDbEntity
  8
GRID
  6
Continuous
100
AcDbLine
 10
-210.0
 20
9.0
 30
0.0
 11
0.0
 21
9.0
 31
0.0
  0
LINE
  5
19BE
330
1F
100
AcDbEntity
  8
GRID
  6
Continuous
100
AcDbLine
 10
-210.0
 20
8.0
 30
0.0
 11
0.0
 21
8.0
 31
0.0
  0
LINE
  5
19BF
330
1F
100
AcDbEntity
  8
GRID
  6
Continuous
100
AcDbLine
 10
-210.0
 20
7.0
 30
0.0
 11
0.0
 21
7.0
 31
0.0
  0
LINE
  5
19C0
330
1F
100
AcDbEntity
  8
GRID
  6
Continuous
100
AcDbLine
 10
-210.0
 20
6.0
 30
0.0
 11
0.0
 21
6.0
 31
0.0
  0
LINE
  5
19C1
330
1F
100
AcDbEntity
  8
GRID
  6
Continuous
100
AcDbLine
 10
-210.0
 20
5.0
 30
0.0
 11
0.0
 21
5.0
 31
0.0
  0
LINE
  5
19C2
330
1F
100
AcDbEntity
  8
GRID
  6
Continuous
100
AcDbLine
 10
-210.0
 20
4.0
 30
0.0
 11
0.0
 21
4.0
 31
0.0
  0
LINE
  5
19C3
330
1F
100
AcDbEntity
  8
GRID
  6
Continuous
100
AcDbLine
 10
-210.0
 20
3.0
 30
0.0
 11
0.0
 21
3.0
 31
0.0
  0
LINE
  5
19C4
330
1F
100
AcDbEntity
  8
GRID
  6
Continuous
100
AcDbLine
 10
-210.0
 20
2.0
 30
0.0
 11
0.0
 21
2.0
 31
0.0
  0
LINE
  5
19C5
330
1F
100
AcDbEntity
  8
GRID
  6
Continuous
100
AcDbLine
 10
-210.0
 20
1.0
 30
0.0
 11
0.0
 21
1.0
 31
0.0
  0
LINE
  5
19C6
330
1F
100
AcDbEntity
  8
GRID
  6
Continuous
 62
   250
100
AcDbLine
 10
-210.0
 20
20.0
 30
0.0
 11
0.0
 21
20.0
 31
0.0
  0
LINE
  5
19C7
330
1F
100
AcDbEntity
  8
GRID
  6
Continuous
100
AcDbLine
 10
-210.0
 20
19.0
 30
0.0
 11
0.0
 21
19.0
 31
0.0
  0
LINE
  5
19C8
330
1F
100
AcDbEntity
  8
GRID
  6
Continuous
100
AcDbLine
 10
-210.0
 20
18.0
 30
0.0
 11
0.0
 21
18.0
 31
0.0
  0
LINE
  5
19C9
330
1F
100
AcDbEntity
  8
GRID
  6
Continuous
100
AcDbLine
 10
-210.0
 20
17.0
 30
0.0
 11
0.0
 21
17.0
 31
0.0
  0
LINE
  5
19CA
330
1F
100
AcDbEntity
  8
GRID
  6
Continuous
100
AcDbLine
 10
-210.0
 20
16.0
 30
0.0
 11
0.0
 21
16.0
 31
0.0
  0
LINE
  5
19CB
330
1F
100
AcDbEntity
  8
GRID
  6
Continuous
100
AcDbLine
 10
-210.0
 20
15.0
 30
0.0
 11
0.0
 21
15.0
 31
0.0
  0
LINE
  5
19CC
330
1F
100
AcDbEntity
  8
GRID
  6
Continuous
100
AcDbLine
 10
-210.0
 20
14.0
 30
0.0
 11
0.0
 21
14.0
 31
0.0
  0
LINE
  5
19CD
330
1F
100
AcDbEntity
  8
GRID
  6
Continuous
100
AcDbLine
 10
-210.0
 20
13.0
 30
0.0
 11
0.0
 21
13.0
 31
0.0
  0
LINE
  5
19CE
330
1F
100
AcDbEntity
  8
GRID
  6
Continuous
100
AcDbLine
 10
-210.0
 20
12.0
 30
0.0
 11
0.0
 21
12.0
 31
0.0
  0
LINE
  5
19CF
330
1F
100
AcDbEntity
  8
GRID
  6
Continuous
100
AcDbLine
 10
-210.0
 20
11.0
 30
0.0
 11
0.0
 21
11.0
 31
0.0
  0
LINE
  5
19D0
330
1F
100
AcDbEntity
  8
GRID
  6
Continuous
 62
   250
100
AcDbLine
 10
-210.0
 20
30.0
 30
0.0
 11
0.0
 21
30.0
 31
0.0
  0
LINE
  5
19D1
330
1F
100
AcDbEntity
  8
GRID
  6
Continuous
100
AcDbLine
 10
-210.0
 20
29.0
 30
0.0
 11
0.0
 21
29.0
 31
0.0
  0
LINE
  5
19D2
330
1F
100
AcDbEntity
  8
GRID
  6
Continuous
100
AcDbLine
 10
-210.0
 20
28.0
 30
0.0
 11
0.0
 21
28.0
 31
0.0
  0
LINE
  5
19D3
330
1F
100
AcDbEntity
  8
GRID
  6
Continuous
100
AcDbLine
 10
-210.0
 20
27.0
 30
0.0
 11
0.0
 21
27.0
 31
0.0
  0
LINE
  5
19D4
330
1F
100
AcDbEntity
  8
GRID
  6
Continuous
100
AcDbLine
 10
-210.0
 20
26.0
 30
0.0
 11
0.0
 21
26.0
 31
0.0
  0
LINE
  5
19D5
330
1F
100
AcDbEntity
  8
GRID
  6
Continuous
100
AcDbLine
 10
-210.0
 20
25.0
 30
0.0
 11
0.0
 21
25.0
 31
0.0
  0
LINE
  5
19D6
330
1F
100
AcDbEntity
  8
GRID
  6
Continuous
100
AcDbLine
 10
-210.0
 20
24.0
 30
0.0
 11
0.0
 21
24.0
 31
0.0
  0
LINE
  5
19D7
330
1F
100
AcDbEntity
  8
GRID
  6
Continuous
100
AcDbLine
 10
-210.0
 20
23.0
 30
0.0
 11
0.0
 21
23.0
 31
0.0
  0
LINE
  5
19D8
330
1F
100
AcDbEntity
  8
GRID
  6
Continuous
100
AcDbLine
 10
-210.0
 20
22.0
 30
0.0
 11
0.0
 21
22.0
 31
0.0
  0
LINE
  5
19D9
330
1F
100
AcDbEntity
  8
GRID
  6
Continuous
100
AcDbLine
 10
-210.0
 20
21.0
 30
0.0
 11
0.0
 21
21.0
 31
0.0
  0
LINE
  5
19DA
330
1F
100
AcDbEntity
  8
GRID
  6
Continuous
 62
   250
100
AcDbLine
 10
-210.0
 20
40.0
 30
0.0
 11
0.0
 21
40.0
 31
0.0
  0
LINE
  5
19DB
330
1F
100
AcDbEntity
  8
GRID
  6
Continuous
100
AcDbLine
 10
-210.0
 20
39.0
 30
0.0
 11
0.0
 21
39.0
 31
0.0
  0
LINE
  5
19DC
330
1F
100
AcDbEntity
  8
GRID
  6
Continuous
100
AcDbLine
 10
-210.0
 20
38.0
 30
0.0
 11
0.0
 21
38.0
 31
0.0
  0
LINE
  5
19DD
330
1F
100
AcDbEntity
  8
GRID
  6
Continuous
100
AcDbLine
 10
-210.0
 20
37.0
 30
0.0
 11
0.0
 21
37.0
 31
0.0
  0
LINE
  5
19DE
330
1F
100
AcDbEntity
  8
GRID
  6
Continuous
100
AcDbLine
 10
-210.0
 20
36.0
 30
0.0
 11
0.0
 21
36.0
 31
0.0
  0
LINE
  5
19DF
330
1F
100
AcDbEntity
  8
GRID
  6
Continuous
100
AcDbLine
 10
-210.0
 20
35.0
 30
0.0
 11
0.0
 21
35.0
 31
0.0
  0
LINE
  5
19E0
330
1F
100
AcDbEntity
  8
GRID
  6
Continuous
100
AcDbLine
 10
-210.0
 20
34.0
 30
0.0
 11
0.0
 21
34.0
 31
0.0
  0
LINE
  5
19E1
330
1F
100
AcDbEntity
  8
GRID
  6
Continuous
100
AcDbLine
 10
-210.0
 20
33.0
 30
0.0
 11
0.0
 21
33.0
 31
0.0
  0
LINE
  5
19E2
330
1F
100
AcDbEntity
  8
GRID
  6
Continuous
100
AcDbLine
 10
-210.0
 20
32.0
 30
0.0
 11
0.0
 21
32.0
 31
0.0
  0
LINE
  5
19E3
330
1F
100
AcDbEntity
  8
GRID
  6
Continuous
100
AcDbLine
 10
-210.0
 20
31.0
 30
0.0
 11
0.0
 21
31.0
 31
0.0
  0
LINE
  5
19E4
330
1F
100
AcDbEntity
  8
GRID
  6
Continuous
 62
   250
100
AcDbLine
 10
-210.0
 20
50.0
 30
0.0
 11
0.0
 21
50.0
 31
0.0
  0
LINE
  5
19E5
330
1F
100
AcDbEntity
  8
GRID
  6
Continuous
100
AcDbLine
 10
-210.0
 20
49.0
 30
0.0
 11
0.0
 21
49.0
 31
0.0
  0
LINE
  5
19E6
330
1F
100
AcDbEntity
  8
GRID
  6
Continuous
100
AcDbLine
 10
-210.0
 20
48.0
 30
0.0
 11
0.0
 21
48.0
 31
0.0
  0
LINE
  5
19E7
330
1F
100
AcDbEntity
  8
GRID
  6
Continuous
100
AcDbLine
 10
-210.0
 20
47.0
 30
0.0
 11
0.0
 21
47.0
 31
0.0
  0
LINE
  5
19E8
330
1F
100
AcDbEntity
  8
GRID
  6
Continuous
100
AcDbLine
 10
-210.0
 20
46.0
 30
0.0
 11
0.0
 21
46.0
 31
0.0
  0
LINE
  5
19E9
330
1F
100
AcDbEntity
  8
GRID
  6
Continuous
100
AcDbLine
 10
-210.0
 20
45.0
 30
0.0
 11
0.0
 21
45.0
 31
0.0
  0
LINE
  5
19EA
330
1F
100
AcDbEntity
  8
GRID
  6
Continuous
100
AcDbLine
 10
-210.0
 20
44.0
 30
0.0
 11
0.0
 21
44.0
 31
0.0
  0
LINE
  5
19EB
330
1F
100
AcDbEntity
  8
GRID
  6
Continuous
100
AcDbLine
 10
-210.0
 20
43.0
 30
0.0
 11
0.0
 21
43.0
 31
0.0
  0
LINE
  5
19EC
330
1F
100
AcDbEntity
  8
GRID
  6
Continuous
100
AcDbLine
 10
-210.0
 20
42.0
 30
0.0
 11
0.0
 21
42.0
 31
0.0
  0
LINE
  5
19ED
330
1F
100
AcDbEntity
  8
GRID
  6
Continuous
100
AcDbLine
 10
-210.0
 20
41.0
 30
0.0
 11
0.0
 21
41.0
 31
0.0
  0
LINE
  5
19EE
330
1F
100
AcDbEntity
  8
GRID
  6
Continuous
 62
   250
100
AcDbLine
 10
-210.0
 20
60.0
 30
0.0
 11
0.0
 21
60.0
 31
0.0
  0
LINE
  5
19EF
330
1F
100
AcDbEntity
  8
GRID
  6
Continuous
100
AcDbLine
 10
-210.0
 20
59.0
 30
0.0
 11
0.0
 21
59.0
 31
0.0
  0
LINE
  5
19F0
330
1F
100
AcDbEntity
  8
GRID
  6
Continuous
100
AcDbLine
 10
-210.0
 20
58.0
 30
0.0
 11
0.0
 21
58.0
 31
0.0
  0
LINE
  5
19F1
330
1F
100
AcDbEntity
  8
GRID
  6
Continuous
100
AcDbLine
 10
-210.0
 20
57.0
 30
0.0
 11
0.0
 21
57.0
 31
0.0
  0
LINE
  5
19F2
330
1F
100
AcDbEntity
  8
GRID
  6
Continuous
100
AcDbLine
 10
-210.0
 20
56.0
 30
0.0
 11
0.0
 21
56.0
 31
0.0
  0
LINE
  5
19F3
330
1F
100
AcDbEntity
  8
GRID
  6
Continuous
100
AcDbLine
 10
-210.0
 20
55.0
 30
0.0
 11
0.0
 21
55.0
 31
0.0
  0
LINE
  5
19F4
330
1F
100
AcDbEntity
  8
GRID
  6
Continuous
100
AcDbLine
 10
-210.0
 20
54.0
 30
0.0
 11
0.0
 21
54.0
 31
0.0
  0
LINE
  5
19F5
330
1F
100
AcDbEntity
  8
GRID
  6
Continuous
100
AcDbLine
 10
-210.0
 20
53.0
 30
0.0
 11
0.0
 21
53.0
 31
0.0
  0
LINE
  5
19F6
330
1F
100
AcDbEntity
  8
GRID
  6
Continuous
100
AcDbLine
 10
-210.0
 20
52.0
 30
0.0
 11
0.0
 21
52.0
 31
0.0
  0
LINE
  5
19F7
330
1F
100
AcDbEntity
  8
GRID
  6
Continuous
100
AcDbLine
 10
-210.0
 20
51.0
 30
0.0
 11
0.0
 21
51.0
 31
0.0
  0
LINE
  5
19F8
330
1F
100
AcDbEntity
  8
GRID
  6
Continuous
 62
   250
100
AcDbLine
 10
-210.0
 20
70.0
 30
0.0
 11
0.0
 21
70.0
 31
0.0
  0
LINE
  5
19F9
330
1F
100
AcDbEntity
  8
GRID
  6
Continuous
100
AcDbLine
 10
-210.0
 20
69.0
 30
0.0
 11
0.0
 21
69.0
 31
0.0
  0
LINE
  5
19FA
330
1F
100
AcDbEntity
  8
GRID
  6
Continuous
100
AcDbLine
 10
-210.0
 20
68.0
 30
0.0
 11
0.0
 21
68.0
 31
0.0
  0
LINE
  5
19FB
330
1F
100
AcDbEntity
  8
GRID
  6
Continuous
100
AcDbLine
 10
-210.0
 20
67.0
 30
0.0
 11
0.0
 21
67.0
 31
0.0
  0
LINE
  5
19FC
330
1F
100
AcDbEntity
  8
GRID
  6
Continuous
100
AcDbLine
 10
-210.0
 20
66.0
 30
0.0
 11
0.0
 21
66.0
 31
0.0
  0
LINE
  5
19FD
330
1F
100
AcDbEntity
  8
GRID
  6
Continuous
100
AcDbLine
 10
-210.0
 20
65.0
 30
0.0
 11
0.0
 21
65.0
 31
0.0
  0
LINE
  5
19FE
330
1F
100
AcDbEntity
  8
GRID
  6
Continuous
100
AcDbLine
 10
-210.0
 20
64.0
 30
0.0
 11
0.0
 21
64.0
 31
0.0
  0
LINE
  5
19FF
330
1F
100
AcDbEntity
  8
GRID
  6
Continuous
100
AcDbLine
 10
-210.0
 20
63.0
 30
0.0
 11
0.0
 21
63.0
 31
0.0
  0
LINE
  5
1A00
330
1F
100
AcDbEntity
  8
GRID
  6
Continuous
100
AcDbLine
 10
-210.0
 20
62.0
 30
0.0
 11
0.0
 21
62.0
 31
0.0
  0
LINE
  5
1A01
330
1F
100
AcDbEntity
  8
GRID
  6
Continuous
100
AcDbLine
 10
-210.0
 20
61.0
 30
0.0
 11
0.0
 21
61.0
 31
0.0
  0
LINE
  5
1A02
330
1F
100
AcDbEntity
  8
GRID
  6
Continuous
 62
   250
100
AcDbLine
 10
-210.0
 20
80.0
 30
0.0
 11
0.0
 21
80.0
 31
0.0
  0
LINE
  5
1A03
330
1F
100
AcDbEntity
  8
GRID
  6
Continuous
100
AcDbLine
 10
-210.0
 20
79.0
 30
0.0
 11
0.0
 21
79.0
 31
0.0
  0
LINE
  5
1A04
330
1F
100
AcDbEntity
  8
GRID
  6
Continuous
100
AcDbLine
 10
-210.0
 20
78.0
 30
0.0
 11
0.0
 21
78.0
 31
0.0
  0
LINE
  5
1A05
330
1F
100
AcDbEntity
  8
GRID
  6
Continuous
100
AcDbLine
 10
-210.0
 20
77.0
 30
0.0
 11
0.0
 21
77.0
 31
0.0
  0
LINE
  5
1A06
330
1F
100
AcDbEntity
  8
GRID
  6
Continuous
100
AcDbLine
 10
-210.0
 20
76.0
 30
0.0
 11
0.0
 21
76.0
 31
0.0
  0
LINE
  5
1A07
330
1F
100
AcDbEntity
  8
GRID
  6
Continuous
100
AcDbLine
 10
-210.0
 20
75.0
 30
0.0
 11
0.0
 21
75.0
 31
0.0
  0
LINE
  5
1A08
330
1F
100
AcDbEntity
  8
GRID
  6
Continuous
100
AcDbLine
 10
-210.0
 20
74.0
 30
0.0
 11
0.0
 21
74.0
 31
0.0
  0
LINE
  5
1A09
330
1F
100
AcDbEntity
  8
GRID
  6
Continuous
100
AcDbLine
 10
-210.0
 20
73.0
 30
0.0
 11
0.0
 21
73.0
 31
0.0
  0
LINE
  5
1A0A
330
1F
100
AcDbEntity
  8
GRID
  6
Continuous
100
AcDbLine
 10
-210.0
 20
72.0
 30
0.0
 11
0.0
 21
72.0
 31
0.0
  0
LINE
  5
1A0B
330
1F
100
AcDbEntity
  8
GRID
  6
Continuous
100
AcDbLine
 10
-210.0
 20
71.0
 30
0.0
 11
0.0
 21
71.0
 31
0.0
  0
LINE
  5
1A0C
330
1F
100
AcDbEntity
  8
GRID
  6
Continuous
 62
   250
100
AcDbLine
 10
-210.0
 20
90.0
 30
0.0
 11
0.0
 21
90.0
 31
0.0
  0
LINE
  5
1A0D
330
1F
100
AcDbEntity
  8
GRID
  6
Continuous
100
AcDbLine
 10
-210.0
 20
89.0
 30
0.0
 11
0.0
 21
89.0
 31
0.0
  0
LINE
  5
1A0E
330
1F
100
AcDbEntity
  8
GRID
  6
Continuous
100
AcDbLine
 10
-210.0
 20
88.0
 30
0.0
 11
0.0
 21
88.0
 31
0.0
  0
LINE
  5
1A0F
330
1F
100
AcDbEntity
  8
GRID
  6
Continuous
100
AcDbLine
 10
-210.0
 20
87.0
 30
0.0
 11
0.0
 21
87.0
 31
0.0
  0
LINE
  5
1A10
330
1F
100
AcDbEntity
  8
GRID
  6
Continuous
100
AcDbLine
 10
-210.0
 20
86.0
 30
0.0
 11
0.0
 21
86.0
 31
0.0
  0
LINE
  5
1A11
330
1F
100
AcDbEntity
  8
GRID
  6
Continuous
100
AcDbLine
 10
-210.0
 20
85.0
 30
0.0
 11
0.0
 21
85.0
 31
0.0
  0
LINE
  5
1A12
330
1F
100
AcDbEntity
  8
GRID
  6
Continuous
100
AcDbLine
 10
-210.0
 20
84.0
 30
0.0
 11
0.0
 21
84.0
 31
0.0
  0
LINE
  5
1A13
330
1F
100
AcDbEntity
  8
GRID
  6
Continuous
100
AcDbLine
 10
-210.0
 20
83.0
 30
0.0
 11
0.0
 21
83.0
 31
0.0
  0
LINE
  5
1A14
330
1F
100
AcDbEntity
  8
GRID
  6
Continuous
100
AcDbLine
 10
-210.0
 20
82.0
 30
0.0
 11
0.0
 21
82.0
 31
0.0
  0
LINE
  5
1A15
330
1F
100
AcDbEntity
  8
GRID
  6
Continuous
100
AcDbLine
 10
-210.0
 20
81.0
 30
0.0
 11
0.0
 21
81.0
 31
0.0
  0
LINE
  5
1A16
330
1F
100
AcDbEntity
  8
GRID
  6
Continuous
 62
   250
100
AcDbLine
 10
-210.0
 20
100.0
 30
0.0
 11
0.0
 21
100.0
 31
0.0
  0
LINE
  5
1A17
330
1F
100
AcDbEntity
  8
GRID
  6
Continuous
100
AcDbLine
 10
-210.0
 20
99.0
 30
0.0
 11
0.0
 21
99.0
 31
0.0
  0
LINE
  5
1A18
330
1F
100
AcDbEntity
  8
GRID
  6
Continuous
100
AcDbLine
 10
-210.0
 20
98.0
 30
0.0
 11
0.0
 21
98.0
 31
0.0
  0
LINE
  5
1A19
330
1F
100
AcDbEntity
  8
GRID
  6
Continuous
100
AcDbLine
 10
-210.0
 20
97.0
 30
0.0
 11
0.0
 21
97.0
 31
0.0
  0
LINE
  5
1A1A
330
1F
100
AcDbEntity
  8
GRID
  6
Continuous
100
AcDbLine
 10
-210.0
 20
96.0
 30
0.0
 11
0.0
 21
96.0
 31
0.0
  0
LINE
  5
1A1B
330
1F
100
AcDbEntity
  8
GRID
  6
Continuous
100
AcDbLine
 10
-210.0
 20
95.0
 30
0.0
 11
0.0
 21
95.0
 31
0.0
  0
LINE
  5
1A1C
330
1F
100
AcDbEntity
  8
GRID
  6
Continuous
100
AcDbLine
 10
-210.0
 20
94.0
 30
0.0
 11
0.0
 21
94.0
 31
0.0
  0
LINE
  5
1A1D
330
1F
100
AcDbEntity
  8
GRID
  6
Continuous
100
AcDbLine
 10
-210.0
 20
93.0
 30
0.0
 11
0.0
 21
93.0
 31
0.0
  0
LINE
  5
1A1E
330
1F
100
AcDbEntity
  8
GRID
  6
Continuous
100
AcDbLine
 10
-210.0
 20
92.0
 30
0.0
 11
0.0
 21
92.0
 31
0.0
  0
LINE
  5
1A1F
330
1F
100
AcDbEntity
  8
GRID
  6
Continuous
100
AcDbLine
 10
-210.0
 20
91.0
 30
0.0
 11
0.0
 21
91.0
 31
0.0
  0
LINE
  5
1A20
330
1F
100
AcDbEntity
  8
GRID
  6
Continuous
 62
   250
100
AcDbLine
 10
-210.0
 20
110.0
 30
0.0
 11
0.0
 21
110.0
 31
0.0
  0
LINE
  5
1A21
330
1F
100
AcDbEntity
  8
GRID
  6
Continuous
100
AcDbLine
 10
-210.0
 20
109.0
 30
0.0
 11
0.0
 21
109.0
 31
0.0
  0
LINE
  5
1A22
330
1F
100
AcDbEntity
  8
GRID
  6
Continuous
100
AcDbLine
 10
-210.0
 20
108.0
 30
0.0
 11
0.0
 21
108.0
 31
0.0
  0
LINE
  5
1A23
330
1F
100
AcDbEntity
  8
GRID
  6
Continuous
100
AcDbLine
 10
-210.0
 20
107.0
 30
0.0
 11
0.0
 21
107.0
 31
0.0
  0
LINE
  5
1A24
330
1F
100
AcDbEntity
  8
GRID
  6
Continuous
100
AcDbLine
 10
-210.0
 20
106.0
 30
0.0
 11
0.0
 21
106.0
 31
0.0
  0
LINE
  5
1A25
330
1F
100
AcDbEntity
  8
GRID
  6
Continuous
100
AcDbLine
 10
-210.0
 20
105.0
 30
0.0
 11
0.0
 21
105.0
 31
0.0
  0
LINE
  5
1A26
330
1F
100
AcDbEntity
  8
GRID
  6
Continuous
100
AcDbLine
 10
-210.0
 20
104.0
 30
0.0
 11
0.0
 21
104.0
 31
0.0
  0
LINE
  5
1A27
330
1F
100
AcDbEntity
  8
GRID
  6
Continuous
100
AcDbLine
 10
-210.0
 20
103.0
 30
0.0
 11
0.0
 21
103.0
 31
0.0
  0
LINE
  5
1A28
330
1F
100
AcDbEntity
  8
GRID
  6
Continuous
100
AcDbLine
 10
-210.0
 20
102.0
 30
0.0
 11
0.0
 21
102.0
 31
0.0
  0
LINE
  5
1A29
330
1F
100
AcDbEntity
  8
GRID
  6
Continuous
100
AcDbLine
 10
-210.0
 20
101.0
 30
0.0
 11
0.0
 21
101.0
 31
0.0
  0
LINE
  5
1A2A
330
1F
100
AcDbEntity
  8
GRID
  6
Continuous
 62
   250
100
AcDbLine
 10
-210.0
 20
120.0
 30
0.0
 11
0.0
 21
120.0
 31
0.0
  0
LINE
  5
1A2B
330
1F
100
AcDbEntity
  8
GRID
  6
Continuous
100
AcDbLine
 10
-210.0
 20
119.0
 30
0.0
 11
0.0
 21
119.0
 31
0.0
  0
LINE
  5
1A2C
330
1F
100
AcDbEntity
  8
GRID
  6
Continuous
100
AcDbLine
 10
-210.0
 20
118.0
 30
0.0
 11
0.0
 21
118.0
 31
0.0
  0
LINE
  5
1A2D
330
1F
100
AcDbEntity
  8
GRID
  6
Continuous
100
AcDbLine
 10
-210.0
 20
117.0
 30
0.0
 11
0.0
 21
117.0
 31
0.0
  0
LINE
  5
1A2E
330
1F
100
AcDbEntity
  8
GRID
  6
Continuous
100
AcDbLine
 10
-210.0
 20
116.0
 30
0.0
 11
0.0
 21
116.0
 31
0.0
  0
LINE
  5
1A2F
330
1F
100
AcDbEntity
  8
GRID
  6
Continuous
100
AcDbLine
 10
-210.0
 20
115.0
 30
0.0
 11
0.0
 21
115.0
 31
0.0
  0
LINE
  5
1A30
330
1F
100
AcDbEntity
  8
GRID
  6
Continuous
100
AcDbLine
 10
-210.0
 20
114.0
 30
0.0
 11
0.0
 21
114.0
 31
0.0
  0
LINE
  5
1A31
330
1F
100
AcDbEntity
  8
GRID
  6
Continuous
100
AcDbLine
 10
-210.0
 20
113.0
 30
0.0
 11
0.0
 21
113.0
 31
0.0
  0
LINE
  5
1A32
330
1F
100
AcDbEntity
  8
GRID
  6
Continuous
100
AcDbLine
 10
-210.0
 20
112.0
 30
0.0
 11
0.0
 21
112.0
 31
0.0
  0
LINE
  5
1A33
330
1F
100
AcDbEntity
  8
GRID
  6
Continuous
100
AcDbLine
 10
-210.0
 20
111.0
 30
0.0
 11
0.0
 21
111.0
 31
0.0
  0
LINE
  5
1A34
330
1F
100
AcDbEntity
  8
GRID
  6
Continuous
 62
   250
100
AcDbLine
 10
-210.0
 20
130.0
 30
0.0
 11
0.0
 21
130.0
 31
0.0
  0
LINE
  5
1A35
330
1F
100
AcDbEntity
  8
GRID
  6
Continuous
100
AcDbLine
 10
-210.0
 20
129.0
 30
0.0
 11
0.0
 21
129.0
 31
0.0
  0
LINE
  5
1A36
330
1F
100
AcDbEntity
  8
GRID
  6
Continuous
100
AcDbLine
 10
-210.0
 20
128.0
 30
0.0
 11
0.0
 21
128.0
 31
0.0
  0
LINE
  5
1A37
330
1F
100
AcDbEntity
  8
GRID
  6
Continuous
100
AcDbLine
 10
-210.0
 20
127.0
 30
0.0
 11
0.0
 21
127.0
 31
0.0
  0
LINE
  5
1A38
330
1F
100
AcDbEntity
  8
GRID
  6
Continuous
100
AcDbLine
 10
-210.0
 20
126.0
 30
0.0
 11
0.0
 21
126.0
 31
0.0
  0
LINE
  5
1A39
330
1F
100
AcDbEntity
  8
GRID
  6
Continuous
100
AcDbLine
 10
-210.0
 20
125.0
 30
0.0
 11
0.0
 21
125.0
 31
0.0
  0
LINE
  5
1A3A
330
1F
100
AcDbEntity
  8
GRID
  6
Continuous
100
AcDbLine
 10
-210.0
 20
124.0
 30
0.0
 11
0.0
 21
124.0
 31
0.0
  0
LINE
  5
1A3B
330
1F
100
AcDbEntity
  8
GRID
  6
Continuous
100
AcDbLine
 10
-210.0
 20
123.0
 30
0.0
 11
0.0
 21
123.0
 31
0.0
  0
LINE
  5
1A3C
330
1F
100
AcDbEntity
  8
GRID
  6
Continuous
100
AcDbLine
 10
-210.0
 20
122.0
 30
0.0
 11
0.0
 21
122.0
 31
0.0
  0
LINE
  5
1A3D
330
1F
100
AcDbEntity
  8
GRID
  6
Continuous
100
AcDbLine
 10
-210.0
 20
121.0
 30
0.0
 11
0.0
 21
121.0
 31
0.0
  0
LINE
  5
1A3E
330
1F
100
AcDbEntity
  8
GRID
  6
Continuous
 62
   250
100
AcDbLine
 10
-210.0
 20
140.0
 30
0.0
 11
0.0
 21
140.0
 31
0.0
  0
LINE
  5
1A3F
330
1F
100
AcDbEntity
  8
GRID
  6
Continuous
100
AcDbLine
 10
-210.0
 20
139.0
 30
0.0
 11
0.0
 21
139.0
 31
0.0
  0
LINE
  5
1A40
330
1F
100
AcDbEntity
  8
GRID
  6
Continuous
100
AcDbLine
 10
-210.0
 20
138.0
 30
0.0
 11
0.0
 21
138.0
 31
0.0
  0
LINE
  5
1A41
330
1F
100
AcDbEntity
  8
GRID
  6
Continuous
100
AcDbLine
 10
-210.0
 20
137.0
 30
0.0
 11
0.0
 21
137.0
 31
0.0
  0
LINE
  5
1A42
330
1F
100
AcDbEntity
  8
GRID
  6
Continuous
100
AcDbLine
 10
-210.0
 20
136.0
 30
0.0
 11
0.0
 21
136.0
 31
0.0
  0
LINE
  5
1A43
330
1F
100
AcDbEntity
  8
GRID
  6
Continuous
100
AcDbLine
 10
-210.0
 20
135.0
 30
0.0
 11
0.0
 21
135.0
 31
0.0
  0
LINE
  5
1A44
330
1F
100
AcDbEntity
  8
GRID
  6
Continuous
100
AcDbLine
 10
-210.0
 20
134.0
 30
0.0
 11
0.0
 21
134.0
 31
0.0
  0
LINE
  5
1A45
330
1F
100
AcDbEntity
  8
GRID
  6
Continuous
100
AcDbLine
 10
-210.0
 20
133.0
 30
0.0
 11
0.0
 21
133.0
 31
0.0
  0
LINE
  5
1A46
330
1F
100
AcDbEntity
  8
GRID
  6
Continuous
100
AcDbLine
 10
-210.0
 20
132.0
 30
0.0
 11
0.0
 21
132.0
 31
0.0
  0
LINE
  5
1A47
330
1F
100
AcDbEntity
  8
GRID
  6
Continuous
100
AcDbLine
 10
-210.0
 20
131.0
 30
0.0
 11
0.0
 21
131.0
 31
0.0
  0
LINE
  5
1A48
330
1F
100
AcDbEntity
  8
GRID
  6
Continuous
 62
   250
100
AcDbLine
 10
-210.0
 20
150.0
 30
0.0
 11
0.0
 21
150.0
 31
0.0
  0
LINE
  5
1A49
330
1F
100
AcDbEntity
  8
GRID
  6
Continuous
100
AcDbLine
 10
-210.0
 20
149.0
 30
0.0
 11
0.0
 21
149.0
 31
0.0
  0
LINE
  5
1A4A
330
1F
100
AcDbEntity
  8
GRID
  6
Continuous
100
AcDbLine
 10
-210.0
 20
148.0
 30
0.0
 11
0.0
 21
148.0
 31
0.0
  0
LINE
  5
1A4B
330
1F
100
AcDbEntity
  8
GRID
  6
Continuous
100
AcDbLine
 10
-210.0
 20
147.0
 30
0.0
 11
0.0
 21
147.0
 31
0.0
  0
LINE
  5
1A4C
330
1F
100
AcDbEntity
  8
GRID
  6
Continuous
100
AcDbLine
 10
-210.0
 20
146.0
 30
0.0
 11
0.0
 21
146.0
 31
0.0
  0
LINE
  5
1A4D
330
1F
100
AcDbEntity
  8
GRID
  6
Continuous
100
AcDbLine
 10
-210.0
 20
145.0
 30
0.0
 11
0.0
 21
145.0
 31
0.0
  0
LINE
  5
1A4E
330
1F
100
AcDbEntity
  8
GRID
  6
Continuous
100
AcDbLine
 10
-210.0
 20
144.0
 30
0.0
 11
0.0
 21
144.0
 31
0.0
  0
LINE
  5
1A4F
330
1F
100
AcDbEntity
  8
GRID
  6
Continuous
100
AcDbLine
 10
-210.0
 20
143.0
 30
0.0
 11
0.0
 21
143.0
 31
0.0
  0
LINE
  5
1A50
330
1F
100
AcDbEntity
  8
GRID
  6
Continuous
100
AcDbLine
 10
-210.0
 20
142.0
 30
0.0
 11
0.0
 21
142.0
 31
0.0
  0
LINE
  5
1A51
330
1F
100
AcDbEntity
  8
GRID
  6
Continuous
100
AcDbLine
 10
-210.0
 20
141.0
 30
0.0
 11
0.0
 21
141.0
 31
0.0
  0
LINE
  5
1A52
330
1F
100
AcDbEntity
  8
GRID
  6
Continuous
 62
   250
100
AcDbLine
 10
-210.0
 20
160.0
 30
0.0
 11
0.0
 21
160.0
 31
0.0
  0
LINE
  5
1A53
330
1F
100
AcDbEntity
  8
GRID
  6
Continuous
100
AcDbLine
 10
-210.0
 20
159.0
 30
0.0
 11
0.0
 21
159.0
 31
0.0
  0
LINE
  5
1A54
330
1F
100
AcDbEntity
  8
GRID
  6
Continuous
100
AcDbLine
 10
-210.0
 20
158.0
 30
0.0
 11
0.0
 21
158.0
 31
0.0
  0
LINE
  5
1A55
330
1F
100
AcDbEntity
  8
GRID
  6
Continuous
100
AcDbLine
 10
-210.0
 20
157.0
 30
0.0
 11
0.0
 21
157.0
 31
0.0
  0
LINE
  5
1A56
330
1F
100
AcDbEntity
  8
GRID
  6
Continuous
100
AcDbLine
 10
-210.0
 20
156.0
 30
0.0
 11
0.0
 21
156.0
 31
0.0
  0
LINE
  5
1A57
330
1F
100
AcDbEntity
  8
GRID
  6
Continuous
100
AcDbLine
 10
-210.0
 20
155.0
 30
0.0
 11
0.0
 21
155.0
 31
0.0
  0
LINE
  5
1A58
330
1F
100
AcDbEntity
  8
GRID
  6
Continuous
100
AcDbLine
 10
-210.0
 20
154.0
 30
0.0
 11
0.0
 21
154.0
 31
0.0
  0
LINE
  5
1A59
330
1F
100
AcDbEntity
  8
GRID
  6
Continuous
100
AcDbLine
 10
-210.0
 20
153.0
 30
0.0
 11
0.0
 21
153.0
 31
0.0
  0
LINE
  5
1A5A
330
1F
100
AcDbEntity
  8
GRID
  6
Continuous
100
AcDbLine
 10
-210.0
 20
152.0
 30
0.0
 11
0.0
 21
152.0
 31
0.0
  0
LINE
  5
1A5B
330
1F
100
AcDbEntity
  8
GRID
  6
Continuous
100
AcDbLine
 10
-210.0
 20
151.0
 30
0.0
 11
0.0
 21
151.0
 31
0.0
  0
LINE
  5
1A5C
330
1F
100
AcDbEntity
  8
GRID
  6
Continuous
 62
   250
100
AcDbLine
 10
-210.0
 20
170.0
 30
0.0
 11
0.0
 21
170.0
 31
0.0
  0
LINE
  5
1A5D
330
1F
100
AcDbEntity
  8
GRID
  6
Continuous
100
AcDbLine
 10
-210.0
 20
169.0
 30
0.0
 11
0.0
 21
169.0
 31
0.0
  0
LINE
  5
1A5E
330
1F
100
AcDbEntity
  8
GRID
  6
Continuous
100
AcDbLine
 10
-210.0
 20
168.0
 30
0.0
 11
0.0
 21
168.0
 31
0.0
  0
LINE
  5
1A5F
330
1F
100
AcDbEntity
  8
GRID
  6
Continuous
100
AcDbLine
 10
-210.0
 20
167.0
 30
0.0
 11
0.0
 21
167.0
 31
0.0
  0
LINE
  5
1A60
330
1F
100
AcDbEntity
  8
GRID
  6
Continuous
100
AcDbLine
 10
-210.0
 20
166.0
 30
0.0
 11
0.0
 21
166.0
 31
0.0
  0
LINE
  5
1A61
330
1F
100
AcDbEntity
  8
GRID
  6
Continuous
100
AcDbLine
 10
-210.0
 20
165.0
 30
0.0
 11
0.0
 21
165.0
 31
0.0
  0
LINE
  5
1A62
330
1F
100
AcDbEntity
  8
GRID
  6
Continuous
100
AcDbLine
 10
-210.0
 20
164.0
 30
0.0
 11
0.0
 21
164.0
 31
0.0
  0
LINE
  5
1A63
330
1F
100
AcDbEntity
  8
GRID
  6
Continuous
100
AcDbLine
 10
-210.0
 20
163.0
 30
0.0
 11
0.0
 21
163.0
 31
0.0
  0
LINE
  5
1A64
330
1F
100
AcDbEntity
  8
GRID
  6
Continuous
100
AcDbLine
 10
-210.0
 20
162.0
 30
0.0
 11
0.0
 21
162.0
 31
0.0
  0
LINE
  5
1A65
330
1F
100
AcDbEntity
  8
GRID
  6
Continuous
100
AcDbLine
 10
-210.0
 20
161.0
 30
0.0
 11
0.0
 21
161.0
 31
0.0
  0
LINE
  5
1A66
330
1F
100
AcDbEntity
  8
GRID
  6
Continuous
 62
   250
100
AcDbLine
 10
-210.0
 20
180.0
 30
0.0
 11
0.0
 21
180.0
 31
0.0
  0
LINE
  5
1A67
330
1F
100
AcDbEntity
  8
GRID
  6
Continuous
100
AcDbLine
 10
-210.0
 20
179.0
 30
0.0
 11
0.0
 21
179.0
 31
0.0
  0
LINE
  5
1A68
330
1F
100
AcDbEntity
  8
GRID
  6
Continuous
100
AcDbLine
 10
-210.0
 20
178.0
 30
0.0
 11
0.0
 21
178.0
 31
0.0
  0
LINE
  5
1A69
330
1F
100
AcDbEntity
  8
GRID
  6
Continuous
100
AcDbLine
 10
-210.0
 20
177.0
 30
0.0
 11
0.0
 21
177.0
 31
0.0
  0
LINE
  5
1A6A
330
1F
100
AcDbEntity
  8
GRID
  6
Continuous
100
AcDbLine
 10
-210.0
 20
176.0
 30
0.0
 11
0.0
 21
176.0
 31
0.0
  0
LINE
  5
1A6B
330
1F
100
AcDbEntity
  8
GRID
  6
Continuous
100
AcDbLine
 10
-210.0
 20
175.0
 30
0.0
 11
0.0
 21
175.0
 31
0.0
  0
LINE
  5
1A6C
330
1F
100
AcDbEntity
  8
GRID
  6
Continuous
100
AcDbLine
 10
-210.0
 20
174.0
 30
0.0
 11
0.0
 21
174.0
 31
0.0
  0
LINE
  5
1A6D
330
1F
100
AcDbEntity
  8
GRID
  6
Continuous
100
AcDbLine
 10
-210.0
 20
173.0
 30
0.0
 11
0.0
 21
173.0
 31
0.0
  0
LINE
  5
1A6E
330
1F
100
AcDbEntity
  8
GRID
  6
Continuous
100
AcDbLine
 10
-210.0
 20
172.0
 30
0.0
 11
0.0
 21
172.0
 31
0.0
  0
LINE
  5
1A6F
330
1F
100
AcDbEntity
  8
GRID
  6
Continuous
100
AcDbLine
 10
-210.0
 20
171.0
 30
0.0
 11
0.0
 21
171.0
 31
0.0
  0
LINE
  5
1A70
330
1F
100
AcDbEntity
  8
GRID
  6
Continuous
 62
   250
100
AcDbLine
 10
-210.0
 20
190.0
 30
0.0
 11
0.0
 21
190.0
 31
0.0
  0
LINE
  5
1A71
330
1F
100
AcDbEntity
  8
GRID
  6
Continuous
100
AcDbLine
 10
-210.0
 20
189.0
 30
0.0
 11
0.0
 21
189.0
 31
0.0
  0
LINE
  5
1A72
330
1F
100
AcDbEntity
  8
GRID
  6
Continuous
100
AcDbLine
 10
-210.0
 20
188.0
 30
0.0
 11
0.0
 21
188.0
 31
0.0
  0
LINE
  5
1A73
330
1F
100
AcDbEntity
  8
GRID
  6
Continuous
100
AcDbLine
 10
-210.0
 20
187.0
 30
0.0
 11
0.0
 21
187.0
 31
0.0
  0
LINE
  5
1A74
330
1F
100
AcDbEntity
  8
GRID
  6
Continuous
100
AcDbLine
 10
-210.0
 20
186.0
 30
0.0
 11
0.0
 21
186.0
 31
0.0
  0
LINE
  5
1A75
330
1F
100
AcDbEntity
  8
GRID
  6
Continuous
100
AcDbLine
 10
-210.0
 20
185.0
 30
0.0
 11
0.0
 21
185.0
 31
0.0
  0
LINE
  5
1A76
330
1F
100
AcDbEntity
  8
GRID
  6
Continuous
100
AcDbLine
 10
-210.0
 20
184.0
 30
0.0
 11
0.0
 21
184.0
 31
0.0
  0
LINE
  5
1A77
330
1F
100
AcDbEntity
  8
GRID
  6
Continuous
100
AcDbLine
 10
-210.0
 20
183.0
 30
0.0
 11
0.0
 21
183.0
 31
0.0
  0
LINE
  5
1A78
330
1F
100
AcDbEntity
  8
GRID
  6
Continuous
100
AcDbLine
 10
-210.0
 20
182.0
 30
0.0
 11
0.0
 21
182.0
 31
0.0
  0
LINE
  5
1A79
330
1F
100
AcDbEntity
  8
GRID
  6
Continuous
100
AcDbLine
 10
-210.0
 20
181.0
 30
0.0
 11
0.0
 21
181.0
 31
0.0
  0
LINE
  5
1A7A
330
1F
100
AcDbEntity
  8
GRID
  6
Continuous
 62
   250
100
AcDbLine
 10
-210.0
 20
200.0
 30
0.0
 11
0.0
 21
200.0
 31
0.0
  0
LINE
  5
1A7B
330
1F
100
AcDbEntity
  8
GRID
  6
Continuous
100
AcDbLine
 10
-210.0
 20
199.0
 30
0.0
 11
0.0
 21
199.0
 31
0.0
  0
LINE
  5
1A7C
330
1F
100
AcDbEntity
  8
GRID
  6
Continuous
100
AcDbLine
 10
-210.0
 20
198.0
 30
0.0
 11
0.0
 21
198.0
 31
0.0
  0
LINE
  5
1A7D
330
1F
100
AcDbEntity
  8
GRID
  6
Continuous
100
AcDbLine
 10
-210.0
 20
197.0
 30
0.0
 11
0.0
 21
197.0
 31
0.0
  0
LINE
  5
1A7E
330
1F
100
AcDbEntity
  8
GRID
  6
Continuous
100
AcDbLine
 10
-210.0
 20
196.0
 30
0.0
 11
0.0
 21
196.0
 31
0.0
  0
LINE
  5
1A7F
330
1F
100
AcDbEntity
  8
GRID
  6
Continuous
100
AcDbLine
 10
-210.0
 20
195.0
 30
0.0
 11
0.0
 21
195.0
 31
0.0
  0
LINE
  5
1A80
330
1F
100
AcDbEntity
  8
GRID
  6
Continuous
100
AcDbLine
 10
-210.0
 20
194.0
 30
0.0
 11
0.0
 21
194.0
 31
0.0
  0
LINE
  5
1A81
330
1F
100
AcDbEntity
  8
GRID
  6
Continuous
100
AcDbLine
 10
-210.0
 20
193.0
 30
0.0
 11
0.0
 21
193.0
 31
0.0
  0
LINE
  5
1A82
330
1F
100
AcDbEntity
  8
GRID
  6
Continuous
100
AcDbLine
 10
-210.0
 20
192.0
 30
0.0
 11
0.0
 21
192.0
 31
0.0
  0
LINE
  5
1A83
330
1F
100
AcDbEntity
  8
GRID
  6
Continuous
100
AcDbLine
 10
-210.0
 20
191.0
 30
0.0
 11
0.0
 21
191.0
 31
0.0
  0
LINE
  5
1A84
330
1F
100
AcDbEntity
  8
GRID
  6
Continuous
 62
   250
100
AcDbLine
 10
-210.0
 20
210.0
 30
0.0
 11
0.0
 21
210.0
 31
0.0
  0
LINE
  5
1A85
330
1F
100
AcDbEntity
  8
GRID
  6
Continuous
100
AcDbLine
 10
-210.0
 20
209.0
 30
0.0
 11
0.0
 21
209.0
 31
0.0
  0
LINE
  5
1A86
330
1F
100
AcDbEntity
  8
GRID
  6
Continuous
100
AcDbLine
 10
-210.0
 20
208.0
 30
0.0
 11
0.0
 21
208.0
 31
0.0
  0
LINE
  5
1A87
330
1F
100
AcDbEntity
  8
GRID
  6
Continuous
100
AcDbLine
 10
-210.0
 20
207.0
 30
0.0
 11
0.0
 21
207.0
 31
0.0
  0
LINE
  5
1A88
330
1F
100
AcDbEntity
  8
GRID
  6
Continuous
100
AcDbLine
 10
-210.0
 20
206.0
 30
0.0
 11
0.0
 21
206.0
 31
0.0
  0
LINE
  5
1A89
330
1F
100
AcDbEntity
  8
GRID
  6
Continuous
100
AcDbLine
 10
-210.0
 20
205.0
 30
0.0
 11
0.0
 21
205.0
 31
0.0
  0
LINE
  5
1A8A
330
1F
100
AcDbEntity
  8
GRID
  6
Continuous
100
AcDbLine
 10
-210.0
 20
204.0
 30
0.0
 11
0.0
 21
204.0
 31
0.0
  0
LINE
  5
1A8B
330
1F
100
AcDbEntity
  8
GRID
  6
Continuous
100
AcDbLine
 10
-210.0
 20
203.0
 30
0.0
 11
0.0
 21
203.0
 31
0.0
  0
LINE
  5
1A8C
330
1F
100
AcDbEntity
  8
GRID
  6
Continuous
100
AcDbLine
 10
-210.0
 20
202.0
 30
0.0
 11
0.0
 21
202.0
 31
0.0
  0
LINE
  5
1A8D
330
1F
100
AcDbEntity
  8
GRID
  6
Continuous
100
AcDbLine
 10
-210.0
 20
201.0
 30
0.0
 11
0.0
 21
201.0
 31
0.0
  0
LINE
  5
1A8E
330
1F
100
AcDbEntity
  8
GRID
  6
Continuous
 62
   250
100
AcDbLine
 10
-210.0
 20
220.0
 30
0.0
 11
0.0
 21
220.0
 31
0.0
  0
LINE
  5
1A8F
330
1F
100
AcDbEntity
  8
GRID
  6
Continuous
100
AcDbLine
 10
-210.0
 20
219.0
 30
0.0
 11
0.0
 21
219.0
 31
0.0
  0
LINE
  5
1A90
330
1F
100
AcDbEntity
  8
GRID
  6
Continuous
100
AcDbLine
 10
-210.0
 20
218.0
 30
0.0
 11
0.0
 21
218.0
 31
0.0
  0
LINE
  5
1A91
330
1F
100
AcDbEntity
  8
GRID
  6
Continuous
100
AcDbLine
 10
-210.0
 20
217.0
 30
0.0
 11
0.0
 21
217.0
 31
0.0
  0
LINE
  5
1A92
330
1F
100
AcDbEntity
  8
GRID
  6
Continuous
100
AcDbLine
 10
-210.0
 20
216.0
 30
0.0
 11
0.0
 21
216.0
 31
0.0
  0
LINE
  5
1A93
330
1F
100
AcDbEntity
  8
GRID
  6
Continuous
100
AcDbLine
 10
-210.0
 20
215.0
 30
0.0
 11
0.0
 21
215.0
 31
0.0
  0
LINE
  5
1A94
330
1F
100
AcDbEntity
  8
GRID
  6
Continuous
100
AcDbLine
 10
-210.0
 20
214.0
 30
0.0
 11
0.0
 21
214.0
 31
0.0
  0
LINE
  5
1A95
330
1F
100
AcDbEntity
  8
GRID
  6
Continuous
100
AcDbLine
 10
-210.0
 20
213.0
 30
0.0
 11
0.0
 21
213.0
 31
0.0
  0
LINE
  5
1A96
330
1F
100
AcDbEntity
  8
GRID
  6
Continuous
100
AcDbLine
 10
-210.0
 20
212.0
 30
0.0
 11
0.0
 21
212.0
 31
0.0
  0
LINE
  5
1A97
330
1F
100
AcDbEntity
  8
GRID
  6
Continuous
100
AcDbLine
 10
-210.0
 20
211.0
 30
0.0
 11
0.0
 21
211.0
 31
0.0
  0
LINE
  5
1A98
330
1F
100
AcDbEntity
  8
GRID
  6
Continuous
 62
   250
100
AcDbLine
 10
-210.0
 20
230.0
 30
0.0
 11
0.0
 21
230.0
 31
0.0
  0
LINE
  5
1A99
330
1F
100
AcDbEntity
  8
GRID
  6
Continuous
100
AcDbLine
 10
-210.0
 20
229.0
 30
0.0
 11
0.0
 21
229.0
 31
0.0
  0
LINE
  5
1A9A
330
1F
100
AcDbEntity
  8
GRID
  6
Continuous
100
AcDbLine
 10
-210.0
 20
228.0
 30
0.0
 11
0.0
 21
228.0
 31
0.0
  0
LINE
  5
1A9B
330
1F
100
AcDbEntity
  8
GRID
  6
Continuous
100
AcDbLine
 10
-210.0
 20
227.0
 30
0.0
 11
0.0
 21
227.0
 31
0.0
  0
LINE
  5
1A9C
330
1F
100
AcDbEntity
  8
GRID
  6
Continuous
100
AcDbLine
 10
-210.0
 20
226.0
 30
0.0
 11
0.0
 21
226.0
 31
0.0
  0
LINE
  5
1A9D
330
1F
100
AcDbEntity
  8
GRID
  6
Continuous
100
AcDbLine
 10
-210.0
 20
225.0
 30
0.0
 11
0.0
 21
225.0
 31
0.0
  0
LINE
  5
1A9E
330
1F
100
AcDbEntity
  8
GRID
  6
Continuous
100
AcDbLine
 10
-210.0
 20
224.0
 30
0.0
 11
0.0
 21
224.0
 31
0.0
  0
LINE
  5
1A9F
330
1F
100
AcDbEntity
  8
GRID
  6
Continuous
100
AcDbLine
 10
-210.0
 20
223.0
 30
0.0
 11
0.0
 21
223.0
 31
0.0
  0
LINE
  5
1AA0
330
1F
100
AcDbEntity
  8
GRID
  6
Continuous
100
AcDbLine
 10
-210.0
 20
222.0
 30
0.0
 11
0.0
 21
222.0
 31
0.0
  0
LINE
  5
1AA1
330
1F
100
AcDbEntity
  8
GRID
  6
Continuous
100
AcDbLine
 10
-210.0
 20
221.0
 30
0.0
 11
0.0
 21
221.0
 31
0.0
  0
LINE
  5
1AA2
330
1F
100
AcDbEntity
  8
GRID
  6
Continuous
 62
   250
100
AcDbLine
 10
-210.0
 20
240.0
 30
0.0
 11
0.0
 21
240.0
 31
0.0
  0
LINE
  5
1AA3
330
1F
100
AcDbEntity
  8
GRID
  6
Continuous
100
AcDbLine
 10
-210.0
 20
239.0
 30
0.0
 11
0.0
 21
239.0
 31
0.0
  0
LINE
  5
1AA4
330
1F
100
AcDbEntity
  8
GRID
  6
Continuous
100
AcDbLine
 10
-210.0
 20
238.0
 30
0.0
 11
0.0
 21
238.0
 31
0.0
  0
LINE
  5
1AA5
330
1F
100
AcDbEntity
  8
GRID
  6
Continuous
100
AcDbLine
 10
-210.0
 20
237.0
 30
0.0
 11
0.0
 21
237.0
 31
0.0
  0
LINE
  5
1AA6
330
1F
100
AcDbEntity
  8
GRID
  6
Continuous
100
AcDbLine
 10
-210.0
 20
236.0
 30
0.0
 11
0.0
 21
236.0
 31
0.0
  0
LINE
  5
1AA7
330
1F
100
AcDbEntity
  8
GRID
  6
Continuous
100
AcDbLine
 10
-210.0
 20
235.0
 30
0.0
 11
0.0
 21
235.0
 31
0.0
  0
LINE
  5
1AA8
330
1F
100
AcDbEntity
  8
GRID
  6
Continuous
100
AcDbLine
 10
-210.0
 20
234.0
 30
0.0
 11
0.0
 21
234.0
 31
0.0
  0
LINE
  5
1AA9
330
1F
100
AcDbEntity
  8
GRID
  6
Continuous
100
AcDbLine
 10
-210.0
 20
233.0
 30
0.0
 11
0.0
 21
233.0
 31
0.0
  0
LINE
  5
1AAA
330
1F
100
AcDbEntity
  8
GRID
  6
Continuous
100
AcDbLine
 10
-210.0
 20
232.0
 30
0.0
 11
0.0
 21
232.0
 31
0.0
  0
LINE
  5
1AAB
330
1F
100
AcDbEntity
  8
GRID
  6
Continuous
100
AcDbLine
 10
-210.0
 20
231.0
 30
0.0
 11
0.0
 21
231.0
 31
0.0
  0
LINE
  5
1AAC
330
1F
100
AcDbEntity
  8
GRID
  6
Continuous
 62
   250
100
AcDbLine
 10
-210.0
 20
250.0
 30
0.0
 11
0.0
 21
250.0
 31
0.0
  0
LINE
  5
1AAD
330
1F
100
AcDbEntity
  8
GRID
  6
Continuous
100
AcDbLine
 10
-210.0
 20
249.0
 30
0.0
 11
0.0
 21
249.0
 31
0.0
  0
LINE
  5
1AAE
330
1F
100
AcDbEntity
  8
GRID
  6
Continuous
100
AcDbLine
 10
-210.0
 20
248.0
 30
0.0
 11
0.0
 21
248.0
 31
0.0
  0
LINE
  5
1AAF
330
1F
100
AcDbEntity
  8
GRID
  6
Continuous
100
AcDbLine
 10
-210.0
 20
247.0
 30
0.0
 11
0.0
 21
247.0
 31
0.0
  0
LINE
  5
1AB0
330
1F
100
AcDbEntity
  8
GRID
  6
Continuous
100
AcDbLine
 10
-210.0
 20
246.0
 30
0.0
 11
0.0
 21
246.0
 31
0.0
  0
LINE
  5
1AB1
330
1F
100
AcDbEntity
  8
GRID
  6
Continuous
100
AcDbLine
 10
-210.0
 20
245.0
 30
0.0
 11
0.0
 21
245.0
 31
0.0
  0
LINE
  5
1AB2
330
1F
100
AcDbEntity
  8
GRID
  6
Continuous
100
AcDbLine
 10
-210.0
 20
244.0
 30
0.0
 11
0.0
 21
244.0
 31
0.0
  0
LINE
  5
1AB3
330
1F
100
AcDbEntity
  8
GRID
  6
Continuous
100
AcDbLine
 10
-210.0
 20
243.0
 30
0.0
 11
0.0
 21
243.0
 31
0.0
  0
LINE
  5
1AB4
330
1F
100
AcDbEntity
  8
GRID
  6
Continuous
100
AcDbLine
 10
-210.0
 20
242.0
 30
0.0
 11
0.0
 21
242.0
 31
0.0
  0
LINE
  5
1AB5
330
1F
100
AcDbEntity
  8
GRID
  6
Continuous
100
AcDbLine
 10
-210.0
 20
241.0
 30
0.0
 11
0.0
 21
241.0
 31
0.0
  0
LINE
  5
1AB6
330
1F
100
AcDbEntity
  8
GRID
  6
Continuous
 62
   250
100
AcDbLine
 10
-210.0
 20
260.0
 30
0.0
 11
0.0
 21
260.0
 31
0.0
  0
LINE
  5
1AB7
330
1F
100
AcDbEntity
  8
GRID
  6
Continuous
100
AcDbLine
 10
-210.0
 20
259.0
 30
0.0
 11
0.0
 21
259.0
 31
0.0
  0
LINE
  5
1AB8
330
1F
100
AcDbEntity
  8
GRID
  6
Continuous
100
AcDbLine
 10
-210.0
 20
258.0
 30
0.0
 11
0.0
 21
258.0
 31
0.0
  0
LINE
  5
1AB9
330
1F
100
AcDbEntity
  8
GRID
  6
Continuous
100
AcDbLine
 10
-210.0
 20
257.0
 30
0.0
 11
0.0
 21
257.0
 31
0.0
  0
LINE
  5
1ABA
330
1F
100
AcDbEntity
  8
GRID
  6
Continuous
100
AcDbLine
 10
-210.0
 20
256.0
 30
0.0
 11
0.0
 21
256.0
 31
0.0
  0
LINE
  5
1ABB
330
1F
100
AcDbEntity
  8
GRID
  6
Continuous
100
AcDbLine
 10
-210.0
 20
255.0
 30
0.0
 11
0.0
 21
255.0
 31
0.0
  0
LINE
  5
1ABC
330
1F
100
AcDbEntity
  8
GRID
  6
Continuous
100
AcDbLine
 10
-210.0
 20
254.0
 30
0.0
 11
0.0
 21
254.0
 31
0.0
  0
LINE
  5
1ABD
330
1F
100
AcDbEntity
  8
GRID
  6
Continuous
100
AcDbLine
 10
-210.0
 20
253.0
 30
0.0
 11
0.0
 21
253.0
 31
0.0
  0
LINE
  5
1ABE
330
1F
100
AcDbEntity
  8
GRID
  6
Continuous
100
AcDbLine
 10
-210.0
 20
252.0
 30
0.0
 11
0.0
 21
252.0
 31
0.0
  0
LINE
  5
1ABF
330
1F
100
AcDbEntity
  8
GRID
  6
Continuous
100
AcDbLine
 10
-210.0
 20
251.0
 30
0.0
 11
0.0
 21
251.0
 31
0.0
  0
LINE
  5
1AC0
330
1F
100
AcDbEntity
  8
GRID
  6
Continuous
 62
   250
100
AcDbLine
 10
-210.0
 20
270.0
 30
0.0
 11
0.0
 21
270.0
 31
0.0
  0
LINE
  5
1AC1
330
1F
100
AcDbEntity
  8
GRID
  6
Continuous
100
AcDbLine
 10
-210.0
 20
269.0
 30
0.0
 11
0.0
 21
269.0
 31
0.0
  0
LINE
  5
1AC2
330
1F
100
AcDbEntity
  8
GRID
  6
Continuous
100
AcDbLine
 10
-210.0
 20
268.0
 30
0.0
 11
0.0
 21
268.0
 31
0.0
  0
LINE
  5
1AC3
330
1F
100
AcDbEntity
  8
GRID
  6
Continuous
100
AcDbLine
 10
-210.0
 20
267.0
 30
0.0
 11
0.0
 21
267.0
 31
0.0
  0
LINE
  5
1AC4
330
1F
100
AcDbEntity
  8
GRID
  6
Continuous
100
AcDbLine
 10
-210.0
 20
266.0
 30
0.0
 11
0.0
 21
266.0
 31
0.0
  0
LINE
  5
1AC5
330
1F
100
AcDbEntity
  8
GRID
  6
Continuous
100
AcDbLine
 10
-210.0
 20
265.0
 30
0.0
 11
0.0
 21
265.0
 31
0.0
  0
LINE
  5
1AC6
330
1F
100
AcDbEntity
  8
GRID
  6
Continuous
100
AcDbLine
 10
-210.0
 20
264.0
 30
0.0
 11
0.0
 21
264.0
 31
0.0
  0
LINE
  5
1AC7
330
1F
100
AcDbEntity
  8
GRID
  6
Continuous
100
AcDbLine
 10
-210.0
 20
263.0
 30
0.0
 11
0.0
 21
263.0
 31
0.0
  0
LINE
  5
1AC8
330
1F
100
AcDbEntity
  8
GRID
  6
Continuous
100
AcDbLine
 10
-210.0
 20
262.0
 30
0.0
 11
0.0
 21
262.0
 31
0.0
  0
LINE
  5
1AC9
330
1F
100
AcDbEntity
  8
GRID
  6
Continuous
100
AcDbLine
 10
-210.0
 20
261.0
 30
0.0
 11
0.0
 21
261.0
 31
0.0
  0
LINE
  5
1ACA
330
1F
100
AcDbEntity
  8
GRID
  6
Continuous
 62
   250
100
AcDbLine
 10
-210.0
 20
280.0
 30
0.0
 11
0.0
 21
280.0
 31
0.0
  0
LINE
  5
1ACB
330
1F
100
AcDbEntity
  8
GRID
  6
Continuous
100
AcDbLine
 10
-210.0
 20
279.0
 30
0.0
 11
0.0
 21
279.0
 31
0.0
  0
LINE
  5
1ACC
330
1F
100
AcDbEntity
  8
GRID
  6
Continuous
100
AcDbLine
 10
-210.0
 20
278.0
 30
0.0
 11
0.0
 21
278.0
 31
0.0
  0
LINE
  5
1ACD
330
1F
100
AcDbEntity
  8
GRID
  6
Continuous
100
AcDbLine
 10
-210.0
 20
277.0
 30
0.0
 11
0.0
 21
277.0
 31
0.0
  0
LINE
  5
1ACE
330
1F
100
AcDbEntity
  8
GRID
  6
Continuous
100
AcDbLine
 10
-210.0
 20
276.0
 30
0.0
 11
0.0
 21
276.0
 31
0.0
  0
LINE
  5
1ACF
330
1F
100
AcDbEntity
  8
GRID
  6
Continuous
100
AcDbLine
 10
-210.0
 20
275.0
 30
0.0
 11
0.0
 21
275.0
 31
0.0
  0
LINE
  5
1AD0
330
1F
100
AcDbEntity
  8
GRID
  6
Continuous
100
AcDbLine
 10
-210.0
 20
274.0
 30
0.0
 11
0.0
 21
274.0
 31
0.0
  0
LINE
  5
1AD1
330
1F
100
AcDbEntity
  8
GRID
  6
Continuous
100
AcDbLine
 10
-210.0
 20
273.0
 30
0.0
 11
0.0
 21
273.0
 31
0.0
  0
LINE
  5
1AD2
330
1F
100
AcDbEntity
  8
GRID
  6
Continuous
100
AcDbLine
 10
-210.0
 20
272.0
 30
0.0
 11
0.0
 21
272.0
 31
0.0
  0
LINE
  5
1AD3
330
1F
100
AcDbEntity
  8
GRID
  6
Continuous
100
AcDbLine
 10
-210.0
 20
271.0
 30
0.0
 11
0.0
 21
271.0
 31
0.0
  0
LINE
  5
1AD4
330
1F
100
AcDbEntity
  8
GRID
  6
Continuous
 62
   250
100
AcDbLine
 10
-210.0
 20
290.0
 30
0.0
 11
0.0
 21
290.0
 31
0.0
  0
LINE
  5
1AD5
330
1F
100
AcDbEntity
  8
GRID
  6
Continuous
100
AcDbLine
 10
-210.0
 20
289.0
 30
0.0
 11
0.0
 21
289.0
 31
0.0
  0
LINE
  5
1AD6
330
1F
100
AcDbEntity
  8
GRID
  6
Continuous
100
AcDbLine
 10
-210.0
 20
288.0
 30
0.0
 11
0.0
 21
288.0
 31
0.0
  0
LINE
  5
1AD7
330
1F
100
AcDbEntity
  8
GRID
  6
Continuous
100
AcDbLine
 10
-210.0
 20
287.0
 30
0.0
 11
0.0
 21
287.0
 31
0.0
  0
LINE
  5
1AD8
330
1F
100
AcDbEntity
  8
GRID
  6
Continuous
100
AcDbLine
 10
-210.0
 20
286.0
 30
0.0
 11
0.0
 21
286.0
 31
0.0
  0
LINE
  5
1AD9
330
1F
100
AcDbEntity
  8
GRID
  6
Continuous
100
AcDbLine
 10
-210.0
 20
285.0
 30
0.0
 11
0.0
 21
285.0
 31
0.0
  0
LINE
  5
1ADA
330
1F
100
AcDbEntity
  8
GRID
  6
Continuous
100
AcDbLine
 10
-210.0
 20
284.0
 30
0.0
 11
0.0
 21
284.0
 31
0.0
  0
LINE
  5
1ADB
330
1F
100
AcDbEntity
  8
GRID
  6
Continuous
100
AcDbLine
 10
-210.0
 20
283.0
 30
0.0
 11
0.0
 21
283.0
 31
0.0
  0
LINE
  5
1ADC
330
1F
100
AcDbEntity
  8
GRID
  6
Continuous
100
AcDbLine
 10
-210.0
 20
282.0
 30
0.0
 11
0.0
 21
282.0
 31
0.0
  0
LINE
  5
1ADD
330
1F
100
AcDbEntity
  8
GRID
  6
Continuous
100
AcDbLine
 10
-210.0
 20
281.0
 30
0.0
 11
0.0
 21
281.0
 31
0.0
  0
LINE
  5
1AE2
330
1F
100
AcDbEntity
  8
GRID
  6
Continuous
100
AcDbLine
 10
-210.0
 20
296.0
 30
0.0
 11
0.0
 21
296.0
 31
0.0
  0
LINE
  5
1AE3
330
1F
100
AcDbEntity
  8
GRID
  6
Continuous
100
AcDbLine
 10
-210.0
 20
295.0
 30
0.0
 11
0.0
 21
295.0
 31
0.0
  0
LINE
  5
1AE4
330
1F
100
AcDbEntity
  8
GRID
  6
Continuous
100
AcDbLine
 10
-210.0
 20
294.0
 30
0.0
 11
0.0
 21
294.0
 31
0.0
  0
LINE
  5
1AE5
330
1F
100
AcDbEntity
  8
GRID
  6
Continuous
100
AcDbLine
 10
-210.0
 20
293.0
 30
0.0
 11
0.0
 21
293.0
 31
0.0
  0
LINE
  5
1AE6
330
1F
100
AcDbEntity
  8
GRID
  6
Continuous
100
AcDbLine
 10
-210.0
 20
292.0
 30
0.0
 11
0.0
 21
292.0
 31
0.0
  0
LINE
  5
1AE7
330
1F
100
AcDbEntity
  8
GRID
  6
Continuous
100
AcDbLine
 10
-210.0
 20
291.0
 30
0.0
 11
0.0
 21
291.0
 31
0.0
  0
LINE
  5
1AE8
330
1F
100
AcDbEntity
  8
GRID
  6
Continuous
 62
   250
100
AcDbLine
 10
-10.0
 20
0.0
 30
0.0
 11
-10.0
 21
297.0
 31
0.0
  0
LINE
  5
1AE9
330
1F
100
AcDbEntity
  8
GRID
  6
Continuous
100
AcDbLine
 10
-9.0
 20
0.0
 30
0.0
 11
-9.0
 21
297.0
 31
0.0
  0
LINE
  5
1AEA
330
1F
100
AcDbEntity
  8
GRID
  6
Continuous
100
AcDbLine
 10
-8.0
 20
0.0
 30
0.0
 11
-8.0
 21
297.0
 31
0.0
  0
LINE
  5
1AEB
330
1F
100
AcDbEntity
  8
GRID
  6
Continuous
100
AcDbLine
 10
-7.0
 20
0.0
 30
0.0
 11
-7.0
 21
297.0
 31
0.0
  0
LINE
  5
1AEC
330
1F
100
AcDbEntity
  8
GRID
  6
Continuous
100
AcDbLine
 10
-6.0
 20
0.0
 30
0.0
 11
-6.0
 21
297.0
 31
0.0
  0
LINE
  5
1AED
330
1F
100
AcDbEntity
  8
GRID
  6
Continuous
100
AcDbLine
 10
-5.0
 20
0.0
 30
0.0
 11
-5.0
 21
297.0
 31
0.0
  0
LINE
  5
1AEE
330
1F
100
AcDbEntity
  8
GRID
  6
Continuous
100
AcDbLine
 10
-4.0
 20
0.0
 30
0.0
 11
-4.0
 21
297.0
 31
0.0
  0
LINE
  5
1AEF
330
1F
100
AcDbEntity
  8
GRID
  6
Continuous
100
AcDbLine
 10
-3.0
 20
0.0
 30
0.0
 11
-3.0
 21
297.0
 31
0.0
  0
LINE
  5
1AF0
330
1F
100
AcDbEntity
  8
GRID
  6
Continuous
100
AcDbLine
 10
-2.0
 20
0.0
 30
0.0
 11
-2.0
 21
297.0
 31
0.0
  0
LINE
  5
1AF1
330
1F
100
AcDbEntity
  8
GRID
  6
Continuous
100
AcDbLine
 10
-1.0
 20
0.0
 30
0.0
 11
-1.0
 21
297.0
 31
0.0
  0
LINE
  5
1AF2
330
1F
100
AcDbEntity
  8
GRID
  6
Continuous
 62
   250
100
AcDbLine
 10
-20.0
 20
0.0
 30
0.0
 11
-20.0
 21
297.0
 31
0.0
  0
LINE
  5
1AF3
330
1F
100
AcDbEntity
  8
GRID
  6
Continuous
100
AcDbLine
 10
-19.0
 20
0.0
 30
0.0
 11
-19.0
 21
297.0
 31
0.0
  0
LINE
  5
1AF4
330
1F
100
AcDbEntity
  8
GRID
  6
Continuous
100
AcDbLine
 10
-18.0
 20
0.0
 30
0.0
 11
-18.0
 21
297.0
 31
0.0
  0
LINE
  5
1AF5
330
1F
100
AcDbEntity
  8
GRID
  6
Continuous
100
AcDbLine
 10
-17.0
 20
0.0
 30
0.0
 11
-17.0
 21
297.0
 31
0.0
  0
LINE
  5
1AF6
330
1F
100
AcDbEntity
  8
GRID
  6
Continuous
100
AcDbLine
 10
-16.0
 20
0.0
 30
0.0
 11
-16.0
 21
297.0
 31
0.0
  0
LINE
  5
1AF7
330
1F
100
AcDbEntity
  8
GRID
  6
Continuous
100
AcDbLine
 10
-15.0
 20
0.0
 30
0.0
 11
-15.0
 21
297.0
 31
0.0
  0
LINE
  5
1AF8
330
1F
100
AcDbEntity
  8
GRID
  6
Continuous
100
AcDbLine
 10
-14.0
 20
0.0
 30
0.0
 11
-14.0
 21
297.0
 31
0.0
  0
LINE
  5
1AF9
330
1F
100
AcDbEntity
  8
GRID
  6
Continuous
100
AcDbLine
 10
-13.0
 20
0.0
 30
0.0
 11
-13.0
 21
297.0
 31
0.0
  0
LINE
  5
1AFA
330
1F
100
AcDbEntity
  8
GRID
  6
Continuous
100
AcDbLine
 10
-12.0
 20
0.0
 30
0.0
 11
-12.0
 21
297.0
 31
0.0
  0
LINE
  5
1AFB
330
1F
100
AcDbEntity
  8
GRID
  6
Continuous
100
AcDbLine
 10
-11.0
 20
0.0
 30
0.0
 11
-11.0
 21
297.0
 31
0.0
  0
LINE
  5
1AFC
330
1F
100
AcDbEntity
  8
GRID
  6
Continuous
 62
   250
100
AcDbLine
 10
-30.0
 20
0.0
 30
0.0
 11
-30.0
 21
297.0
 31
0.0
  0
LINE
  5
1AFD
330
1F
100
AcDbEntity
  8
GRID
  6
Continuous
100
AcDbLine
 10
-29.0
 20
0.0
 30
0.0
 11
-29.0
 21
297.0
 31
0.0
  0
LINE
  5
1AFE
330
1F
100
AcDbEntity
  8
GRID
  6
Continuous
100
AcDbLine
 10
-28.0
 20
0.0
 30
0.0
 11
-28.0
 21
297.0
 31
0.0
  0
LINE
  5
1AFF
330
1F
100
AcDbEntity
  8
GRID
  6
Continuous
100
AcDbLine
 10
-27.0
 20
0.0
 30
0.0
 11
-27.0
 21
297.0
 31
0.0
  0
LINE
  5
1B00
330
1F
100
AcDbEntity
  8
GRID
  6
Continuous
100
AcDbLine
 10
-26.0
 20
0.0
 30
0.0
 11
-26.0
 21
297.0
 31
0.0
  0
LINE
  5
1B01
330
1F
100
AcDbEntity
  8
GRID
  6
Continuous
100
AcDbLine
 10
-25.0
 20
0.0
 30
0.0
 11
-25.0
 21
297.0
 31
0.0
  0
LINE
  5
1B02
330
1F
100
AcDbEntity
  8
GRID
  6
Continuous
100
AcDbLine
 10
-24.0
 20
0.0
 30
0.0
 11
-24.0
 21
297.0
 31
0.0
  0
LINE
  5
1B03
330
1F
100
AcDbEntity
  8
GRID
  6
Continuous
100
AcDbLine
 10
-23.0
 20
0.0
 30
0.0
 11
-23.0
 21
297.0
 31
0.0
  0
LINE
  5
1B04
330
1F
100
AcDbEntity
  8
GRID
  6
Continuous
100
AcDbLine
 10
-22.0
 20
0.0
 30
0.0
 11
-22.0
 21
297.0
 31
0.0
  0
LINE
  5
1B05
330
1F
100
AcDbEntity
  8
GRID
  6
Continuous
100
AcDbLine
 10
-21.0
 20
0.0
 30
0.0
 11
-21.0
 21
297.0
 31
0.0
  0
LINE
  5
1B06
330
1F
100
AcDbEntity
  8
GRID
  6
Continuous
 62
   250
100
AcDbLine
 10
-40.0
 20
0.0
 30
0.0
 11
-40.0
 21
297.0
 31
0.0
  0
LINE
  5
1B07
330
1F
100
AcDbEntity
  8
GRID
  6
Continuous
100
AcDbLine
 10
-39.0
 20
0.0
 30
0.0
 11
-39.0
 21
297.0
 31
0.0
  0
LINE
  5
1B08
330
1F
100
AcDbEntity
  8
GRID
  6
Continuous
100
AcDbLine
 10
-38.0
 20
0.0
 30
0.0
 11
-38.0
 21
297.0
 31
0.0
  0
LINE
  5
1B09
330
1F
100
AcDbEntity
  8
GRID
  6
Continuous
100
AcDbLine
 10
-37.0
 20
0.0
 30
0.0
 11
-37.0
 21
297.0
 31
0.0
  0
LINE
  5
1B0A
330
1F
100
AcDbEntity
  8
GRID
  6
Continuous
100
AcDbLine
 10
-36.0
 20
0.0
 30
0.0
 11
-36.0
 21
297.0
 31
0.0
  0
LINE
  5
1B0B
330
1F
100
AcDbEntity
  8
GRID
  6
Continuous
100
AcDbLine
 10
-35.0
 20
0.0
 30
0.0
 11
-35.0
 21
297.0
 31
0.0
  0
LINE
  5
1B0C
330
1F
100
AcDbEntity
  8
GRID
  6
Continuous
100
AcDbLine
 10
-34.0
 20
0.0
 30
0.0
 11
-34.0
 21
297.0
 31
0.0
  0
LINE
  5
1B0D
330
1F
100
AcDbEntity
  8
GRID
  6
Continuous
100
AcDbLine
 10
-33.0
 20
0.0
 30
0.0
 11
-33.0
 21
297.0
 31
0.0
  0
LINE
  5
1B0E
330
1F
100
AcDbEntity
  8
GRID
  6
Continuous
100
AcDbLine
 10
-32.0
 20
0.0
 30
0.0
 11
-32.0
 21
297.0
 31
0.0
  0
LINE
  5
1B0F
330
1F
100
AcDbEntity
  8
GRID
  6
Continuous
100
AcDbLine
 10
-31.0
 20
0.0
 30
0.0
 11
-31.0
 21
297.0
 31
0.0
  0
LINE
  5
1B10
330
1F
100
AcDbEntity
  8
GRID
  6
Continuous
 62
   250
100
AcDbLine
 10
-50.0
 20
0.0
 30
0.0
 11
-50.0
 21
297.0
 31
0.0
  0
LINE
  5
1B11
330
1F
100
AcDbEntity
  8
GRID
  6
Continuous
100
AcDbLine
 10
-49.0
 20
0.0
 30
0.0
 11
-49.0
 21
297.0
 31
0.0
  0
LINE
  5
1B12
330
1F
100
AcDbEntity
  8
GRID
  6
Continuous
100
AcDbLine
 10
-48.0
 20
0.0
 30
0.0
 11
-48.0
 21
297.0
 31
0.0
  0
LINE
  5
1B13
330
1F
100
AcDbEntity
  8
GRID
  6
Continuous
100
AcDbLine
 10
-47.0
 20
0.0
 30
0.0
 11
-47.0
 21
297.0
 31
0.0
  0
LINE
  5
1B14
330
1F
100
AcDbEntity
  8
GRID
  6
Continuous
100
AcDbLine
 10
-46.0
 20
0.0
 30
0.0
 11
-46.0
 21
297.0
 31
0.0
  0
LINE
  5
1B15
330
1F
100
AcDbEntity
  8
GRID
  6
Continuous
100
AcDbLine
 10
-45.0
 20
0.0
 30
0.0
 11
-45.0
 21
297.0
 31
0.0
  0
LINE
  5
1B16
330
1F
100
AcDbEntity
  8
GRID
  6
Continuous
100
AcDbLine
 10
-44.0
 20
0.0
 30
0.0
 11
-44.0
 21
297.0
 31
0.0
  0
LINE
  5
1B17
330
1F
100
AcDbEntity
  8
GRID
  6
Continuous
100
AcDbLine
 10
-43.0
 20
0.0
 30
0.0
 11
-43.0
 21
297.0
 31
0.0
  0
LINE
  5
1B18
330
1F
100
AcDbEntity
  8
GRID
  6
Continuous
100
AcDbLine
 10
-42.0
 20
0.0
 30
0.0
 11
-42.0
 21
297.0
 31
0.0
  0
LINE
  5
1B19
330
1F
100
AcDbEntity
  8
GRID
  6
Continuous
100
AcDbLine
 10
-41.0
 20
0.0
 30
0.0
 11
-41.0
 21
297.0
 31
0.0
  0
LINE
  5
1B1A
330
1F
100
AcDbEntity
  8
GRID
  6
Continuous
 62
   250
100
AcDbLine
 10
-60.0
 20
0.0
 30
0.0
 11
-60.0
 21
297.0
 31
0.0
  0
LINE
  5
1B1B
330
1F
100
AcDbEntity
  8
GRID
  6
Continuous
100
AcDbLine
 10
-59.0
 20
0.0
 30
0.0
 11
-59.0
 21
297.0
 31
0.0
  0
LINE
  5
1B1C
330
1F
100
AcDbEntity
  8
GRID
  6
Continuous
100
AcDbLine
 10
-58.0
 20
0.0
 30
0.0
 11
-58.0
 21
297.0
 31
0.0
  0
LINE
  5
1B1D
330
1F
100
AcDbEntity
  8
GRID
  6
Continuous
100
AcDbLine
 10
-57.0
 20
0.0
 30
0.0
 11
-57.0
 21
297.0
 31
0.0
  0
LINE
  5
1B1E
330
1F
100
AcDbEntity
  8
GRID
  6
Continuous
100
AcDbLine
 10
-56.0
 20
0.0
 30
0.0
 11
-56.0
 21
297.0
 31
0.0
  0
LINE
  5
1B1F
330
1F
100
AcDbEntity
  8
GRID
  6
Continuous
100
AcDbLine
 10
-55.0
 20
0.0
 30
0.0
 11
-55.0
 21
297.0
 31
0.0
  0
LINE
  5
1B20
330
1F
100
AcDbEntity
  8
GRID
  6
Continuous
100
AcDbLine
 10
-54.0
 20
0.0
 30
0.0
 11
-54.0
 21
297.0
 31
0.0
  0
LINE
  5
1B21
330
1F
100
AcDbEntity
  8
GRID
  6
Continuous
100
AcDbLine
 10
-53.0
 20
0.0
 30
0.0
 11
-53.0
 21
297.0
 31
0.0
  0
LINE
  5
1B22
330
1F
100
AcDbEntity
  8
GRID
  6
Continuous
100
AcDbLine
 10
-52.0
 20
0.0
 30
0.0
 11
-52.0
 21
297.0
 31
0.0
  0
LINE
  5
1B23
330
1F
100
AcDbEntity
  8
GRID
  6
Continuous
100
AcDbLine
 10
-51.0
 20
0.0
 30
0.0
 11
-51.0
 21
297.0
 31
0.0
  0
LINE
  5
1B24
330
1F
100
AcDbEntity
  8
GRID
  6
Continuous
 62
   250
100
AcDbLine
 10
-70.0
 20
0.0
 30
0.0
 11
-70.0
 21
297.0
 31
0.0
  0
LINE
  5
1B25
330
1F
100
AcDbEntity
  8
GRID
  6
Continuous
100
AcDbLine
 10
-69.0
 20
0.0
 30
0.0
 11
-69.0
 21
297.0
 31
0.0
  0
LINE
  5
1B26
330
1F
100
AcDbEntity
  8
GRID
  6
Continuous
100
AcDbLine
 10
-68.0
 20
0.0
 30
0.0
 11
-68.0
 21
297.0
 31
0.0
  0
LINE
  5
1B27
330
1F
100
AcDbEntity
  8
GRID
  6
Continuous
100
AcDbLine
 10
-67.0
 20
0.0
 30
0.0
 11
-67.0
 21
297.0
 31
0.0
  0
LINE
  5
1B28
330
1F
100
AcDbEntity
  8
GRID
  6
Continuous
100
AcDbLine
 10
-66.0
 20
0.0
 30
0.0
 11
-66.0
 21
297.0
 31
0.0
  0
LINE
  5
1B29
330
1F
100
AcDbEntity
  8
GRID
  6
Continuous
100
AcDbLine
 10
-65.0
 20
0.0
 30
0.0
 11
-65.0
 21
297.0
 31
0.0
  0
LINE
  5
1B2A
330
1F
100
AcDbEntity
  8
GRID
  6
Continuous
100
AcDbLine
 10
-64.0
 20
0.0
 30
0.0
 11
-64.0
 21
297.0
 31
0.0
  0
LINE
  5
1B2B
330
1F
100
AcDbEntity
  8
GRID
  6
Continuous
100
AcDbLine
 10
-63.0
 20
0.0
 30
0.0
 11
-63.0
 21
297.0
 31
0.0
  0
LINE
  5
1B2C
330
1F
100
AcDbEntity
  8
GRID
  6
Continuous
100
AcDbLine
 10
-62.0
 20
0.0
 30
0.0
 11
-62.0
 21
297.0
 31
0.0
  0
LINE
  5
1B2D
330
1F
100
AcDbEntity
  8
GRID
  6
Continuous
100
AcDbLine
 10
-61.0
 20
0.0
 30
0.0
 11
-61.0
 21
297.0
 31
0.0
  0
LINE
  5
1B2E
330
1F
100
AcDbEntity
  8
GRID
  6
Continuous
 62
   250
100
AcDbLine
 10
-80.0
 20
0.0
 30
0.0
 11
-80.0
 21
297.0
 31
0.0
  0
LINE
  5
1B2F
330
1F
100
AcDbEntity
  8
GRID
  6
Continuous
100
AcDbLine
 10
-79.0
 20
0.0
 30
0.0
 11
-79.0
 21
297.0
 31
0.0
  0
LINE
  5
1B30
330
1F
100
AcDbEntity
  8
GRID
  6
Continuous
100
AcDbLine
 10
-78.0
 20
0.0
 30
0.0
 11
-78.0
 21
297.0
 31
0.0
  0
LINE
  5
1B31
330
1F
100
AcDbEntity
  8
GRID
  6
Continuous
100
AcDbLine
 10
-77.0
 20
0.0
 30
0.0
 11
-77.0
 21
297.0
 31
0.0
  0
LINE
  5
1B32
330
1F
100
AcDbEntity
  8
GRID
  6
Continuous
100
AcDbLine
 10
-76.0
 20
0.0
 30
0.0
 11
-76.0
 21
297.0
 31
0.0
  0
LINE
  5
1B33
330
1F
100
AcDbEntity
  8
GRID
  6
Continuous
100
AcDbLine
 10
-75.0
 20
0.0
 30
0.0
 11
-75.0
 21
297.0
 31
0.0
  0
LINE
  5
1B34
330
1F
100
AcDbEntity
  8
GRID
  6
Continuous
100
AcDbLine
 10
-74.0
 20
0.0
 30
0.0
 11
-74.0
 21
297.0
 31
0.0
  0
LINE
  5
1B35
330
1F
100
AcDbEntity
  8
GRID
  6
Continuous
100
AcDbLine
 10
-73.0
 20
0.0
 30
0.0
 11
-73.0
 21
297.0
 31
0.0
  0
LINE
  5
1B36
330
1F
100
AcDbEntity
  8
GRID
  6
Continuous
100
AcDbLine
 10
-72.0
 20
0.0
 30
0.0
 11
-72.0
 21
297.0
 31
0.0
  0
LINE
  5
1B37
330
1F
100
AcDbEntity
  8
GRID
  6
Continuous
100
AcDbLine
 10
-71.0
 20
0.0
 30
0.0
 11
-71.0
 21
297.0
 31
0.0
  0
LINE
  5
1B38
330
1F
100
AcDbEntity
  8
GRID
  6
Continuous
 62
   250
100
AcDbLine
 10
-90.0
 20
0.0
 30
0.0
 11
-90.0
 21
297.0
 31
0.0
  0
LINE
  5
1B39
330
1F
100
AcDbEntity
  8
GRID
  6
Continuous
100
AcDbLine
 10
-89.0
 20
0.0
 30
0.0
 11
-89.0
 21
297.0
 31
0.0
  0
LINE
  5
1B3A
330
1F
100
AcDbEntity
  8
GRID
  6
Continuous
100
AcDbLine
 10
-88.0
 20
0.0
 30
0.0
 11
-88.0
 21
297.0
 31
0.0
  0
LINE
  5
1B3B
330
1F
100
AcDbEntity
  8
GRID
  6
Continuous
100
AcDbLine
 10
-87.0
 20
0.0
 30
0.0
 11
-87.0
 21
297.0
 31
0.0
  0
LINE
  5
1B3C
330
1F
100
AcDbEntity
  8
GRID
  6
Continuous
100
AcDbLine
 10
-86.0
 20
0.0
 30
0.0
 11
-86.0
 21
297.0
 31
0.0
  0
LINE
  5
1B3D
330
1F
100
AcDbEntity
  8
GRID
  6
Continuous
100
AcDbLine
 10
-85.0
 20
0.0
 30
0.0
 11
-85.0
 21
297.0
 31
0.0
  0
LINE
  5
1B3E
330
1F
100
AcDbEntity
  8
GRID
  6
Continuous
100
AcDbLine
 10
-84.0
 20
0.0
 30
0.0
 11
-84.0
 21
297.0
 31
0.0
  0
LINE
  5
1B3F
330
1F
100
AcDbEntity
  8
GRID
  6
Continuous
100
AcDbLine
 10
-83.0
 20
0.0
 30
0.0
 11
-83.0
 21
297.0
 31
0.0
  0
LINE
  5
1B40
330
1F
100
AcDbEntity
  8
GRID
  6
Continuous
100
AcDbLine
 10
-82.0
 20
0.0
 30
0.0
 11
-82.0
 21
297.0
 31
0.0
  0
LINE
  5
1B41
330
1F
100
AcDbEntity
  8
GRID
  6
Continuous
100
AcDbLine
 10
-81.0
 20
0.0
 30
0.0
 11
-81.0
 21
297.0
 31
0.0
  0
LINE
  5
1B42
330
1F
100
AcDbEntity
  8
GRID
  6
Continuous
 62
   250
100
AcDbLine
 10
-100.0
 20
0.0
 30
0.0
 11
-100.0
 21
297.0
 31
0.0
  0
LINE
  5
1B43
330
1F
100
AcDbEntity
  8
GRID
  6
Continuous
100
AcDbLine
 10
-99.0
 20
0.0
 30
0.0
 11
-99.0
 21
297.0
 31
0.0
  0
LINE
  5
1B44
330
1F
100
AcDbEntity
  8
GRID
  6
Continuous
100
AcDbLine
 10
-98.0
 20
0.0
 30
0.0
 11
-98.0
 21
297.0
 31
0.0
  0
LINE
  5
1B45
330
1F
100
AcDbEntity
  8
GRID
  6
Continuous
100
AcDbLine
 10
-97.0
 20
0.0
 30
0.0
 11
-97.0
 21
297.0
 31
0.0
  0
LINE
  5
1B46
330
1F
100
AcDbEntity
  8
GRID
  6
Continuous
100
AcDbLine
 10
-96.0
 20
0.0
 30
0.0
 11
-96.0
 21
297.0
 31
0.0
  0
LINE
  5
1B47
330
1F
100
AcDbEntity
  8
GRID
  6
Continuous
100
AcDbLine
 10
-95.0
 20
0.0
 30
0.0
 11
-95.0
 21
297.0
 31
0.0
  0
LINE
  5
1B48
330
1F
100
AcDbEntity
  8
GRID
  6
Continuous
100
AcDbLine
 10
-94.0
 20
0.0
 30
0.0
 11
-94.0
 21
297.0
 31
0.0
  0
LINE
  5
1B49
330
1F
100
AcDbEntity
  8
GRID
  6
Continuous
100
AcDbLine
 10
-93.0
 20
0.0
 30
0.0
 11
-93.0
 21
297.0
 31
0.0
  0
LINE
  5
1B4A
330
1F
100
AcDbEntity
  8
GRID
  6
Continuous
100
AcDbLine
 10
-92.0
 20
0.0
 30
0.0
 11
-92.0
 21
297.0
 31
0.0
  0
LINE
  5
1B4B
330
1F
100
AcDbEntity
  8
GRID
  6
Continuous
100
AcDbLine
 10
-91.0
 20
0.0
 30
0.0
 11
-91.0
 21
297.0
 31
0.0
  0
LINE
  5
1B4C
330
1F
100
AcDbEntity
  8
GRID
  6
Continuous
 62
   250
100
AcDbLine
 10
-110.0
 20
0.0
 30
0.0
 11
-110.0
 21
297.0
 31
0.0
  0
LINE
  5
1B4D
330
1F
100
AcDbEntity
  8
GRID
  6
Continuous
100
AcDbLine
 10
-109.0
 20
0.0
 30
0.0
 11
-109.0
 21
297.0
 31
0.0
  0
LINE
  5
1B4E
330
1F
100
AcDbEntity
  8
GRID
  6
Continuous
100
AcDbLine
 10
-108.0
 20
0.0
 30
0.0
 11
-108.0
 21
297.0
 31
0.0
  0
LINE
  5
1B4F
330
1F
100
AcDbEntity
  8
GRID
  6
Continuous
100
AcDbLine
 10
-107.0
 20
0.0
 30
0.0
 11
-107.0
 21
297.0
 31
0.0
  0
LINE
  5
1B50
330
1F
100
AcDbEntity
  8
GRID
  6
Continuous
100
AcDbLine
 10
-106.0
 20
0.0
 30
0.0
 11
-106.0
 21
297.0
 31
0.0
  0
LINE
  5
1B51
330
1F
100
AcDbEntity
  8
GRID
  6
Continuous
100
AcDbLine
 10
-105.0
 20
0.0
 30
0.0
 11
-105.0
 21
297.0
 31
0.0
  0
LINE
  5
1B52
330
1F
100
AcDbEntity
  8
GRID
  6
Continuous
100
AcDbLine
 10
-104.0
 20
0.0
 30
0.0
 11
-104.0
 21
297.0
 31
0.0
  0
LINE
  5
1B53
330
1F
100
AcDbEntity
  8
GRID
  6
Continuous
100
AcDbLine
 10
-103.0
 20
0.0
 30
0.0
 11
-103.0
 21
297.0
 31
0.0
  0
LINE
  5
1B54
330
1F
100
AcDbEntity
  8
GRID
  6
Continuous
100
AcDbLine
 10
-102.0
 20
0.0
 30
0.0
 11
-102.0
 21
297.0
 31
0.0
  0
LINE
  5
1B55
330
1F
100
AcDbEntity
  8
GRID
  6
Continuous
100
AcDbLine
 10
-101.0
 20
0.0
 30
0.0
 11
-101.0
 21
297.0
 31
0.0
  0
LINE
  5
1B56
330
1F
100
AcDbEntity
  8
GRID
  6
Continuous
 62
   250
100
AcDbLine
 10
-120.0
 20
0.0
 30
0.0
 11
-120.0
 21
297.0
 31
0.0
  0
LINE
  5
1B57
330
1F
100
AcDbEntity
  8
GRID
  6
Continuous
100
AcDbLine
 10
-119.0
 20
0.0
 30
0.0
 11
-119.0
 21
297.0
 31
0.0
  0
LINE
  5
1B58
330
1F
100
AcDbEntity
  8
GRID
  6
Continuous
100
AcDbLine
 10
-118.0
 20
0.0
 30
0.0
 11
-118.0
 21
297.0
 31
0.0
  0
LINE
  5
1B59
330
1F
100
AcDbEntity
  8
GRID
  6
Continuous
100
AcDbLine
 10
-117.0
 20
0.0
 30
0.0
 11
-117.0
 21
297.0
 31
0.0
  0
LINE
  5
1B5A
330
1F
100
AcDbEntity
  8
GRID
  6
Continuous
100
AcDbLine
 10
-116.0
 20
0.0
 30
0.0
 11
-116.0
 21
297.0
 31
0.0
  0
LINE
  5
1B5B
330
1F
100
AcDbEntity
  8
GRID
  6
Continuous
100
AcDbLine
 10
-115.0
 20
0.0
 30
0.0
 11
-115.0
 21
297.0
 31
0.0
  0
LINE
  5
1B5C
330
1F
100
AcDbEntity
  8
GRID
  6
Continuous
100
AcDbLine
 10
-114.0
 20
0.0
 30
0.0
 11
-114.0
 21
297.0
 31
0.0
  0
LINE
  5
1B5D
330
1F
100
AcDbEntity
  8
GRID
  6
Continuous
100
AcDbLine
 10
-113.0
 20
0.0
 30
0.0
 11
-113.0
 21
297.0
 31
0.0
  0
LINE
  5
1B5E
330
1F
100
AcDbEntity
  8
GRID
  6
Continuous
100
AcDbLine
 10
-112.0
 20
0.0
 30
0.0
 11
-112.0
 21
297.0
 31
0.0
  0
LINE
  5
1B5F
330
1F
100
AcDbEntity
  8
GRID
  6
Continuous
100
AcDbLine
 10
-111.0
 20
0.0
 30
0.0
 11
-111.0
 21
297.0
 31
0.0
  0
LINE
  5
1B60
330
1F
100
AcDbEntity
  8
GRID
  6
Continuous
 62
   250
100
AcDbLine
 10
-130.0
 20
0.0
 30
0.0
 11
-130.0
 21
297.0
 31
0.0
  0
LINE
  5
1B61
330
1F
100
AcDbEntity
  8
GRID
  6
Continuous
100
AcDbLine
 10
-129.0
 20
0.0
 30
0.0
 11
-129.0
 21
297.0
 31
0.0
  0
LINE
  5
1B62
330
1F
100
AcDbEntity
  8
GRID
  6
Continuous
100
AcDbLine
 10
-128.0
 20
0.0
 30
0.0
 11
-128.0
 21
297.0
 31
0.0
  0
LINE
  5
1B63
330
1F
100
AcDbEntity
  8
GRID
  6
Continuous
100
AcDbLine
 10
-127.0
 20
0.0
 30
0.0
 11
-127.0
 21
297.0
 31
0.0
  0
LINE
  5
1B64
330
1F
100
AcDbEntity
  8
GRID
  6
Continuous
100
AcDbLine
 10
-126.0
 20
0.0
 30
0.0
 11
-126.0
 21
297.0
 31
0.0
  0
LINE
  5
1B65
330
1F
100
AcDbEntity
  8
GRID
  6
Continuous
100
AcDbLine
 10
-125.0
 20
0.0
 30
0.0
 11
-125.0
 21
297.0
 31
0.0
  0
LINE
  5
1B66
330
1F
100
AcDbEntity
  8
GRID
  6
Continuous
100
AcDbLine
 10
-124.0
 20
0.0
 30
0.0
 11
-124.0
 21
297.0
 31
0.0
  0
LINE
  5
1B67
330
1F
100
AcDbEntity
  8
GRID
  6
Continuous
100
AcDbLine
 10
-123.0
 20
0.0
 30
0.0
 11
-123.0
 21
297.0
 31
0.0
  0
LINE
  5
1B68
330
1F
100
AcDbEntity
  8
GRID
  6
Continuous
100
AcDbLine
 10
-122.0
 20
0.0
 30
0.0
 11
-122.0
 21
297.0
 31
0.0
  0
LINE
  5
1B69
330
1F
100
AcDbEntity
  8
GRID
  6
Continuous
100
AcDbLine
 10
-121.0
 20
0.0
 30
0.0
 11
-121.0
 21
297.0
 31
0.0
  0
LINE
  5
1B6A
330
1F
100
AcDbEntity
  8
GRID
  6
Continuous
 62
   250
100
AcDbLine
 10
-140.0
 20
0.0
 30
0.0
 11
-140.0
 21
297.0
 31
0.0
  0
LINE
  5
1B6B
330
1F
100
AcDbEntity
  8
GRID
  6
Continuous
100
AcDbLine
 10
-139.0
 20
0.0
 30
0.0
 11
-139.0
 21
297.0
 31
0.0
  0
LINE
  5
1B6C
330
1F
100
AcDbEntity
  8
GRID
  6
Continuous
100
AcDbLine
 10
-138.0
 20
0.0
 30
0.0
 11
-138.0
 21
297.0
 31
0.0
  0
LINE
  5
1B6D
330
1F
100
AcDbEntity
  8
GRID
  6
Continuous
100
AcDbLine
 10
-137.0
 20
0.0
 30
0.0
 11
-137.0
 21
297.0
 31
0.0
  0
LINE
  5
1B6E
330
1F
100
AcDbEntity
  8
GRID
  6
Continuous
100
AcDbLine
 10
-136.0
 20
0.0
 30
0.0
 11
-136.0
 21
297.0
 31
0.0
  0
LINE
  5
1B6F
330
1F
100
AcDbEntity
  8
GRID
  6
Continuous
100
AcDbLine
 10
-135.0
 20
0.0
 30
0.0
 11
-135.0
 21
297.0
 31
0.0
  0
LINE
  5
1B70
330
1F
100
AcDbEntity
  8
GRID
  6
Continuous
100
AcDbLine
 10
-134.0
 20
0.0
 30
0.0
 11
-134.0
 21
297.0
 31
0.0
  0
LINE
  5
1B71
330
1F
100
AcDbEntity
  8
GRID
  6
Continuous
100
AcDbLine
 10
-133.0
 20
0.0
 30
0.0
 11
-133.0
 21
297.0
 31
0.0
  0
LINE
  5
1B72
330
1F
100
AcDbEntity
  8
GRID
  6
Continuous
100
AcDbLine
 10
-132.0
 20
0.0
 30
0.0
 11
-132.0
 21
297.0
 31
0.0
  0
LINE
  5
1B73
330
1F
100
AcDbEntity
  8
GRID
  6
Continuous
100
AcDbLine
 10
-131.0
 20
0.0
 30
0.0
 11
-131.0
 21
297.0
 31
0.0
  0
LINE
  5
1B74
330
1F
100
AcDbEntity
  8
GRID
  6
Continuous
 62
   250
100
AcDbLine
 10
-150.0
 20
0.0
 30
0.0
 11
-150.0
 21
297.0
 31
0.0
  0
LINE
  5
1B75
330
1F
100
AcDbEntity
  8
GRID
  6
Continuous
100
AcDbLine
 10
-149.0
 20
0.0
 30
0.0
 11
-149.0
 21
297.0
 31
0.0
  0
LINE
  5
1B76
330
1F
100
AcDbEntity
  8
GRID
  6
Continuous
100
AcDbLine
 10
-148.0
 20
0.0
 30
0.0
 11
-148.0
 21
297.0
 31
0.0
  0
LINE
  5
1B77
330
1F
100
AcDbEntity
  8
GRID
  6
Continuous
100
AcDbLine
 10
-147.0
 20
0.0
 30
0.0
 11
-147.0
 21
297.0
 31
0.0
  0
LINE
  5
1B78
330
1F
100
AcDbEntity
  8
GRID
  6
Continuous
100
AcDbLine
 10
-146.0
 20
0.0
 30
0.0
 11
-146.0
 21
297.0
 31
0.0
  0
LINE
  5
1B79
330
1F
100
AcDbEntity
  8
GRID
  6
Continuous
100
AcDbLine
 10
-145.0
 20
0.0
 30
0.0
 11
-145.0
 21
297.0
 31
0.0
  0
LINE
  5
1B7A
330
1F
100
AcDbEntity
  8
GRID
  6
Continuous
100
AcDbLine
 10
-144.0
 20
0.0
 30
0.0
 11
-144.0
 21
297.0
 31
0.0
  0
LINE
  5
1B7B
330
1F
100
AcDbEntity
  8
GRID
  6
Continuous
100
AcDbLine
 10
-143.0
 20
0.0
 30
0.0
 11
-143.0
 21
297.0
 31
0.0
  0
LINE
  5
1B7C
330
1F
100
AcDbEntity
  8
GRID
  6
Continuous
100
AcDbLine
 10
-142.0
 20
0.0
 30
0.0
 11
-142.0
 21
297.0
 31
0.0
  0
LINE
  5
1B7D
330
1F
100
AcDbEntity
  8
GRID
  6
Continuous
100
AcDbLine
 10
-141.0
 20
0.0
 30
0.0
 11
-141.0
 21
297.0
 31
0.0
  0
LINE
  5
1B7E
330
1F
100
AcDbEntity
  8
GRID
  6
Continuous
 62
   250
100
AcDbLine
 10
-160.0
 20
0.0
 30
0.0
 11
-160.0
 21
297.0
 31
0.0
  0
LINE
  5
1B7F
330
1F
100
AcDbEntity
  8
GRID
  6
Continuous
100
AcDbLine
 10
-159.0
 20
0.0
 30
0.0
 11
-159.0
 21
297.0
 31
0.0
  0
LINE
  5
1B80
330
1F
100
AcDbEntity
  8
GRID
  6
Continuous
100
AcDbLine
 10
-158.0
 20
0.0
 30
0.0
 11
-158.0
 21
297.0
 31
0.0
  0
LINE
  5
1B81
330
1F
100
AcDbEntity
  8
GRID
  6
Continuous
100
AcDbLine
 10
-157.0
 20
0.0
 30
0.0
 11
-157.0
 21
297.0
 31
0.0
  0
LINE
  5
1B82
330
1F
100
AcDbEntity
  8
GRID
  6
Continuous
100
AcDbLine
 10
-156.0
 20
0.0
 30
0.0
 11
-156.0
 21
297.0
 31
0.0
  0
LINE
  5
1B83
330
1F
100
AcDbEntity
  8
GRID
  6
Continuous
100
AcDbLine
 10
-155.0
 20
0.0
 30
0.0
 11
-155.0
 21
297.0
 31
0.0
  0
LINE
  5
1B84
330
1F
100
AcDbEntity
  8
GRID
  6
Continuous
100
AcDbLine
 10
-154.0
 20
0.0
 30
0.0
 11
-154.0
 21
297.0
 31
0.0
  0
LINE
  5
1B85
330
1F
100
AcDbEntity
  8
GRID
  6
Continuous
100
AcDbLine
 10
-153.0
 20
0.0
 30
0.0
 11
-153.0
 21
297.0
 31
0.0
  0
LINE
  5
1B86
330
1F
100
AcDbEntity
  8
GRID
  6
Continuous
100
AcDbLine
 10
-152.0
 20
0.0
 30
0.0
 11
-152.0
 21
297.0
 31
0.0
  0
LINE
  5
1B87
330
1F
100
AcDbEntity
  8
GRID
  6
Continuous
100
AcDbLine
 10
-151.0
 20
0.0
 30
0.0
 11
-151.0
 21
297.0
 31
0.0
  0
LINE
  5
1B88
330
1F
100
AcDbEntity
  8
GRID
  6
Continuous
 62
   250
100
AcDbLine
 10
-170.0
 20
0.0
 30
0.0
 11
-170.0
 21
297.0
 31
0.0
  0
LINE
  5
1B89
330
1F
100
AcDbEntity
  8
GRID
  6
Continuous
100
AcDbLine
 10
-169.0
 20
0.0
 30
0.0
 11
-169.0
 21
297.0
 31
0.0
  0
LINE
  5
1B8A
330
1F
100
AcDbEntity
  8
GRID
  6
Continuous
100
AcDbLine
 10
-168.0
 20
0.0
 30
0.0
 11
-168.0
 21
297.0
 31
0.0
  0
LINE
  5
1B8B
330
1F
100
AcDbEntity
  8
GRID
  6
Continuous
100
AcDbLine
 10
-167.0
 20
0.0
 30
0.0
 11
-167.0
 21
297.0
 31
0.0
  0
LINE
  5
1B8C
330
1F
100
AcDbEntity
  8
GRID
  6
Continuous
100
AcDbLine
 10
-166.0
 20
0.0
 30
0.0
 11
-166.0
 21
297.0
 31
0.0
  0
LINE
  5
1B8D
330
1F
100
AcDbEntity
  8
GRID
  6
Continuous
100
AcDbLine
 10
-165.0
 20
0.0
 30
0.0
 11
-165.0
 21
297.0
 31
0.0
  0
LINE
  5
1B8E
330
1F
100
AcDbEntity
  8
GRID
  6
Continuous
100
AcDbLine
 10
-164.0
 20
0.0
 30
0.0
 11
-164.0
 21
297.0
 31
0.0
  0
LINE
  5
1B8F
330
1F
100
AcDbEntity
  8
GRID
  6
Continuous
100
AcDbLine
 10
-163.0
 20
0.0
 30
0.0
 11
-163.0
 21
297.0
 31
0.0
  0
LINE
  5
1B90
330
1F
100
AcDbEntity
  8
GRID
  6
Continuous
100
AcDbLine
 10
-162.0
 20
0.0
 30
0.0
 11
-162.0
 21
297.0
 31
0.0
  0
LINE
  5
1B91
330
1F
100
AcDbEntity
  8
GRID
  6
Continuous
100
AcDbLine
 10
-161.0
 20
0.0
 30
0.0
 11
-161.0
 21
297.0
 31
0.0
  0
LINE
  5
1B92
330
1F
100
AcDbEntity
  8
GRID
  6
Continuous
 62
   250
100
AcDbLine
 10
-180.0
 20
0.0
 30
0.0
 11
-180.0
 21
297.0
 31
0.0
  0
LINE
  5
1B93
330
1F
100
AcDbEntity
  8
GRID
  6
Continuous
100
AcDbLine
 10
-179.0
 20
0.0
 30
0.0
 11
-179.0
 21
297.0
 31
0.0
  0
LINE
  5
1B94
330
1F
100
AcDbEntity
  8
GRID
  6
Continuous
100
AcDbLine
 10
-178.0
 20
0.0
 30
0.0
 11
-178.0
 21
297.0
 31
0.0
  0
LINE
  5
1B95
330
1F
100
AcDbEntity
  8
GRID
  6
Continuous
100
AcDbLine
 10
-177.0
 20
0.0
 30
0.0
 11
-177.0
 21
297.0
 31
0.0
  0
LINE
  5
1B96
330
1F
100
AcDbEntity
  8
GRID
  6
Continuous
100
AcDbLine
 10
-176.0
 20
0.0
 30
0.0
 11
-176.0
 21
297.0
 31
0.0
  0
LINE
  5
1B97
330
1F
100
AcDbEntity
  8
GRID
  6
Continuous
100
AcDbLine
 10
-175.0
 20
0.0
 30
0.0
 11
-175.0
 21
297.0
 31
0.0
  0
LINE
  5
1B98
330
1F
100
AcDbEntity
  8
GRID
  6
Continuous
100
AcDbLine
 10
-174.0
 20
0.0
 30
0.0
 11
-174.0
 21
297.0
 31
0.0
  0
LINE
  5
1B99
330
1F
100
AcDbEntity
  8
GRID
  6
Continuous
100
AcDbLine
 10
-173.0
 20
0.0
 30
0.0
 11
-173.0
 21
297.0
 31
0.0
  0
LINE
  5
1B9A
330
1F
100
AcDbEntity
  8
GRID
  6
Continuous
100
AcDbLine
 10
-172.0
 20
0.0
 30
0.0
 11
-172.0
 21
297.0
 31
0.0
  0
LINE
  5
1B9B
330
1F
100
AcDbEntity
  8
GRID
  6
Continuous
100
AcDbLine
 10
-171.0
 20
0.0
 30
0.0
 11
-171.0
 21
297.0
 31
0.0
  0
LINE
  5
1B9C
330
1F
100
AcDbEntity
  8
GRID
  6
Continuous
 62
   250
100
AcDbLine
 10
-190.0
 20
0.0
 30
0.0
 11
-190.0
 21
297.0
 31
0.0
  0
LINE
  5
1B9D
330
1F
100
AcDbEntity
  8
GRID
  6
Continuous
100
AcDbLine
 10
-189.0
 20
0.0
 30
0.0
 11
-189.0
 21
297.0
 31
0.0
  0
LINE
  5
1B9E
330
1F
100
AcDbEntity
  8
GRID
  6
Continuous
100
AcDbLine
 10
-188.0
 20
0.0
 30
0.0
 11
-188.0
 21
297.0
 31
0.0
  0
LINE
  5
1B9F
330
1F
100
AcDbEntity
  8
GRID
  6
Continuous
100
AcDbLine
 10
-187.0
 20
0.0
 30
0.0
 11
-187.0
 21
297.0
 31
0.0
  0
LINE
  5
1BA0
330
1F
100
AcDbEntity
  8
GRID
  6
Continuous
100
AcDbLine
 10
-186.0
 20
0.0
 30
0.0
 11
-186.0
 21
297.0
 31
0.0
  0
LINE
  5
1BA1
330
1F
100
AcDbEntity
  8
GRID
  6
Continuous
100
AcDbLine
 10
-185.0
 20
0.0
 30
0.0
 11
-185.0
 21
297.0
 31
0.0
  0
LINE
  5
1BA2
330
1F
100
AcDbEntity
  8
GRID
  6
Continuous
100
AcDbLine
 10
-184.0
 20
0.0
 30
0.0
 11
-184.0
 21
297.0
 31
0.0
  0
LINE
  5
1BA3
330
1F
100
AcDbEntity
  8
GRID
  6
Continuous
100
AcDbLine
 10
-183.0
 20
0.0
 30
0.0
 11
-183.0
 21
297.0
 31
0.0
  0
LINE
  5
1BA4
330
1F
100
AcDbEntity
  8
GRID
  6
Continuous
100
AcDbLine
 10
-182.0
 20
0.0
 30
0.0
 11
-182.0
 21
297.0
 31
0.0
  0
LINE
  5
1BA5
330
1F
100
AcDbEntity
  8
GRID
  6
Continuous
100
AcDbLine
 10
-181.0
 20
0.0
 30
0.0
 11
-181.0
 21
297.0
 31
0.0
  0
LINE
  5
1BA6
330
1F
100
AcDbEntity
  8
GRID
  6
Continuous
 62
   250
100
AcDbLine
 10
-200.0
 20
0.0
 30
0.0
 11
-200.0
 21
297.0
 31
0.0
  0
LINE
  5
1BA7
330
1F
100
AcDbEntity
  8
GRID
  6
Continuous
100
AcDbLine
 10
-199.0
 20
0.0
 30
0.0
 11
-199.0
 21
297.0
 31
0.0
  0
LINE
  5
1BA8
330
1F
100
AcDbEntity
  8
GRID
  6
Continuous
100
AcDbLine
 10
-198.0
 20
0.0
 30
0.0
 11
-198.0
 21
297.0
 31
0.0
  0
LINE
  5
1BA9
330
1F
100
AcDbEntity
  8
GRID
  6
Continuous
100
AcDbLine
 10
-197.0
 20
0.0
 30
0.0
 11
-197.0
 21
297.0
 31
0.0
  0
LINE
  5
1BAA
330
1F
100
AcDbEntity
  8
GRID
  6
Continuous
100
AcDbLine
 10
-196.0
 20
0.0
 30
0.0
 11
-196.0
 21
297.0
 31
0.0
  0
LINE
  5
1BAB
330
1F
100
AcDbEntity
  8
GRID
  6
Continuous
100
AcDbLine
 10
-195.0
 20
0.0
 30
0.0
 11
-195.0
 21
297.0
 31
0.0
  0
LINE
  5
1BAC
330
1F
100
AcDbEntity
  8
GRID
  6
Continuous
100
AcDbLine
 10
-194.0
 20
0.0
 30
0.0
 11
-194.0
 21
297.0
 31
0.0
  0
LINE
  5
1BAD
330
1F
100
AcDbEntity
  8
GRID
  6
Continuous
100
AcDbLine
 10
-193.0
 20
0.0
 30
0.0
 11
-193.0
 21
297.0
 31
0.0
  0
LINE
  5
1BAE
330
1F
100
AcDbEntity
  8
GRID
  6
Continuous
100
AcDbLine
 10
-192.0
 20
0.0
 30
0.0
 11
-192.0
 21
297.0
 31
0.0
  0
LINE
  5
1BAF
330
1F
100
AcDbEntity
  8
GRID
  6
Continuous
100
AcDbLine
 10
-191.0
 20
0.0
 30
0.0
 11
-191.0
 21
297.0
 31
0.0
  0
LINE
  5
1BB1
330
1F
100
AcDbEntity
  8
GRID
  6
Continuous
100
AcDbLine
 10
-209.0
 20
0.0
 30
0.0
 11
-209.0
 21
297.0
 31
0.0
  0
LINE
  5
1BB2
330
1F
100
AcDbEntity
  8
GRID
  6
Continuous
100
AcDbLine
 10
-208.0
 20
0.0
 30
0.0
 11
-208.0
 21
297.0
 31
0.0
  0
LINE
  5
1BB3
330
1F
100
AcDbEntity
  8
GRID
  6
Continuous
100
AcDbLine
 10
-207.0
 20
0.0
 30
0.0
 11
-207.0
 21
297.0
 31
0.0
  0
LINE
  5
1BB4
330
1F
100
AcDbEntity
  8
GRID
  6
Continuous
100
AcDbLine
 10
-206.0
 20
0.0
 30
0.0
 11
-206.0
 21
297.0
 31
0.0
  0
LINE
  5
1BB5
330
1F
100
AcDbEntity
  8
GRID
  6
Continuous
100
AcDbLine
 10
-205.0
 20
0.0
 30
0.0
 11
-205.0
 21
297.0
 31
0.0
  0
LINE
  5
1BB6
330
1F
100
AcDbEntity
  8
GRID
  6
Continuous
100
AcDbLine
 10
-204.0
 20
0.0
 30
0.0
 11
-204.0
 21
297.0
 31
0.0
  0
LINE
  5
1BB7
330
1F
100
AcDbEntity
  8
GRID
  6
Continuous
100
AcDbLine
 10
-203.0
 20
0.0
 30
0.0
 11
-203.0
 21
297.0
 31
0.0
  0
LINE
  5
1BB8
330
1F
100
AcDbEntity
  8
GRID
  6
Continuous
100
AcDbLine
 10
-202.0
 20
0.0
 30
0.0
 11
-202.0
 21
297.0
 31
0.0
  0
LINE
  5
1BB9
330
1F
100
AcDbEntity
  8
GRID
  6
Continuous
100
AcDbLine
 10
-201.0
 20
0.0
 30
0.0
 11
-201.0
 21
297.0
 31
0.0
  0
INSERT
  5
1EE8
330
1F
100
AcDbEntity
  8
HIDDEN
100
AcDbBlockReference
  2
BLOCK0
 10
-103.366287
 20
117.163895
 30
0.0
  0
TEXT
  5
1EEB
330
1F
100
AcDbEntity
  8
Layer8$C$L8$V_PV
100
AcDbText
 10
-34.458651440858
 20
29.329868421053
 30
0.0
 40
3.0
  1
AL-K8
 41
0.972170218363
 72
     5
 11
-20.570505464242
 21
29.329868421053
 31
0.0
100
AcDbText
  0
LINE
  5
1F17
330
1F
100
AcDbEntity
  8
CENTER
100
AcDbLine
 10
-108.7075195313
 20
70.171875
 30
0.0
 11
-90.357131958
 21
70.171875
 31
0.0
  0
LINE
  5
1F18
330
1F
100
AcDbEntity
  8
Layer1$C$L1$V_PV
100
AcDbLine
 10
-104.5662994385
 20
75.171875
 30
0.0
 11
-98.0662841797
 21
75.171875
 31
0.0
  0
LINE
  5
1F19
330
1F
100
AcDbEntity
  8
Layer1$C$L1$V_PV
 62
     2
100
AcDbLine
 10
-98.0662841797
 20
75.171875
 30
0.0
 11
-98.0662841797
 21
65.171875
 31
0.0
  0
LINE
  5
1F1A
330
1F
100
AcDbEntity
  8
Layer1$C$L1$V_PV
 62
     2
100
AcDbLine
 10
-98.0662841797
 20
75.171875
 30
0.0
 11
-92.3662872314
 21
75.171875
 31
0.0
  0
LINE
  5
1F1B
330
1F
100
AcDbEntity
  8
Layer1$C$L1$V_PV
 62
     2
100
AcDbLine
 10
-92.0662841797
 20
74.871887207
 30
0.0
 11
-92.0662841797
 21
65.471862793
 31
0.0
  0
LINE
  5
1F1C
330
1F
100
AcDbEntity
  8
Layer1$C$L1$V_PV
100
AcDbLine
 10
-104.5662994385
 20
70.671875
 30
0.0
 11
-100.0662994385
 21
70.671875
 31
0.0
  0
LINE
  5
1F1D
330
1F
100
AcDbEntity
  8
Layer1$C$L1$V_PV
100
AcDbLine
 10
-104.5662994385
 20
69.671875
 30
0.0
 11
-100.0662994385
 21
69.671875
 31
0.0
  0
LINE
  5
1F20
330
1F
100
AcDbEntity
  8
Layer1$C$L1$V_PV
100
AcDbLine
 10
-104.5662994385
 20
75.171875
 30
0.0
 11
-104.5662994385
 21
65.171875
 31
0.0
  0
LINE
  5
1F21
330
1F
100
AcDbEntity
  8
Layer1$C$L1$V_PV
100
AcDbLine
 10
-100.0662994385
 20
70.671875
 30
0.0
 11
-100.0662994385
 21
69.671875
 31
0.0
  0
LINE
  5
1F22
330
1F
100
AcDbEntity
  8
CENTER
100
AcDbLine
 10
-159.8009643555
 20
126.6638946533
 30
0.0
 11
-159.8009643555
 21
110.1638946533
 31
0.0
  0
LINE
  5
1F23
330
1F
100
AcDbEntity
  8
CENTER
100
AcDbLine
 10
-165.8009643555
 20
117.1638946533
 30
0.0
 11
-153.8009643555
 21
117.1638946533
 31
0.0
  0
LINE
  5
1F24
330
1F
100
AcDbEntity
  8
Layer1$C$L1$V_PV
100
AcDbLine
 10
-163.6009521484
 20
120.9638824463
 30
0.0
 11
-162.3009490967
 21
120.9638824463
 31
0.0
  0
LINE
  5
1F25
330
1F
100
AcDbEntity
  8
Layer1$C$L1$V_PV
100
AcDbLine
 10
-163.6009521484
 20
113.3638916016
 30
0.0
 11
-162.3009490967
 21
113.3638916016
 31
0.0
  0
LINE
  5
1F26
330
1F
100
AcDbEntity
  8
Layer1$C$L1$V_PV
100
AcDbLine
 10
-163.6009521484
 20
120.9638824463
 30
0.0
 11
-163.6009521484
 21
119.6638793945
 31
0.0
  0
LINE
  5
1F27
330
1F
100
AcDbEntity
  8
Layer1$C$L1$V_PV
100
AcDbLine
 10
-162.3009490967
 20
120.9638824463
 30
0.0
 11
-162.3009490967
 21
120.2863922119
 31
0.0
  0
LINE
  5
1F28
330
1F
100
AcDbEntity
  8
Layer1$C$L1$V_PV
100
AcDbLine
 10
-163.6009521484
 20
114.6638946533
 30
0.0
 11
-162.9234619141
 21
114.6638946533
 31
0.0
  0
LINE
  5
1F29
330
1F
100
AcDbEntity
  8
Layer1$C$L1$V_PV
100
AcDbLine
 10
-163.6009521484
 20
119.6638793945
 30
0.0
 11
-162.9234619141
 21
119.6638793945
 31
0.0
  0
LINE
  5
1F2A
330
1F
100
AcDbEntity
  8
Layer1$C$L1$V_PV
100
AcDbLine
 10
-163.6009521484
 20
114.6638946533
 30
0.0
 11
-163.6009521484
 21
113.3638916016
 31
0.0
  0
LINE
  5
1F2B
330
1F
100
AcDbEntity
  8
Layer1$C$L1$V_PV
100
AcDbLine
 10
-162.3009490967
 20
114.0413818359
 30
0.0
 11
-162.3009490967
 21
113.3638916016
 31
0.0
  0
LINE
  5
1F2C
330
1F
100
AcDbEntity
  8
Layer1$C$L1$V_PV
100
AcDbLine
 10
-160.3009643555
 20
111.9638824463
 30
0.0
 11
-160.3009643555
 21
111.1638946533
 31
0.0
  0
LINE
  5
1F2D
330
1F
100
AcDbEntity
  8
Layer1$C$L1$V_PV
100
AcDbLine
 10
-159.3009643555
 20
111.9638824463
 30
0.0
 11
-159.3009643555
 21
111.1638946533
 31
0.0
  0
LINE
  5
1F2E
330
1F
100
AcDbEntity
  8
Layer1$C$L1$V_PV
100
AcDbLine
 10
-160.3009643555
 20
111.9638824463
 30
0.0
 11
-159.3009643555
 21
111.9638824463
 31
0.0
  0
LINE
  5
1F2F
330
1F
100
AcDbEntity
  8
CENTER
100
AcDbLine
 10
-164.2689971924
 20
123.1638946533
 30
0.0
 11
-155.3877105713
 21
123.1638946533
 31
0.0
  0
LINE
  5
1F30
330
1F
100
AcDbEntity
  8
Layer1$C$L1$V_PV
100
AcDbLine
 10
-163.9009552002
 20
122.4638824463
 30
0.0
 11
-161.4009552002
 21
122.4638824463
 31
0.0
  0
LINE
  5
1F31
330
1F
100
AcDbEntity
  8
Layer1$C$L1$V_PV
100
AcDbLine
 10
-163.9009552002
 20
124.8638916016
 30
0.0
 11
-161.4009552002
 21
124.8638916016
 31
0.0
  0
LINE
  5
1F32
330
1F
100
AcDbEntity
  8
Layer1$C$L1$V_PV
100
AcDbLine
 10
-161.4009552002
 20
124.8638916016
 30
0.0
 11
-161.4009552002
 21
122.4638824463
 31
0.0
  0
LINE
  5
1F33
330
1F
100
AcDbEntity
  8
Layer1$C$L1$V_PV
100
AcDbLine
 10
-163.9009552002
 20
124.8638916016
 30
0.0
 11
-163.9009552002
 21
122.4638824463
 31
0.0
  0
LINE
  5
1F34
330
1F
100
AcDbEntity
  8
Layer1$C$L1$V_PV
100
AcDbLine
 10
-162.4009552002
 20
124.6638946533
 30
0.0
 11
-162.4009552002
 21
122.4638824463
 31
0.0
  0
LINE
  5
1F35
330
1F
100
AcDbEntity
  8
Layer1$C$L1$V_PV
100
AcDbLine
 10
-163.9009552002
 20
123.8638916016
 30
0.0
 11
-162.4009552002
 21
123.8638916016
 31
0.0
  0
LINE
  5
1F36
330
1F
100
AcDbEntity
  8
Layer1$C$L1$V_PV
100
AcDbLine
 10
-163.9009552002
 20
124.6638946533
 30
0.0
 11
-162.4009552002
 21
124.6638946533
 31
0.0
  0
LINE
  5
1F37
330
1F
100
AcDbEntity
  8
Layer1$C$L1$V_PV
100
AcDbLine
 10
-157.3009796143
 20
120.9638824463
 30
0.0
 11
-156.0009765625
 21
120.9638824463
 31
0.0
  0
LINE
  5
1F38
330
1F
100
AcDbEntity
  8
Layer1$C$L1$V_PV
100
AcDbLine
 10
-157.3009796143
 20
113.3638916016
 30
0.0
 11
-156.0009765625
 21
113.3638916016
 31
0.0
  0
LINE
  5
1F39
330
1F
100
AcDbEntity
  8
Layer1$C$L1$V_PV
100
AcDbLine
 10
-156.0009765625
 20
119.6638793945
 30
0.0
 11
-156.0009765625
 21
120.9638824463
 31
0.0
  0
LINE
  5
1F3A
330
1F
100
AcDbEntity
  8
Layer1$C$L1$V_PV
100
AcDbLine
 10
-157.3009796143
 20
120.2863922119
 30
0.0
 11
-157.3009796143
 21
120.9638824463
 31
0.0
  0
LINE
  5
1F3B
330
1F
100
AcDbEntity
  8
Layer1$C$L1$V_PV
100
AcDbLine
 10
-156.6784515381
 20
114.6638946533
 30
0.0
 11
-156.0009765625
 21
114.6638946533
 31
0.0
  0
LINE
  5
1F3C
330
1F
100
AcDbEntity
  8
Layer1$C$L1$V_PV
100
AcDbLine
 10
-156.6784515381
 20
119.6638793945
 30
0.0
 11
-156.0009765625
 21
119.6638793945
 31
0.0
  0
LINE
  5
1F3D
330
1F
100
AcDbEntity
  8
Layer1$C$L1$V_PV
100
AcDbLine
 10
-156.0009765625
 20
113.3638916016
 30
0.0
 11
-156.0009765625
 21
114.6638946533
 31
0.0
  0
LINE
  5
1F3E
330
1F
100
AcDbEntity
  8
Layer1$C$L1$V_PV
100
AcDbLine
 10
-157.3009796143
 20
113.3638916016
 30
0.0
 11
-157.3009796143
 21
114.0413818359
 31
0.0
  0
LINE
  5
1F3F
330
1F
100
AcDbEntity
  8
Layer1$C$L1$V_PV
100
AcDbLine
 10
-158.2009735107
 20
122.4638824463
 30
0.0
 11
-155.7009735107
 21
122.4638824463
 31
0.0
  0
LINE
  5
1F40
330
1F
100
AcDbEntity
  8
Layer1$C$L1$V_PV
100
AcDbLine
 10
-158.2009735107
 20
124.8638916016
 30
0.0
 11
-155.7009735107
 21
124.8638916016
 31
0.0
  0
LINE
  5
1F41
330
1F
100
AcDbEntity
  8
Layer1$C$L1$V_PV
100
AcDbLine
 10
-158.2009735107
 20
122.4638824463
 30
0.0
 11
-158.2009735107
 21
124.8638916016
 31
0.0
  0
LINE
  5
1F42
330
1F
100
AcDbEntity
  8
Layer1$C$L1$V_PV
100
AcDbLine
 10
-155.7009735107
 20
122.4638824463
 30
0.0
 11
-155.7009735107
 21
124.8638916016
 31
0.0
  0
LINE
  5
1F43
330
1F
100
AcDbEntity
  8
Layer1$C$L1$V_PV
100
AcDbLine
 10
-157.2009735107
 20
122.4638824463
 30
0.0
 11
-157.2009735107
 21
124.6638946533
 31
0.0
  0
LINE
  5
1F44
330
1F
100
AcDbEntity
  8
Layer1$C$L1$V_PV
100
AcDbLine
 10
-157.2009735107
 20
123.8638916016
 30
0.0
 11
-155.7009735107
 21
123.8638916016
 31
0.0
  0
LINE
  5
1F45
330
1F
100
AcDbEntity
  8
Layer1$C$L1$V_PV
100
AcDbLine
 10
-157.2009735107
 20
124.6638946533
 30
0.0
 11
-155.7009735107
 21
124.6638946533
 31
0.0
  0
LINE
  5
1F46
330
1F
100
AcDbEntity
  8
CENTER
100
AcDbLine
 10
-51.2702178955
 20
126.6638946533
 30
0.0
 11
-51.2702178955
 21
110.1638946533
 31
0.0
  0
LINE
  5
1F47
330
1F
100
AcDbEntity
  8
Layer1$C$L1$V_PV
 62
     2
100
AcDbLine
 10
-55.9702301025
 20
111.1638946533
 30
0.0
 11
-46.5702209473
 21
111.1638946533
 31
0.0
  0
LINE
  5
1F48
330
1F
100
AcDbEntity
  8
Layer1$C$L1$V_PV
 62
     2
100
AcDbLine
 10
-55.9702301025
 20
125.6638946533
 30
0.0
 11
-46.5702209473
 21
125.6638946533
 31
0.0
  0
LINE
  5
1F49
330
1F
100
AcDbEntity
  8
Layer1$C$L1$V_PV
 62
     2
100
AcDbLine
 10
-46.2702178955
 20
125.3638916016
 30
0.0
 11
-46.2702178955
 21
111.4638824463
 31
0.0
  0
LINE
  5
1F4A
330
1F
100
AcDbEntity
  8
Layer1$C$L1$V_PV
 62
     2
100
AcDbLine
 10
-56.2702178955
 20
125.3638916016
 30
0.0
 11
-56.2702178955
 21
111.4638824463
 31
0.0
  0
LINE
  5
1F4B
330
1F
100
AcDbEntity
  8
CENTER
100
AcDbLine
 10
-52.265914917
 20
113.1638946533
 30
0.0
 11
-50.1859588623
 21
113.1638946533
 31
0.0
  0
LINE
  5
1F4C
330
1F
100
AcDbEntity
  8
CENTER
100
AcDbLine
 10
-55.9207763672
 20
123.1638946533
 30
0.0
 11
-46.757019043
 21
123.1638946533
 31
0.0
  0
LINE
  5
1F4D
330
1F
100
AcDbEntity
  8
Layer1$C$L1$V_PV
 62
     2
100
AcDbLine
 10
-52.9702301025
 20
125.6638946533
 30
0.0
 11
-52.9702301025
 21
121.0638885498
 31
0.0
  0
LINE
  5
1F4E
330
1F
100
AcDbEntity
  8
Layer1$C$L1$V_PV
 62
     2
100
AcDbLine
 10
-52.9702301025
 20
121.0638885498
 30
0.0
 11
-49.5702056885
 21
121.0638885498
 31
0.0
  0
LINE
  5
1F4F
330
1F
100
AcDbEntity
  8
Layer1$C$L1$V_PV
 62
     2
100
AcDbLine
 10
-52.9702301025
 20
124.6638946533
 30
0.0
 11
-49.5702056885
 21
124.6638946533
 31
0.0
  0
LINE
  5
1F50
330
1F
100
AcDbEntity
  8
Layer1$C$L1$V_PV
 62
     2
100
AcDbLine
 10
-55.2702178955
 20
123.8138885498
 30
0.0
 11
-53.7702178955
 21
123.8138885498
 31
0.0
  0
LINE
  5
1F51
330
1F
100
AcDbEntity
  8
Layer1$C$L1$V_PV
 62
     2
100
AcDbLine
 10
-55.2702178955
 20
122.513885498
 30
0.0
 11
-53.7702178955
 21
122.513885498
 31
0.0
  0
LINE
  5
1F52
330
1F
100
AcDbEntity
  8
Layer1$C$L1$V_PV
 62
     2
100
AcDbLine
 10
-53.7702178955
 20
124.1638946533
 30
0.0
 11
-53.7702178955
 21
122.1638946533
 31
0.0
  0
LINE
  5
1F53
330
1F
100
AcDbEntity
  8
Layer1$C$L1$V_PV
 62
     2
100
AcDbLine
 10
-55.2702178955
 20
123.8138885498
 30
0.0
 11
-55.2702178955
 21
122.513885498
 31
0.0
  0
LINE
  5
1F54
330
1F
100
AcDbEntity
  8
Layer1$C$L1$V_PV
 62
     2
100
AcDbLine
 10
-55.4702301025
 20
124.1638946533
 30
0.0
 11
-55.4702301025
 21
122.1638946533
 31
0.0
  0
LINE
  5
1F55
330
1F
100
AcDbEntity
  8
Layer1$C$L1$V_PV
 62
     2
100
AcDbLine
 10
-55.4702301025
 20
122.1638946533
 30
0.0
 11
-53.7702178955
 21
122.1638946533
 31
0.0
  0
LINE
  5
1F56
330
1F
100
AcDbEntity
  8
Layer1$C$L1$V_PV
 62
     2
100
AcDbLine
 10
-55.4702301025
 20
124.1638946533
 30
0.0
 11
-53.7702178955
 21
124.1638946533
 31
0.0
  0
LINE
  5
1F57
330
1F
100
AcDbEntity
  8
Layer1$C$L1$V_PV
 62
     2
100
AcDbLine
 10
-49.5702056885
 20
121.0638885498
 30
0.0
 11
-49.5702056885
 21
125.6638946533
 31
0.0
  0
LINE
  5
1F58
330
1F
100
AcDbEntity
  8
Layer1$C$L1$V_PV
 62
     2
100
AcDbLine
 10
-48.7702178955
 20
123.8138885498
 30
0.0
 11
-47.2702178955
 21
123.8138885498
 31
0.0
  0
LINE
  5
1F59
330
1F
100
AcDbEntity
  8
Layer1$C$L1$V_PV
 62
     2
100
AcDbLine
 10
-48.7702178955
 20
122.513885498
 30
0.0
 11
-47.2702178955
 21
122.513885498
 31
0.0
  0
LINE
  5
1F5A
330
1F
100
AcDbEntity
  8
Layer1$C$L1$V_PV
 62
     2
100
AcDbLine
 10
-48.7702178955
 20
122.1638946533
 30
0.0
 11
-48.7702178955
 21
124.1638946533
 31
0.0
  0
LINE
  5
1F5B
330
1F
100
AcDbEntity
  8
Layer1$C$L1$V_PV
 62
     2
100
AcDbLine
 10
-47.2702178955
 20
122.513885498
 30
0.0
 11
-47.2702178955
 21
123.8138885498
 31
0.0
  0
LINE
  5
1F5C
330
1F
100
AcDbEntity
  8
Layer1$C$L1$V_PV
 62
     2
100
AcDbLine
 10
-47.0702056885
 20
122.1638946533
 30
0.0
 11
-47.0702056885
 21
124.1638946533
 31
0.0
  0
LINE
  5
1F5D
330
1F
100
AcDbEntity
  8
Layer1$C$L1$V_PV
 62
     2
100
AcDbLine
 10
-48.7702178955
 20
122.1638946533
 30
0.0
 11
-47.0702056885
 21
122.1638946533
 31
0.0
  0
LINE
  5
1F5E
330
1F
100
AcDbEntity
  8
Layer1$C$L1$V_PV
 62
     2
100
AcDbLine
 10
-48.7702178955
 20
124.1638946533
 30
0.0
 11
-47.0702056885
 21
124.1638946533
 31
0.0
  0
LINE
  5
1F5F
330
1F
100
AcDbEntity
  8
Layer1$C$L1$V_PV
100
AcDbLine
 10
-104.5662841797
 20
125.6638946533
 30
0.0
 11
-100.5662841797
 21
125.6638946533
 31
0.0
  0
LINE
  5
1F60
330
1F
100
AcDbEntity
  8
Layer1$C$L1$V_PV
100
AcDbLine
 10
-104.5662841797
 20
111.1638946533
 30
0.0
 11
-98.3662872314
 21
111.1638946533
 31
0.0
  0
LINE
  5
1F61
330
1F
100
AcDbEntity
  8
Layer1$C$L1$V_PV
100
AcDbLine
 10
-103.3662872314
 20
121.6638946533
 30
0.0
 11
-103.3662872314
 21
112.6638946533
 31
0.0
  0
LINE
  5
1F62
330
1F
100
AcDbEntity
  8
Layer1$C$L1$V_PV
100
AcDbLine
 10
-104.5662841797
 20
125.6638946533
 30
0.0
 11
-104.5662841797
 21
111.1638946533
 31
0.0
  0
LINE
  5
1F63
330
1F
100
AcDbEntity
  8
Layer1$C$L1$V_PV
100
AcDbLine
 10
-98.0662841797
 20
112.6638946533
 30
0.0
 11
-98.0662841797
 21
111.4638824463
 31
0.0
  0
LINE
  5
1F64
330
1F
100
AcDbEntity
  8
Layer1$C$L1$V_PV
100
AcDbLine
 10
-103.3662872314
 20
112.6638946533
 30
0.0
 11
-98.0662841797
 21
112.6638946533
 31
0.0
  0
LINE
  5
1F65
330
1F
100
AcDbEntity
  8
Layer3$C$L3$V_PV
  6
CENTERLINE
100
AcDbLine
 10
-96.0903167725
 20
123.1638946533
 30
0.0
 11
-92.7765655518
 21
123.1638946533
 31
0.0
  0
LINE
  5
1F66
330
1F
100
AcDbEntity
  8
Layer1$C$L1$V_PV
100
AcDbLine
 10
-103.3662872314
 20
121.6638946533
 30
0.0
 11
-95.0662841797
 21
121.6638946533
 31
0.0
  0
LINE
  5
1F67
330
1F
100
AcDbEntity
  8
Layer3$C$L3$V_PV
  6
CENTERLINE
100
AcDbLine
 10
-95.0662841797
 20
125.2794494629
 30
0.0
 11
-95.0662841797
 21
120.604019165
 31
0.0
  0
LINE
  5
1F68
330
1F
100
AcDbEntity
  8
Layer1$C$L1$V_PV
100
AcDbLine
 10
-100.5662841797
 20
125.6638946533
 30
0.0
 11
-100.5662841797
 21
124.7965698242
 31
0.0
  0
LINE
  5
1F69
330
1F
100
AcDbEntity
  8
Layer1$C$L1$V_PV
100
AcDbLine
 10
-95.0302256807
 20
124.6634299535
 30
0.0
 11
-100.5662841918
 21
124.7965396651
 31
0.0
  0
LINE
  5
1F6A
330
1F
100
AcDbEntity
  8
Layer4$C$L4$V_PV
  6
PHANTOM
 62
     2
100
AcDbLine
 10
-84.0662994385
 20
120.1638946533
 30
0.0
 11
-83.0662994385
 21
120.1638946533
 31
0.0
  0
LINE
  5
1F6B
330
1F
100
AcDbEntity
  8
Layer4$C$L4$V_PV
  6
PHANTOM
 62
     2
100
AcDbLine
 10
-97.2662811279
 20
126.1638793945
 30
0.0
 11
-83.3663024902
 21
126.1638793945
 31
0.0
  0
LINE
  5
1F6C
330
1F
100
AcDbEntity
  8
Layer4$C$L4$V_PV
  6
PHANTOM
 62
     2
100
AcDbLine
 10
-83.0662994385
 20
120.1638946533
 30
0.0
 11
-83.0662994385
 21
125.8638763428
 31
0.0
  0
LINE
  5
1F6D
330
1F
100
AcDbEntity
  8
Layer4$C$L4$V_PV
  6
PHANTOM
 62
     2
100
AcDbLine
 10
-97.5662841797
 20
124.6638793945
 30
0.0
 11
-97.5662841797
 21
125.8638763428
 31
0.0
  0
LINE
  5
1F6E
330
1F
100
AcDbEntity
  8
Layer4$C$L4$V_PV
  6
PHANTOM
 62
     2
100
AcDbLine
 10
-87.5662841797
 20
121.1638793945
 30
0.0
 11
-84.0662994385
 21
121.1638793945
 31
0.0
  0
LINE
  5
1F6F
330
1F
100
AcDbEntity
  8
Layer4$C$L4$V_PV
  6
PHANTOM
 62
     2
100
AcDbLine
 10
-84.0662994385
 20
120.1638946533
 30
0.0
 11
-84.0662994385
 21
121.1638793945
 31
0.0
  0
LINE
  5
1F70
330
1F
100
AcDbEntity
  8
Layer4$C$L4$V_PV
  6
PHANTOM
 62
     2
100
AcDbLine
 10
-97.5662841797
 20
124.6638793945
 30
0.0
 11
-91.0662841797
 21
124.6638793945
 31
0.0
  0
LINE
  5
1F71
330
1F
100
AcDbEntity
  8
Layer4$C$L4$V_PV
  6
PHANTOM
 62
     2
100
AcDbLine
 10
-91.0663001315
 20
124.6638733345
 30
0.0
 11
-87.5662964159
 21
121.1638693239
 31
0.0
  0
LINE
  5
1F72
330
1F
100
AcDbEntity
  8
Layer1$C$L1$V_PV
 62
     2
100
AcDbLine
 10
-93.5662841797
 20
123.1638793945
 30
0.0
 11
-93.5662841797
 21
124.6638793945
 31
0.0
  0
LINE
  5
1F73
330
1F
100
AcDbEntity
  8
Layer1$C$L1$V_PV
 62
     2
100
AcDbLine
 10
-98.0662689209
 20
112.1638946533
 30
0.0
 11
-98.0662689209
 21
111.1638946533
 31
0.0
  0
LINE
  5
1F74
330
1F
100
AcDbEntity
  8
Layer1$C$L1$V_PV
 62
     2
100
AcDbLine
 10
-92.0662841797
 20
125.3638916016
 30
0.0
 11
-92.0662841797
 21
111.4638824463
 31
0.0
  0
LINE
  5
1F75
330
1F
100
AcDbEntity
  8
Layer1$C$L1$V_PV
 62
     2
100
AcDbLine
 10
-98.0662689209
 20
111.1638946533
 30
0.0
 11
-92.3662872314
 21
111.1638946533
 31
0.0
  0
LINE
  5
1F76
330
1F
100
AcDbEntity
  8
Layer1$C$L1$V_PV
 62
     2
100
AcDbLine
 10
-93.5662841797
 20
125.6638946533
 30
0.0
 11
-92.3662872314
 21
125.6638946533
 31
0.0
  0
LINE
  5
1F77
330
1F
100
AcDbEntity
  8
Layer1$C$L1$V_PV
 62
     2
100
AcDbLine
 10
-97.0662841797
 20
115.6638946533
 30
0.0
 11
-97.0662841797
 21
112.1638946533
 31
0.0
  0
LINE
  5
1F78
330
1F
100
AcDbEntity
  8
Layer1$C$L1$V_PV
 62
     2
100
AcDbLine
 10
-98.0662689209
 20
112.1638946533
 30
0.0
 11
-97.0662841797
 21
112.1638946533
 31
0.0
  0
LINE
  5
1F79
330
1F
100
AcDbEntity
  8
Layer1$C$L1$V_PV
 62
     2
100
AcDbLine
 10
-93.5662841797
 20
125.6638946533
 30
0.0
 11
-93.5662841797
 21
119.1638946533
 31
0.0
  0
LINE
  5
1F7A
330
1F
100
AcDbEntity
  8
Layer1$C$L1$V_PV
 62
     2
100
AcDbLine
 10
-93.566292333
 20
119.1638781589
 30
0.0
 11
-97.0662889258
 21
115.6638818612
 31
0.0
  0
LINE
  5
1F7B
330
1F
100
AcDbEntity
  8
Layer1$C$L1$V_PV
 62
     2
100
AcDbLine
 10
-95.0662841797
 20
121.6638946533
 30
0.0
 11
-93.5662841797
 21
121.6638946533
 31
0.0
  0
LINE
  5
1F7C
330
1F
100
AcDbEntity
  8
Layer1$C$L1$V_PV
 62
     2
100
AcDbLine
 10
-95.4243328844
 20
124.672920683
 30
0.0
 11
-93.5662970527
 21
125.6638730596
 31
0.0
  0
LINE
  5
1F7D
330
1F
100
AcDbEntity
  8
CENTER
100
AcDbLine
 10
-135.5629425049
 20
117.1638946533
 30
0.0
 11
-86.8709564209
 21
117.1638946533
 31
0.0
  0
LINE
  5
1F7E
330
1F
100
AcDbEntity
  8
Layer1$C$L1$V_PV
100
AcDbLine
 10
-98.0662841797
 20
65.171875
 30
0.0
 11
-104.5662994385
 21
65.171875
 31
0.0
  0
LINE
  5
1F7F
330
1F
100
AcDbEntity
  8
Layer1$C$L1$V_PV
 62
     2
100
AcDbLine
 10
-92.3662872314
 20
65.171875
 30
0.0
 11
-98.0662841797
 21
65.171875
 31
0.0
  0
LINE
  5
1F80
330
1F
100
AcDbEntity
  8
CENTER
100
AcDbLine
 10
-57.2702178955
 20
117.1638946533
 30
0.0
 11
-45.2702178955
 21
117.1638946533
 31
0.0
  0
LINE
  5
1F81
330
1F
100
AcDbEntity
  8
Layer1$C$L1$V_PV
100
AcDbLine
 10
-164.8009643555
 20
125.3638916016
 30
0.0
 11
-164.8009643555
 21
111.4638824463
 31
0.0
  0
LINE
  5
1F82
330
1F
100
AcDbEntity
  8
Layer1$C$L1$V_PV
100
AcDbLine
 10
-154.8009643555
 20
125.3638916016
 30
0.0
 11
-154.8009643555
 21
111.4638824463
 31
0.0
  0
LINE
  5
1F83
330
1F
100
AcDbEntity
  8
Layer1$C$L1$V_PV
100
AcDbLine
 10
-164.5009613037
 20
125.6638946533
 30
0.0
 11
-155.1009521484
 21
125.6638946533
 31
0.0
  0
LINE
  5
1F84
330
1F
100
AcDbEntity
  8
Layer1$C$L1$V_PV
100
AcDbLine
 10
-164.5009613037
 20
111.1638946533
 30
0.0
 11
-155.1009521484
 21
111.1638946533
 31
0.0
  0
ARC
  5
1F8B
330
1F
100
AcDbEntity
  8
Layer1$C$L1$V_PV
100
AcDbCircle
 10
-92.3662872314
 20
74.871887207
 30
0.0
 40
0.2999999523
100
AcDbArc
 50
0.0
 51
89.999982013901
  0
ARC
  5
1F8E
330
1F
100
AcDbEntity
  8
Layer1$C$L1$V_PV
100
AcDbCircle
 10
-155.1009521484
 20
111.4638824463
 30
0.0
 40
0.2999999523
100
AcDbArc
 50
270.000017986102
 51
0.0
  0
ARC
  5
1F8F
330
1F
100
AcDbEntity
  8
Layer1$C$L1$V_PV
100
AcDbCircle
 10
-164.5009613037
 20
111.4638824463
 30
0.0
 40
0.2999999523
100
AcDbArc
 50
179.999964027799
 51
270.000000683198
  0
ARC
  5
1F90
330
1F
100
AcDbEntity
  8
Layer1$C$L1$V_PV
100
AcDbCircle
 10
-164.5009613037
 20
125.3638916016
 30
0.0
 40
0.2999999523
100
AcDbArc
 50
89.999982013898
 51
179.999964027799
  0
ARC
  5
1F91
330
1F
100
AcDbEntity
  8
Layer1$C$L1$V_PV
100
AcDbCircle
 10
-155.1009521484
 20
125.3638916016
 30
0.0
 40
0.2999999523
100
AcDbArc
 50
0.0
 51
89.999982013898
  0
ARC
  5
1F92
330
1F
100
AcDbEntity
  8
Layer1$C$L1$V_PV
 62
     2
100
AcDbCircle
 10
-46.5702209473
 20
125.3638916016
 30
0.0
 40
0.2999999523
100
AcDbArc
 50
0.0
 51
89.999982013904
  0
ARC
  5
1F93
330
1F
100
AcDbEntity
  8
Layer1$C$L1$V_PV
 62
     2
100
AcDbCircle
 10
-55.9702301025
 20
125.3638916016
 30
0.0
 40
0.2999999523
100
AcDbArc
 50
89.999982013898
 51
179.999964027799
  0
ARC
  5
1F94
330
1F
100
AcDbEntity
  8
Layer1$C$L1$V_PV
 62
     2
100
AcDbCircle
 10
-55.9702301025
 20
111.4638824463
 30
0.0
 40
0.2999999523
100
AcDbArc
 50
179.999964027799
 51
270.000000683203
  0
ARC
  5
1F95
330
1F
100
AcDbEntity
  8
Layer1$C$L1$V_PV
 62
     2
100
AcDbCircle
 10
-46.5702209473
 20
111.4638824463
 30
0.0
 40
0.2999999523
100
AcDbArc
 50
270.000017986096
 51
0.0
  0
CIRCLE
  5
1F96
330
1F
100
AcDbEntity
  8
Layer1$C$L1$V_PV
 62
     2
100
AcDbCircle
 10
-51.2702178955
 20
113.1638946533
 30
0.0
 40
0.5
  0
ARC
  5
1F97
330
1F
100
AcDbEntity
  8
Layer1$C$L1$V_PV
100
AcDbCircle
 10
-98.3662872314
 20
111.4638824463
 30
0.0
 40
0.2999999523
100
AcDbArc
 50
270.000017986099
 51
0.0
  0
ARC
  5
1F98
330
1F
100
AcDbEntity
  8
Layer1$C$L1$V_PV
100
AcDbCircle
 10
-95.0662841797
 20
123.1638946533
 30
0.0
 40
1.5
100
AcDbArc
 50
270.0000179861
 51
89.9999820139
  0
ARC
  5
1F99
330
1F
100
AcDbEntity
  8
Layer4$C$L4$V_PV
  6
PHANTOM
 62
     2
100
AcDbCircle
 10
-83.3662872314
 20
125.8638763428
 30
0.0
 40
0.2999999523
100
AcDbArc
 50
0.0
 51
89.999982013901
  0
ARC
  5
1F9A
330
1F
100
AcDbEntity
  8
Layer4$C$L4$V_PV
  6
PHANTOM
 62
     2
100
AcDbCircle
 10
-97.2662811279
 20
125.8638916016
 30
0.0
 40
0.2999999523
100
AcDbArc
 50
89.999982013901
 51
179.999964027799
  0
ARC
  5
1F9B
330
1F
100
AcDbEntity
  8
Layer1$C$L1$V_PV
 62
     2
100
AcDbCircle
 10
-92.3662872314
 20
111.4638824463
 30
0.0
 40
0.2999999523
100
AcDbArc
 50
270.000017986099
 51
0.0
  0
ARC
  5
1F9C
330
1F
100
AcDbEntity
  8
Layer1$C$L1$V_PV
 62
     2
100
AcDbCircle
 10
-92.3662872314
 20
125.3638916016
 30
0.0
 40
0.2999999523
100
AcDbArc
 50
0.0
 51
89.999982013901
  0
ARC
  5
1F9D
330
1F
100
AcDbEntity
  8
Layer1$C$L1$V_PV
100
AcDbCircle
 10
-92.3662872314
 20
65.471862793
 30
0.0
 40
0.2999999523
100
AcDbArc
 50
270.000072627599
 51
0.0
  0
CIRCLE
  5
1F9E
330
1F
100
AcDbEntity
  8
Layer1$C$L1$V_PV
100
AcDbCircle
 10
-159.8009643555
 20
117.1638946533
 30
0.0
 40
4.0
  0
INSERT
  5
1F9F
330
1F
100
AcDbEntity
  8
Layer8$C$L8$V_PV
100
AcDbBlockReference
 66
     1
  2
Cadra_attr_4
 10
0.0
 20
0.0
 30
0.0
  0
ATTRIB
  5
1FA0
330
1F9F
100
AcDbEntity
  8
Layer8$C$L8$V_PV
100
AcDbText
 10
-41.999993
 20
18.5
 30
0.0
 40
0.156
  1
・^HV  ・
100
AcDbAttribute
  2
20
 70
     1
  0
SEQEND
  5
1FA1
330
1F9F
100
AcDbEntity
  8
Layer8$C$L8$V_PV
  0
VIEWPORT
  5
A5D
102
{ACAD_XDICTIONARY
360
1FAC
102
}
330
1B
100
AcDbEntity
 67
     1
  8
0
100
AcDbViewport
 10
128.5
 20
97.5
 30
0.0
 40
314.226
 41
222.18
 68
     1
 69
     1
 12
128.5
 22
97.5
 13
0.0
 23
0.0
 14
10.0
 24
10.0
 15
10.0
 25
10.0
 16
0.0
 26
0.0
 36
1.0
 17
0.0
 27
0.0
 37
0.0
 42
50.0
 43
0.0
 44
0.0
 45
222.18
 50
0.0
 51
0.0
 72
   100
 90
   557152
  1

281
     0
 71
     1
 74
     0
110
0.0
120
0.0
130
0.0
111
1.0
121
0.0
131
0.0
112
0.0
122
1.0
132
0.0
 79
     0
146
0.0
  0
VIEWPORT
  5
A5E
102
{ACAD_XDICTIONARY
360
1FAE
102
}
330
1B
100
AcDbEntity
 67
     1
  8
細線
100
AcDbViewport
 10
128.5
 20
97.5
 30
0.0
 40
237.6
 41
168.0
 68
     2
 69
     2
 12
-54.5
 22
148.496316566721
 13
0.0
 23
0.0
 14
10.0
 24
10.0
 15
10.0
 25
10.0
 16
0.0
 26
0.007043288561362715
 36
0.9999751957354952
 17
0.0
 27
0.005642804872
 37
0.801140668476
 42
50.0
 43
0.0
 44
0.0
 45
302.932485796111
 50
0.0
 51
0.0
 72
   100
 90
   557168
  1

281
     0
 71
     1
 74
     0
110
0.0
120
0.0
130
0.0
111
1.0
121
0.0
131
0.0
112
0.0
122
1.0
132
0.0
 79
     0
146
0.0
  0
ENDSEC
  0
SECTION
  2
OBJECTS
  0
DICTIONARY
  5
C
330
0
100
AcDbDictionary
281
     1
  3
ACAD_COLOR
350
1CF4
  3
ACAD_GROUP
350
D
  3
ACAD_IMAGE_DICT
350
84
  3
ACAD_LAYOUT
350
1A
  3
ACAD_MATERIAL
350
3B
  3
ACAD_MLEADERSTYLE
350
6C
  3
ACAD_MLINESTYLE
350
17
  3
ACAD_PLOTSETTINGS
350
19
  3
ACAD_PLOTSTYLENAME
350
E
  3
ACAD_SCALELIST
350
3F
  3
ACAD_TABLESTYLE
350
6B
  3
ACAD_VISUALSTYLE
350
2A
  3
ACDBHEADERROUNDTRIPXREC
350
1FA8
  3
AcDbVariableDictionary
350
69
  3
DWGPROPS
350
1FAB
  0
DICTIONARY
  5
1FB0
330
8
100
AcDbDictionary
280
     1
281
     1
  3
ACAD_XREC_ROUNDTRIP
360
1FB1
  0
DICTIONARY
  5
56C
330
1F
100
AcDbDictionary
280
     1
281
     1
  3
ACAD_SORTENTS
360
56D
  0
DICTIONARY
  5
19B4
330
19B3
100
AcDbDictionary
280
     1
281
     1
  3
ACAD_SORTENTS
360
19B5
  0
DICTIONARY
  5
1C92
330
1C91
100
AcDbDictionary
280
     1
281
     1
  3
ACAD_SORTENTS
360
1C93
  0
DICTIONARY
  5
1FAC
330
A5D
100
AcDbDictionary
280
     1
281
     1
  3
ACAD_XREC_ROUNDTRIP
360
1FAD
  0
DICTIONARY
  5
1FAE
330
A5E
100
AcDbDictionary
280
     1
281
     1
  3
ACAD_XREC_ROUNDTRIP
360
1FAF
  0
DICTIONARY
  5
1CF4
102
{ACAD_REACTORS
330
C
102
}
330
C
100
AcDbDictionary
281
     1
  0
DICTIONARY
  5
D
102
{ACAD_REACTORS
330
C
102
}
330
C
100
AcDbDictionary
281
     1
  0
DICTIONARY
  5
84
102
{ACAD_REACTORS
330
C
102
}
330
C
100
AcDbDictionary
281
     1
  0
DICTIONARY
  5
1A
102
{ACAD_REACTORS
330
C
102
}
330
C
100
AcDbDictionary
281
     1
  3
Layout1
350
1E
  3
Model
350
22
  0
DICTIONARY
  5
3B
102
{ACAD_REACTORS
330
C
102
}
330
C
100
AcDbDictionary
281
     1
  3
ByBlock
350
3D
  3
ByLayer
350
3C
  3
Global
350
3E
  0
DICTIONARY
  5
6C
102
{ACAD_REACTORS
330
C
102
}
330
C
100
AcDbDictionary
281
     1
  3
Standard
350
1CDE
  0
DICTIONARY
  5
17
102
{ACAD_REACTORS
330
C
102
}
330
C
100
AcDbDictionary
281
     1
  3
Standard
350
18
  0
DICTIONARY
  5
19
102
{ACAD_REACTORS
330
C
102
}
330
C
100
AcDbDictionary
281
     1
  0
ACDBDICTIONARYWDFLT
  5
E
102
{ACAD_REACTORS
330
C
102
}
330
C
100
AcDbDictionary
281
     1
  3
Normal
350
F
100
AcDbDictionaryWithDefault
340
F
  0
DICTIONARY
  5
3F
102
{ACAD_REACTORS
330
C
102
}
330
C
100
AcDbDictionary
281
     1
  3
A0
350
40
  3
A1
350
41
  3
A2
350
42
  3
A3
350
43
  3
A4
350
44
  3
A5
350
45
  3
A6
350
46
  3
A7
350
47
  3
A8
350
48
  3
A9
350
49
  3
B0
350
4A
  3
B1
350
4B
  3
B2
350
4C
  3
B3
350
4D
  3
B4
350
4E
  3
B5
350
4F
  3
B6
350
50
  3
B7
350
51
  3
B8
350
52
  3
B9
350
53
  3
C0
350
54
  3
C1
350
55
  3
C2
350
56
  3
C3
350
57
  3
C4
350
58
  3
C5
350
59
  3
C6
350
5A
  3
C7
350
5B
  3
C8
350
5C
  3
C9
350
5D
  3
D0
350
5E
  3
D1
350
5F
  3
D2
350
60
  0
DICTIONARY
  5
6B
102
{ACAD_REACTORS
330
C
102
}
330
C
100
AcDbDictionary
281
     1
  3
Standard
350
17B
  0
DICTIONARY
  5
2A
102
{ACAD_REACTORS
330
C
102
}
330
C
100
AcDbDictionary
281
     1
  3
2dWireframe
350
2F
  3
3D Hidden
350
31
  3
3dWireframe
350
30
  3
Basic
350
32
  3
Brighten
350
36
  3
ColorChange
350
3A
  3
Conceptual
350
34
  3
Dim
350
35
  3
EdgeColorOff
350
1C12
  3
Facepattern
350
39
  3
Flat
350
2B
  3
FlatWithEdges
350
2C
  3
Gouraud
350
2D
  3
GouraudWithEdges
350
2E
  3
Hidden
350
1C0F
  3
JitterOff
350
1C10
  3
Linepattern
350
38
  3
Modeling
350
1CDF
  3
OverhangOff
350
1C11
  3
Realistic
350
33
  3
Shaded
350
1C17
  3
Shaded with edges
350
1C16
  3
Shades of Gray
350
1C13
  3
Sketchy
350
1C14
  3
Thicken
350
37
  3
Wireframe
350
1C0E
  3
X-Ray
350
1C15
  0
DICTIONARY
  5
1FA8
102
{ACAD_REACTORS
330
C
102
}
330
C
100
AcDbDictionary
281
     1
  3
COLORDICT
350
1FA9
  3
MATERIALDICT
350
1FAA
  0
DICTIONARY
  5
69
102
{ACAD_REACTORS
330
C
102
}
330
C
100
AcDbDictionary
281
     1
  3
CANNOSCALE
350
6A
  3
CMLEADERSTYLE
350
1FA3
  3
CTABLESTYLE
350
1FA2
  3
DIMASSOC
350
1FA6
  3
HIDETEXT
350
1FA7
  3
MSLTSCALE
350
1FB3
  3
PSOLHEIGHT
350
1FA5
  3
PSOLWIDTH
350
1FA4
  3
XCLIPFRAME
350
1C0D
  0
XRECORD
  5
1FAB
102
{ACAD_REACTORS
330
C
102
}
330
C
100
AcDbXrecord
280
     1
  1
DWGPROPS COOKIE
  2

  3

  4

  6

  7

  8
3660
  9

300
=
301
=
302
=
303
=
304
=
305
=
306
=
307
=
308
=
309
=
 40
0.0
 41
2455692.190455474
 42
2457458.175194467
  1

 90
        0
  0
XRECORD
  5
1FB1
102
{ACAD_REACTORS
330
1FB0
102
}
330
1FB0
100
AcDbXrecord
280
     1
102
VTR_0.000_0.000_1.000_1.000_VISUALSTYLE
340
2F
102
VTR_0.000_0.000_1.000_1.000_GRIDDISPLAY
 70
     3
102
VTR_0.000_0.000_1.000_1.000_GRIDMAJOR
 70
     5
102
VTR_0.000_0.000_1.000_1.000_DEFAULTLIGHTING
280
     1
102
VTR_0.000_0.000_1.000_1.000_DEFAULTLIGHTINGTYPE
 70
     1
102
VTR_0.000_0.000_1.000_1.000_BRIGHTNESS
141
0.0
102
VTR_0.000_0.000_1.000_1.000_CONTRAST
142
0.0
  0
SORTENTSTABLE
  5
56D
102
{ACAD_REACTORS
330
56C
102
}
330
56C
100
AcDbSortentsTable
330
1F
331
0
  5
5EB
  0
SORTENTSTABLE
  5
19B5
102
{ACAD_REACTORS
330
19B4
102
}
330
19B4
100
AcDbSortentsTable
330
19B3
  0
SORTENTSTABLE
  5
1C93
102
{ACAD_REACTORS
330
1C92
102
}
330
1C92
100
AcDbSortentsTable
330
1C91
  0
XRECORD
  5
1FAD
102
{ACAD_REACTORS
330
1FAC
102
}
330
1FAC
100
AcDbXrecord
280
     1
102
VISUALSTYLE
340
2F
102
GRIDDISPLAY
 70
     2
102
GRIDMAJOR
 70
     5
102
DEFAULTLIGHTING
280
     1
102
DEFAULTLIGHTINGTYPE
 70
     1
102
BRIGHTNESS
141
0.0
102
CONTRAST
142
0.0
  0
XRECORD
  5
1FAF
102
{ACAD_REACTORS
330
1FAE
102
}
330
1FAE
100
AcDbXrecord
280
     1
102
VISUALSTYLE
340
2F
102
GRIDDISPLAY
 70
     2
102
GRIDMAJOR
 70
     5
102
DEFAULTLIGHTING
280
     1
102
DEFAULTLIGHTINGTYPE
 70
     1
102
BRIGHTNESS
141
0.0
102
CONTRAST
142
0.0
  0
LAYOUT
  5
1E
102
{ACAD_REACTORS
330
1A
102
}
330
1A
100
AcDbPlotSettings
  1

  2
none_device
  4
ISO_A4_(210.00_x_297.00_MM)
  6

 40
7.5
 41
20.0
 42
7.5
 43
20.0
 44
210.0
 45
297.0
 46
0.0
 47
0.0
 48
0.0
 49
0.0
140
0.0
141
0.0
142
1.0
143
1.0
 70
   688
 72
     1
 73
     1
 74
     5
  7
monochrome.ctb
 75
    16
147
1.0
148
0.0
149
0.0
100
AcDbLayout
  1
Layout1
 70
     1
 71
     1
 10
-20.0
 20
-7.5
 11
277.0
 21
202.5
 12
0.0
 22
0.0
 32
0.0
 14
9.7
 24
13.5
 34
0.0
 15
247.3
 25
181.5
 35
0.0
146
0.0
 13
0.0
 23
0.0
 33
0.0
 16
1.0
 26
0.0
 36
0.0
 17
0.0
 27
1.0
 37
0.0
 76
     0
330
1B
331
A5D
  0
LAYOUT
  5
22
102
{ACAD_REACTORS
330
1A
102
}
330
1A
100
AcDbPlotSettings
  1

  2
\\s-w03-ad002\FX DocuWide 2050 (本社7F)
  4
A4
  6

 40
0.0
 41
0.0
 42
0.0
 43
0.0
 44
210.0
 45
297.0
 46
0.0
 47
0.0
 48
-210.0
 49
0.0
140
0.0
141
297.0
142
1.0
143
1.0
 70
  1200
 72
     1
 73
     0
 74
     4
  7
monochrome.ctb
 75
    16
147
1.0
148
0.0
149
0.0
100
AcDbLayout
  1
Model
 70
     1
 71
     0
 10
0.0
 20
0.0
 11
-210.0
 21
297.0
 12
0.0
 22
0.0
 32
0.0
 14
-210.0
 24
0.0
 34
0.0
 15
0.0
 25
297.0
 35
0.0
146
0.0
 13
0.0
 23
0.0
 33
0.0
 16
1.0
 26
0.0
 36
0.0
 17
0.0
 27
1.0
 37
0.0
 76
     0
330
1F
331
29
  0
MATERIAL
  5
3D
102
{ACAD_REACTORS
330
3B
102
}
102
{ACAD_XDICTIONARY
360
1FEC
102
}
330
3B
100
AcDbMaterial
  1
ByBlock
  0
MATERIAL
  5
3C
102
{ACAD_REACTORS
330
3B
102
}
102
{ACAD_XDICTIONARY
360
1FEA
102
}
330
3B
100
AcDbMaterial
  1
ByLayer
  0
MATERIAL
  5
3E
102
{ACAD_REACTORS
330
3B
102
}
102
{ACAD_XDICTIONARY
360
1FEE
102
}
330
3B
100
AcDbMaterial
  1
Global
  0
MLEADERSTYLE
  5
1CDE
102
{ACAD_REACTORS
330
6C
102
}
102
{ACAD_XDICTIONARY
360
1FF1
102
}
330
6C
100
AcDbMLeaderStyle
170
     2
171
     1
172
     0
 90
        2
 40
0.0
 41
0.0
173
     1
 91
-1056964608
340
14
 92
       -2
290
     1
 42
2.0
291
     1
 43
8.0
  3
Standard
341
0
 44
4.0
300

342
11
174
     1
178
     6
175
     1
176
     0
 93
-1056964608
 45
4.0
292
     0
297
     0
 46
4.0
343
0
 94
-1056964608
 47
1.0
 49
1.0
140
1.0
293
     1
141
0.0
294
     1
177
     0
142
1.0
295
     0
296
     0
143
3.75
1001
ACAD_MLEADERVER
1070
     2
  0
MLINESTYLE
  5
18
102
{ACAD_REACTORS
330
17
102
}
330
17
100
AcDbMlineStyle
  2
Standard
 70
     0
  3

 62
   256
 51
90.0
 52
90.0
 71
     2
 49
0.5
 62
   256
  6
BYLAYER
 49
-0.5
 62
   256
  6
BYLAYER
  0
ACDBPLACEHOLDER
  5
F
102
{ACAD_REACTORS
330
E
102
}
330
E
  0
SCALE
  5
40
102
{ACAD_REACTORS
330
3F
102
}
330
3F
100
AcDbScale
 70
     0
300
1:1
140
1.0
141
1.0
290
     1
  0
SCALE
  5
41
102
{ACAD_REACTORS
330
3F
102
}
330
3F
100
AcDbScale
 70
     0
300
1:2
140
1.0
141
2.0
290
     0
  0
SCALE
  5
42
102
{ACAD_REACTORS
330
3F
102
}
330
3F
100
AcDbScale
 70
     0
300
1:4
140
1.0
141
4.0
290
     0
  0
SCALE
  5
43
102
{ACAD_REACTORS
330
3F
102
}
330
3F
100
AcDbScale
 70
     0
300
1:5
140
1.0
141
5.0
290
     0
  0
SCALE
  5
44
102
{ACAD_REACTORS
330
3F
102
}
330
3F
100
AcDbScale
 70
     0
300
1:8
140
1.0
141
8.0
290
     0
  0
SCALE
  5
45
102
{ACAD_REACTORS
330
3F
102
}
330
3F
100
AcDbScale
 70
     0
300
1:10
140
1.0
141
10.0
290
     0
  0
SCALE
  5
46
102
{ACAD_REACTORS
330
3F
102
}
330
3F
100
AcDbScale
 70
     0
300
1:16
140
1.0
141
16.0
290
     0
  0
SCALE
  5
47
102
{ACAD_REACTORS
330
3F
102
}
330
3F
100
AcDbScale
 70
     0
300
1:20
140
1.0
141
20.0
290
     0
  0
SCALE
  5
48
102
{ACAD_REACTORS
330
3F
102
}
330
3F
100
AcDbScale
 70
     0
300
1:30
140
1.0
141
30.0
290
     0
  0
SCALE
  5
49
102
{ACAD_REACTORS
330
3F
102
}
330
3F
100
AcDbScale
 70
     0
300
1:40
140
1.0
141
40.0
290
     0
  0
SCALE
  5
4A
102
{ACAD_REACTORS
330
3F
102
}
330
3F
100
AcDbScale
 70
     0
300
1:50
140
1.0
141
50.0
290
     0
  0
SCALE
  5
4B
102
{ACAD_REACTORS
330
3F
102
}
330
3F
100
AcDbScale
 70
     0
300
1:100
140
1.0
141
100.0
290
     0
  0
SCALE
  5
4C
102
{ACAD_REACTORS
330
3F
102
}
330
3F
100
AcDbScale
 70
     0
300
2:1
140
2.0
141
1.0
290
     0
  0
SCALE
  5
4D
102
{ACAD_REACTORS
330
3F
102
}
330
3F
100
AcDbScale
 70
     0
300
4:1
140
4.0
141
1.0
290
     0
  0
SCALE
  5
4E
102
{ACAD_REACTORS
330
3F
102
}
330
3F
100
AcDbScale
 70
     0
300
8:1
140
8.0
141
1.0
290
     0
  0
SCALE
  5
4F
102
{ACAD_REACTORS
330
3F
102
}
330
3F
100
AcDbScale
 70
     0
300
10:1
140
10.0
141
1.0
290
     0
  0
SCALE
  5
50
102
{ACAD_REACTORS
330
3F
102
}
330
3F
100
AcDbScale
 70
     0
300
100:1
140
100.0
141
1.0
290
     0
  0
SCALE
  5
51
102
{ACAD_REACTORS
330
3F
102
}
330
3F
100
AcDbScale
 70
     0
300
1/128" = 1'-0"
140
0.0078125
141
12.0
290
     0
  0
SCALE
  5
52
102
{ACAD_REACTORS
330
3F
102
}
330
3F
100
AcDbScale
 70
     0
300
1/64" = 1'-0"
140
0.015625
141
12.0
290
     0
  0
SCALE
  5
53
102
{ACAD_REACTORS
330
3F
102
}
330
3F
100
AcDbScale
 70
     0
300
1/32" = 1'-0"
140
0.03125
141
12.0
290
     0
  0
SCALE
  5
54
102
{ACAD_REACTORS
330
3F
102
}
330
3F
100
AcDbScale
 70
     0
300
1/16" = 1'-0"
140
0.0625
141
12.0
290
     0
  0
SCALE
  5
55
102
{ACAD_REACTORS
330
3F
102
}
330
3F
100
AcDbScale
 70
     0
300
3/32" = 1'-0"
140
0.09375
141
12.0
290
     0
  0
SCALE
  5
56
102
{ACAD_REACTORS
330
3F
102
}
330
3F
100
AcDbScale
 70
     0
300
1/8" = 1'-0"
140
0.125
141
12.0
290
     0
  0
SCALE
  5
57
102
{ACAD_REACTORS
330
3F
102
}
330
3F
100
AcDbScale
 70
     0
300
3/16" = 1'-0"
140
0.1875
141
12.0
290
     0
  0
SCALE
  5
58
102
{ACAD_REACTORS
330
3F
102
}
330
3F
100
AcDbScale
 70
     0
300
1/4" = 1'-0"
140
0.25
141
12.0
290
     0
  0
SCALE
  5
59
102
{ACAD_REACTORS
330
3F
102
}
330
3F
100
AcDbScale
 70
     0
300
3/8" = 1'-0"
140
0.375
141
12.0
290
     0
  0
SCALE
  5
5A
102
{ACAD_REACTORS
330
3F
102
}
330
3F
100
AcDbScale
 70
     0
300
1/2" = 1'-0"
140
0.5
141
12.0
290
     0
  0
SCALE
  5
5B
102
{ACAD_REACTORS
330
3F
102
}
330
3F
100
AcDbScale
 70
     0
300
3/4" = 1'-0"
140
0.75
141
12.0
290
     0
  0
SCALE
  5
5C
102
{ACAD_REACTORS
330
3F
102
}
330
3F
100
AcDbScale
 70
     0
300
1" = 1'-0"
140
1.0
141
12.0
290
     0
  0
SCALE
  5
5D
102
{ACAD_REACTORS
330
3F
102
}
330
3F
100
AcDbScale
 70
     0
300
1-1/2" = 1'-0"
140
1.5
141
12.0
290
     0
  0
SCALE
  5
5E
102
{ACAD_REACTORS
330
3F
102
}
330
3F
100
AcDbScale
 70
     0
300
3" = 1'-0"
140
3.0
141
12.0
290
     0
  0
SCALE
  5
5F
102
{ACAD_REACTORS
330
3F
102
}
330
3F
100
AcDbScale
 70
     0
300
6" = 1'-0"
140
6.0
141
12.0
290
     0
  0
SCALE
  5
60
102
{ACAD_REACTORS
330
3F
102
}
330
3F
100
AcDbScale
 70
     0
300
1'-0" = 1'-0"
140
12.0
141
12.0
290
     0
  0
TABLESTYLE
  5
17B
102
{ACAD_REACTORS
330
6B
102
}
330
6B
100
AcDbTableStyle
  3

 70
     0
 71
     0
 40
0.06
 41
0.06
280
     0
281
     0
  7
Standard
140
4.5
170
     2
 62
     0
 63
   257
283
     0
274
    -2
284
     1
 64
     0
275
    -2
285
     1
 65
     0
276
    -2
286
     1
 66
     0
277
    -2
287
     1
 67
     0
278
    -2
288
     1
 68
     0
279
    -2
289
     1
 69
     0
  7
Standard
140
6.0
170
     5
 62
     0
 63
   257
283
     0
274
    -2
284
     1
 64
     0
275
    -2
285
     1
 65
     0
276
    -2
286
     1
 66
     0
277
    -2
287
     1
 67
     0
278
    -2
288
     1
 68
     0
279
    -2
289
     1
 69
     0
  7
Standard
140
4.5
170
     5
 62
     0
 63
   257
283
     0
274
    -2
284
     1
 64
     0
275
    -2
285
     1
 65
     0
276
    -2
286
     1
 66
     0
277
    -2
287
     1
 67
     0
278
    -2
288
     1
 68
     0
279
    -2
289
     1
 69
     0
  0
VISUALSTYLE
  5
2F
102
{ACAD_REACTORS
330
2A
102
}
102
{ACAD_XDICTIONARY
360
1FBC
102
}
330
2A
100
AcDbVisualStyle
  2
2dWireframe
 70
     4
 71
     0
 72
     2
 73
     0
 90
        0
 40
-0.6
 41
-30.0
 62
     5
 63
     7
 74
     1
 91
        4
 64
     7
 65
   257
 75
     1
175
     1
 42
1.0
 92
        0
 66
   257
 43
1.0
 76
     1
 77
     6
 78
     2
 67
     7
 79
     5
170
     0
171
     0
290
     0
174
     0
 93
        1
 44
0.0
173
     0
291
     0
 45
0.0
1001
ACAD
1000
AcDbSavedByObjectVersion
1070
     0
  0
VISUALSTYLE
  5
31
102
{ACAD_REACTORS
330
2A
102
}
102
{ACAD_XDICTIONARY
360
1FC0
102
}
330
2A
100
AcDbVisualStyle
  2
3D Hidden
 70
     6
 71
     1
 72
     2
 73
     2
 90
        0
 40
-0.6
 41
-30.0
 62
     5
 63
     7
 74
     2
 91
        2
 64
     7
 65
   257
 75
     2
175
     1
 42
40.0
 92
        0
 66
   257
 43
1.0
 76
     1
 77
     6
 78
     2
 67
     7
 79
     3
170
     0
171
     0
290
     0
174
     0
 93
        1
 44
0.0
173
     0
291
     0
 45
0.0
1001
ACAD
1000
AcDbSavedByObjectVersion
1070
     0
  0
VISUALSTYLE
  5
30
102
{ACAD_REACTORS
330
2A
102
}
102
{ACAD_XDICTIONARY
360
1FBE
102
}
330
2A
100
AcDbVisualStyle
  2
3dWireframe
 70
     5
 71
     0
 72
     2
 73
     0
 90
        0
 40
-0.6
 41
-30.0
 62
     5
 63
     7
 74
     1
 91
        4
 64
     7
 65
   257
 75
     1
175
     1
 42
1.0
 92
        0
 66
   257
 43
1.0
 76
     1
 77
     6
 78
     2
 67
     7
 79
     5
170
     0
171
     0
290
     0
174
     0
 93
        1
 44
0.0
173
     0
291
     0
 45
0.0
1001
ACAD
1000
AcDbSavedByObjectVersion
1070
     0
  0
VISUALSTYLE
  5
32
102
{ACAD_REACTORS
330
2A
102
}
102
{ACAD_XDICTIONARY
360
1FC2
102
}
330
2A
100
AcDbVisualStyle
  2
Basic
 70
     7
 71
     1
 72
     0
 73
     1
 90
        0
 40
-0.6
 41
-30.0
 62
     5
 63
     7
 74
     0
 91
        4
 64
     7
 65
   257
 75
     1
175
     1
 42
1.0
 92
        8
 66
     7
 43
1.0
 76
     1
 77
     6
 78
     2
 67
     7
 79
     5
170
     0
171
     0
290
     0
174
     0
 93
        1
 44
0.0
173
     0
291
     1
 45
0.0
1001
ACAD
1000
AcDbSavedByObjectVersion
1070
     0
  0
VISUALSTYLE
  5
36
102
{ACAD_REACTORS
330
2A
102
}
102
{ACAD_XDICTIONARY
360
1FCA
102
}
330
2A
100
AcDbVisualStyle
  2
Brighten
 70
    12
 71
     2
 72
     2
 73
     0
 90
        0
 40
-0.6
 41
-30.0
 62
     5
 63
     7
 74
     1
 91
        4
 64
     7
 65
   257
 75
     1
175
     1
 42
1.0
 92
        8
 66
     7
 43
1.0
 76
     1
 77
     6
 78
     2
 67
     7
 79
     5
170
     0
171
     0
290
     0
174
     0
 93
        1
 44
50.0
173
     0
291
     1
 45
0.0
1001
ACAD
1000
AcDbSavedByObjectVersion
1070
     0
  0
VISUALSTYLE
  5
3A
102
{ACAD_REACTORS
330
2A
102
}
102
{ACAD_XDICTIONARY
360
1FD2
102
}
330
2A
100
AcDbVisualStyle
  2
ColorChange
 70
    16
 71
     2
 72
     2
 73
     3
 90
        0
 40
-0.6
 41
-30.0
 62
     5
 63
     8
 74
     1
 91
        4
 64
     7
 65
   257
 75
     1
175
     1
 42
1.0
 92
        8
 66
     8
 43
1.0
 76
     1
 77
     6
 78
     2
 67
     7
 79
     5
170
     0
171
     0
290
     0
174
     0
 93
        1
 44
0.0
173
     0
291
     1
 45
0.0
1001
ACAD
1000
AcDbSavedByObjectVersion
1070
     0
  0
VISUALSTYLE
  5
34
102
{ACAD_REACTORS
330
2A
102
}
102
{ACAD_XDICTIONARY
360
1FC6
102
}
330
2A
100
AcDbVisualStyle
  2
Conceptual
 70
     9
 71
     3
 72
     2
 73
     0
 90
        0
 40
-0.6
 41
-30.0
 62
     5
 63
     7
 74
     2
 91
        2
 64
     7
 65
   257
 75
     1
175
     1
 42
40.0
 92
        8
 66
     7
 43
1.0
 76
     1
 77
     6
 78
     2
 67
     7
 79
     3
170
     0
171
     0
290
     0
174
     0
 93
        1
 44
0.0
173
     0
291
     0
 45
0.0
1001
ACAD
1000
AcDbSavedByObjectVersion
1070
     0
  0
VISUALSTYLE
  5
35
102
{ACAD_REACTORS
330
2A
102
}
102
{ACAD_XDICTIONARY
360
1FC8
102
}
330
2A
100
AcDbVisualStyle
  2
Dim
 70
    11
 71
     2
 72
     2
 73
     0
 90
        0
 40
-0.6
 41
-30.0
 62
     5
 63
     7
 74
     1
 91
        4
 64
     7
 65
   257
 75
     1
175
     1
 42
1.0
 92
        8
 66
     7
 43
1.0
 76
     1
 77
     6
 78
     2
 67
     7
 79
     5
170
     0
171
     0
290
     0
174
     0
 93
        1
 44
-50.0
173
     0
291
     1
 45
0.0
1001
ACAD
1000
AcDbSavedByObjectVersion
1070
     0
  0
VISUALSTYLE
  5
1C12
102
{ACAD_REACTORS
330
2A
102
}
102
{ACAD_XDICTIONARY
360
1FDC
102
}
330
2A
100
AcDbVisualStyle
  2
EdgeColorOff
 70
    22
 71
     2
 72
     2
 73
     0
 90
        0
 40
0.6
 41
30.0
 62
     5
 63
     7
 74
     1
 91
        4
 64
     7
 65
   257
 75
     1
175
     1
 42
1.0
 92
        8
 66
     7
 43
1.0
 76
     1
 77
     6
 78
     2
 67
     7
 79
     5
170
     0
171
     0
290
     0
174
     0
 93
        1
 44
0.0
173
     0
291
     1
 45
0.0
1001
ACAD
1000
AcDbSavedByObjectVersion
1070
     0
  0
VISUALSTYLE
  5
39
102
{ACAD_REACTORS
330
2A
102
}
102
{ACAD_XDICTIONARY
360
1FD0
102
}
330
2A
100
AcDbVisualStyle
  2
Facepattern
 70
    15
 71
     2
 72
     2
 73
     0
 90
        0
 40
-0.6
 41
-30.0
 62
     5
 63
     7
 74
     1
 91
        4
 64
     7
 65
   257
 75
     1
175
     1
 42
1.0
 92
        8
 66
     7
 43
1.0
 76
     1
 77
     6
 78
     2
 67
     7
 79
     5
170
     0
171
     0
290
     0
174
     0
 93
        1
 44
0.0
173
     0
291
     1
 45
0.0
1001
ACAD
1000
AcDbSavedByObjectVersion
1070
     0
  0
VISUALSTYLE
  5
2B
102
{ACAD_REACTORS
330
2A
102
}
102
{ACAD_XDICTIONARY
360
1FB4
102
}
330
2A
100
AcDbVisualStyle
  2
Flat
 70
     0
 71
     2
 72
     1
 73
     1
 90
        2
 40
-0.6
 41
30.0
 62
     5
 63
     7
 74
     0
 91
        4
 64
     7
 65
   257
 75
     1
175
     1
 42
1.0
 92
        8
 66
     7
 43
1.0
 76
     1
 77
     6
 78
     2
 67
     7
 79
     5
170
     0
171
     0
290
     0
174
     0
 93
       13
 44
0.0
173
     0
291
     1
 45
0.0
1001
ACAD
1000
AcDbSavedByObjectVersion
1070
     0
  0
VISUALSTYLE
  5
2C
102
{ACAD_REACTORS
330
2A
102
}
102
{ACAD_XDICTIONARY
360
1FB6
102
}
330
2A
100
AcDbVisualStyle
  2
FlatWithEdges
 70
     1
 71
     2
 72
     1
 73
     1
 90
        2
 40
-0.6
 41
30.0
 62
     5
 63
     7
 74
     1
 91
        4
 64
     7
 65
   257
 75
     1
175
     1
 42
1.0
 92
        0
 66
   257
 43
1.0
 76
     1
 77
     6
 78
     2
 67
     7
 79
     5
170
     0
171
     0
290
     0
174
     0
 93
       13
 44
0.0
173
     0
291
     1
 45
0.0
1001
ACAD
1000
AcDbSavedByObjectVersion
1070
     0
  0
VISUALSTYLE
  5
2D
102
{ACAD_REACTORS
330
2A
102
}
102
{ACAD_XDICTIONARY
360
1FB8
102
}
330
2A
100
AcDbVisualStyle
  2
Gouraud
 70
     2
 71
     2
 72
     2
 73
     1
 90
        2
 40
-0.6
 41
30.0
 62
     5
 63
     7
 74
     0
 91
        4
 64
     7
 65
   257
 75
     1
175
     1
 42
1.0
 92
        0
 66
     7
 43
1.0
 76
     1
 77
     6
 78
     2
 67
     7
 79
     5
170
     0
171
     0
290
     0
174
     0
 93
       13
 44
0.0
173
     0
291
     1
 45
0.0
1001
ACAD
1000
AcDbSavedByObjectVersion
1070
     0
  0
VISUALSTYLE
  5
2E
102
{ACAD_REACTORS
330
2A
102
}
102
{ACAD_XDICTIONARY
360
1FBA
102
}
330
2A
100
AcDbVisualStyle
  2
GouraudWithEdges
 70
     3
 71
     2
 72
     2
 73
     1
 90
        2
 40
-0.6
 41
30.0
 62
     5
 63
     7
 74
     1
 91
        4
 64
     7
 65
   257
 75
     1
175
     1
 42
1.0
 92
        0
 66
   257
 43
1.0
 76
     1
 77
     6
 78
     2
 67
     7
 79
     5
170
     0
171
     0
290
     0
174
     0
 93
       13
 44
0.0
173
     0
291
     1
 45
0.0
1001
ACAD
1000
AcDbSavedByObjectVersion
1070
     0
  0
VISUALSTYLE
  5
1C0F
102
{ACAD_REACTORS
330
2A
102
}
102
{ACAD_XDICTIONARY
360
1FD6
102
}
330
2A
100
AcDbVisualStyle
  2
Hidden
 70
     6
 71
     1
 72
     2
 73
     2
 90
        0
 40
0.6
 41
30.0
 62
     5
 63
     7
 74
     2
 91
        2
 64
     7
 65
   257
 75
     2
175
     1
 42
40.0
 92
        0
 66
   257
 43
1.0
 76
     1
 77
     6
 78
     2
 67
     7
 79
     3
170
     0
171
     0
290
     0
174
     0
 93
        1
 44
0.0
173
     0
291
     0
 45
0.0
1001
ACAD
1000
AcDbSavedByObjectVersion
1070
     0
  0
VISUALSTYLE
  5
1C10
102
{ACAD_REACTORS
330
2A
102
}
102
{ACAD_XDICTIONARY
360
1FD8
102
}
330
2A
100
AcDbVisualStyle
  2
JitterOff
 70
    20
 71
     2
 72
     2
 73
     0
 90
        0
 40
0.6
 41
30.0
 62
     5
 63
     7
 74
     1
 91
        4
 64
     7
 65
   257
 75
     1
175
     1
 42
1.0
 92
       10
 66
     7
 43
1.0
 76
     1
 77
     6
 78
     2
 67
     7
 79
     5
170
     0
171
     0
290
     0
174
     0
 93
        1
 44
0.0
173
     0
291
     1
 45
0.0
1001
ACAD
1000
AcDbSavedByObjectVersion
1070
     0
  0
VISUALSTYLE
  5
38
102
{ACAD_REACTORS
330
2A
102
}
102
{ACAD_XDICTIONARY
360
1FCE
102
}
330
2A
100
AcDbVisualStyle
  2
Linepattern
 70
    14
 71
     2
 72
     2
 73
     0
 90
        0
 40
-0.6
 41
-30.0
 62
     5
 63
     7
 74
     1
 91
        4
 64
     7
 65
   257
 75
     7
175
     7
 42
1.0
 92
        8
 66
     7
 43
1.0
 76
     1
 77
     6
 78
     2
 67
     7
 79
     5
170
     0
171
     0
290
     0
174
     0
 93
        1
 44
0.0
173
     0
291
     1
 45
0.0
1001
ACAD
1000
AcDbSavedByObjectVersion
1070
     0
  0
VISUALSTYLE
  5
1CDF
102
{ACAD_REACTORS
330
2A
102
}
102
{ACAD_XDICTIONARY
360
1FE8
102
}
330
2A
100
AcDbVisualStyle
  2
Modeling
 70
    10
 71
     2
 72
     3
 73
     0
 90
        2
 40
0.6
 41
30.0
 62
     5
 63
     7
 74
     2
 91
        0
 64
     7
 65
   257
 75
     1
175
     1
 42
180.0
 92
        8
 66
     8
 43
1.0
 76
     1
 77
     6
 78
     2
 67
     7
 79
     5
170
     0
171
     0
290
     0
174
     0
 93
       13
 44
0.0
173
     0
291
     0
 45
0.0
1001
ACAD
1000
AcDbSavedByObjectVersion
1070
     0
  0
VISUALSTYLE
  5
1C11
102
{ACAD_REACTORS
330
2A
102
}
102
{ACAD_XDICTIONARY
360
1FDA
102
}
330
2A
100
AcDbVisualStyle
  2
OverhangOff
 70
    21
 71
     2
 72
     2
 73
     0
 90
        0
 40
0.6
 41
30.0
 62
     5
 63
     7
 74
     1
 91
        4
 64
     7
 65
   257
 75
     1
175
     1
 42
1.0
 92
        9
 66
     7
 43
1.0
 76
     1
 77
     6
 78
     2
 67
     7
 79
     5
170
     0
171
     0
290
     0
174
     0
 93
        1
 44
0.0
173
     0
291
     1
 45
0.0
1001
ACAD
1000
AcDbSavedByObjectVersion
1070
     0
  0
VISUALSTYLE
  5
33
102
{ACAD_REACTORS
330
2A
102
}
102
{ACAD_XDICTIONARY
360
1FC4
102
}
330
2A
100
AcDbVisualStyle
  2
Realistic
 70
     8
 71
     2
 72
     2
 73
     0
 90
        0
 40
-0.6
 41
-30.0
 62
     5
 63
     7
 74
     1
 91
        0
 64
     7
 65
   257
 75
     1
175
     1
 42
1.0
 92
        8
 66
     8
 43
1.0
 76
     1
 77
     6
 78
     2
 67
     7
 79
     5
170
     0
171
     0
290
     0
174
     0
 93
       13
 44
0.0
173
     0
291
     0
 45
0.0
1001
ACAD
1000
AcDbSavedByObjectVersion
1070
     0
  0
VISUALSTYLE
  5
1C17
102
{ACAD_REACTORS
330
2A
102
}
102
{ACAD_XDICTIONARY
360
1FE6
102
}
330
2A
100
AcDbVisualStyle
  2
Shaded
 70
    27
 71
     2
 72
     2
 73
     1
 90
        2
 40
0.6
 41
30.0
 62
     5
 63
     7
 74
     0
 91
        4
 64
     7
 65
   257
 75
     1
175
     1
 42
1.0
 92
        8
 66
   257
 43
1.0
 76
     1
 77
     6
 78
     2
 67
     8
 79
     3
170
     0
171
     0
290
     0
174
     0
 93
        5
 44
0.0
173
     0
291
     0
 45
0.0
1001
ACAD
1000
AcDbSavedByObjectVersion
1070
     0
  0
VISUALSTYLE
  5
1C16
102
{ACAD_REACTORS
330
2A
102
}
102
{ACAD_XDICTIONARY
360
1FE4
102
}
330
2A
100
AcDbVisualStyle
  2
Shaded with edges
 70
    26
 71
     2
 72
     2
 73
     1
 90
        2
 40
0.6
 41
30.0
 62
     5
 63
     7
 74
     1
 91
       10
 64
     7
 65
   257
 75
     2
175
     1
 42
1.0
 92
        8
 66
   257
 43
1.0
 76
     1
 77
     6
 78
     2
 67
     7
 79
     3
170
     0
171
     0
290
     0
174
     0
 93
        5
 44
0.0
173
     0
291
     0
 45
0.0
1001
ACAD
1000
AcDbSavedByObjectVersion
1070
     0
  0
VISUALSTYLE
  5
1C13
102
{ACAD_REACTORS
330
2A
102
}
102
{ACAD_XDICTIONARY
360
1FDE
102
}
330
2A
100
AcDbVisualStyle
  2
Shades of Gray
 70
    23
 71
     2
 72
     2
 73
     3
 90
        0
 40
0.6
 41
30.0
 62
     5
 63
     7
 74
     2
 91
        2
 64
     7
 65
     7
 75
     1
175
     1
 42
40.0
 92
        8
 66
     7
 43
1.0
 76
     1
 77
     6
 78
     2
 67
     7
 79
     3
170
     0
171
     0
290
     0
174
     0
 93
        1
 44
0.0
173
     0
291
     0
 45
0.0
1001
ACAD
1000
AcDbSavedByObjectVersion
1070
     0
  0
VISUALSTYLE
  5
1C14
102
{ACAD_REACTORS
330
2A
102
}
102
{ACAD_XDICTIONARY
360
1FE0
102
}
330
2A
100
AcDbVisualStyle
  2
Sketchy
 70
    24
 71
     1
 72
     2
 73
     2
 90
        0
 40
0.6
 41
30.0
 62
     5
 63
     7
 74
     2
 91
        2
 64
     7
 65
     7
 75
     1
175
     1
 42
40.0
 92
       11
 66
     7
 43
1.0
 76
     1
 77
     6
 78
     2
 67
     7
 79
     6
170
     0
171
     0
290
     0
174
     0
 93
        1
 44
0.0
173
     0
291
     0
 45
0.0
1001
ACAD
1000
AcDbSavedByObjectVersion
1070
     0
  0
VISUALSTYLE
  5
37
102
{ACAD_REACTORS
330
2A
102
}
102
{ACAD_XDICTIONARY
360
1FCC
102
}
330
2A
100
AcDbVisualStyle
  2
Thicken
 70
    13
 71
     2
 72
     2
 73
     0
 90
        0
 40
-0.6
 41
-30.0
 62
     5
 63
     7
 74
     1
 91
        4
 64
     7
 65
   257
 75
     1
175
     1
 42
1.0
 92
       12
 66
     7
 43
1.0
 76
     1
 77
     6
 78
     2
 67
     7
 79
     5
170
     0
171
     0
290
     0
174
     0
 93
        1
 44
0.0
173
     0
291
     1
 45
0.0
1001
ACAD
1000
AcDbSavedByObjectVersion
1070
     0
  0
VISUALSTYLE
  5
1C0E
102
{ACAD_REACTORS
330
2A
102
}
102
{ACAD_XDICTIONARY
360
1FD4
102
}
330
2A
100
AcDbVisualStyle
  2
Wireframe
 70
     5
 71
     0
 72
     2
 73
     0
 90
        0
 40
0.6
 41
30.0
 62
     5
 63
     7
 74
     1
 91
        4
 64
     7
 65
   257
 75
     1
175
     1
 42
1.0
 92
        0
 66
   257
 43
1.0
 76
     1
 77
     6
 78
     2
 67
     7
 79
     3
170
     0
171
     0
290
     0
174
     0
 93
        1
 44
0.0
173
     0
291
     0
 45
0.0
1001
ACAD
1000
AcDbSavedByObjectVersion
1070
     0
  0
VISUALSTYLE
  5
1C15
102
{ACAD_REACTORS
330
2A
102
}
102
{ACAD_XDICTIONARY
360
1FE2
102
}
330
2A
100
AcDbVisualStyle
  2
X-Ray
 70
    25
 71
     2
 72
     2
 73
     1
 90
        1
 40
0.5
 41
30.0
 62
     5
 63
     7
 74
     1
 91
        0
 64
     7
 65
   257
 75
     1
175
     1
 42
1.0
 92
        8
 66
     7
 43
1.0
 76
     1
 77
     6
 78
     2
 67
     7
 79
     3
170
     0
171
     0
290
     0
174
     0
 93
       13
 44
0.0
173
     0
291
     0
 45
0.0
1001
ACAD
1000
AcDbSavedByObjectVersion
1070
     0
  0
XRECORD
  5
1FA9
102
{ACAD_REACTORS
330
1FA8
102
}
330
1FA8
100
AcDbXrecord
280
     1
340
1CF4
  0
XRECORD
  5
1FAA
102
{ACAD_REACTORS
330
1FA8
102
}
330
1FA8
100
AcDbXrecord
280
     1
340
3B
  0
DICTIONARYVAR
  5
6A
102
{ACAD_REACTORS
330
69
102
}
330
69
100
DictionaryVariables
280
     0
  1
1:1
  0
DICTIONARYVAR
  5
1FA3
102
{ACAD_REACTORS
330
69
102
}
330
69
100
DictionaryVariables
280
     0
  1
Standard
  0
DICTIONARYVAR
  5
1FA2
102
{ACAD_REACTORS
330
69
102
}
330
69
100
DictionaryVariables
280
     0
  1
Standard
  0
DICTIONARYVAR
  5
1FA6
102
{ACAD_REACTORS
330
69
102
}
330
69
100
DictionaryVariables
280
     0
  1
2
  0
DICTIONARYVAR
  5
1FA7
102
{ACAD_REACTORS
330
69
102
}
330
69
100
DictionaryVariables
280
     0
  1
1
  0
DICTIONARYVAR
  5
1FB3
102
{ACAD_REACTORS
330
69
102
}
330
69
100
DictionaryVariables
280
     0
  1
1
  0
DICTIONARYVAR
  5
1FA5
102
{ACAD_REACTORS
330
69
102
}
330
69
100
DictionaryVariables
280
     0
  1
80.000000
  0
DICTIONARYVAR
  5
1FA4
102
{ACAD_REACTORS
330
69
102
}
330
69
100
DictionaryVariables
280
     0
  1
5.000000
  0
DICTIONARYVAR
  5
1C0D
102
{ACAD_REACTORS
330
69
102
}
330
69
100
DictionaryVariables
280
     0
  1
0
  0
DICTIONARY
  5
1FEC
330
3D
100
AcDbDictionary
280
     1
281
     1
  3
ACAD_XREC_ROUNDTRIP
360
1FED
  0
DICTIONARY
  5
1FEA
330
3C
100
AcDbDictionary
280
     1
281
     1
  3
ACAD_XREC_ROUNDTRIP
360
1FEB
  0
DICTIONARY
  5
1FEE
330
3E
100
AcDbDictionary
280
     1
281
     1
  3
ACAD_XREC_ROUNDTRIP
360
1FEF
  0
DICTIONARY
  5
1FF1
330
1CDE
100
AcDbDictionary
280
     1
281
     1
  3
ACAD_XREC_ROUNDTRIP
360
1FF2
  0
DICTIONARY
  5
1FBC
330
2F
100
AcDbDictionary
280
     1
281
     1
  3
ACAD_XREC_ROUNDTRIP
360
1FBD
  0
DICTIONARY
  5
1FC0
330
31
100
AcDbDictionary
280
     1
281
     1
  3
ACAD_XREC_ROUNDTRIP
360
1FC1
  0
DICTIONARY
  5
1FBE
330
30
100
AcDbDictionary
280
     1
281
     1
  3
ACAD_XREC_ROUNDTRIP
360
1FBF
  0
DICTIONARY
  5
1FC2
330
32
100
AcDbDictionary
280
     1
281
     1
  3
ACAD_XREC_ROUNDTRIP
360
1FC3
  0
DICTIONARY
  5
1FCA
330
36
100
AcDbDictionary
280
     1
281
     1
  3
ACAD_XREC_ROUNDTRIP
360
1FCB
  0
DICTIONARY
  5
1FD2
330
3A
100
AcDbDictionary
280
     1
281
     1
  3
ACAD_XREC_ROUNDTRIP
360
1FD3
  0
DICTIONARY
  5
1FC6
330
34
100
AcDbDictionary
280
     1
281
     1
  3
ACAD_XREC_ROUNDTRIP
360
1FC7
  0
DICTIONARY
  5
1FC8
330
35
100
AcDbDictionary
280
     1
281
     1
  3
ACAD_XREC_ROUNDTRIP
360
1FC9
  0
DICTIONARY
  5
1FDC
330
1C12
100
AcDbDictionary
280
     1
281
     1
  3
ACAD_XREC_ROUNDTRIP
360
1FDD
  0
DICTIONARY
  5
1FD0
330
39
100
AcDbDictionary
280
     1
281
     1
  3
ACAD_XREC_ROUNDTRIP
360
1FD1
  0
DICTIONARY
  5
1FB4
330
2B
100
AcDbDictionary
280
     1
281
     1
  3
ACAD_XREC_ROUNDTRIP
360
1FB5
  0
DICTIONARY
  5
1FB6
330
2C
100
AcDbDictionary
280
     1
281
     1
  3
ACAD_XREC_ROUNDTRIP
360
1FB7
  0
DICTIONARY
  5
1FB8
330
2D
100
AcDbDictionary
280
     1
281
     1
  3
ACAD_XREC_ROUNDTRIP
360
1FB9
  0
DICTIONARY
  5
1FBA
330
2E
100
AcDbDictionary
280
     1
281
     1
  3
ACAD_XREC_ROUNDTRIP
360
1FBB
  0
DICTIONARY
  5
1FD6
330
1C0F
100
AcDbDictionary
280
     1
281
     1
  3
ACAD_XREC_ROUNDTRIP
360
1FD7
  0
DICTIONARY
  5
1FD8
330
1C10
100
AcDbDictionary
280
     1
281
     1
  3
ACAD_XREC_ROUNDTRIP
360
1FD9
  0
DICTIONARY
  5
1FCE
330
38
100
AcDbDictionary
280
     1
281
     1
  3
ACAD_XREC_ROUNDTRIP
360
1FCF
  0
DICTIONARY
  5
1FE8
330
1CDF
100
AcDbDictionary
280
     1
281
     1
  3
ACAD_XREC_ROUNDTRIP
360
1FE9
  0
DICTIONARY
  5
1FDA
330
1C11
100
AcDbDictionary
280
     1
281
     1
  3
ACAD_XREC_ROUNDTRIP
360
1FDB
  0
DICTIONARY
  5
1FC4
330
33
100
AcDbDictionary
280
     1
281
     1
  3
ACAD_XREC_ROUNDTRIP
360
1FC5
  0
DICTIONARY
  5
1FE6
330
1C17
100
AcDbDictionary
280
     1
281
     1
  3
ACAD_XREC_ROUNDTRIP
360
1FE7
  0
DICTIONARY
  5
1FE4
330
1C16
100
AcDbDictionary
280
     1
281
     1
  3
ACAD_XREC_ROUNDTRIP
360
1FE5
  0
DICTIONARY
  5
1FDE
330
1C13
100
AcDbDictionary
280
     1
281
     1
  3
ACAD_XREC_ROUNDTRIP
360
1FDF
  0
DICTIONARY
  5
1FE0
330
1C14
100
AcDbDictionary
280
     1
281
     1
  3
ACAD_XREC_ROUNDTRIP
360
1FE1
  0
DICTIONARY
  5
1FCC
330
37
100
AcDbDictionary
280
     1
281
     1
  3
ACAD_XREC_ROUNDTRIP
360
1FCD
  0
DICTIONARY
  5
1FD4
330
1C0E
100
AcDbDictionary
280
     1
281
     1
  3
ACAD_XREC_ROUNDTRIP
360
1FD5
  0
DICTIONARY
  5
1FE2
330
1C15
100
AcDbDictionary
280
     1
281
     1
  3
ACAD_XREC_ROUNDTRIP
360
1FE3
  0
XRECORD
  5
1FED
102
{ACAD_REACTORS
330
1FEC
102
}
330
1FEC
100
AcDbXrecord
280
     1
102
MATERIAL
148
0.0
149
0.0
149
0.0
 93
        0
 94
       63
282
     0
 72
     1
 77
     1
171
     1
175
     1
179
     1
273
     0
  0
XRECORD
  5
1FEB
102
{ACAD_REACTORS
330
1FEA
102
}
330
1FEA
100
AcDbXrecord
280
     1
102
MATERIAL
148
0.0
149
0.0
149
0.0
 93
        0
 94
       63
282
     0
 72
     1
 77
     1
171
     1
175
     1
179
     1
273
     0
  0
XRECORD
  5
1FEF
102
{ACAD_REACTORS
330
1FEE
102
}
330
1FEE
100
AcDbXrecord
280
     1
102
MATERIAL
148
0.0
149
0.0
149
0.0
 93
        0
 94
       63
282
     0
 72
     1
 77
     1
171
     1
175
     1
179
     1
273
     0
  0
XRECORD
  5
1FF2
102
{ACAD_REACTORS
330
1FF1
102
}
330
1FF1
100
AcDbXrecord
280
     1
102
ACAD_ROUNDTRIP_2010_MLEADER_STYLE
  0
XRECORD
  5
1FBD
102
{ACAD_REACTORS
330
1FBC
102
}
330
1FBC
100
AcDbXrecord
280
     1
102
RTVSPropertyOp0
 70
     1
102
RTVSPropertyOp1
 70
     1
102
RTVSPropertyOp2
 70
     1
102
RTVSPropertyOp3
 70
     1
102
RTVSPropertyOp4
 70
     1
102
RTVSPropertyOp5
 70
     1
102
RTVSPropertyOp6
 70
     1
102
RTVSPropertyOp7
 70
     1
102
RTVSPropertyOp8
 70
     1
102
RTVSPropertyOp9
 70
     1
102
RTVSPropertyOp10
 70
     1
102
RTVSPropertyOp11
 70
     1
102
RTVSPropertyOp12
 70
     1
102
RTVSPropertyOp13
 70
     1
102
RTVSPropertyOp14
 70
     1
102
RTVSPropertyOp15
 70
     1
102
RTVSPropertyOp16
 70
     1
102
RTVSPropertyOp17
 70
     1
102
RTVSPropertyOp18
 70
     1
102
RTVSPropertyOp19
 70
     1
102
RTVSPropertyOp20
 70
     1
102
RTVSPropertyOp21
 70
     1
102
RTVSPropertyOp22
 70
     1
102
RTVSPropertyOp23
 70
     1
102
RTVSPropertyOp24
 70
     1
102
RTVSPropertyOp25
 70
     1
102
RTVSPropertyOp26
 70
     1
102
RTVSPropertyOp27
 70
     1
102
RTVSPropertyOp28
 70
     1
102
RTVSPropertyOp29
 70
     1
102
RTVSPropertyOp30
 70
     1
102
RTVSPropertyOp31
 70
     1
102
RTVSPropertyOp32
 70
     1
102
RTVSPropertyOp33
 70
     1
102
RTVSPropertyOp34
 70
     1
102
RTVSPropertyOp35
 70
     1
102
RTVSPropertyOp36
 70
     1
102
RTVSPropertyOp37
 70
     1
102
RTVSPropertyOp38
 70
     1
102
RTVSPropertyOp39
 70
     1
102
RTVSPropertyOp40
 70
     1
102
RTVSPropertyOp41
 70
     1
102
RTVSPropertyOp42
 70
     1
102
RTVSPropertyOp43
 70
     1
102
RTVSPropertyOp44
 70
     1
102
RTVSPropertyOp45
 70
     1
102
RTVSPropertyOp46
 70
     1
102
RTVSPropertyOp47
 70
     1
102
RTVSPropertyOp48
 70
     1
102
RTVSPropertyOp49
 70
     1
102
RTVSPropertyOp50
 70
     1
102
RTVSPropertyOp51
 70
     0
102
RTVSPropertyOp52
 70
     0
102
RTVSPropertyOp53
 70
     1
102
RTVSPropertyOp54
 70
     1
102
RTVSPropertyOp55
 70
     1
102
RTVSPropertyOp56
 70
     1
102
RTVSPropertyOp57
 70
     1
102
RTVSPost2010Prop28
280
     1
102
RTVSPost2010PropOp28
 70
     1
102
RTVSPost2010Prop29
280
     1
102
RTVSPost2010PropOp29
 70
     1
102
RTVSPost2010Prop30
280
     0
102
RTVSPost2010PropOp30
 70
     1
102
RTVSPost2010Prop31
280
     0
102
RTVSPost2010PropOp31
 70
     1
102
RTVSPost2010Prop32
280
     0
102
RTVSPost2010PropOp32
 70
     1
102
RTVSPost2010Prop33
280
     0
102
RTVSPost2010PropOp33
 70
     1
102
RTVSPost2010Prop34
280
     0
102
RTVSPost2010PropOp34
 70
     1
102
RTVSPost2010Prop35
280
     0
102
RTVSPost2010PropOp35
 70
     1
102
RTVSPost2010Prop36
280
     0
102
RTVSPost2010PropOp36
 70
     1
102
RTVSPost2010Prop37
 90
       50
102
RTVSPost2010PropOp37
 70
     1
102
RTVSPost2010Prop38
140
0.0
102
RTVSPost2010PropOp38
 70
     1
102
RTVSPost2010Prop39
140
1.0
102
RTVSPost2010PropOp39
 70
     1
102
RTVSPost2010Prop40
 90
        0
102
RTVSPost2010PropOp40
 70
     1
102
RTVSPost2010Prop41ColorIndex
 90
       18
102
RTVSPost2010Prop41ColorRGB
 90
        0
102
RTVSPost2010PropOp41
 70
     1
102
RTVSPost2010Prop42
 90
       50
102
RTVSPost2010PropOp42
 70
     1
102
RTVSPost2010Prop43
 90
        3
102
RTVSPost2010PropOp43
 70
     1
102
RTVSPost2010Prop44ColorIndex
 90
        5
102
RTVSPost2010Prop44ColorRGB
 90
      255
102
RTVSPost2010PropOp44
 70
     1
102
RTVSPost2010Prop45
280
     0
102
RTVSPost2010PropOp45
 70
     1
102
RTVSPost2010Prop46
 90
       50
102
RTVSPost2010PropOp46
 70
     1
102
RTVSPost2010Prop47
 90
       50
102
RTVSPost2010PropOp47
 70
     1
102
RTVSPost2010Prop48
 90
       50
102
RTVSPost2010PropOp48
 70
     1
102
RTVSPost2010Prop49
280
     0
102
RTVSPost2010PropOp49
 70
     1
102
RTVSPost2010Prop50
 90
       50
102
RTVSPost2010PropOp50
 70
     1
102
RTVSPost2010Prop51ColorIndex
 90
      256
102
RTVSPost2010Prop51ColorRGB
 90
-16777216
102
RTVSPost2010PropOp51
 70
     0
102
RTVSPost2010Prop52
140
1.0
102
RTVSPost2010PropOp52
 70
     0
102
RTVSPost2010Prop53
 90
        2
102
RTVSPost2010PropOp53
 70
     1
102
RTVSPost2010Prop54
  1
strokes_ogs.tif
102
RTVSPost2010PropOp54
 70
     1
102
RTVSPost2010Prop55
280
     0
102
RTVSPost2010PropOp55
 70
     1
102
RTVSPost2010Prop56
140
1.0
102
RTVSPost2010PropOp56
 70
     1
102
RTVSPost2010Prop57
140
1.0
102
RTVSPost2010PropOp57
 70
     1
  0
XRECORD
  5
1FC1
102
{ACAD_REACTORS
330
1FC0
102
}
330
1FC0
100
AcDbXrecord
280
     1
102
RTVSPropertyOp0
 70
     1
102
RTVSPropertyOp1
 70
     1
102
RTVSPropertyOp2
 70
     1
102
RTVSPropertyOp3
 70
     1
102
RTVSPropertyOp4
 70
     1
102
RTVSPropertyOp5
 70
     1
102
RTVSPropertyOp6
 70
     1
102
RTVSPropertyOp7
 70
     1
102
RTVSPropertyOp8
 70
     1
102
RTVSPropertyOp9
 70
     1
102
RTVSPropertyOp10
 70
     1
102
RTVSPropertyOp11
 70
     1
102
RTVSPropertyOp12
 70
     1
102
RTVSPropertyOp13
 70
     1
102
RTVSPropertyOp14
 70
     1
102
RTVSPropertyOp15
 70
     1
102
RTVSPropertyOp16
 70
     1
102
RTVSPropertyOp17
 70
     1
102
RTVSPropertyOp18
 70
     1
102
RTVSPropertyOp19
 70
     1
102
RTVSPropertyOp20
 70
     1
102
RTVSPropertyOp21
 70
     1
102
RTVSPropertyOp22
 70
     1
102
RTVSPropertyOp23
 70
     1
102
RTVSPropertyOp24
 70
     1
102
RTVSPropertyOp25
 70
     1
102
RTVSPropertyOp26
 70
     1
102
RTVSPropertyOp27
 70
     1
102
RTVSPropertyOp28
 70
     1
102
RTVSPropertyOp29
 70
     1
102
RTVSPropertyOp30
 70
     1
102
RTVSPropertyOp31
 70
     1
102
RTVSPropertyOp32
 70
     1
102
RTVSPropertyOp33
 70
     1
102
RTVSPropertyOp34
 70
     1
102
RTVSPropertyOp35
 70
     1
102
RTVSPropertyOp36
 70
     1
102
RTVSPropertyOp37
 70
     1
102
RTVSPropertyOp38
 70
     1
102
RTVSPropertyOp39
 70
     1
102
RTVSPropertyOp40
 70
     1
102
RTVSPropertyOp41
 70
     1
102
RTVSPropertyOp42
 70
     1
102
RTVSPropertyOp43
 70
     1
102
RTVSPropertyOp44
 70
     1
102
RTVSPropertyOp45
 70
     1
102
RTVSPropertyOp46
 70
     1
102
RTVSPropertyOp47
 70
     1
102
RTVSPropertyOp48
 70
     1
102
RTVSPropertyOp49
 70
     1
102
RTVSPropertyOp50
 70
     1
102
RTVSPropertyOp51
 70
     0
102
RTVSPropertyOp52
 70
     0
102
RTVSPropertyOp53
 70
     1
102
RTVSPropertyOp54
 70
     1
102
RTVSPropertyOp55
 70
     1
102
RTVSPropertyOp56
 70
     1
102
RTVSPropertyOp57
 70
     1
102
RTVSPost2010Prop28
280
     0
102
RTVSPost2010PropOp28
 70
     1
102
RTVSPost2010Prop29
280
     1
102
RTVSPost2010PropOp29
 70
     1
102
RTVSPost2010Prop30
280
     1
102
RTVSPost2010PropOp30
 70
     1
102
RTVSPost2010Prop31
280
     0
102
RTVSPost2010PropOp31
 70
     1
102
RTVSPost2010Prop32
280
     0
102
RTVSPost2010PropOp32
 70
     1
102
RTVSPost2010Prop33
280
     0
102
RTVSPost2010PropOp33
 70
     1
102
RTVSPost2010Prop34
280
     0
102
RTVSPost2010PropOp34
 70
     1
102
RTVSPost2010Prop35
280
     0
102
RTVSPost2010PropOp35
 70
     1
102
RTVSPost2010Prop36
280
     0
102
RTVSPost2010PropOp36
 70
     1
102
RTVSPost2010Prop37
 90
       50
102
RTVSPost2010PropOp37
 70
     1
102
RTVSPost2010Prop38
140
0.0
102
RTVSPost2010PropOp38
 70
     1
102
RTVSPost2010Prop39
140
1.0
102
RTVSPost2010PropOp39
 70
     1
102
RTVSPost2010Prop40
 90
        0
102
RTVSPost2010PropOp40
 70
     1
102
RTVSPost2010Prop41ColorIndex
 90
       18
102
RTVSPost2010Prop41ColorRGB
 90
        0
102
RTVSPost2010PropOp41
 70
     1
102
RTVSPost2010Prop42
 90
       50
102
RTVSPost2010PropOp42
 70
     1
102
RTVSPost2010Prop43
 90
        3
102
RTVSPost2010PropOp43
 70
     1
102
RTVSPost2010Prop44ColorIndex
 90
        5
102
RTVSPost2010Prop44ColorRGB
 90
      255
102
RTVSPost2010PropOp44
 70
     1
102
RTVSPost2010Prop45
280
     0
102
RTVSPost2010PropOp45
 70
     1
102
RTVSPost2010Prop46
 90
       50
102
RTVSPost2010PropOp46
 70
     1
102
RTVSPost2010Prop47
 90
       50
102
RTVSPost2010PropOp47
 70
     1
102
RTVSPost2010Prop48
 90
       50
102
RTVSPost2010PropOp48
 70
     1
102
RTVSPost2010Prop49
280
     0
102
RTVSPost2010PropOp49
 70
     1
102
RTVSPost2010Prop50
 90
       50
102
RTVSPost2010PropOp50
 70
     1
102
RTVSPost2010Prop51ColorIndex
 90
      256
102
RTVSPost2010Prop51ColorRGB
 90
-16777216
102
RTVSPost2010PropOp51
 70
     0
102
RTVSPost2010Prop52
140
1.0
102
RTVSPost2010PropOp52
 70
     0
102
RTVSPost2010Prop53
 90
        2
102
RTVSPost2010PropOp53
 70
     1
102
RTVSPost2010Prop54
  1
strokes_ogs.tif
102
RTVSPost2010PropOp54
 70
     1
102
RTVSPost2010Prop55
280
     0
102
RTVSPost2010PropOp55
 70
     1
102
RTVSPost2010Prop56
140
1.0
102
RTVSPost2010PropOp56
 70
     1
102
RTVSPost2010Prop57
140
1.0
102
RTVSPost2010PropOp57
 70
     1
  0
XRECORD
  5
1FBF
102
{ACAD_REACTORS
330
1FBE
102
}
330
1FBE
100
AcDbXrecord
280
     1
102
RTVSPropertyOp0
 70
     1
102
RTVSPropertyOp1
 70
     1
102
RTVSPropertyOp2
 70
     1
102
RTVSPropertyOp3
 70
     1
102
RTVSPropertyOp4
 70
     1
102
RTVSPropertyOp5
 70
     1
102
RTVSPropertyOp6
 70
     1
102
RTVSPropertyOp7
 70
     1
102
RTVSPropertyOp8
 70
     1
102
RTVSPropertyOp9
 70
     1
102
RTVSPropertyOp10
 70
     1
102
RTVSPropertyOp11
 70
     1
102
RTVSPropertyOp12
 70
     1
102
RTVSPropertyOp13
 70
     1
102
RTVSPropertyOp14
 70
     1
102
RTVSPropertyOp15
 70
     1
102
RTVSPropertyOp16
 70
     1
102
RTVSPropertyOp17
 70
     1
102
RTVSPropertyOp18
 70
     1
102
RTVSPropertyOp19
 70
     1
102
RTVSPropertyOp20
 70
     1
102
RTVSPropertyOp21
 70
     1
102
RTVSPropertyOp22
 70
     1
102
RTVSPropertyOp23
 70
     1
102
RTVSPropertyOp24
 70
     1
102
RTVSPropertyOp25
 70
     1
102
RTVSPropertyOp26
 70
     1
102
RTVSPropertyOp27
 70
     1
102
RTVSPropertyOp28
 70
     1
102
RTVSPropertyOp29
 70
     1
102
RTVSPropertyOp30
 70
     1
102
RTVSPropertyOp31
 70
     1
102
RTVSPropertyOp32
 70
     1
102
RTVSPropertyOp33
 70
     1
102
RTVSPropertyOp34
 70
     1
102
RTVSPropertyOp35
 70
     1
102
RTVSPropertyOp36
 70
     1
102
RTVSPropertyOp37
 70
     1
102
RTVSPropertyOp38
 70
     1
102
RTVSPropertyOp39
 70
     1
102
RTVSPropertyOp40
 70
     1
102
RTVSPropertyOp41
 70
     1
102
RTVSPropertyOp42
 70
     1
102
RTVSPropertyOp43
 70
     1
102
RTVSPropertyOp44
 70
     1
102
RTVSPropertyOp45
 70
     1
102
RTVSPropertyOp46
 70
     1
102
RTVSPropertyOp47
 70
     1
102
RTVSPropertyOp48
 70
     1
102
RTVSPropertyOp49
 70
     1
102
RTVSPropertyOp50
 70
     1
102
RTVSPropertyOp51
 70
     0
102
RTVSPropertyOp52
 70
     0
102
RTVSPropertyOp53
 70
     1
102
RTVSPropertyOp54
 70
     1
102
RTVSPropertyOp55
 70
     1
102
RTVSPropertyOp56
 70
     1
102
RTVSPropertyOp57
 70
     1
102
RTVSPost2010Prop28
280
     0
102
RTVSPost2010PropOp28
 70
     1
102
RTVSPost2010Prop29
280
     1
102
RTVSPost2010PropOp29
 70
     1
102
RTVSPost2010Prop30
280
     1
102
RTVSPost2010PropOp30
 70
     1
102
RTVSPost2010Prop31
280
     0
102
RTVSPost2010PropOp31
 70
     1
102
RTVSPost2010Prop32
280
     0
102
RTVSPost2010PropOp32
 70
     1
102
RTVSPost2010Prop33
280
     0
102
RTVSPost2010PropOp33
 70
     1
102
RTVSPost2010Prop34
280
     0
102
RTVSPost2010PropOp34
 70
     1
102
RTVSPost2010Prop35
280
     0
102
RTVSPost2010PropOp35
 70
     1
102
RTVSPost2010Prop36
280
     0
102
RTVSPost2010PropOp36
 70
     1
102
RTVSPost2010Prop37
 90
       50
102
RTVSPost2010PropOp37
 70
     1
102
RTVSPost2010Prop38
140
0.0
102
RTVSPost2010PropOp38
 70
     1
102
RTVSPost2010Prop39
140
1.0
102
RTVSPost2010PropOp39
 70
     1
102
RTVSPost2010Prop40
 90
        0
102
RTVSPost2010PropOp40
 70
     1
102
RTVSPost2010Prop41ColorIndex
 90
       18
102
RTVSPost2010Prop41ColorRGB
 90
        0
102
RTVSPost2010PropOp41
 70
     1
102
RTVSPost2010Prop42
 90
       50
102
RTVSPost2010PropOp42
 70
     1
102
RTVSPost2010Prop43
 90
        3
102
RTVSPost2010PropOp43
 70
     1
102
RTVSPost2010Prop44ColorIndex
 90
        5
102
RTVSPost2010Prop44ColorRGB
 90
      255
102
RTVSPost2010PropOp44
 70
     1
102
RTVSPost2010Prop45
280
     0
102
RTVSPost2010PropOp45
 70
     1
102
RTVSPost2010Prop46
 90
       50
102
RTVSPost2010PropOp46
 70
     1
102
RTVSPost2010Prop47
 90
       50
102
RTVSPost2010PropOp47
 70
     1
102
RTVSPost2010Prop48
 90
       50
102
RTVSPost2010PropOp48
 70
     1
102
RTVSPost2010Prop49
280
     0
102
RTVSPost2010PropOp49
 70
     1
102
RTVSPost2010Prop50
 90
       50
102
RTVSPost2010PropOp50
 70
     1
102
RTVSPost2010Prop51ColorIndex
 90
      256
102
RTVSPost2010Prop51ColorRGB
 90
-16777216
102
RTVSPost2010PropOp51
 70
     0
102
RTVSPost2010Prop52
140
1.0
102
RTVSPost2010PropOp52
 70
     0
102
RTVSPost2010Prop53
 90
        2
102
RTVSPost2010PropOp53
 70
     1
102
RTVSPost2010Prop54
  1
strokes_ogs.tif
102
RTVSPost2010PropOp54
 70
     1
102
RTVSPost2010Prop55
280
     0
102
RTVSPost2010PropOp55
 70
     1
102
RTVSPost2010Prop56
140
1.0
102
RTVSPost2010PropOp56
 70
     1
102
RTVSPost2010Prop57
140
1.0
102
RTVSPost2010PropOp57
 70
     1
  0
XRECORD
  5
1FC3
102
{ACAD_REACTORS
330
1FC2
102
}
330
1FC2
100
AcDbXrecord
280
     1
102
RTVSPropertyOp0
 70
     1
102
RTVSPropertyOp1
 70
     1
102
RTVSPropertyOp2
 70
     1
102
RTVSPropertyOp3
 70
     1
102
RTVSPropertyOp4
 70
     1
102
RTVSPropertyOp5
 70
     1
102
RTVSPropertyOp6
 70
     1
102
RTVSPropertyOp7
 70
     1
102
RTVSPropertyOp8
 70
     1
102
RTVSPropertyOp9
 70
     1
102
RTVSPropertyOp10
 70
     1
102
RTVSPropertyOp11
 70
     1
102
RTVSPropertyOp12
 70
     1
102
RTVSPropertyOp13
 70
     1
102
RTVSPropertyOp14
 70
     1
102
RTVSPropertyOp15
 70
     1
102
RTVSPropertyOp16
 70
     1
102
RTVSPropertyOp17
 70
     1
102
RTVSPropertyOp18
 70
     1
102
RTVSPropertyOp19
 70
     1
102
RTVSPropertyOp20
 70
     1
102
RTVSPropertyOp21
 70
     1
102
RTVSPropertyOp22
 70
     1
102
RTVSPropertyOp23
 70
     1
102
RTVSPropertyOp24
 70
     1
102
RTVSPropertyOp25
 70
     1
102
RTVSPropertyOp26
 70
     1
102
RTVSPropertyOp27
 70
     1
102
RTVSPropertyOp28
 70
     1
102
RTVSPropertyOp29
 70
     1
102
RTVSPropertyOp30
 70
     1
102
RTVSPropertyOp31
 70
     1
102
RTVSPropertyOp32
 70
     1
102
RTVSPropertyOp33
 70
     1
102
RTVSPropertyOp34
 70
     1
102
RTVSPropertyOp35
 70
     1
102
RTVSPropertyOp36
 70
     1
102
RTVSPropertyOp37
 70
     1
102
RTVSPropertyOp38
 70
     1
102
RTVSPropertyOp39
 70
     1
102
RTVSPropertyOp40
 70
     1
102
RTVSPropertyOp41
 70
     1
102
RTVSPropertyOp42
 70
     1
102
RTVSPropertyOp43
 70
     1
102
RTVSPropertyOp44
 70
     1
102
RTVSPropertyOp45
 70
     1
102
RTVSPropertyOp46
 70
     1
102
RTVSPropertyOp47
 70
     1
102
RTVSPropertyOp48
 70
     1
102
RTVSPropertyOp49
 70
     1
102
RTVSPropertyOp50
 70
     1
102
RTVSPropertyOp51
 70
     0
102
RTVSPropertyOp52
 70
     0
102
RTVSPropertyOp53
 70
     1
102
RTVSPropertyOp54
 70
     1
102
RTVSPropertyOp55
 70
     1
102
RTVSPropertyOp56
 70
     1
102
RTVSPropertyOp57
 70
     1
102
RTVSPost2010Prop28
280
     0
102
RTVSPost2010PropOp28
 70
     1
102
RTVSPost2010Prop29
280
     1
102
RTVSPost2010PropOp29
 70
     1
102
RTVSPost2010Prop30
280
     1
102
RTVSPost2010PropOp30
 70
     1
102
RTVSPost2010Prop31
280
     0
102
RTVSPost2010PropOp31
 70
     1
102
RTVSPost2010Prop32
280
     0
102
RTVSPost2010PropOp32
 70
     1
102
RTVSPost2010Prop33
280
     0
102
RTVSPost2010PropOp33
 70
     1
102
RTVSPost2010Prop34
280
     0
102
RTVSPost2010PropOp34
 70
     1
102
RTVSPost2010Prop35
280
     0
102
RTVSPost2010PropOp35
 70
     1
102
RTVSPost2010Prop36
280
     0
102
RTVSPost2010PropOp36
 70
     1
102
RTVSPost2010Prop37
 90
       50
102
RTVSPost2010PropOp37
 70
     1
102
RTVSPost2010Prop38
140
0.0
102
RTVSPost2010PropOp38
 70
     1
102
RTVSPost2010Prop39
140
1.0
102
RTVSPost2010PropOp39
 70
     1
102
RTVSPost2010Prop40
 90
        0
102
RTVSPost2010PropOp40
 70
     1
102
RTVSPost2010Prop41ColorIndex
 90
       18
102
RTVSPost2010Prop41ColorRGB
 90
        0
102
RTVSPost2010PropOp41
 70
     1
102
RTVSPost2010Prop42
 90
       50
102
RTVSPost2010PropOp42
 70
     1
102
RTVSPost2010Prop43
 90
        3
102
RTVSPost2010PropOp43
 70
     1
102
RTVSPost2010Prop44ColorIndex
 90
        5
102
RTVSPost2010Prop44ColorRGB
 90
      255
102
RTVSPost2010PropOp44
 70
     1
102
RTVSPost2010Prop45
280
     0
102
RTVSPost2010PropOp45
 70
     1
102
RTVSPost2010Prop46
 90
       50
102
RTVSPost2010PropOp46
 70
     1
102
RTVSPost2010Prop47
 90
       50
102
RTVSPost2010PropOp47
 70
     1
102
RTVSPost2010Prop48
 90
       50
102
RTVSPost2010PropOp48
 70
     1
102
RTVSPost2010Prop49
280
     0
102
RTVSPost2010PropOp49
 70
     1
102
RTVSPost2010Prop50
 90
       50
102
RTVSPost2010PropOp50
 70
     1
102
RTVSPost2010Prop51ColorIndex
 90
      256
102
RTVSPost2010Prop51ColorRGB
 90
-16777216
102
RTVSPost2010PropOp51
 70
     0
102
RTVSPost2010Prop52
140
1.0
102
RTVSPost2010PropOp52
 70
     0
102
RTVSPost2010Prop53
 90
        2
102
RTVSPost2010PropOp53
 70
     1
102
RTVSPost2010Prop54
  1
strokes_ogs.tif
102
RTVSPost2010PropOp54
 70
     1
102
RTVSPost2010Prop55
280
     0
102
RTVSPost2010PropOp55
 70
     1
102
RTVSPost2010Prop56
140
1.0
102
RTVSPost2010PropOp56
 70
     1
102
RTVSPost2010Prop57
140
1.0
102
RTVSPost2010PropOp57
 70
     1
  0
XRECORD
  5
1FCB
102
{ACAD_REACTORS
330
1FCA
102
}
330
1FCA
100
AcDbXrecord
280
     1
102
RTVSPropertyOp0
 70
     1
102
RTVSPropertyOp1
 70
     1
102
RTVSPropertyOp2
 70
     1
102
RTVSPropertyOp3
 70
     1
102
RTVSPropertyOp4
 70
     1
102
RTVSPropertyOp5
 70
     1
102
RTVSPropertyOp6
 70
     1
102
RTVSPropertyOp7
 70
     1
102
RTVSPropertyOp8
 70
     1
102
RTVSPropertyOp9
 70
     1
102
RTVSPropertyOp10
 70
     1
102
RTVSPropertyOp11
 70
     1
102
RTVSPropertyOp12
 70
     1
102
RTVSPropertyOp13
 70
     1
102
RTVSPropertyOp14
 70
     1
102
RTVSPropertyOp15
 70
     1
102
RTVSPropertyOp16
 70
     1
102
RTVSPropertyOp17
 70
     1
102
RTVSPropertyOp18
 70
     1
102
RTVSPropertyOp19
 70
     1
102
RTVSPropertyOp20
 70
     1
102
RTVSPropertyOp21
 70
     1
102
RTVSPropertyOp22
 70
     1
102
RTVSPropertyOp23
 70
     1
102
RTVSPropertyOp24
 70
     1
102
RTVSPropertyOp25
 70
     1
102
RTVSPropertyOp26
 70
     1
102
RTVSPropertyOp27
 70
     1
102
RTVSPropertyOp28
 70
     1
102
RTVSPropertyOp29
 70
     1
102
RTVSPropertyOp30
 70
     1
102
RTVSPropertyOp31
 70
     1
102
RTVSPropertyOp32
 70
     1
102
RTVSPropertyOp33
 70
     1
102
RTVSPropertyOp34
 70
     1
102
RTVSPropertyOp35
 70
     1
102
RTVSPropertyOp36
 70
     1
102
RTVSPropertyOp37
 70
     1
102
RTVSPropertyOp38
 70
     1
102
RTVSPropertyOp39
 70
     1
102
RTVSPropertyOp40
 70
     1
102
RTVSPropertyOp41
 70
     1
102
RTVSPropertyOp42
 70
     1
102
RTVSPropertyOp43
 70
     1
102
RTVSPropertyOp44
 70
     1
102
RTVSPropertyOp45
 70
     1
102
RTVSPropertyOp46
 70
     1
102
RTVSPropertyOp47
 70
     1
102
RTVSPropertyOp48
 70
     1
102
RTVSPropertyOp49
 70
     1
102
RTVSPropertyOp50
 70
     1
102
RTVSPropertyOp51
 70
     0
102
RTVSPropertyOp52
 70
     0
102
RTVSPropertyOp53
 70
     1
102
RTVSPropertyOp54
 70
     1
102
RTVSPropertyOp55
 70
     1
102
RTVSPropertyOp56
 70
     1
102
RTVSPropertyOp57
 70
     1
102
RTVSPost2010Prop28
280
     0
102
RTVSPost2010PropOp28
 70
     1
102
RTVSPost2010Prop29
280
     1
102
RTVSPost2010PropOp29
 70
     1
102
RTVSPost2010Prop30
280
     1
102
RTVSPost2010PropOp30
 70
     1
102
RTVSPost2010Prop31
280
     0
102
RTVSPost2010PropOp31
 70
     1
102
RTVSPost2010Prop32
280
     0
102
RTVSPost2010PropOp32
 70
     1
102
RTVSPost2010Prop33
280
     0
102
RTVSPost2010PropOp33
 70
     1
102
RTVSPost2010Prop34
280
     0
102
RTVSPost2010PropOp34
 70
     1
102
RTVSPost2010Prop35
280
     0
102
RTVSPost2010PropOp35
 70
     1
102
RTVSPost2010Prop36
280
     0
102
RTVSPost2010PropOp36
 70
     1
102
RTVSPost2010Prop37
 90
       50
102
RTVSPost2010PropOp37
 70
     1
102
RTVSPost2010Prop38
140
0.0
102
RTVSPost2010PropOp38
 70
     1
102
RTVSPost2010Prop39
140
1.0
102
RTVSPost2010PropOp39
 70
     1
102
RTVSPost2010Prop40
 90
        0
102
RTVSPost2010PropOp40
 70
     1
102
RTVSPost2010Prop41ColorIndex
 90
       18
102
RTVSPost2010Prop41ColorRGB
 90
        0
102
RTVSPost2010PropOp41
 70
     1
102
RTVSPost2010Prop42
 90
       50
102
RTVSPost2010PropOp42
 70
     1
102
RTVSPost2010Prop43
 90
        3
102
RTVSPost2010PropOp43
 70
     1
102
RTVSPost2010Prop44ColorIndex
 90
        5
102
RTVSPost2010Prop44ColorRGB
 90
      255
102
RTVSPost2010PropOp44
 70
     1
102
RTVSPost2010Prop45
280
     0
102
RTVSPost2010PropOp45
 70
     1
102
RTVSPost2010Prop46
 90
       50
102
RTVSPost2010PropOp46
 70
     1
102
RTVSPost2010Prop47
 90
       50
102
RTVSPost2010PropOp47
 70
     1
102
RTVSPost2010Prop48
 90
       50
102
RTVSPost2010PropOp48
 70
     1
102
RTVSPost2010Prop49
280
     0
102
RTVSPost2010PropOp49
 70
     1
102
RTVSPost2010Prop50
 90
       50
102
RTVSPost2010PropOp50
 70
     1
102
RTVSPost2010Prop51ColorIndex
 90
      256
102
RTVSPost2010Prop51ColorRGB
 90
-16777216
102
RTVSPost2010PropOp51
 70
     0
102
RTVSPost2010Prop52
140
1.0
102
RTVSPost2010PropOp52
 70
     0
102
RTVSPost2010Prop53
 90
        2
102
RTVSPost2010PropOp53
 70
     1
102
RTVSPost2010Prop54
  1
strokes_ogs.tif
102
RTVSPost2010PropOp54
 70
     1
102
RTVSPost2010Prop55
280
     0
102
RTVSPost2010PropOp55
 70
     1
102
RTVSPost2010Prop56
140
1.0
102
RTVSPost2010PropOp56
 70
     1
102
RTVSPost2010Prop57
140
1.0
102
RTVSPost2010PropOp57
 70
     1
  0
XRECORD
  5
1FD3
102
{ACAD_REACTORS
330
1FD2
102
}
330
1FD2
100
AcDbXrecord
280
     1
102
RTVSPropertyOp0
 70
     1
102
RTVSPropertyOp1
 70
     1
102
RTVSPropertyOp2
 70
     1
102
RTVSPropertyOp3
 70
     1
102
RTVSPropertyOp4
 70
     1
102
RTVSPropertyOp5
 70
     1
102
RTVSPropertyOp6
 70
     1
102
RTVSPropertyOp7
 70
     1
102
RTVSPropertyOp8
 70
     1
102
RTVSPropertyOp9
 70
     1
102
RTVSPropertyOp10
 70
     1
102
RTVSPropertyOp11
 70
     1
102
RTVSPropertyOp12
 70
     1
102
RTVSPropertyOp13
 70
     1
102
RTVSPropertyOp14
 70
     1
102
RTVSPropertyOp15
 70
     1
102
RTVSPropertyOp16
 70
     1
102
RTVSPropertyOp17
 70
     1
102
RTVSPropertyOp18
 70
     1
102
RTVSPropertyOp19
 70
     1
102
RTVSPropertyOp20
 70
     1
102
RTVSPropertyOp21
 70
     1
102
RTVSPropertyOp22
 70
     1
102
RTVSPropertyOp23
 70
     1
102
RTVSPropertyOp24
 70
     1
102
RTVSPropertyOp25
 70
     1
102
RTVSPropertyOp26
 70
     1
102
RTVSPropertyOp27
 70
     1
102
RTVSPropertyOp28
 70
     1
102
RTVSPropertyOp29
 70
     1
102
RTVSPropertyOp30
 70
     1
102
RTVSPropertyOp31
 70
     1
102
RTVSPropertyOp32
 70
     1
102
RTVSPropertyOp33
 70
     1
102
RTVSPropertyOp34
 70
     1
102
RTVSPropertyOp35
 70
     1
102
RTVSPropertyOp36
 70
     1
102
RTVSPropertyOp37
 70
     1
102
RTVSPropertyOp38
 70
     1
102
RTVSPropertyOp39
 70
     1
102
RTVSPropertyOp40
 70
     1
102
RTVSPropertyOp41
 70
     1
102
RTVSPropertyOp42
 70
     1
102
RTVSPropertyOp43
 70
     1
102
RTVSPropertyOp44
 70
     1
102
RTVSPropertyOp45
 70
     1
102
RTVSPropertyOp46
 70
     1
102
RTVSPropertyOp47
 70
     1
102
RTVSPropertyOp48
 70
     1
102
RTVSPropertyOp49
 70
     1
102
RTVSPropertyOp50
 70
     1
102
RTVSPropertyOp51
 70
     0
102
RTVSPropertyOp52
 70
     0
102
RTVSPropertyOp53
 70
     1
102
RTVSPropertyOp54
 70
     1
102
RTVSPropertyOp55
 70
     1
102
RTVSPropertyOp56
 70
     1
102
RTVSPropertyOp57
 70
     1
102
RTVSPost2010Prop28
280
     0
102
RTVSPost2010PropOp28
 70
     1
102
RTVSPost2010Prop29
280
     1
102
RTVSPost2010PropOp29
 70
     1
102
RTVSPost2010Prop30
280
     1
102
RTVSPost2010PropOp30
 70
     1
102
RTVSPost2010Prop31
280
     0
102
RTVSPost2010PropOp31
 70
     1
102
RTVSPost2010Prop32
280
     0
102
RTVSPost2010PropOp32
 70
     1
102
RTVSPost2010Prop33
280
     0
102
RTVSPost2010PropOp33
 70
     1
102
RTVSPost2010Prop34
280
     0
102
RTVSPost2010PropOp34
 70
     1
102
RTVSPost2010Prop35
280
     0
102
RTVSPost2010PropOp35
 70
     1
102
RTVSPost2010Prop36
280
     0
102
RTVSPost2010PropOp36
 70
     1
102
RTVSPost2010Prop37
 90
       50
102
RTVSPost2010PropOp37
 70
     1
102
RTVSPost2010Prop38
140
0.0
102
RTVSPost2010PropOp38
 70
     1
102
RTVSPost2010Prop39
140
1.0
102
RTVSPost2010PropOp39
 70
     1
102
RTVSPost2010Prop40
 90
        0
102
RTVSPost2010PropOp40
 70
     1
102
RTVSPost2010Prop41ColorIndex
 90
       18
102
RTVSPost2010Prop41ColorRGB
 90
        0
102
RTVSPost2010PropOp41
 70
     1
102
RTVSPost2010Prop42
 90
       50
102
RTVSPost2010PropOp42
 70
     1
102
RTVSPost2010Prop43
 90
        3
102
RTVSPost2010PropOp43
 70
     1
102
RTVSPost2010Prop44ColorIndex
 90
        5
102
RTVSPost2010Prop44ColorRGB
 90
      255
102
RTVSPost2010PropOp44
 70
     1
102
RTVSPost2010Prop45
280
     0
102
RTVSPost2010PropOp45
 70
     1
102
RTVSPost2010Prop46
 90
       50
102
RTVSPost2010PropOp46
 70
     1
102
RTVSPost2010Prop47
 90
       50
102
RTVSPost2010PropOp47
 70
     1
102
RTVSPost2010Prop48
 90
       50
102
RTVSPost2010PropOp48
 70
     1
102
RTVSPost2010Prop49
280
     0
102
RTVSPost2010PropOp49
 70
     1
102
RTVSPost2010Prop50
 90
       50
102
RTVSPost2010PropOp50
 70
     1
102
RTVSPost2010Prop51ColorIndex
 90
      256
102
RTVSPost2010Prop51ColorRGB
 90
-16777216
102
RTVSPost2010PropOp51
 70
     0
102
RTVSPost2010Prop52
140
1.0
102
RTVSPost2010PropOp52
 70
     0
102
RTVSPost2010Prop53
 90
        2
102
RTVSPost2010PropOp53
 70
     1
102
RTVSPost2010Prop54
  1
strokes_ogs.tif
102
RTVSPost2010PropOp54
 70
     1
102
RTVSPost2010Prop55
280
     0
102
RTVSPost2010PropOp55
 70
     1
102
RTVSPost2010Prop56
140
1.0
102
RTVSPost2010PropOp56
 70
     1
102
RTVSPost2010Prop57
140
1.0
102
RTVSPost2010PropOp57
 70
     1
  0
XRECORD
  5
1FC7
102
{ACAD_REACTORS
330
1FC6
102
}
330
1FC6
100
AcDbXrecord
280
     1
102
RTVSPropertyOp0
 70
     1
102
RTVSPropertyOp1
 70
     1
102
RTVSPropertyOp2
 70
     1
102
RTVSPropertyOp3
 70
     1
102
RTVSPropertyOp4
 70
     1
102
RTVSPropertyOp5
 70
     1
102
RTVSPropertyOp6
 70
     1
102
RTVSPropertyOp7
 70
     1
102
RTVSPropertyOp8
 70
     1
102
RTVSPropertyOp9
 70
     1
102
RTVSPropertyOp10
 70
     1
102
RTVSPropertyOp11
 70
     1
102
RTVSPropertyOp12
 70
     1
102
RTVSPropertyOp13
 70
     1
102
RTVSPropertyOp14
 70
     1
102
RTVSPropertyOp15
 70
     1
102
RTVSPropertyOp16
 70
     1
102
RTVSPropertyOp17
 70
     1
102
RTVSPropertyOp18
 70
     1
102
RTVSPropertyOp19
 70
     1
102
RTVSPropertyOp20
 70
     1
102
RTVSPropertyOp21
 70
     1
102
RTVSPropertyOp22
 70
     1
102
RTVSPropertyOp23
 70
     1
102
RTVSPropertyOp24
 70
     1
102
RTVSPropertyOp25
 70
     1
102
RTVSPropertyOp26
 70
     1
102
RTVSPropertyOp27
 70
     1
102
RTVSPropertyOp28
 70
     1
102
RTVSPropertyOp29
 70
     1
102
RTVSPropertyOp30
 70
     1
102
RTVSPropertyOp31
 70
     1
102
RTVSPropertyOp32
 70
     1
102
RTVSPropertyOp33
 70
     1
102
RTVSPropertyOp34
 70
     1
102
RTVSPropertyOp35
 70
     1
102
RTVSPropertyOp36
 70
     1
102
RTVSPropertyOp37
 70
     1
102
RTVSPropertyOp38
 70
     1
102
RTVSPropertyOp39
 70
     1
102
RTVSPropertyOp40
 70
     1
102
RTVSPropertyOp41
 70
     1
102
RTVSPropertyOp42
 70
     1
102
RTVSPropertyOp43
 70
     1
102
RTVSPropertyOp44
 70
     1
102
RTVSPropertyOp45
 70
     1
102
RTVSPropertyOp46
 70
     1
102
RTVSPropertyOp47
 70
     1
102
RTVSPropertyOp48
 70
     1
102
RTVSPropertyOp49
 70
     1
102
RTVSPropertyOp50
 70
     1
102
RTVSPropertyOp51
 70
     0
102
RTVSPropertyOp52
 70
     0
102
RTVSPropertyOp53
 70
     1
102
RTVSPropertyOp54
 70
     1
102
RTVSPropertyOp55
 70
     1
102
RTVSPropertyOp56
 70
     1
102
RTVSPropertyOp57
 70
     1
102
RTVSPost2010Prop28
280
     0
102
RTVSPost2010PropOp28
 70
     1
102
RTVSPost2010Prop29
280
     1
102
RTVSPost2010PropOp29
 70
     1
102
RTVSPost2010Prop30
280
     1
102
RTVSPost2010PropOp30
 70
     1
102
RTVSPost2010Prop31
280
     0
102
RTVSPost2010PropOp31
 70
     1
102
RTVSPost2010Prop32
280
     0
102
RTVSPost2010PropOp32
 70
     1
102
RTVSPost2010Prop33
280
     0
102
RTVSPost2010PropOp33
 70
     1
102
RTVSPost2010Prop34
280
     0
102
RTVSPost2010PropOp34
 70
     1
102
RTVSPost2010Prop35
280
     0
102
RTVSPost2010PropOp35
 70
     1
102
RTVSPost2010Prop36
280
     0
102
RTVSPost2010PropOp36
 70
     1
102
RTVSPost2010Prop37
 90
       50
102
RTVSPost2010PropOp37
 70
     1
102
RTVSPost2010Prop38
140
0.0
102
RTVSPost2010PropOp38
 70
     1
102
RTVSPost2010Prop39
140
1.0
102
RTVSPost2010PropOp39
 70
     1
102
RTVSPost2010Prop40
 90
        0
102
RTVSPost2010PropOp40
 70
     1
102
RTVSPost2010Prop41ColorIndex
 90
       18
102
RTVSPost2010Prop41ColorRGB
 90
        0
102
RTVSPost2010PropOp41
 70
     1
102
RTVSPost2010Prop42
 90
       50
102
RTVSPost2010PropOp42
 70
     1
102
RTVSPost2010Prop43
 90
        3
102
RTVSPost2010PropOp43
 70
     1
102
RTVSPost2010Prop44ColorIndex
 90
        5
102
RTVSPost2010Prop44ColorRGB
 90
      255
102
RTVSPost2010PropOp44
 70
     1
102
RTVSPost2010Prop45
280
     0
102
RTVSPost2010PropOp45
 70
     1
102
RTVSPost2010Prop46
 90
       50
102
RTVSPost2010PropOp46
 70
     1
102
RTVSPost2010Prop47
 90
       50
102
RTVSPost2010PropOp47
 70
     1
102
RTVSPost2010Prop48
 90
       50
102
RTVSPost2010PropOp48
 70
     1
102
RTVSPost2010Prop49
280
     0
102
RTVSPost2010PropOp49
 70
     1
102
RTVSPost2010Prop50
 90
       50
102
RTVSPost2010PropOp50
 70
     1
102
RTVSPost2010Prop51ColorIndex
 90
      256
102
RTVSPost2010Prop51ColorRGB
 90
-16777216
102
RTVSPost2010PropOp51
 70
     0
102
RTVSPost2010Prop52
140
1.0
102
RTVSPost2010PropOp52
 70
     0
102
RTVSPost2010Prop53
 90
        2
102
RTVSPost2010PropOp53
 70
     1
102
RTVSPost2010Prop54
  1
strokes_ogs.tif
102
RTVSPost2010PropOp54
 70
     1
102
RTVSPost2010Prop55
280
     0
102
RTVSPost2010PropOp55
 70
     1
102
RTVSPost2010Prop56
140
1.0
102
RTVSPost2010PropOp56
 70
     1
102
RTVSPost2010Prop57
140
1.0
102
RTVSPost2010PropOp57
 70
     1
  0
XRECORD
  5
1FC9
102
{ACAD_REACTORS
330
1FC8
102
}
330
1FC8
100
AcDbXrecord
280
     1
102
RTVSPropertyOp0
 70
     1
102
RTVSPropertyOp1
 70
     1
102
RTVSPropertyOp2
 70
     1
102
RTVSPropertyOp3
 70
     1
102
RTVSPropertyOp4
 70
     1
102
RTVSPropertyOp5
 70
     1
102
RTVSPropertyOp6
 70
     1
102
RTVSPropertyOp7
 70
     1
102
RTVSPropertyOp8
 70
     1
102
RTVSPropertyOp9
 70
     1
102
RTVSPropertyOp10
 70
     1
102
RTVSPropertyOp11
 70
     1
102
RTVSPropertyOp12
 70
     1
102
RTVSPropertyOp13
 70
     1
102
RTVSPropertyOp14
 70
     1
102
RTVSPropertyOp15
 70
     1
102
RTVSPropertyOp16
 70
     1
102
RTVSPropertyOp17
 70
     1
102
RTVSPropertyOp18
 70
     1
102
RTVSPropertyOp19
 70
     1
102
RTVSPropertyOp20
 70
     1
102
RTVSPropertyOp21
 70
     1
102
RTVSPropertyOp22
 70
     1
102
RTVSPropertyOp23
 70
     1
102
RTVSPropertyOp24
 70
     1
102
RTVSPropertyOp25
 70
     1
102
RTVSPropertyOp26
 70
     1
102
RTVSPropertyOp27
 70
     1
102
RTVSPropertyOp28
 70
     1
102
RTVSPropertyOp29
 70
     1
102
RTVSPropertyOp30
 70
     1
102
RTVSPropertyOp31
 70
     1
102
RTVSPropertyOp32
 70
     1
102
RTVSPropertyOp33
 70
     1
102
RTVSPropertyOp34
 70
     1
102
RTVSPropertyOp35
 70
     1
102
RTVSPropertyOp36
 70
     1
102
RTVSPropertyOp37
 70
     1
102
RTVSPropertyOp38
 70
     1
102
RTVSPropertyOp39
 70
     1
102
RTVSPropertyOp40
 70
     1
102
RTVSPropertyOp41
 70
     1
102
RTVSPropertyOp42
 70
     1
102
RTVSPropertyOp43
 70
     1
102
RTVSPropertyOp44
 70
     1
102
RTVSPropertyOp45
 70
     1
102
RTVSPropertyOp46
 70
     1
102
RTVSPropertyOp47
 70
     1
102
RTVSPropertyOp48
 70
     1
102
RTVSPropertyOp49
 70
     1
102
RTVSPropertyOp50
 70
     1
102
RTVSPropertyOp51
 70
     0
102
RTVSPropertyOp52
 70
     0
102
RTVSPropertyOp53
 70
     1
102
RTVSPropertyOp54
 70
     1
102
RTVSPropertyOp55
 70
     1
102
RTVSPropertyOp56
 70
     1
102
RTVSPropertyOp57
 70
     1
102
RTVSPost2010Prop28
280
     0
102
RTVSPost2010PropOp28
 70
     1
102
RTVSPost2010Prop29
280
     1
102
RTVSPost2010PropOp29
 70
     1
102
RTVSPost2010Prop30
280
     1
102
RTVSPost2010PropOp30
 70
     1
102
RTVSPost2010Prop31
280
     0
102
RTVSPost2010PropOp31
 70
     1
102
RTVSPost2010Prop32
280
     0
102
RTVSPost2010PropOp32
 70
     1
102
RTVSPost2010Prop33
280
     0
102
RTVSPost2010PropOp33
 70
     1
102
RTVSPost2010Prop34
280
     0
102
RTVSPost2010PropOp34
 70
     1
102
RTVSPost2010Prop35
280
     0
102
RTVSPost2010PropOp35
 70
     1
102
RTVSPost2010Prop36
280
     0
102
RTVSPost2010PropOp36
 70
     1
102
RTVSPost2010Prop37
 90
       50
102
RTVSPost2010PropOp37
 70
     1
102
RTVSPost2010Prop38
140
0.0
102
RTVSPost2010PropOp38
 70
     1
102
RTVSPost2010Prop39
140
1.0
102
RTVSPost2010PropOp39
 70
     1
102
RTVSPost2010Prop40
 90
        0
102
RTVSPost2010PropOp40
 70
     1
102
RTVSPost2010Prop41ColorIndex
 90
       18
102
RTVSPost2010Prop41ColorRGB
 90
        0
102
RTVSPost2010PropOp41
 70
     1
102
RTVSPost2010Prop42
 90
       50
102
RTVSPost2010PropOp42
 70
     1
102
RTVSPost2010Prop43
 90
        3
102
RTVSPost2010PropOp43
 70
     1
102
RTVSPost2010Prop44ColorIndex
 90
        5
102
RTVSPost2010Prop44ColorRGB
 90
      255
102
RTVSPost2010PropOp44
 70
     1
102
RTVSPost2010Prop45
280
     0
102
RTVSPost2010PropOp45
 70
     1
102
RTVSPost2010Prop46
 90
       50
102
RTVSPost2010PropOp46
 70
     1
102
RTVSPost2010Prop47
 90
       50
102
RTVSPost2010PropOp47
 70
     1
102
RTVSPost2010Prop48
 90
       50
102
RTVSPost2010PropOp48
 70
     1
102
RTVSPost2010Prop49
280
     0
102
RTVSPost2010PropOp49
 70
     1
102
RTVSPost2010Prop50
 90
       50
102
RTVSPost2010PropOp50
 70
     1
102
RTVSPost2010Prop51ColorIndex
 90
      256
102
RTVSPost2010Prop51ColorRGB
 90
-16777216
102
RTVSPost2010PropOp51
 70
     0
102
RTVSPost2010Prop52
140
1.0
102
RTVSPost2010PropOp52
 70
     0
102
RTVSPost2010Prop53
 90
        2
102
RTVSPost2010PropOp53
 70
     1
102
RTVSPost2010Prop54
  1
strokes_ogs.tif
102
RTVSPost2010PropOp54
 70
     1
102
RTVSPost2010Prop55
280
     0
102
RTVSPost2010PropOp55
 70
     1
102
RTVSPost2010Prop56
140
1.0
102
RTVSPost2010PropOp56
 70
     1
102
RTVSPost2010Prop57
140
1.0
102
RTVSPost2010PropOp57
 70
     1
  0
XRECORD
  5
1FDD
102
{ACAD_REACTORS
330
1FDC
102
}
330
1FDC
100
AcDbXrecord
280
     1
102
RTVSPropertyOp0
 70
     0
102
RTVSPropertyOp1
 70
     0
102
RTVSPropertyOp2
 70
     0
102
RTVSPropertyOp3
 70
     0
102
RTVSPropertyOp4
 70
     0
102
RTVSPropertyOp5
 70
     0
102
RTVSPropertyOp6
 70
     0
102
RTVSPropertyOp7
 70
     0
102
RTVSPropertyOp8
 70
     0
102
RTVSPropertyOp9
 70
     0
102
RTVSPropertyOp10
 70
     0
102
RTVSPropertyOp11
 70
     0
102
RTVSPropertyOp12
 70
     0
102
RTVSPropertyOp13
 70
     0
102
RTVSPropertyOp14
 70
     2
102
RTVSPropertyOp15
 70
     0
102
RTVSPropertyOp16
 70
     0
102
RTVSPropertyOp17
 70
     0
102
RTVSPropertyOp18
 70
     0
102
RTVSPropertyOp19
 70
     0
102
RTVSPropertyOp20
 70
     0
102
RTVSPropertyOp21
 70
     0
102
RTVSPropertyOp22
 70
     0
102
RTVSPropertyOp23
 70
     0
102
RTVSPropertyOp24
 70
     0
102
RTVSPropertyOp25
 70
     0
102
RTVSPropertyOp26
 70
     0
102
RTVSPropertyOp27
 70
     0
102
RTVSPropertyOp28
 70
     0
102
RTVSPropertyOp29
 70
     0
102
RTVSPropertyOp30
 70
     0
102
RTVSPropertyOp31
 70
     0
102
RTVSPropertyOp32
 70
     0
102
RTVSPropertyOp33
 70
     0
102
RTVSPropertyOp34
 70
     0
102
RTVSPropertyOp35
 70
     0
102
RTVSPropertyOp36
 70
     0
102
RTVSPropertyOp37
 70
     0
102
RTVSPropertyOp38
 70
     0
102
RTVSPropertyOp39
 70
     0
102
RTVSPropertyOp40
 70
     0
102
RTVSPropertyOp41
 70
     0
102
RTVSPropertyOp42
 70
     0
102
RTVSPropertyOp43
 70
     0
102
RTVSPropertyOp44
 70
     0
102
RTVSPropertyOp45
 70
     0
102
RTVSPropertyOp46
 70
     0
102
RTVSPropertyOp47
 70
     0
102
RTVSPropertyOp48
 70
     0
102
RTVSPropertyOp49
 70
     0
102
RTVSPropertyOp50
 70
     0
102
RTVSPropertyOp51
 70
     0
102
RTVSPropertyOp52
 70
     0
102
RTVSPropertyOp53
 70
     0
102
RTVSPropertyOp54
 70
     0
102
RTVSPropertyOp55
 70
     0
102
RTVSPropertyOp56
 70
     0
102
RTVSPropertyOp57
 70
     0
102
RTVSPost2010Prop28
280
     0
102
RTVSPost2010PropOp28
 70
     0
102
RTVSPost2010Prop29
280
     1
102
RTVSPost2010PropOp29
 70
     0
102
RTVSPost2010Prop30
280
     1
102
RTVSPost2010PropOp30
 70
     0
102
RTVSPost2010Prop31
280
     0
102
RTVSPost2010PropOp31
 70
     0
102
RTVSPost2010Prop32
280
     0
102
RTVSPost2010PropOp32
 70
     0
102
RTVSPost2010Prop33
280
     0
102
RTVSPost2010PropOp33
 70
     0
102
RTVSPost2010Prop34
280
     0
102
RTVSPost2010PropOp34
 70
     0
102
RTVSPost2010Prop35
280
     0
102
RTVSPost2010PropOp35
 70
     0
102
RTVSPost2010Prop36
280
     0
102
RTVSPost2010PropOp36
 70
     0
102
RTVSPost2010Prop37
 90
       50
102
RTVSPost2010PropOp37
 70
     0
102
RTVSPost2010Prop38
140
0.0
102
RTVSPost2010PropOp38
 70
     0
102
RTVSPost2010Prop39
140
1.0
102
RTVSPost2010PropOp39
 70
     0
102
RTVSPost2010Prop40
 90
        0
102
RTVSPost2010PropOp40
 70
     0
102
RTVSPost2010Prop41ColorIndex
 90
       18
102
RTVSPost2010Prop41ColorRGB
 90
        0
102
RTVSPost2010PropOp41
 70
     0
102
RTVSPost2010Prop42
 90
       50
102
RTVSPost2010PropOp42
 70
     0
102
RTVSPost2010Prop43
 90
        3
102
RTVSPost2010PropOp43
 70
     0
102
RTVSPost2010Prop44ColorIndex
 90
        5
102
RTVSPost2010Prop44ColorRGB
 90
      255
102
RTVSPost2010PropOp44
 70
     0
102
RTVSPost2010Prop45
280
     0
102
RTVSPost2010PropOp45
 70
     0
102
RTVSPost2010Prop46
 90
       50
102
RTVSPost2010PropOp46
 70
     0
102
RTVSPost2010Prop47
 90
       50
102
RTVSPost2010PropOp47
 70
     0
102
RTVSPost2010Prop48
 90
       50
102
RTVSPost2010PropOp48
 70
     0
102
RTVSPost2010Prop49
280
     0
102
RTVSPost2010PropOp49
 70
     0
102
RTVSPost2010Prop50
 90
       50
102
RTVSPost2010PropOp50
 70
     0
102
RTVSPost2010Prop51ColorIndex
 90
      256
102
RTVSPost2010Prop51ColorRGB
 90
-16777216
102
RTVSPost2010PropOp51
 70
     0
102
RTVSPost2010Prop52
140
1.0
102
RTVSPost2010PropOp52
 70
     0
102
RTVSPost2010Prop53
 90
        2
102
RTVSPost2010PropOp53
 70
     0
102
RTVSPost2010Prop54
  1
strokes_ogs.tif
102
RTVSPost2010PropOp54
 70
     0
102
RTVSPost2010Prop55
280
     0
102
RTVSPost2010PropOp55
 70
     0
102
RTVSPost2010Prop56
140
1.0
102
RTVSPost2010PropOp56
 70
     0
102
RTVSPost2010Prop57
140
1.0
102
RTVSPost2010PropOp57
 70
     0
  0
XRECORD
  5
1FD1
102
{ACAD_REACTORS
330
1FD0
102
}
330
1FD0
100
AcDbXrecord
280
     1
102
RTVSPropertyOp0
 70
     1
102
RTVSPropertyOp1
 70
     1
102
RTVSPropertyOp2
 70
     1
102
RTVSPropertyOp3
 70
     1
102
RTVSPropertyOp4
 70
     1
102
RTVSPropertyOp5
 70
     1
102
RTVSPropertyOp6
 70
     1
102
RTVSPropertyOp7
 70
     1
102
RTVSPropertyOp8
 70
     1
102
RTVSPropertyOp9
 70
     1
102
RTVSPropertyOp10
 70
     1
102
RTVSPropertyOp11
 70
     1
102
RTVSPropertyOp12
 70
     1
102
RTVSPropertyOp13
 70
     1
102
RTVSPropertyOp14
 70
     1
102
RTVSPropertyOp15
 70
     1
102
RTVSPropertyOp16
 70
     1
102
RTVSPropertyOp17
 70
     1
102
RTVSPropertyOp18
 70
     1
102
RTVSPropertyOp19
 70
     1
102
RTVSPropertyOp20
 70
     1
102
RTVSPropertyOp21
 70
     1
102
RTVSPropertyOp22
 70
     1
102
RTVSPropertyOp23
 70
     1
102
RTVSPropertyOp24
 70
     1
102
RTVSPropertyOp25
 70
     1
102
RTVSPropertyOp26
 70
     1
102
RTVSPropertyOp27
 70
     1
102
RTVSPropertyOp28
 70
     1
102
RTVSPropertyOp29
 70
     1
102
RTVSPropertyOp30
 70
     1
102
RTVSPropertyOp31
 70
     1
102
RTVSPropertyOp32
 70
     1
102
RTVSPropertyOp33
 70
     1
102
RTVSPropertyOp34
 70
     1
102
RTVSPropertyOp35
 70
     1
102
RTVSPropertyOp36
 70
     1
102
RTVSPropertyOp37
 70
     1
102
RTVSPropertyOp38
 70
     1
102
RTVSPropertyOp39
 70
     1
102
RTVSPropertyOp40
 70
     1
102
RTVSPropertyOp41
 70
     1
102
RTVSPropertyOp42
 70
     1
102
RTVSPropertyOp43
 70
     1
102
RTVSPropertyOp44
 70
     1
102
RTVSPropertyOp45
 70
     1
102
RTVSPropertyOp46
 70
     1
102
RTVSPropertyOp47
 70
     1
102
RTVSPropertyOp48
 70
     1
102
RTVSPropertyOp49
 70
     1
102
RTVSPropertyOp50
 70
     1
102
RTVSPropertyOp51
 70
     0
102
RTVSPropertyOp52
 70
     0
102
RTVSPropertyOp53
 70
     1
102
RTVSPropertyOp54
 70
     1
102
RTVSPropertyOp55
 70
     1
102
RTVSPropertyOp56
 70
     1
102
RTVSPropertyOp57
 70
     1
102
RTVSPost2010Prop28
280
     0
102
RTVSPost2010PropOp28
 70
     1
102
RTVSPost2010Prop29
280
     1
102
RTVSPost2010PropOp29
 70
     1
102
RTVSPost2010Prop30
280
     1
102
RTVSPost2010PropOp30
 70
     1
102
RTVSPost2010Prop31
280
     0
102
RTVSPost2010PropOp31
 70
     1
102
RTVSPost2010Prop32
280
     0
102
RTVSPost2010PropOp32
 70
     1
102
RTVSPost2010Prop33
280
     0
102
RTVSPost2010PropOp33
 70
     1
102
RTVSPost2010Prop34
280
     0
102
RTVSPost2010PropOp34
 70
     1
102
RTVSPost2010Prop35
280
     0
102
RTVSPost2010PropOp35
 70
     1
102
RTVSPost2010Prop36
280
     0
102
RTVSPost2010PropOp36
 70
     1
102
RTVSPost2010Prop37
 90
       50
102
RTVSPost2010PropOp37
 70
     1
102
RTVSPost2010Prop38
140
0.0
102
RTVSPost2010PropOp38
 70
     1
102
RTVSPost2010Prop39
140
1.0
102
RTVSPost2010PropOp39
 70
     1
102
RTVSPost2010Prop40
 90
        0
102
RTVSPost2010PropOp40
 70
     1
102
RTVSPost2010Prop41ColorIndex
 90
       18
102
RTVSPost2010Prop41ColorRGB
 90
        0
102
RTVSPost2010PropOp41
 70
     1
102
RTVSPost2010Prop42
 90
       50
102
RTVSPost2010PropOp42
 70
     1
102
RTVSPost2010Prop43
 90
        3
102
RTVSPost2010PropOp43
 70
     1
102
RTVSPost2010Prop44ColorIndex
 90
        5
102
RTVSPost2010Prop44ColorRGB
 90
      255
102
RTVSPost2010PropOp44
 70
     1
102
RTVSPost2010Prop45
280
     0
102
RTVSPost2010PropOp45
 70
     1
102
RTVSPost2010Prop46
 90
       50
102
RTVSPost2010PropOp46
 70
     1
102
RTVSPost2010Prop47
 90
       50
102
RTVSPost2010PropOp47
 70
     1
102
RTVSPost2010Prop48
 90
       50
102
RTVSPost2010PropOp48
 70
     1
102
RTVSPost2010Prop49
280
     0
102
RTVSPost2010PropOp49
 70
     1
102
RTVSPost2010Prop50
 90
       50
102
RTVSPost2010PropOp50
 70
     1
102
RTVSPost2010Prop51ColorIndex
 90
      256
102
RTVSPost2010Prop51ColorRGB
 90
-16777216
102
RTVSPost2010PropOp51
 70
     0
102
RTVSPost2010Prop52
140
1.0
102
RTVSPost2010PropOp52
 70
     0
102
RTVSPost2010Prop53
 90
        2
102
RTVSPost2010PropOp53
 70
     1
102
RTVSPost2010Prop54
  1
strokes_ogs.tif
102
RTVSPost2010PropOp54
 70
     1
102
RTVSPost2010Prop55
280
     0
102
RTVSPost2010PropOp55
 70
     1
102
RTVSPost2010Prop56
140
1.0
102
RTVSPost2010PropOp56
 70
     1
102
RTVSPost2010Prop57
140
1.0
102
RTVSPost2010PropOp57
 70
     1
  0
XRECORD
  5
1FB5
102
{ACAD_REACTORS
330
1FB4
102
}
330
1FB4
100
AcDbXrecord
280
     1
102
RTVSPropertyOp0
 70
     1
102
RTVSPropertyOp1
 70
     1
102
RTVSPropertyOp2
 70
     1
102
RTVSPropertyOp3
 70
     1
102
RTVSPropertyOp4
 70
     1
102
RTVSPropertyOp5
 70
     1
102
RTVSPropertyOp6
 70
     1
102
RTVSPropertyOp7
 70
     1
102
RTVSPropertyOp8
 70
     1
102
RTVSPropertyOp9
 70
     1
102
RTVSPropertyOp10
 70
     1
102
RTVSPropertyOp11
 70
     1
102
RTVSPropertyOp12
 70
     1
102
RTVSPropertyOp13
 70
     1
102
RTVSPropertyOp14
 70
     1
102
RTVSPropertyOp15
 70
     1
102
RTVSPropertyOp16
 70
     1
102
RTVSPropertyOp17
 70
     1
102
RTVSPropertyOp18
 70
     1
102
RTVSPropertyOp19
 70
     1
102
RTVSPropertyOp20
 70
     1
102
RTVSPropertyOp21
 70
     1
102
RTVSPropertyOp22
 70
     1
102
RTVSPropertyOp23
 70
     1
102
RTVSPropertyOp24
 70
     1
102
RTVSPropertyOp25
 70
     1
102
RTVSPropertyOp26
 70
     1
102
RTVSPropertyOp27
 70
     1
102
RTVSPropertyOp28
 70
     1
102
RTVSPropertyOp29
 70
     1
102
RTVSPropertyOp30
 70
     1
102
RTVSPropertyOp31
 70
     1
102
RTVSPropertyOp32
 70
     1
102
RTVSPropertyOp33
 70
     1
102
RTVSPropertyOp34
 70
     1
102
RTVSPropertyOp35
 70
     1
102
RTVSPropertyOp36
 70
     1
102
RTVSPropertyOp37
 70
     1
102
RTVSPropertyOp38
 70
     1
102
RTVSPropertyOp39
 70
     1
102
RTVSPropertyOp40
 70
     1
102
RTVSPropertyOp41
 70
     1
102
RTVSPropertyOp42
 70
     1
102
RTVSPropertyOp43
 70
     1
102
RTVSPropertyOp44
 70
     1
102
RTVSPropertyOp45
 70
     1
102
RTVSPropertyOp46
 70
     1
102
RTVSPropertyOp47
 70
     1
102
RTVSPropertyOp48
 70
     1
102
RTVSPropertyOp49
 70
     1
102
RTVSPropertyOp50
 70
     1
102
RTVSPropertyOp51
 70
     0
102
RTVSPropertyOp52
 70
     0
102
RTVSPropertyOp53
 70
     1
102
RTVSPropertyOp54
 70
     1
102
RTVSPropertyOp55
 70
     1
102
RTVSPropertyOp56
 70
     1
102
RTVSPropertyOp57
 70
     1
102
RTVSPost2010Prop28
280
     0
102
RTVSPost2010PropOp28
 70
     1
102
RTVSPost2010Prop29
280
     1
102
RTVSPost2010PropOp29
 70
     1
102
RTVSPost2010Prop30
280
     1
102
RTVSPost2010PropOp30
 70
     1
102
RTVSPost2010Prop31
280
     0
102
RTVSPost2010PropOp31
 70
     1
102
RTVSPost2010Prop32
280
     0
102
RTVSPost2010PropOp32
 70
     1
102
RTVSPost2010Prop33
280
     0
102
RTVSPost2010PropOp33
 70
     1
102
RTVSPost2010Prop34
280
     0
102
RTVSPost2010PropOp34
 70
     1
102
RTVSPost2010Prop35
280
     0
102
RTVSPost2010PropOp35
 70
     1
102
RTVSPost2010Prop36
280
     0
102
RTVSPost2010PropOp36
 70
     1
102
RTVSPost2010Prop37
 90
       50
102
RTVSPost2010PropOp37
 70
     1
102
RTVSPost2010Prop38
140
0.0
102
RTVSPost2010PropOp38
 70
     1
102
RTVSPost2010Prop39
140
1.0
102
RTVSPost2010PropOp39
 70
     1
102
RTVSPost2010Prop40
 90
        0
102
RTVSPost2010PropOp40
 70
     1
102
RTVSPost2010Prop41ColorIndex
 90
       18
102
RTVSPost2010Prop41ColorRGB
 90
        0
102
RTVSPost2010PropOp41
 70
     1
102
RTVSPost2010Prop42
 90
       50
102
RTVSPost2010PropOp42
 70
     1
102
RTVSPost2010Prop43
 90
        3
102
RTVSPost2010PropOp43
 70
     1
102
RTVSPost2010Prop44ColorIndex
 90
        5
102
RTVSPost2010Prop44ColorRGB
 90
      255
102
RTVSPost2010PropOp44
 70
     1
102
RTVSPost2010Prop45
280
     0
102
RTVSPost2010PropOp45
 70
     1
102
RTVSPost2010Prop46
 90
       50
102
RTVSPost2010PropOp46
 70
     1
102
RTVSPost2010Prop47
 90
       50
102
RTVSPost2010PropOp47
 70
     1
102
RTVSPost2010Prop48
 90
       50
102
RTVSPost2010PropOp48
 70
     1
102
RTVSPost2010Prop49
280
     0
102
RTVSPost2010PropOp49
 70
     1
102
RTVSPost2010Prop50
 90
       50
102
RTVSPost2010PropOp50
 70
     1
102
RTVSPost2010Prop51ColorIndex
 90
      256
102
RTVSPost2010Prop51ColorRGB
 90
-16777216
102
RTVSPost2010PropOp51
 70
     0
102
RTVSPost2010Prop52
140
1.0
102
RTVSPost2010PropOp52
 70
     0
102
RTVSPost2010Prop53
 90
        2
102
RTVSPost2010PropOp53
 70
     1
102
RTVSPost2010Prop54
  1
strokes_ogs.tif
102
RTVSPost2010PropOp54
 70
     1
102
RTVSPost2010Prop55
280
     0
102
RTVSPost2010PropOp55
 70
     1
102
RTVSPost2010Prop56
140
1.0
102
RTVSPost2010PropOp56
 70
     1
102
RTVSPost2010Prop57
140
1.0
102
RTVSPost2010PropOp57
 70
     1
  0
XRECORD
  5
1FB7
102
{ACAD_REACTORS
330
1FB6
102
}
330
1FB6
100
AcDbXrecord
280
     1
102
RTVSPropertyOp0
 70
     1
102
RTVSPropertyOp1
 70
     1
102
RTVSPropertyOp2
 70
     1
102
RTVSPropertyOp3
 70
     1
102
RTVSPropertyOp4
 70
     1
102
RTVSPropertyOp5
 70
     1
102
RTVSPropertyOp6
 70
     1
102
RTVSPropertyOp7
 70
     1
102
RTVSPropertyOp8
 70
     1
102
RTVSPropertyOp9
 70
     1
102
RTVSPropertyOp10
 70
     1
102
RTVSPropertyOp11
 70
     1
102
RTVSPropertyOp12
 70
     1
102
RTVSPropertyOp13
 70
     1
102
RTVSPropertyOp14
 70
     1
102
RTVSPropertyOp15
 70
     1
102
RTVSPropertyOp16
 70
     1
102
RTVSPropertyOp17
 70
     1
102
RTVSPropertyOp18
 70
     1
102
RTVSPropertyOp19
 70
     1
102
RTVSPropertyOp20
 70
     1
102
RTVSPropertyOp21
 70
     1
102
RTVSPropertyOp22
 70
     1
102
RTVSPropertyOp23
 70
     1
102
RTVSPropertyOp24
 70
     1
102
RTVSPropertyOp25
 70
     1
102
RTVSPropertyOp26
 70
     1
102
RTVSPropertyOp27
 70
     1
102
RTVSPropertyOp28
 70
     1
102
RTVSPropertyOp29
 70
     1
102
RTVSPropertyOp30
 70
     1
102
RTVSPropertyOp31
 70
     1
102
RTVSPropertyOp32
 70
     1
102
RTVSPropertyOp33
 70
     1
102
RTVSPropertyOp34
 70
     1
102
RTVSPropertyOp35
 70
     1
102
RTVSPropertyOp36
 70
     1
102
RTVSPropertyOp37
 70
     1
102
RTVSPropertyOp38
 70
     1
102
RTVSPropertyOp39
 70
     1
102
RTVSPropertyOp40
 70
     1
102
RTVSPropertyOp41
 70
     1
102
RTVSPropertyOp42
 70
     1
102
RTVSPropertyOp43
 70
     1
102
RTVSPropertyOp44
 70
     1
102
RTVSPropertyOp45
 70
     1
102
RTVSPropertyOp46
 70
     1
102
RTVSPropertyOp47
 70
     1
102
RTVSPropertyOp48
 70
     1
102
RTVSPropertyOp49
 70
     1
102
RTVSPropertyOp50
 70
     1
102
RTVSPropertyOp51
 70
     0
102
RTVSPropertyOp52
 70
     0
102
RTVSPropertyOp53
 70
     1
102
RTVSPropertyOp54
 70
     1
102
RTVSPropertyOp55
 70
     1
102
RTVSPropertyOp56
 70
     1
102
RTVSPropertyOp57
 70
     1
102
RTVSPost2010Prop28
280
     0
102
RTVSPost2010PropOp28
 70
     1
102
RTVSPost2010Prop29
280
     1
102
RTVSPost2010PropOp29
 70
     1
102
RTVSPost2010Prop30
280
     1
102
RTVSPost2010PropOp30
 70
     1
102
RTVSPost2010Prop31
280
     0
102
RTVSPost2010PropOp31
 70
     1
102
RTVSPost2010Prop32
280
     0
102
RTVSPost2010PropOp32
 70
     1
102
RTVSPost2010Prop33
280
     0
102
RTVSPost2010PropOp33
 70
     1
102
RTVSPost2010Prop34
280
     0
102
RTVSPost2010PropOp34
 70
     1
102
RTVSPost2010Prop35
280
     0
102
RTVSPost2010PropOp35
 70
     1
102
RTVSPost2010Prop36
280
     0
102
RTVSPost2010PropOp36
 70
     1
102
RTVSPost2010Prop37
 90
       50
102
RTVSPost2010PropOp37
 70
     1
102
RTVSPost2010Prop38
140
0.0
102
RTVSPost2010PropOp38
 70
     1
102
RTVSPost2010Prop39
140
1.0
102
RTVSPost2010PropOp39
 70
     1
102
RTVSPost2010Prop40
 90
        0
102
RTVSPost2010PropOp40
 70
     1
102
RTVSPost2010Prop41ColorIndex
 90
       18
102
RTVSPost2010Prop41ColorRGB
 90
        0
102
RTVSPost2010PropOp41
 70
     1
102
RTVSPost2010Prop42
 90
       50
102
RTVSPost2010PropOp42
 70
     1
102
RTVSPost2010Prop43
 90
        3
102
RTVSPost2010PropOp43
 70
     1
102
RTVSPost2010Prop44ColorIndex
 90
        5
102
RTVSPost2010Prop44ColorRGB
 90
      255
102
RTVSPost2010PropOp44
 70
     1
102
RTVSPost2010Prop45
280
     0
102
RTVSPost2010PropOp45
 70
     1
102
RTVSPost2010Prop46
 90
       50
102
RTVSPost2010PropOp46
 70
     1
102
RTVSPost2010Prop47
 90
       50
102
RTVSPost2010PropOp47
 70
     1
102
RTVSPost2010Prop48
 90
       50
102
RTVSPost2010PropOp48
 70
     1
102
RTVSPost2010Prop49
280
     0
102
RTVSPost2010PropOp49
 70
     1
102
RTVSPost2010Prop50
 90
       50
102
RTVSPost2010PropOp50
 70
     1
102
RTVSPost2010Prop51ColorIndex
 90
      256
102
RTVSPost2010Prop51ColorRGB
 90
-16777216
102
RTVSPost2010PropOp51
 70
     0
102
RTVSPost2010Prop52
140
1.0
102
RTVSPost2010PropOp52
 70
     0
102
RTVSPost2010Prop53
 90
        2
102
RTVSPost2010PropOp53
 70
     1
102
RTVSPost2010Prop54
  1
strokes_ogs.tif
102
RTVSPost2010PropOp54
 70
     1
102
RTVSPost2010Prop55
280
     0
102
RTVSPost2010PropOp55
 70
     1
102
RTVSPost2010Prop56
140
1.0
102
RTVSPost2010PropOp56
 70
     1
102
RTVSPost2010Prop57
140
1.0
102
RTVSPost2010PropOp57
 70
     1
  0
XRECORD
  5
1FB9
102
{ACAD_REACTORS
330
1FB8
102
}
330
1FB8
100
AcDbXrecord
280
     1
102
RTVSPropertyOp0
 70
     1
102
RTVSPropertyOp1
 70
     1
102
RTVSPropertyOp2
 70
     1
102
RTVSPropertyOp3
 70
     1
102
RTVSPropertyOp4
 70
     1
102
RTVSPropertyOp5
 70
     1
102
RTVSPropertyOp6
 70
     1
102
RTVSPropertyOp7
 70
     1
102
RTVSPropertyOp8
 70
     1
102
RTVSPropertyOp9
 70
     1
102
RTVSPropertyOp10
 70
     1
102
RTVSPropertyOp11
 70
     1
102
RTVSPropertyOp12
 70
     1
102
RTVSPropertyOp13
 70
     1
102
RTVSPropertyOp14
 70
     1
102
RTVSPropertyOp15
 70
     1
102
RTVSPropertyOp16
 70
     1
102
RTVSPropertyOp17
 70
     1
102
RTVSPropertyOp18
 70
     1
102
RTVSPropertyOp19
 70
     1
102
RTVSPropertyOp20
 70
     1
102
RTVSPropertyOp21
 70
     1
102
RTVSPropertyOp22
 70
     1
102
RTVSPropertyOp23
 70
     1
102
RTVSPropertyOp24
 70
     1
102
RTVSPropertyOp25
 70
     1
102
RTVSPropertyOp26
 70
     1
102
RTVSPropertyOp27
 70
     1
102
RTVSPropertyOp28
 70
     1
102
RTVSPropertyOp29
 70
     1
102
RTVSPropertyOp30
 70
     1
102
RTVSPropertyOp31
 70
     1
102
RTVSPropertyOp32
 70
     1
102
RTVSPropertyOp33
 70
     1
102
RTVSPropertyOp34
 70
     1
102
RTVSPropertyOp35
 70
     1
102
RTVSPropertyOp36
 70
     1
102
RTVSPropertyOp37
 70
     1
102
RTVSPropertyOp38
 70
     1
102
RTVSPropertyOp39
 70
     1
102
RTVSPropertyOp40
 70
     1
102
RTVSPropertyOp41
 70
     1
102
RTVSPropertyOp42
 70
     1
102
RTVSPropertyOp43
 70
     1
102
RTVSPropertyOp44
 70
     1
102
RTVSPropertyOp45
 70
     1
102
RTVSPropertyOp46
 70
     1
102
RTVSPropertyOp47
 70
     1
102
RTVSPropertyOp48
 70
     1
102
RTVSPropertyOp49
 70
     1
102
RTVSPropertyOp50
 70
     1
102
RTVSPropertyOp51
 70
     0
102
RTVSPropertyOp52
 70
     0
102
RTVSPropertyOp53
 70
     1
102
RTVSPropertyOp54
 70
     1
102
RTVSPropertyOp55
 70
     1
102
RTVSPropertyOp56
 70
     1
102
RTVSPropertyOp57
 70
     1
102
RTVSPost2010Prop28
280
     0
102
RTVSPost2010PropOp28
 70
     1
102
RTVSPost2010Prop29
280
     1
102
RTVSPost2010PropOp29
 70
     1
102
RTVSPost2010Prop30
280
     1
102
RTVSPost2010PropOp30
 70
     1
102
RTVSPost2010Prop31
280
     0
102
RTVSPost2010PropOp31
 70
     1
102
RTVSPost2010Prop32
280
     0
102
RTVSPost2010PropOp32
 70
     1
102
RTVSPost2010Prop33
280
     0
102
RTVSPost2010PropOp33
 70
     1
102
RTVSPost2010Prop34
280
     0
102
RTVSPost2010PropOp34
 70
     1
102
RTVSPost2010Prop35
280
     0
102
RTVSPost2010PropOp35
 70
     1
102
RTVSPost2010Prop36
280
     0
102
RTVSPost2010PropOp36
 70
     1
102
RTVSPost2010Prop37
 90
       50
102
RTVSPost2010PropOp37
 70
     1
102
RTVSPost2010Prop38
140
0.0
102
RTVSPost2010PropOp38
 70
     1
102
RTVSPost2010Prop39
140
1.0
102
RTVSPost2010PropOp39
 70
     1
102
RTVSPost2010Prop40
 90
        0
102
RTVSPost2010PropOp40
 70
     1
102
RTVSPost2010Prop41ColorIndex
 90
       18
102
RTVSPost2010Prop41ColorRGB
 90
        0
102
RTVSPost2010PropOp41
 70
     1
102
RTVSPost2010Prop42
 90
       50
102
RTVSPost2010PropOp42
 70
     1
102
RTVSPost2010Prop43
 90
        3
102
RTVSPost2010PropOp43
 70
     1
102
RTVSPost2010Prop44ColorIndex
 90
        5
102
RTVSPost2010Prop44ColorRGB
 90
      255
102
RTVSPost2010PropOp44
 70
     1
102
RTVSPost2010Prop45
280
     0
102
RTVSPost2010PropOp45
 70
     1
102
RTVSPost2010Prop46
 90
       50
102
RTVSPost2010PropOp46
 70
     1
102
RTVSPost2010Prop47
 90
       50
102
RTVSPost2010PropOp47
 70
     1
102
RTVSPost2010Prop48
 90
       50
102
RTVSPost2010PropOp48
 70
     1
102
RTVSPost2010Prop49
280
     0
102
RTVSPost2010PropOp49
 70
     1
102
RTVSPost2010Prop50
 90
       50
102
RTVSPost2010PropOp50
 70
     1
102
RTVSPost2010Prop51ColorIndex
 90
      256
102
RTVSPost2010Prop51ColorRGB
 90
-16777216
102
RTVSPost2010PropOp51
 70
     0
102
RTVSPost2010Prop52
140
1.0
102
RTVSPost2010PropOp52
 70
     0
102
RTVSPost2010Prop53
 90
        2
102
RTVSPost2010PropOp53
 70
     1
102
RTVSPost2010Prop54
  1
strokes_ogs.tif
102
RTVSPost2010PropOp54
 70
     1
102
RTVSPost2010Prop55
280
     0
102
RTVSPost2010PropOp55
 70
     1
102
RTVSPost2010Prop56
140
1.0
102
RTVSPost2010PropOp56
 70
     1
102
RTVSPost2010Prop57
140
1.0
102
RTVSPost2010PropOp57
 70
     1
  0
XRECORD
  5
1FBB
102
{ACAD_REACTORS
330
1FBA
102
}
330
1FBA
100
AcDbXrecord
280
     1
102
RTVSPropertyOp0
 70
     1
102
RTVSPropertyOp1
 70
     1
102
RTVSPropertyOp2
 70
     1
102
RTVSPropertyOp3
 70
     1
102
RTVSPropertyOp4
 70
     1
102
RTVSPropertyOp5
 70
     1
102
RTVSPropertyOp6
 70
     1
102
RTVSPropertyOp7
 70
     1
102
RTVSPropertyOp8
 70
     1
102
RTVSPropertyOp9
 70
     1
102
RTVSPropertyOp10
 70
     1
102
RTVSPropertyOp11
 70
     1
102
RTVSPropertyOp12
 70
     1
102
RTVSPropertyOp13
 70
     1
102
RTVSPropertyOp14
 70
     1
102
RTVSPropertyOp15
 70
     1
102
RTVSPropertyOp16
 70
     1
102
RTVSPropertyOp17
 70
     1
102
RTVSPropertyOp18
 70
     1
102
RTVSPropertyOp19
 70
     1
102
RTVSPropertyOp20
 70
     1
102
RTVSPropertyOp21
 70
     1
102
RTVSPropertyOp22
 70
     1
102
RTVSPropertyOp23
 70
     1
102
RTVSPropertyOp24
 70
     1
102
RTVSPropertyOp25
 70
     1
102
RTVSPropertyOp26
 70
     1
102
RTVSPropertyOp27
 70
     1
102
RTVSPropertyOp28
 70
     1
102
RTVSPropertyOp29
 70
     1
102
RTVSPropertyOp30
 70
     1
102
RTVSPropertyOp31
 70
     1
102
RTVSPropertyOp32
 70
     1
102
RTVSPropertyOp33
 70
     1
102
RTVSPropertyOp34
 70
     1
102
RTVSPropertyOp35
 70
     1
102
RTVSPropertyOp36
 70
     1
102
RTVSPropertyOp37
 70
     1
102
RTVSPropertyOp38
 70
     1
102
RTVSPropertyOp39
 70
     1
102
RTVSPropertyOp40
 70
     1
102
RTVSPropertyOp41
 70
     1
102
RTVSPropertyOp42
 70
     1
102
RTVSPropertyOp43
 70
     1
102
RTVSPropertyOp44
 70
     1
102
RTVSPropertyOp45
 70
     1
102
RTVSPropertyOp46
 70
     1
102
RTVSPropertyOp47
 70
     1
102
RTVSPropertyOp48
 70
     1
102
RTVSPropertyOp49
 70
     1
102
RTVSPropertyOp50
 70
     1
102
RTVSPropertyOp51
 70
     0
102
RTVSPropertyOp52
 70
     0
102
RTVSPropertyOp53
 70
     1
102
RTVSPropertyOp54
 70
     1
102
RTVSPropertyOp55
 70
     1
102
RTVSPropertyOp56
 70
     1
102
RTVSPropertyOp57
 70
     1
102
RTVSPost2010Prop28
280
     0
102
RTVSPost2010PropOp28
 70
     1
102
RTVSPost2010Prop29
280
     1
102
RTVSPost2010PropOp29
 70
     1
102
RTVSPost2010Prop30
280
     1
102
RTVSPost2010PropOp30
 70
     1
102
RTVSPost2010Prop31
280
     0
102
RTVSPost2010PropOp31
 70
     1
102
RTVSPost2010Prop32
280
     0
102
RTVSPost2010PropOp32
 70
     1
102
RTVSPost2010Prop33
280
     0
102
RTVSPost2010PropOp33
 70
     1
102
RTVSPost2010Prop34
280
     0
102
RTVSPost2010PropOp34
 70
     1
102
RTVSPost2010Prop35
280
     0
102
RTVSPost2010PropOp35
 70
     1
102
RTVSPost2010Prop36
280
     0
102
RTVSPost2010PropOp36
 70
     1
102
RTVSPost2010Prop37
 90
       50
102
RTVSPost2010PropOp37
 70
     1
102
RTVSPost2010Prop38
140
0.0
102
RTVSPost2010PropOp38
 70
     1
102
RTVSPost2010Prop39
140
1.0
102
RTVSPost2010PropOp39
 70
     1
102
RTVSPost2010Prop40
 90
        0
102
RTVSPost2010PropOp40
 70
     1
102
RTVSPost2010Prop41ColorIndex
 90
       18
102
RTVSPost2010Prop41ColorRGB
 90
        0
102
RTVSPost2010PropOp41
 70
     1
102
RTVSPost2010Prop42
 90
       50
102
RTVSPost2010PropOp42
 70
     1
102
RTVSPost2010Prop43
 90
        3
102
RTVSPost2010PropOp43
 70
     1
102
RTVSPost2010Prop44ColorIndex
 90
        5
102
RTVSPost2010Prop44ColorRGB
 90
      255
102
RTVSPost2010PropOp44
 70
     1
102
RTVSPost2010Prop45
280
     0
102
RTVSPost2010PropOp45
 70
     1
102
RTVSPost2010Prop46
 90
       50
102
RTVSPost2010PropOp46
 70
     1
102
RTVSPost2010Prop47
 90
       50
102
RTVSPost2010PropOp47
 70
     1
102
RTVSPost2010Prop48
 90
       50
102
RTVSPost2010PropOp48
 70
     1
102
RTVSPost2010Prop49
280
     0
102
RTVSPost2010PropOp49
 70
     1
102
RTVSPost2010Prop50
 90
       50
102
RTVSPost2010PropOp50
 70
     1
102
RTVSPost2010Prop51ColorIndex
 90
      256
102
RTVSPost2010Prop51ColorRGB
 90
-16777216
102
RTVSPost2010PropOp51
 70
     0
102
RTVSPost2010Prop52
140
1.0
102
RTVSPost2010PropOp52
 70
     0
102
RTVSPost2010Prop53
 90
        2
102
RTVSPost2010PropOp53
 70
     1
102
RTVSPost2010Prop54
  1
strokes_ogs.tif
102
RTVSPost2010PropOp54
 70
     1
102
RTVSPost2010Prop55
280
     0
102
RTVSPost2010PropOp55
 70
     1
102
RTVSPost2010Prop56
140
1.0
102
RTVSPost2010PropOp56
 70
     1
102
RTVSPost2010Prop57
140
1.0
102
RTVSPost2010PropOp57
 70
     1
  0
XRECORD
  5
1FD7
102
{ACAD_REACTORS
330
1FD6
102
}
330
1FD6
100
AcDbXrecord
280
     1
102
RTVSPropertyOp0
 70
     1
102
RTVSPropertyOp1
 70
     1
102
RTVSPropertyOp2
 70
     1
102
RTVSPropertyOp3
 70
     1
102
RTVSPropertyOp4
 70
     1
102
RTVSPropertyOp5
 70
     1
102
RTVSPropertyOp6
 70
     1
102
RTVSPropertyOp7
 70
     1
102
RTVSPropertyOp8
 70
     1
102
RTVSPropertyOp9
 70
     1
102
RTVSPropertyOp10
 70
     1
102
RTVSPropertyOp11
 70
     1
102
RTVSPropertyOp12
 70
     1
102
RTVSPropertyOp13
 70
     1
102
RTVSPropertyOp14
 70
     1
102
RTVSPropertyOp15
 70
     1
102
RTVSPropertyOp16
 70
     1
102
RTVSPropertyOp17
 70
     1
102
RTVSPropertyOp18
 70
     1
102
RTVSPropertyOp19
 70
     1
102
RTVSPropertyOp20
 70
     1
102
RTVSPropertyOp21
 70
     1
102
RTVSPropertyOp22
 70
     1
102
RTVSPropertyOp23
 70
     1
102
RTVSPropertyOp24
 70
     1
102
RTVSPropertyOp25
 70
     1
102
RTVSPropertyOp26
 70
     1
102
RTVSPropertyOp27
 70
     1
102
RTVSPropertyOp28
 70
     1
102
RTVSPropertyOp29
 70
     1
102
RTVSPropertyOp30
 70
     1
102
RTVSPropertyOp31
 70
     1
102
RTVSPropertyOp32
 70
     1
102
RTVSPropertyOp33
 70
     1
102
RTVSPropertyOp34
 70
     1
102
RTVSPropertyOp35
 70
     1
102
RTVSPropertyOp36
 70
     1
102
RTVSPropertyOp37
 70
     1
102
RTVSPropertyOp38
 70
     1
102
RTVSPropertyOp39
 70
     1
102
RTVSPropertyOp40
 70
     1
102
RTVSPropertyOp41
 70
     1
102
RTVSPropertyOp42
 70
     1
102
RTVSPropertyOp43
 70
     1
102
RTVSPropertyOp44
 70
     1
102
RTVSPropertyOp45
 70
     1
102
RTVSPropertyOp46
 70
     1
102
RTVSPropertyOp47
 70
     1
102
RTVSPropertyOp48
 70
     1
102
RTVSPropertyOp49
 70
     1
102
RTVSPropertyOp50
 70
     1
102
RTVSPropertyOp51
 70
     0
102
RTVSPropertyOp52
 70
     0
102
RTVSPropertyOp53
 70
     1
102
RTVSPropertyOp54
 70
     1
102
RTVSPropertyOp55
 70
     1
102
RTVSPropertyOp56
 70
     1
102
RTVSPropertyOp57
 70
     1
102
RTVSPost2010Prop28
280
     0
102
RTVSPost2010PropOp28
 70
     1
102
RTVSPost2010Prop29
280
     1
102
RTVSPost2010PropOp29
 70
     1
102
RTVSPost2010Prop30
280
     1
102
RTVSPost2010PropOp30
 70
     1
102
RTVSPost2010Prop31
280
     0
102
RTVSPost2010PropOp31
 70
     1
102
RTVSPost2010Prop32
280
     0
102
RTVSPost2010PropOp32
 70
     1
102
RTVSPost2010Prop33
280
     0
102
RTVSPost2010PropOp33
 70
     1
102
RTVSPost2010Prop34
280
     0
102
RTVSPost2010PropOp34
 70
     1
102
RTVSPost2010Prop35
280
     0
102
RTVSPost2010PropOp35
 70
     1
102
RTVSPost2010Prop36
280
     0
102
RTVSPost2010PropOp36
 70
     1
102
RTVSPost2010Prop37
 90
       50
102
RTVSPost2010PropOp37
 70
     1
102
RTVSPost2010Prop38
140
0.0
102
RTVSPost2010PropOp38
 70
     1
102
RTVSPost2010Prop39
140
1.0
102
RTVSPost2010PropOp39
 70
     1
102
RTVSPost2010Prop40
 90
        0
102
RTVSPost2010PropOp40
 70
     1
102
RTVSPost2010Prop41ColorIndex
 90
       18
102
RTVSPost2010Prop41ColorRGB
 90
        0
102
RTVSPost2010PropOp41
 70
     1
102
RTVSPost2010Prop42
 90
       50
102
RTVSPost2010PropOp42
 70
     1
102
RTVSPost2010Prop43
 90
        3
102
RTVSPost2010PropOp43
 70
     1
102
RTVSPost2010Prop44ColorIndex
 90
        5
102
RTVSPost2010Prop44ColorRGB
 90
      255
102
RTVSPost2010PropOp44
 70
     1
102
RTVSPost2010Prop45
280
     0
102
RTVSPost2010PropOp45
 70
     1
102
RTVSPost2010Prop46
 90
       50
102
RTVSPost2010PropOp46
 70
     1
102
RTVSPost2010Prop47
 90
       50
102
RTVSPost2010PropOp47
 70
     1
102
RTVSPost2010Prop48
 90
       50
102
RTVSPost2010PropOp48
 70
     1
102
RTVSPost2010Prop49
280
     0
102
RTVSPost2010PropOp49
 70
     1
102
RTVSPost2010Prop50
 90
       50
102
RTVSPost2010PropOp50
 70
     1
102
RTVSPost2010Prop51ColorIndex
 90
      256
102
RTVSPost2010Prop51ColorRGB
 90
-16777216
102
RTVSPost2010PropOp51
 70
     0
102
RTVSPost2010Prop52
140
1.0
102
RTVSPost2010PropOp52
 70
     0
102
RTVSPost2010Prop53
 90
        2
102
RTVSPost2010PropOp53
 70
     1
102
RTVSPost2010Prop54
  1
strokes_ogs.tif
102
RTVSPost2010PropOp54
 70
     1
102
RTVSPost2010Prop55
280
     0
102
RTVSPost2010PropOp55
 70
     1
102
RTVSPost2010Prop56
140
1.0
102
RTVSPost2010PropOp56
 70
     1
102
RTVSPost2010Prop57
140
1.0
102
RTVSPost2010PropOp57
 70
     1
  0
XRECORD
  5
1FD9
102
{ACAD_REACTORS
330
1FD8
102
}
330
1FD8
100
AcDbXrecord
280
     1
102
RTVSPropertyOp0
 70
     0
102
RTVSPropertyOp1
 70
     0
102
RTVSPropertyOp2
 70
     0
102
RTVSPropertyOp3
 70
     0
102
RTVSPropertyOp4
 70
     0
102
RTVSPropertyOp5
 70
     0
102
RTVSPropertyOp6
 70
     0
102
RTVSPropertyOp7
 70
     0
102
RTVSPropertyOp8
 70
     0
102
RTVSPropertyOp9
 70
     0
102
RTVSPropertyOp10
 70
     0
102
RTVSPropertyOp11
 70
     0
102
RTVSPropertyOp12
 70
     0
102
RTVSPropertyOp13
 70
     0
102
RTVSPropertyOp14
 70
     2
102
RTVSPropertyOp15
 70
     0
102
RTVSPropertyOp16
 70
     0
102
RTVSPropertyOp17
 70
     0
102
RTVSPropertyOp18
 70
     0
102
RTVSPropertyOp19
 70
     0
102
RTVSPropertyOp20
 70
     0
102
RTVSPropertyOp21
 70
     0
102
RTVSPropertyOp22
 70
     0
102
RTVSPropertyOp23
 70
     0
102
RTVSPropertyOp24
 70
     0
102
RTVSPropertyOp25
 70
     0
102
RTVSPropertyOp26
 70
     0
102
RTVSPropertyOp27
 70
     0
102
RTVSPropertyOp28
 70
     0
102
RTVSPropertyOp29
 70
     0
102
RTVSPropertyOp30
 70
     0
102
RTVSPropertyOp31
 70
     0
102
RTVSPropertyOp32
 70
     0
102
RTVSPropertyOp33
 70
     0
102
RTVSPropertyOp34
 70
     0
102
RTVSPropertyOp35
 70
     0
102
RTVSPropertyOp36
 70
     0
102
RTVSPropertyOp37
 70
     0
102
RTVSPropertyOp38
 70
     0
102
RTVSPropertyOp39
 70
     0
102
RTVSPropertyOp40
 70
     0
102
RTVSPropertyOp41
 70
     0
102
RTVSPropertyOp42
 70
     0
102
RTVSPropertyOp43
 70
     0
102
RTVSPropertyOp44
 70
     0
102
RTVSPropertyOp45
 70
     0
102
RTVSPropertyOp46
 70
     0
102
RTVSPropertyOp47
 70
     0
102
RTVSPropertyOp48
 70
     0
102
RTVSPropertyOp49
 70
     0
102
RTVSPropertyOp50
 70
     0
102
RTVSPropertyOp51
 70
     0
102
RTVSPropertyOp52
 70
     0
102
RTVSPropertyOp53
 70
     0
102
RTVSPropertyOp54
 70
     0
102
RTVSPropertyOp55
 70
     0
102
RTVSPropertyOp56
 70
     0
102
RTVSPropertyOp57
 70
     0
102
RTVSPost2010Prop28
280
     0
102
RTVSPost2010PropOp28
 70
     0
102
RTVSPost2010Prop29
280
     1
102
RTVSPost2010PropOp29
 70
     0
102
RTVSPost2010Prop30
280
     1
102
RTVSPost2010PropOp30
 70
     0
102
RTVSPost2010Prop31
280
     0
102
RTVSPost2010PropOp31
 70
     0
102
RTVSPost2010Prop32
280
     0
102
RTVSPost2010PropOp32
 70
     0
102
RTVSPost2010Prop33
280
     0
102
RTVSPost2010PropOp33
 70
     0
102
RTVSPost2010Prop34
280
     0
102
RTVSPost2010PropOp34
 70
     0
102
RTVSPost2010Prop35
280
     0
102
RTVSPost2010PropOp35
 70
     0
102
RTVSPost2010Prop36
280
     0
102
RTVSPost2010PropOp36
 70
     0
102
RTVSPost2010Prop37
 90
       50
102
RTVSPost2010PropOp37
 70
     0
102
RTVSPost2010Prop38
140
0.0
102
RTVSPost2010PropOp38
 70
     0
102
RTVSPost2010Prop39
140
1.0
102
RTVSPost2010PropOp39
 70
     0
102
RTVSPost2010Prop40
 90
        0
102
RTVSPost2010PropOp40
 70
     0
102
RTVSPost2010Prop41ColorIndex
 90
       18
102
RTVSPost2010Prop41ColorRGB
 90
        0
102
RTVSPost2010PropOp41
 70
     0
102
RTVSPost2010Prop42
 90
       50
102
RTVSPost2010PropOp42
 70
     0
102
RTVSPost2010Prop43
 90
        3
102
RTVSPost2010PropOp43
 70
     0
102
RTVSPost2010Prop44ColorIndex
 90
        5
102
RTVSPost2010Prop44ColorRGB
 90
      255
102
RTVSPost2010PropOp44
 70
     0
102
RTVSPost2010Prop45
280
     0
102
RTVSPost2010PropOp45
 70
     0
102
RTVSPost2010Prop46
 90
       50
102
RTVSPost2010PropOp46
 70
     0
102
RTVSPost2010Prop47
 90
       50
102
RTVSPost2010PropOp47
 70
     0
102
RTVSPost2010Prop48
 90
       50
102
RTVSPost2010PropOp48
 70
     0
102
RTVSPost2010Prop49
280
     0
102
RTVSPost2010PropOp49
 70
     0
102
RTVSPost2010Prop50
 90
       50
102
RTVSPost2010PropOp50
 70
     0
102
RTVSPost2010Prop51ColorIndex
 90
      256
102
RTVSPost2010Prop51ColorRGB
 90
-16777216
102
RTVSPost2010PropOp51
 70
     0
102
RTVSPost2010Prop52
140
1.0
102
RTVSPost2010PropOp52
 70
     0
102
RTVSPost2010Prop53
 90
        2
102
RTVSPost2010PropOp53
 70
     0
102
RTVSPost2010Prop54
  1
strokes_ogs.tif
102
RTVSPost2010PropOp54
 70
     0
102
RTVSPost2010Prop55
280
     0
102
RTVSPost2010PropOp55
 70
     0
102
RTVSPost2010Prop56
140
1.0
102
RTVSPost2010PropOp56
 70
     0
102
RTVSPost2010Prop57
140
1.0
102
RTVSPost2010PropOp57
 70
     0
  0
XRECORD
  5
1FCF
102
{ACAD_REACTORS
330
1FCE
102
}
330
1FCE
100
AcDbXrecord
280
     1
102
RTVSPropertyOp0
 70
     1
102
RTVSPropertyOp1
 70
     1
102
RTVSPropertyOp2
 70
     1
102
RTVSPropertyOp3
 70
     1
102
RTVSPropertyOp4
 70
     1
102
RTVSPropertyOp5
 70
     1
102
RTVSPropertyOp6
 70
     1
102
RTVSPropertyOp7
 70
     1
102
RTVSPropertyOp8
 70
     1
102
RTVSPropertyOp9
 70
     1
102
RTVSPropertyOp10
 70
     1
102
RTVSPropertyOp11
 70
     1
102
RTVSPropertyOp12
 70
     1
102
RTVSPropertyOp13
 70
     1
102
RTVSPropertyOp14
 70
     1
102
RTVSPropertyOp15
 70
     1
102
RTVSPropertyOp16
 70
     1
102
RTVSPropertyOp17
 70
     1
102
RTVSPropertyOp18
 70
     1
102
RTVSPropertyOp19
 70
     1
102
RTVSPropertyOp20
 70
     1
102
RTVSPropertyOp21
 70
     1
102
RTVSPropertyOp22
 70
     1
102
RTVSPropertyOp23
 70
     1
102
RTVSPropertyOp24
 70
     1
102
RTVSPropertyOp25
 70
     1
102
RTVSPropertyOp26
 70
     1
102
RTVSPropertyOp27
 70
     1
102
RTVSPropertyOp28
 70
     1
102
RTVSPropertyOp29
 70
     1
102
RTVSPropertyOp30
 70
     1
102
RTVSPropertyOp31
 70
     1
102
RTVSPropertyOp32
 70
     1
102
RTVSPropertyOp33
 70
     1
102
RTVSPropertyOp34
 70
     1
102
RTVSPropertyOp35
 70
     1
102
RTVSPropertyOp36
 70
     1
102
RTVSPropertyOp37
 70
     1
102
RTVSPropertyOp38
 70
     1
102
RTVSPropertyOp39
 70
     1
102
RTVSPropertyOp40
 70
     1
102
RTVSPropertyOp41
 70
     1
102
RTVSPropertyOp42
 70
     1
102
RTVSPropertyOp43
 70
     1
102
RTVSPropertyOp44
 70
     1
102
RTVSPropertyOp45
 70
     1
102
RTVSPropertyOp46
 70
     1
102
RTVSPropertyOp47
 70
     1
102
RTVSPropertyOp48
 70
     1
102
RTVSPropertyOp49
 70
     1
102
RTVSPropertyOp50
 70
     1
102
RTVSPropertyOp51
 70
     0
102
RTVSPropertyOp52
 70
     0
102
RTVSPropertyOp53
 70
     1
102
RTVSPropertyOp54
 70
     1
102
RTVSPropertyOp55
 70
     1
102
RTVSPropertyOp56
 70
     1
102
RTVSPropertyOp57
 70
     1
102
RTVSPost2010Prop28
280
     0
102
RTVSPost2010PropOp28
 70
     1
102
RTVSPost2010Prop29
280
     1
102
RTVSPost2010PropOp29
 70
     1
102
RTVSPost2010Prop30
280
     1
102
RTVSPost2010PropOp30
 70
     1
102
RTVSPost2010Prop31
280
     0
102
RTVSPost2010PropOp31
 70
     1
102
RTVSPost2010Prop32
280
     0
102
RTVSPost2010PropOp32
 70
     1
102
RTVSPost2010Prop33
280
     0
102
RTVSPost2010PropOp33
 70
     1
102
RTVSPost2010Prop34
280
     0
102
RTVSPost2010PropOp34
 70
     1
102
RTVSPost2010Prop35
280
     0
102
RTVSPost2010PropOp35
 70
     1
102
RTVSPost2010Prop36
280
     0
102
RTVSPost2010PropOp36
 70
     1
102
RTVSPost2010Prop37
 90
       50
102
RTVSPost2010PropOp37
 70
     1
102
RTVSPost2010Prop38
140
0.0
102
RTVSPost2010PropOp38
 70
     1
102
RTVSPost2010Prop39
140
1.0
102
RTVSPost2010PropOp39
 70
     1
102
RTVSPost2010Prop40
 90
        0
102
RTVSPost2010PropOp40
 70
     1
102
RTVSPost2010Prop41ColorIndex
 90
       18
102
RTVSPost2010Prop41ColorRGB
 90
        0
102
RTVSPost2010PropOp41
 70
     1
102
RTVSPost2010Prop42
 90
       50
102
RTVSPost2010PropOp42
 70
     1
102
RTVSPost2010Prop43
 90
        3
102
RTVSPost2010PropOp43
 70
     1
102
RTVSPost2010Prop44ColorIndex
 90
        5
102
RTVSPost2010Prop44ColorRGB
 90
      255
102
RTVSPost2010PropOp44
 70
     1
102
RTVSPost2010Prop45
280
     0
102
RTVSPost2010PropOp45
 70
     1
102
RTVSPost2010Prop46
 90
       50
102
RTVSPost2010PropOp46
 70
     1
102
RTVSPost2010Prop47
 90
       50
102
RTVSPost2010PropOp47
 70
     1
102
RTVSPost2010Prop48
 90
       50
102
RTVSPost2010PropOp48
 70
     1
102
RTVSPost2010Prop49
280
     0
102
RTVSPost2010PropOp49
 70
     1
102
RTVSPost2010Prop50
 90
       50
102
RTVSPost2010PropOp50
 70
     1
102
RTVSPost2010Prop51ColorIndex
 90
      256
102
RTVSPost2010Prop51ColorRGB
 90
-16777216
102
RTVSPost2010PropOp51
 70
     0
102
RTVSPost2010Prop52
140
1.0
102
RTVSPost2010PropOp52
 70
     0
102
RTVSPost2010Prop53
 90
        2
102
RTVSPost2010PropOp53
 70
     1
102
RTVSPost2010Prop54
  1
strokes_ogs.tif
102
RTVSPost2010PropOp54
 70
     1
102
RTVSPost2010Prop55
280
     0
102
RTVSPost2010PropOp55
 70
     1
102
RTVSPost2010Prop56
140
1.0
102
RTVSPost2010PropOp56
 70
     1
102
RTVSPost2010Prop57
140
1.0
102
RTVSPost2010PropOp57
 70
     1
  0
XRECORD
  5
1FE9
102
{ACAD_REACTORS
330
1FE8
102
}
330
1FE8
100
AcDbXrecord
280
     1
102
RTVSPropertyOp0
 70
     1
102
RTVSPropertyOp1
 70
     1
102
RTVSPropertyOp2
 70
     1
102
RTVSPropertyOp3
 70
     1
102
RTVSPropertyOp4
 70
     1
102
RTVSPropertyOp5
 70
     1
102
RTVSPropertyOp6
 70
     1
102
RTVSPropertyOp7
 70
     1
102
RTVSPropertyOp8
 70
     1
102
RTVSPropertyOp9
 70
     1
102
RTVSPropertyOp10
 70
     1
102
RTVSPropertyOp11
 70
     1
102
RTVSPropertyOp12
 70
     1
102
RTVSPropertyOp13
 70
     1
102
RTVSPropertyOp14
 70
     1
102
RTVSPropertyOp15
 70
     1
102
RTVSPropertyOp16
 70
     1
102
RTVSPropertyOp17
 70
     1
102
RTVSPropertyOp18
 70
     1
102
RTVSPropertyOp19
 70
     1
102
RTVSPropertyOp20
 70
     1
102
RTVSPropertyOp21
 70
     1
102
RTVSPropertyOp22
 70
     1
102
RTVSPropertyOp23
 70
     1
102
RTVSPropertyOp24
 70
     1
102
RTVSPropertyOp25
 70
     1
102
RTVSPropertyOp26
 70
     1
102
RTVSPropertyOp27
 70
     1
102
RTVSPropertyOp28
 70
     1
102
RTVSPropertyOp29
 70
     1
102
RTVSPropertyOp30
 70
     1
102
RTVSPropertyOp31
 70
     1
102
RTVSPropertyOp32
 70
     1
102
RTVSPropertyOp33
 70
     1
102
RTVSPropertyOp34
 70
     1
102
RTVSPropertyOp35
 70
     1
102
RTVSPropertyOp36
 70
     1
102
RTVSPropertyOp37
 70
     1
102
RTVSPropertyOp38
 70
     1
102
RTVSPropertyOp39
 70
     1
102
RTVSPropertyOp40
 70
     1
102
RTVSPropertyOp41
 70
     1
102
RTVSPropertyOp42
 70
     1
102
RTVSPropertyOp43
 70
     1
102
RTVSPropertyOp44
 70
     1
102
RTVSPropertyOp45
 70
     1
102
RTVSPropertyOp46
 70
     1
102
RTVSPropertyOp47
 70
     1
102
RTVSPropertyOp48
 70
     1
102
RTVSPropertyOp49
 70
     1
102
RTVSPropertyOp50
 70
     1
102
RTVSPropertyOp51
 70
     0
102
RTVSPropertyOp52
 70
     0
102
RTVSPropertyOp53
 70
     1
102
RTVSPropertyOp54
 70
     1
102
RTVSPropertyOp55
 70
     1
102
RTVSPropertyOp56
 70
     1
102
RTVSPropertyOp57
 70
     1
102
RTVSPost2010Prop28
280
     0
102
RTVSPost2010PropOp28
 70
     1
102
RTVSPost2010Prop29
280
     1
102
RTVSPost2010PropOp29
 70
     1
102
RTVSPost2010Prop30
280
     1
102
RTVSPost2010PropOp30
 70
     1
102
RTVSPost2010Prop31
280
     0
102
RTVSPost2010PropOp31
 70
     1
102
RTVSPost2010Prop32
280
     0
102
RTVSPost2010PropOp32
 70
     1
102
RTVSPost2010Prop33
280
     0
102
RTVSPost2010PropOp33
 70
     1
102
RTVSPost2010Prop34
280
     0
102
RTVSPost2010PropOp34
 70
     1
102
RTVSPost2010Prop35
280
     0
102
RTVSPost2010PropOp35
 70
     1
102
RTVSPost2010Prop36
280
     0
102
RTVSPost2010PropOp36
 70
     1
102
RTVSPost2010Prop37
 90
       50
102
RTVSPost2010PropOp37
 70
     1
102
RTVSPost2010Prop38
140
0.0
102
RTVSPost2010PropOp38
 70
     1
102
RTVSPost2010Prop39
140
1.0
102
RTVSPost2010PropOp39
 70
     1
102
RTVSPost2010Prop40
 90
        0
102
RTVSPost2010PropOp40
 70
     1
102
RTVSPost2010Prop41ColorIndex
 90
       18
102
RTVSPost2010Prop41ColorRGB
 90
        0
102
RTVSPost2010PropOp41
 70
     1
102
RTVSPost2010Prop42
 90
       50
102
RTVSPost2010PropOp42
 70
     1
102
RTVSPost2010Prop43
 90
        3
102
RTVSPost2010PropOp43
 70
     1
102
RTVSPost2010Prop44ColorIndex
 90
        5
102
RTVSPost2010Prop44ColorRGB
 90
      255
102
RTVSPost2010PropOp44
 70
     1
102
RTVSPost2010Prop45
280
     0
102
RTVSPost2010PropOp45
 70
     1
102
RTVSPost2010Prop46
 90
       50
102
RTVSPost2010PropOp46
 70
     1
102
RTVSPost2010Prop47
 90
       50
102
RTVSPost2010PropOp47
 70
     1
102
RTVSPost2010Prop48
 90
       50
102
RTVSPost2010PropOp48
 70
     1
102
RTVSPost2010Prop49
280
     0
102
RTVSPost2010PropOp49
 70
     1
102
RTVSPost2010Prop50
 90
       50
102
RTVSPost2010PropOp50
 70
     1
102
RTVSPost2010Prop51ColorIndex
 90
      256
102
RTVSPost2010Prop51ColorRGB
 90
-16777216
102
RTVSPost2010PropOp51
 70
     0
102
RTVSPost2010Prop52
140
1.0
102
RTVSPost2010PropOp52
 70
     0
102
RTVSPost2010Prop53
 90
        2
102
RTVSPost2010PropOp53
 70
     1
102
RTVSPost2010Prop54
  1
strokes_ogs.tif
102
RTVSPost2010PropOp54
 70
     1
102
RTVSPost2010Prop55
280
     0
102
RTVSPost2010PropOp55
 70
     1
102
RTVSPost2010Prop56
140
1.0
102
RTVSPost2010PropOp56
 70
     1
102
RTVSPost2010Prop57
140
1.0
102
RTVSPost2010PropOp57
 70
     1
  0
XRECORD
  5
1FDB
102
{ACAD_REACTORS
330
1FDA
102
}
330
1FDA
100
AcDbXrecord
280
     1
102
RTVSPropertyOp0
 70
     0
102
RTVSPropertyOp1
 70
     0
102
RTVSPropertyOp2
 70
     0
102
RTVSPropertyOp3
 70
     0
102
RTVSPropertyOp4
 70
     0
102
RTVSPropertyOp5
 70
     0
102
RTVSPropertyOp6
 70
     0
102
RTVSPropertyOp7
 70
     0
102
RTVSPropertyOp8
 70
     0
102
RTVSPropertyOp9
 70
     0
102
RTVSPropertyOp10
 70
     0
102
RTVSPropertyOp11
 70
     0
102
RTVSPropertyOp12
 70
     0
102
RTVSPropertyOp13
 70
     0
102
RTVSPropertyOp14
 70
     2
102
RTVSPropertyOp15
 70
     0
102
RTVSPropertyOp16
 70
     0
102
RTVSPropertyOp17
 70
     0
102
RTVSPropertyOp18
 70
     0
102
RTVSPropertyOp19
 70
     0
102
RTVSPropertyOp20
 70
     0
102
RTVSPropertyOp21
 70
     0
102
RTVSPropertyOp22
 70
     0
102
RTVSPropertyOp23
 70
     0
102
RTVSPropertyOp24
 70
     0
102
RTVSPropertyOp25
 70
     0
102
RTVSPropertyOp26
 70
     0
102
RTVSPropertyOp27
 70
     0
102
RTVSPropertyOp28
 70
     0
102
RTVSPropertyOp29
 70
     0
102
RTVSPropertyOp30
 70
     0
102
RTVSPropertyOp31
 70
     0
102
RTVSPropertyOp32
 70
     0
102
RTVSPropertyOp33
 70
     0
102
RTVSPropertyOp34
 70
     0
102
RTVSPropertyOp35
 70
     0
102
RTVSPropertyOp36
 70
     0
102
RTVSPropertyOp37
 70
     0
102
RTVSPropertyOp38
 70
     0
102
RTVSPropertyOp39
 70
     0
102
RTVSPropertyOp40
 70
     0
102
RTVSPropertyOp41
 70
     0
102
RTVSPropertyOp42
 70
     0
102
RTVSPropertyOp43
 70
     0
102
RTVSPropertyOp44
 70
     0
102
RTVSPropertyOp45
 70
     0
102
RTVSPropertyOp46
 70
     0
102
RTVSPropertyOp47
 70
     0
102
RTVSPropertyOp48
 70
     0
102
RTVSPropertyOp49
 70
     0
102
RTVSPropertyOp50
 70
     0
102
RTVSPropertyOp51
 70
     0
102
RTVSPropertyOp52
 70
     0
102
RTVSPropertyOp53
 70
     0
102
RTVSPropertyOp54
 70
     0
102
RTVSPropertyOp55
 70
     0
102
RTVSPropertyOp56
 70
     0
102
RTVSPropertyOp57
 70
     0
102
RTVSPost2010Prop28
280
     0
102
RTVSPost2010PropOp28
 70
     0
102
RTVSPost2010Prop29
280
     1
102
RTVSPost2010PropOp29
 70
     0
102
RTVSPost2010Prop30
280
     1
102
RTVSPost2010PropOp30
 70
     0
102
RTVSPost2010Prop31
280
     0
102
RTVSPost2010PropOp31
 70
     0
102
RTVSPost2010Prop32
280
     0
102
RTVSPost2010PropOp32
 70
     0
102
RTVSPost2010Prop33
280
     0
102
RTVSPost2010PropOp33
 70
     0
102
RTVSPost2010Prop34
280
     0
102
RTVSPost2010PropOp34
 70
     0
102
RTVSPost2010Prop35
280
     0
102
RTVSPost2010PropOp35
 70
     0
102
RTVSPost2010Prop36
280
     0
102
RTVSPost2010PropOp36
 70
     0
102
RTVSPost2010Prop37
 90
       50
102
RTVSPost2010PropOp37
 70
     0
102
RTVSPost2010Prop38
140
0.0
102
RTVSPost2010PropOp38
 70
     0
102
RTVSPost2010Prop39
140
1.0
102
RTVSPost2010PropOp39
 70
     0
102
RTVSPost2010Prop40
 90
        0
102
RTVSPost2010PropOp40
 70
     0
102
RTVSPost2010Prop41ColorIndex
 90
       18
102
RTVSPost2010Prop41ColorRGB
 90
        0
102
RTVSPost2010PropOp41
 70
     0
102
RTVSPost2010Prop42
 90
       50
102
RTVSPost2010PropOp42
 70
     0
102
RTVSPost2010Prop43
 90
        3
102
RTVSPost2010PropOp43
 70
     0
102
RTVSPost2010Prop44ColorIndex
 90
        5
102
RTVSPost2010Prop44ColorRGB
 90
      255
102
RTVSPost2010PropOp44
 70
     0
102
RTVSPost2010Prop45
280
     0
102
RTVSPost2010PropOp45
 70
     0
102
RTVSPost2010Prop46
 90
       50
102
RTVSPost2010PropOp46
 70
     0
102
RTVSPost2010Prop47
 90
       50
102
RTVSPost2010PropOp47
 70
     0
102
RTVSPost2010Prop48
 90
       50
102
RTVSPost2010PropOp48
 70
     0
102
RTVSPost2010Prop49
280
     0
102
RTVSPost2010PropOp49
 70
     0
102
RTVSPost2010Prop50
 90
       50
102
RTVSPost2010PropOp50
 70
     0
102
RTVSPost2010Prop51ColorIndex
 90
      256
102
RTVSPost2010Prop51ColorRGB
 90
-16777216
102
RTVSPost2010PropOp51
 70
     0
102
RTVSPost2010Prop52
140
1.0
102
RTVSPost2010PropOp52
 70
     0
102
RTVSPost2010Prop53
 90
        2
102
RTVSPost2010PropOp53
 70
     0
102
RTVSPost2010Prop54
  1
strokes_ogs.tif
102
RTVSPost2010PropOp54
 70
     0
102
RTVSPost2010Prop55
280
     0
102
RTVSPost2010PropOp55
 70
     0
102
RTVSPost2010Prop56
140
1.0
102
RTVSPost2010PropOp56
 70
     0
102
RTVSPost2010Prop57
140
1.0
102
RTVSPost2010PropOp57
 70
     0
  0
XRECORD
  5
1FC5
102
{ACAD_REACTORS
330
1FC4
102
}
330
1FC4
100
AcDbXrecord
280
     1
102
RTVSPropertyOp0
 70
     1
102
RTVSPropertyOp1
 70
     1
102
RTVSPropertyOp2
 70
     1
102
RTVSPropertyOp3
 70
     1
102
RTVSPropertyOp4
 70
     1
102
RTVSPropertyOp5
 70
     1
102
RTVSPropertyOp6
 70
     1
102
RTVSPropertyOp7
 70
     1
102
RTVSPropertyOp8
 70
     1
102
RTVSPropertyOp9
 70
     1
102
RTVSPropertyOp10
 70
     1
102
RTVSPropertyOp11
 70
     1
102
RTVSPropertyOp12
 70
     1
102
RTVSPropertyOp13
 70
     1
102
RTVSPropertyOp14
 70
     1
102
RTVSPropertyOp15
 70
     1
102
RTVSPropertyOp16
 70
     1
102
RTVSPropertyOp17
 70
     1
102
RTVSPropertyOp18
 70
     1
102
RTVSPropertyOp19
 70
     1
102
RTVSPropertyOp20
 70
     1
102
RTVSPropertyOp21
 70
     1
102
RTVSPropertyOp22
 70
     1
102
RTVSPropertyOp23
 70
     1
102
RTVSPropertyOp24
 70
     1
102
RTVSPropertyOp25
 70
     1
102
RTVSPropertyOp26
 70
     1
102
RTVSPropertyOp27
 70
     1
102
RTVSPropertyOp28
 70
     1
102
RTVSPropertyOp29
 70
     1
102
RTVSPropertyOp30
 70
     1
102
RTVSPropertyOp31
 70
     1
102
RTVSPropertyOp32
 70
     1
102
RTVSPropertyOp33
 70
     1
102
RTVSPropertyOp34
 70
     1
102
RTVSPropertyOp35
 70
     1
102
RTVSPropertyOp36
 70
     1
102
RTVSPropertyOp37
 70
     1
102
RTVSPropertyOp38
 70
     1
102
RTVSPropertyOp39
 70
     1
102
RTVSPropertyOp40
 70
     1
102
RTVSPropertyOp41
 70
     1
102
RTVSPropertyOp42
 70
     1
102
RTVSPropertyOp43
 70
     1
102
RTVSPropertyOp44
 70
     1
102
RTVSPropertyOp45
 70
     1
102
RTVSPropertyOp46
 70
     1
102
RTVSPropertyOp47
 70
     1
102
RTVSPropertyOp48
 70
     1
102
RTVSPropertyOp49
 70
     1
102
RTVSPropertyOp50
 70
     1
102
RTVSPropertyOp51
 70
     0
102
RTVSPropertyOp52
 70
     0
102
RTVSPropertyOp53
 70
     1
102
RTVSPropertyOp54
 70
     1
102
RTVSPropertyOp55
 70
     1
102
RTVSPropertyOp56
 70
     1
102
RTVSPropertyOp57
 70
     1
102
RTVSPost2010Prop28
280
     0
102
RTVSPost2010PropOp28
 70
     1
102
RTVSPost2010Prop29
280
     1
102
RTVSPost2010PropOp29
 70
     1
102
RTVSPost2010Prop30
280
     1
102
RTVSPost2010PropOp30
 70
     1
102
RTVSPost2010Prop31
280
     0
102
RTVSPost2010PropOp31
 70
     1
102
RTVSPost2010Prop32
280
     0
102
RTVSPost2010PropOp32
 70
     1
102
RTVSPost2010Prop33
280
     0
102
RTVSPost2010PropOp33
 70
     1
102
RTVSPost2010Prop34
280
     0
102
RTVSPost2010PropOp34
 70
     1
102
RTVSPost2010Prop35
280
     0
102
RTVSPost2010PropOp35
 70
     1
102
RTVSPost2010Prop36
280
     0
102
RTVSPost2010PropOp36
 70
     1
102
RTVSPost2010Prop37
 90
       50
102
RTVSPost2010PropOp37
 70
     1
102
RTVSPost2010Prop38
140
0.0
102
RTVSPost2010PropOp38
 70
     1
102
RTVSPost2010Prop39
140
1.0
102
RTVSPost2010PropOp39
 70
     1
102
RTVSPost2010Prop40
 90
        0
102
RTVSPost2010PropOp40
 70
     1
102
RTVSPost2010Prop41ColorIndex
 90
       18
102
RTVSPost2010Prop41ColorRGB
 90
        0
102
RTVSPost2010PropOp41
 70
     1
102
RTVSPost2010Prop42
 90
       50
102
RTVSPost2010PropOp42
 70
     1
102
RTVSPost2010Prop43
 90
        3
102
RTVSPost2010PropOp43
 70
     1
102
RTVSPost2010Prop44ColorIndex
 90
        5
102
RTVSPost2010Prop44ColorRGB
 90
      255
102
RTVSPost2010PropOp44
 70
     1
102
RTVSPost2010Prop45
280
     0
102
RTVSPost2010PropOp45
 70
     1
102
RTVSPost2010Prop46
 90
       50
102
RTVSPost2010PropOp46
 70
     1
102
RTVSPost2010Prop47
 90
       50
102
RTVSPost2010PropOp47
 70
     1
102
RTVSPost2010Prop48
 90
       50
102
RTVSPost2010PropOp48
 70
     1
102
RTVSPost2010Prop49
280
     0
102
RTVSPost2010PropOp49
 70
     1
102
RTVSPost2010Prop50
 90
       50
102
RTVSPost2010PropOp50
 70
     1
102
RTVSPost2010Prop51ColorIndex
 90
      256
102
RTVSPost2010Prop51ColorRGB
 90
-16777216
102
RTVSPost2010PropOp51
 70
     0
102
RTVSPost2010Prop52
140
1.0
102
RTVSPost2010PropOp52
 70
     0
102
RTVSPost2010Prop53
 90
        2
102
RTVSPost2010PropOp53
 70
     1
102
RTVSPost2010Prop54
  1
strokes_ogs.tif
102
RTVSPost2010PropOp54
 70
     1
102
RTVSPost2010Prop55
280
     0
102
RTVSPost2010PropOp55
 70
     1
102
RTVSPost2010Prop56
140
1.0
102
RTVSPost2010PropOp56
 70
     1
102
RTVSPost2010Prop57
140
1.0
102
RTVSPost2010PropOp57
 70
     1
  0
XRECORD
  5
1FE7
102
{ACAD_REACTORS
330
1FE6
102
}
330
1FE6
100
AcDbXrecord
280
     1
102
RTVSPropertyOp0
 70
     1
102
RTVSPropertyOp1
 70
     1
102
RTVSPropertyOp2
 70
     1
102
RTVSPropertyOp3
 70
     1
102
RTVSPropertyOp4
 70
     1
102
RTVSPropertyOp5
 70
     1
102
RTVSPropertyOp6
 70
     1
102
RTVSPropertyOp7
 70
     1
102
RTVSPropertyOp8
 70
     1
102
RTVSPropertyOp9
 70
     1
102
RTVSPropertyOp10
 70
     1
102
RTVSPropertyOp11
 70
     1
102
RTVSPropertyOp12
 70
     1
102
RTVSPropertyOp13
 70
     1
102
RTVSPropertyOp14
 70
     1
102
RTVSPropertyOp15
 70
     1
102
RTVSPropertyOp16
 70
     1
102
RTVSPropertyOp17
 70
     1
102
RTVSPropertyOp18
 70
     1
102
RTVSPropertyOp19
 70
     1
102
RTVSPropertyOp20
 70
     1
102
RTVSPropertyOp21
 70
     1
102
RTVSPropertyOp22
 70
     1
102
RTVSPropertyOp23
 70
     1
102
RTVSPropertyOp24
 70
     1
102
RTVSPropertyOp25
 70
     1
102
RTVSPropertyOp26
 70
     1
102
RTVSPropertyOp27
 70
     1
102
RTVSPropertyOp28
 70
     1
102
RTVSPropertyOp29
 70
     1
102
RTVSPropertyOp30
 70
     1
102
RTVSPropertyOp31
 70
     1
102
RTVSPropertyOp32
 70
     1
102
RTVSPropertyOp33
 70
     1
102
RTVSPropertyOp34
 70
     1
102
RTVSPropertyOp35
 70
     1
102
RTVSPropertyOp36
 70
     1
102
RTVSPropertyOp37
 70
     1
102
RTVSPropertyOp38
 70
     1
102
RTVSPropertyOp39
 70
     1
102
RTVSPropertyOp40
 70
     1
102
RTVSPropertyOp41
 70
     1
102
RTVSPropertyOp42
 70
     1
102
RTVSPropertyOp43
 70
     1
102
RTVSPropertyOp44
 70
     1
102
RTVSPropertyOp45
 70
     1
102
RTVSPropertyOp46
 70
     1
102
RTVSPropertyOp47
 70
     1
102
RTVSPropertyOp48
 70
     1
102
RTVSPropertyOp49
 70
     1
102
RTVSPropertyOp50
 70
     1
102
RTVSPropertyOp51
 70
     0
102
RTVSPropertyOp52
 70
     0
102
RTVSPropertyOp53
 70
     1
102
RTVSPropertyOp54
 70
     1
102
RTVSPropertyOp55
 70
     1
102
RTVSPropertyOp56
 70
     1
102
RTVSPropertyOp57
 70
     1
102
RTVSPost2010Prop28
280
     0
102
RTVSPost2010PropOp28
 70
     1
102
RTVSPost2010Prop29
280
     1
102
RTVSPost2010PropOp29
 70
     1
102
RTVSPost2010Prop30
280
     1
102
RTVSPost2010PropOp30
 70
     1
102
RTVSPost2010Prop31
280
     0
102
RTVSPost2010PropOp31
 70
     1
102
RTVSPost2010Prop32
280
     0
102
RTVSPost2010PropOp32
 70
     1
102
RTVSPost2010Prop33
280
     0
102
RTVSPost2010PropOp33
 70
     1
102
RTVSPost2010Prop34
280
     0
102
RTVSPost2010PropOp34
 70
     1
102
RTVSPost2010Prop35
280
     0
102
RTVSPost2010PropOp35
 70
     1
102
RTVSPost2010Prop36
280
     0
102
RTVSPost2010PropOp36
 70
     1
102
RTVSPost2010Prop37
 90
       50
102
RTVSPost2010PropOp37
 70
     1
102
RTVSPost2010Prop38
140
0.0
102
RTVSPost2010PropOp38
 70
     1
102
RTVSPost2010Prop39
140
1.0
102
RTVSPost2010PropOp39
 70
     1
102
RTVSPost2010Prop40
 90
        0
102
RTVSPost2010PropOp40
 70
     1
102
RTVSPost2010Prop41ColorIndex
 90
       18
102
RTVSPost2010Prop41ColorRGB
 90
        0
102
RTVSPost2010PropOp41
 70
     1
102
RTVSPost2010Prop42
 90
       50
102
RTVSPost2010PropOp42
 70
     1
102
RTVSPost2010Prop43
 90
        3
102
RTVSPost2010PropOp43
 70
     1
102
RTVSPost2010Prop44ColorIndex
 90
        5
102
RTVSPost2010Prop44ColorRGB
 90
      255
102
RTVSPost2010PropOp44
 70
     1
102
RTVSPost2010Prop45
280
     0
102
RTVSPost2010PropOp45
 70
     1
102
RTVSPost2010Prop46
 90
       50
102
RTVSPost2010PropOp46
 70
     1
102
RTVSPost2010Prop47
 90
       50
102
RTVSPost2010PropOp47
 70
     1
102
RTVSPost2010Prop48
 90
       50
102
RTVSPost2010PropOp48
 70
     1
102
RTVSPost2010Prop49
280
     0
102
RTVSPost2010PropOp49
 70
     1
102
RTVSPost2010Prop50
 90
       50
102
RTVSPost2010PropOp50
 70
     1
102
RTVSPost2010Prop51ColorIndex
 90
      256
102
RTVSPost2010Prop51ColorRGB
 90
-16777216
102
RTVSPost2010PropOp51
 70
     0
102
RTVSPost2010Prop52
140
1.0
102
RTVSPost2010PropOp52
 70
     0
102
RTVSPost2010Prop53
 90
        2
102
RTVSPost2010PropOp53
 70
     1
102
RTVSPost2010Prop54
  1
strokes_ogs.tif
102
RTVSPost2010PropOp54
 70
     1
102
RTVSPost2010Prop55
280
     0
102
RTVSPost2010PropOp55
 70
     1
102
RTVSPost2010Prop56
140
1.0
102
RTVSPost2010PropOp56
 70
     1
102
RTVSPost2010Prop57
140
1.0
102
RTVSPost2010PropOp57
 70
     1
  0
XRECORD
  5
1FE5
102
{ACAD_REACTORS
330
1FE4
102
}
330
1FE4
100
AcDbXrecord
280
     1
102
RTVSPropertyOp0
 70
     1
102
RTVSPropertyOp1
 70
     1
102
RTVSPropertyOp2
 70
     1
102
RTVSPropertyOp3
 70
     1
102
RTVSPropertyOp4
 70
     1
102
RTVSPropertyOp5
 70
     1
102
RTVSPropertyOp6
 70
     1
102
RTVSPropertyOp7
 70
     1
102
RTVSPropertyOp8
 70
     1
102
RTVSPropertyOp9
 70
     1
102
RTVSPropertyOp10
 70
     1
102
RTVSPropertyOp11
 70
     1
102
RTVSPropertyOp12
 70
     1
102
RTVSPropertyOp13
 70
     1
102
RTVSPropertyOp14
 70
     1
102
RTVSPropertyOp15
 70
     1
102
RTVSPropertyOp16
 70
     1
102
RTVSPropertyOp17
 70
     1
102
RTVSPropertyOp18
 70
     1
102
RTVSPropertyOp19
 70
     1
102
RTVSPropertyOp20
 70
     1
102
RTVSPropertyOp21
 70
     1
102
RTVSPropertyOp22
 70
     1
102
RTVSPropertyOp23
 70
     1
102
RTVSPropertyOp24
 70
     1
102
RTVSPropertyOp25
 70
     1
102
RTVSPropertyOp26
 70
     1
102
RTVSPropertyOp27
 70
     1
102
RTVSPropertyOp28
 70
     1
102
RTVSPropertyOp29
 70
     1
102
RTVSPropertyOp30
 70
     1
102
RTVSPropertyOp31
 70
     1
102
RTVSPropertyOp32
 70
     1
102
RTVSPropertyOp33
 70
     1
102
RTVSPropertyOp34
 70
     1
102
RTVSPropertyOp35
 70
     1
102
RTVSPropertyOp36
 70
     1
102
RTVSPropertyOp37
 70
     1
102
RTVSPropertyOp38
 70
     1
102
RTVSPropertyOp39
 70
     1
102
RTVSPropertyOp40
 70
     1
102
RTVSPropertyOp41
 70
     1
102
RTVSPropertyOp42
 70
     1
102
RTVSPropertyOp43
 70
     1
102
RTVSPropertyOp44
 70
     1
102
RTVSPropertyOp45
 70
     1
102
RTVSPropertyOp46
 70
     1
102
RTVSPropertyOp47
 70
     1
102
RTVSPropertyOp48
 70
     1
102
RTVSPropertyOp49
 70
     1
102
RTVSPropertyOp50
 70
     1
102
RTVSPropertyOp51
 70
     0
102
RTVSPropertyOp52
 70
     0
102
RTVSPropertyOp53
 70
     1
102
RTVSPropertyOp54
 70
     1
102
RTVSPropertyOp55
 70
     1
102
RTVSPropertyOp56
 70
     1
102
RTVSPropertyOp57
 70
     1
102
RTVSPost2010Prop28
280
     0
102
RTVSPost2010PropOp28
 70
     1
102
RTVSPost2010Prop29
280
     1
102
RTVSPost2010PropOp29
 70
     1
102
RTVSPost2010Prop30
280
     1
102
RTVSPost2010PropOp30
 70
     1
102
RTVSPost2010Prop31
280
     0
102
RTVSPost2010PropOp31
 70
     1
102
RTVSPost2010Prop32
280
     0
102
RTVSPost2010PropOp32
 70
     1
102
RTVSPost2010Prop33
280
     0
102
RTVSPost2010PropOp33
 70
     1
102
RTVSPost2010Prop34
280
     0
102
RTVSPost2010PropOp34
 70
     1
102
RTVSPost2010Prop35
280
     0
102
RTVSPost2010PropOp35
 70
     1
102
RTVSPost2010Prop36
280
     0
102
RTVSPost2010PropOp36
 70
     1
102
RTVSPost2010Prop37
 90
       50
102
RTVSPost2010PropOp37
 70
     1
102
RTVSPost2010Prop38
140
0.0
102
RTVSPost2010PropOp38
 70
     1
102
RTVSPost2010Prop39
140
1.0
102
RTVSPost2010PropOp39
 70
     1
102
RTVSPost2010Prop40
 90
        0
102
RTVSPost2010PropOp40
 70
     1
102
RTVSPost2010Prop41ColorIndex
 90
       18
102
RTVSPost2010Prop41ColorRGB
 90
        0
102
RTVSPost2010PropOp41
 70
     1
102
RTVSPost2010Prop42
 90
       50
102
RTVSPost2010PropOp42
 70
     1
102
RTVSPost2010Prop43
 90
        3
102
RTVSPost2010PropOp43
 70
     1
102
RTVSPost2010Prop44ColorIndex
 90
        5
102
RTVSPost2010Prop44ColorRGB
 90
      255
102
RTVSPost2010PropOp44
 70
     1
102
RTVSPost2010Prop45
280
     0
102
RTVSPost2010PropOp45
 70
     1
102
RTVSPost2010Prop46
 90
       50
102
RTVSPost2010PropOp46
 70
     1
102
RTVSPost2010Prop47
 90
       50
102
RTVSPost2010PropOp47
 70
     1
102
RTVSPost2010Prop48
 90
       50
102
RTVSPost2010PropOp48
 70
     1
102
RTVSPost2010Prop49
280
     0
102
RTVSPost2010PropOp49
 70
     1
102
RTVSPost2010Prop50
 90
       50
102
RTVSPost2010PropOp50
 70
     1
102
RTVSPost2010Prop51ColorIndex
 90
      256
102
RTVSPost2010Prop51ColorRGB
 90
-16777216
102
RTVSPost2010PropOp51
 70
     0
102
RTVSPost2010Prop52
140
1.0
102
RTVSPost2010PropOp52
 70
     0
102
RTVSPost2010Prop53
 90
        2
102
RTVSPost2010PropOp53
 70
     1
102
RTVSPost2010Prop54
  1
strokes_ogs.tif
102
RTVSPost2010PropOp54
 70
     1
102
RTVSPost2010Prop55
280
     0
102
RTVSPost2010PropOp55
 70
     1
102
RTVSPost2010Prop56
140
1.0
102
RTVSPost2010PropOp56
 70
     1
102
RTVSPost2010Prop57
140
1.0
102
RTVSPost2010PropOp57
 70
     1
  0
XRECORD
  5
1FDF
102
{ACAD_REACTORS
330
1FDE
102
}
330
1FDE
100
AcDbXrecord
280
     1
102
RTVSPropertyOp0
 70
     1
102
RTVSPropertyOp1
 70
     1
102
RTVSPropertyOp2
 70
     1
102
RTVSPropertyOp3
 70
     1
102
RTVSPropertyOp4
 70
     1
102
RTVSPropertyOp5
 70
     1
102
RTVSPropertyOp6
 70
     1
102
RTVSPropertyOp7
 70
     1
102
RTVSPropertyOp8
 70
     1
102
RTVSPropertyOp9
 70
     1
102
RTVSPropertyOp10
 70
     1
102
RTVSPropertyOp11
 70
     1
102
RTVSPropertyOp12
 70
     1
102
RTVSPropertyOp13
 70
     1
102
RTVSPropertyOp14
 70
     1
102
RTVSPropertyOp15
 70
     1
102
RTVSPropertyOp16
 70
     1
102
RTVSPropertyOp17
 70
     1
102
RTVSPropertyOp18
 70
     1
102
RTVSPropertyOp19
 70
     1
102
RTVSPropertyOp20
 70
     1
102
RTVSPropertyOp21
 70
     1
102
RTVSPropertyOp22
 70
     1
102
RTVSPropertyOp23
 70
     1
102
RTVSPropertyOp24
 70
     1
102
RTVSPropertyOp25
 70
     1
102
RTVSPropertyOp26
 70
     1
102
RTVSPropertyOp27
 70
     1
102
RTVSPropertyOp28
 70
     1
102
RTVSPropertyOp29
 70
     1
102
RTVSPropertyOp30
 70
     1
102
RTVSPropertyOp31
 70
     1
102
RTVSPropertyOp32
 70
     1
102
RTVSPropertyOp33
 70
     1
102
RTVSPropertyOp34
 70
     1
102
RTVSPropertyOp35
 70
     1
102
RTVSPropertyOp36
 70
     1
102
RTVSPropertyOp37
 70
     1
102
RTVSPropertyOp38
 70
     1
102
RTVSPropertyOp39
 70
     1
102
RTVSPropertyOp40
 70
     1
102
RTVSPropertyOp41
 70
     1
102
RTVSPropertyOp42
 70
     1
102
RTVSPropertyOp43
 70
     1
102
RTVSPropertyOp44
 70
     1
102
RTVSPropertyOp45
 70
     1
102
RTVSPropertyOp46
 70
     1
102
RTVSPropertyOp47
 70
     1
102
RTVSPropertyOp48
 70
     1
102
RTVSPropertyOp49
 70
     1
102
RTVSPropertyOp50
 70
     1
102
RTVSPropertyOp51
 70
     0
102
RTVSPropertyOp52
 70
     0
102
RTVSPropertyOp53
 70
     1
102
RTVSPropertyOp54
 70
     1
102
RTVSPropertyOp55
 70
     1
102
RTVSPropertyOp56
 70
     1
102
RTVSPropertyOp57
 70
     1
102
RTVSPost2010Prop28
280
     0
102
RTVSPost2010PropOp28
 70
     1
102
RTVSPost2010Prop29
280
     1
102
RTVSPost2010PropOp29
 70
     1
102
RTVSPost2010Prop30
280
     1
102
RTVSPost2010PropOp30
 70
     1
102
RTVSPost2010Prop31
280
     0
102
RTVSPost2010PropOp31
 70
     1
102
RTVSPost2010Prop32
280
     0
102
RTVSPost2010PropOp32
 70
     1
102
RTVSPost2010Prop33
280
     0
102
RTVSPost2010PropOp33
 70
     1
102
RTVSPost2010Prop34
280
     0
102
RTVSPost2010PropOp34
 70
     1
102
RTVSPost2010Prop35
280
     0
102
RTVSPost2010PropOp35
 70
     1
102
RTVSPost2010Prop36
280
     0
102
RTVSPost2010PropOp36
 70
     1
102
RTVSPost2010Prop37
 90
       50
102
RTVSPost2010PropOp37
 70
     1
102
RTVSPost2010Prop38
140
0.0
102
RTVSPost2010PropOp38
 70
     1
102
RTVSPost2010Prop39
140
1.0
102
RTVSPost2010PropOp39
 70
     1
102
RTVSPost2010Prop40
 90
        0
102
RTVSPost2010PropOp40
 70
     1
102
RTVSPost2010Prop41ColorIndex
 90
       18
102
RTVSPost2010Prop41ColorRGB
 90
        0
102
RTVSPost2010PropOp41
 70
     1
102
RTVSPost2010Prop42
 90
       50
102
RTVSPost2010PropOp42
 70
     1
102
RTVSPost2010Prop43
 90
        3
102
RTVSPost2010PropOp43
 70
     1
102
RTVSPost2010Prop44ColorIndex
 90
        5
102
RTVSPost2010Prop44ColorRGB
 90
      255
102
RTVSPost2010PropOp44
 70
     1
102
RTVSPost2010Prop45
280
     0
102
RTVSPost2010PropOp45
 70
     1
102
RTVSPost2010Prop46
 90
       50
102
RTVSPost2010PropOp46
 70
     1
102
RTVSPost2010Prop47
 90
       50
102
RTVSPost2010PropOp47
 70
     1
102
RTVSPost2010Prop48
 90
       50
102
RTVSPost2010PropOp48
 70
     1
102
RTVSPost2010Prop49
280
     0
102
RTVSPost2010PropOp49
 70
     1
102
RTVSPost2010Prop50
 90
       50
102
RTVSPost2010PropOp50
 70
     1
102
RTVSPost2010Prop51ColorIndex
 90
      256
102
RTVSPost2010Prop51ColorRGB
 90
-16777216
102
RTVSPost2010PropOp51
 70
     0
102
RTVSPost2010Prop52
140
1.0
102
RTVSPost2010PropOp52
 70
     0
102
RTVSPost2010Prop53
 90
        2
102
RTVSPost2010PropOp53
 70
     1
102
RTVSPost2010Prop54
  1
strokes_ogs.tif
102
RTVSPost2010PropOp54
 70
     1
102
RTVSPost2010Prop55
280
     0
102
RTVSPost2010PropOp55
 70
     1
102
RTVSPost2010Prop56
140
1.0
102
RTVSPost2010PropOp56
 70
     1
102
RTVSPost2010Prop57
140
1.0
102
RTVSPost2010PropOp57
 70
     1
  0
XRECORD
  5
1FE1
102
{ACAD_REACTORS
330
1FE0
102
}
330
1FE0
100
AcDbXrecord
280
     1
102
RTVSPropertyOp0
 70
     1
102
RTVSPropertyOp1
 70
     1
102
RTVSPropertyOp2
 70
     1
102
RTVSPropertyOp3
 70
     1
102
RTVSPropertyOp4
 70
     1
102
RTVSPropertyOp5
 70
     1
102
RTVSPropertyOp6
 70
     1
102
RTVSPropertyOp7
 70
     1
102
RTVSPropertyOp8
 70
     1
102
RTVSPropertyOp9
 70
     1
102
RTVSPropertyOp10
 70
     1
102
RTVSPropertyOp11
 70
     1
102
RTVSPropertyOp12
 70
     1
102
RTVSPropertyOp13
 70
     1
102
RTVSPropertyOp14
 70
     1
102
RTVSPropertyOp15
 70
     1
102
RTVSPropertyOp16
 70
     1
102
RTVSPropertyOp17
 70
     1
102
RTVSPropertyOp18
 70
     1
102
RTVSPropertyOp19
 70
     1
102
RTVSPropertyOp20
 70
     1
102
RTVSPropertyOp21
 70
     1
102
RTVSPropertyOp22
 70
     1
102
RTVSPropertyOp23
 70
     1
102
RTVSPropertyOp24
 70
     1
102
RTVSPropertyOp25
 70
     1
102
RTVSPropertyOp26
 70
     1
102
RTVSPropertyOp27
 70
     1
102
RTVSPropertyOp28
 70
     1
102
RTVSPropertyOp29
 70
     1
102
RTVSPropertyOp30
 70
     1
102
RTVSPropertyOp31
 70
     1
102
RTVSPropertyOp32
 70
     1
102
RTVSPropertyOp33
 70
     1
102
RTVSPropertyOp34
 70
     1
102
RTVSPropertyOp35
 70
     1
102
RTVSPropertyOp36
 70
     1
102
RTVSPropertyOp37
 70
     1
102
RTVSPropertyOp38
 70
     1
102
RTVSPropertyOp39
 70
     1
102
RTVSPropertyOp40
 70
     1
102
RTVSPropertyOp41
 70
     1
102
RTVSPropertyOp42
 70
     1
102
RTVSPropertyOp43
 70
     1
102
RTVSPropertyOp44
 70
     1
102
RTVSPropertyOp45
 70
     1
102
RTVSPropertyOp46
 70
     1
102
RTVSPropertyOp47
 70
     1
102
RTVSPropertyOp48
 70
     1
102
RTVSPropertyOp49
 70
     1
102
RTVSPropertyOp50
 70
     1
102
RTVSPropertyOp51
 70
     0
102
RTVSPropertyOp52
 70
     0
102
RTVSPropertyOp53
 70
     1
102
RTVSPropertyOp54
 70
     1
102
RTVSPropertyOp55
 70
     1
102
RTVSPropertyOp56
 70
     1
102
RTVSPropertyOp57
 70
     1
102
RTVSPost2010Prop28
280
     0
102
RTVSPost2010PropOp28
 70
     1
102
RTVSPost2010Prop29
280
     1
102
RTVSPost2010PropOp29
 70
     1
102
RTVSPost2010Prop30
280
     1
102
RTVSPost2010PropOp30
 70
     1
102
RTVSPost2010Prop31
280
     0
102
RTVSPost2010PropOp31
 70
     1
102
RTVSPost2010Prop32
280
     0
102
RTVSPost2010PropOp32
 70
     1
102
RTVSPost2010Prop33
280
     0
102
RTVSPost2010PropOp33
 70
     1
102
RTVSPost2010Prop34
280
     0
102
RTVSPost2010PropOp34
 70
     1
102
RTVSPost2010Prop35
280
     0
102
RTVSPost2010PropOp35
 70
     1
102
RTVSPost2010Prop36
280
     0
102
RTVSPost2010PropOp36
 70
     1
102
RTVSPost2010Prop37
 90
       50
102
RTVSPost2010PropOp37
 70
     1
102
RTVSPost2010Prop38
140
0.0
102
RTVSPost2010PropOp38
 70
     1
102
RTVSPost2010Prop39
140
1.0
102
RTVSPost2010PropOp39
 70
     1
102
RTVSPost2010Prop40
 90
        0
102
RTVSPost2010PropOp40
 70
     1
102
RTVSPost2010Prop41ColorIndex
 90
       18
102
RTVSPost2010Prop41ColorRGB
 90
        0
102
RTVSPost2010PropOp41
 70
     1
102
RTVSPost2010Prop42
 90
       50
102
RTVSPost2010PropOp42
 70
     1
102
RTVSPost2010Prop43
 90
        3
102
RTVSPost2010PropOp43
 70
     1
102
RTVSPost2010Prop44ColorIndex
 90
        5
102
RTVSPost2010Prop44ColorRGB
 90
      255
102
RTVSPost2010PropOp44
 70
     1
102
RTVSPost2010Prop45
280
     0
102
RTVSPost2010PropOp45
 70
     1
102
RTVSPost2010Prop46
 90
       50
102
RTVSPost2010PropOp46
 70
     1
102
RTVSPost2010Prop47
 90
       50
102
RTVSPost2010PropOp47
 70
     1
102
RTVSPost2010Prop48
 90
       50
102
RTVSPost2010PropOp48
 70
     1
102
RTVSPost2010Prop49
280
     0
102
RTVSPost2010PropOp49
 70
     1
102
RTVSPost2010Prop50
 90
       50
102
RTVSPost2010PropOp50
 70
     1
102
RTVSPost2010Prop51ColorIndex
 90
      256
102
RTVSPost2010Prop51ColorRGB
 90
-16777216
102
RTVSPost2010PropOp51
 70
     0
102
RTVSPost2010Prop52
140
1.0
102
RTVSPost2010PropOp52
 70
     0
102
RTVSPost2010Prop53
 90
        2
102
RTVSPost2010PropOp53
 70
     1
102
RTVSPost2010Prop54
  1
strokes_ogs.tif
102
RTVSPost2010PropOp54
 70
     1
102
RTVSPost2010Prop55
280
     0
102
RTVSPost2010PropOp55
 70
     1
102
RTVSPost2010Prop56
140
1.0
102
RTVSPost2010PropOp56
 70
     1
102
RTVSPost2010Prop57
140
1.0
102
RTVSPost2010PropOp57
 70
     1
  0
XRECORD
  5
1FCD
102
{ACAD_REACTORS
330
1FCC
102
}
330
1FCC
100
AcDbXrecord
280
     1
102
RTVSPropertyOp0
 70
     1
102
RTVSPropertyOp1
 70
     1
102
RTVSPropertyOp2
 70
     1
102
RTVSPropertyOp3
 70
     1
102
RTVSPropertyOp4
 70
     1
102
RTVSPropertyOp5
 70
     1
102
RTVSPropertyOp6
 70
     1
102
RTVSPropertyOp7
 70
     1
102
RTVSPropertyOp8
 70
     1
102
RTVSPropertyOp9
 70
     1
102
RTVSPropertyOp10
 70
     1
102
RTVSPropertyOp11
 70
     1
102
RTVSPropertyOp12
 70
     1
102
RTVSPropertyOp13
 70
     1
102
RTVSPropertyOp14
 70
     1
102
RTVSPropertyOp15
 70
     1
102
RTVSPropertyOp16
 70
     1
102
RTVSPropertyOp17
 70
     1
102
RTVSPropertyOp18
 70
     1
102
RTVSPropertyOp19
 70
     1
102
RTVSPropertyOp20
 70
     1
102
RTVSPropertyOp21
 70
     1
102
RTVSPropertyOp22
 70
     1
102
RTVSPropertyOp23
 70
     1
102
RTVSPropertyOp24
 70
     1
102
RTVSPropertyOp25
 70
     1
102
RTVSPropertyOp26
 70
     1
102
RTVSPropertyOp27
 70
     1
102
RTVSPropertyOp28
 70
     1
102
RTVSPropertyOp29
 70
     1
102
RTVSPropertyOp30
 70
     1
102
RTVSPropertyOp31
 70
     1
102
RTVSPropertyOp32
 70
     1
102
RTVSPropertyOp33
 70
     1
102
RTVSPropertyOp34
 70
     1
102
RTVSPropertyOp35
 70
     1
102
RTVSPropertyOp36
 70
     1
102
RTVSPropertyOp37
 70
     1
102
RTVSPropertyOp38
 70
     1
102
RTVSPropertyOp39
 70
     1
102
RTVSPropertyOp40
 70
     1
102
RTVSPropertyOp41
 70
     1
102
RTVSPropertyOp42
 70
     1
102
RTVSPropertyOp43
 70
     1
102
RTVSPropertyOp44
 70
     1
102
RTVSPropertyOp45
 70
     1
102
RTVSPropertyOp46
 70
     1
102
RTVSPropertyOp47
 70
     1
102
RTVSPropertyOp48
 70
     1
102
RTVSPropertyOp49
 70
     1
102
RTVSPropertyOp50
 70
     1
102
RTVSPropertyOp51
 70
     0
102
RTVSPropertyOp52
 70
     0
102
RTVSPropertyOp53
 70
     1
102
RTVSPropertyOp54
 70
     1
102
RTVSPropertyOp55
 70
     1
102
RTVSPropertyOp56
 70
     1
102
RTVSPropertyOp57
 70
     1
102
RTVSPost2010Prop28
280
     0
102
RTVSPost2010PropOp28
 70
     1
102
RTVSPost2010Prop29
280
     1
102
RTVSPost2010PropOp29
 70
     1
102
RTVSPost2010Prop30
280
     1
102
RTVSPost2010PropOp30
 70
     1
102
RTVSPost2010Prop31
280
     0
102
RTVSPost2010PropOp31
 70
     1
102
RTVSPost2010Prop32
280
     0
102
RTVSPost2010PropOp32
 70
     1
102
RTVSPost2010Prop33
280
     0
102
RTVSPost2010PropOp33
 70
     1
102
RTVSPost2010Prop34
280
     0
102
RTVSPost2010PropOp34
 70
     1
102
RTVSPost2010Prop35
280
     0
102
RTVSPost2010PropOp35
 70
     1
102
RTVSPost2010Prop36
280
     0
102
RTVSPost2010PropOp36
 70
     1
102
RTVSPost2010Prop37
 90
       50
102
RTVSPost2010PropOp37
 70
     1
102
RTVSPost2010Prop38
140
0.0
102
RTVSPost2010PropOp38
 70
     1
102
RTVSPost2010Prop39
140
1.0
102
RTVSPost2010PropOp39
 70
     1
102
RTVSPost2010Prop40
 90
        0
102
RTVSPost2010PropOp40
 70
     1
102
RTVSPost2010Prop41ColorIndex
 90
       18
102
RTVSPost2010Prop41ColorRGB
 90
        0
102
RTVSPost2010PropOp41
 70
     1
102
RTVSPost2010Prop42
 90
       50
102
RTVSPost2010PropOp42
 70
     1
102
RTVSPost2010Prop43
 90
        3
102
RTVSPost2010PropOp43
 70
     1
102
RTVSPost2010Prop44ColorIndex
 90
        5
102
RTVSPost2010Prop44ColorRGB
 90
      255
102
RTVSPost2010PropOp44
 70
     1
102
RTVSPost2010Prop45
280
     0
102
RTVSPost2010PropOp45
 70
     1
102
RTVSPost2010Prop46
 90
       50
102
RTVSPost2010PropOp46
 70
     1
102
RTVSPost2010Prop47
 90
       50
102
RTVSPost2010PropOp47
 70
     1
102
RTVSPost2010Prop48
 90
       50
102
RTVSPost2010PropOp48
 70
     1
102
RTVSPost2010Prop49
280
     0
102
RTVSPost2010PropOp49
 70
     1
102
RTVSPost2010Prop50
 90
       50
102
RTVSPost2010PropOp50
 70
     1
102
RTVSPost2010Prop51ColorIndex
 90
      256
102
RTVSPost2010Prop51ColorRGB
 90
-16777216
102
RTVSPost2010PropOp51
 70
     0
102
RTVSPost2010Prop52
140
1.0
102
RTVSPost2010PropOp52
 70
     0
102
RTVSPost2010Prop53
 90
        2
102
RTVSPost2010PropOp53
 70
     1
102
RTVSPost2010Prop54
  1
strokes_ogs.tif
102
RTVSPost2010PropOp54
 70
     1
102
RTVSPost2010Prop55
280
     0
102
RTVSPost2010PropOp55
 70
     1
102
RTVSPost2010Prop56
140
1.0
102
RTVSPost2010PropOp56
 70
     1
102
RTVSPost2010Prop57
140
1.0
102
RTVSPost2010PropOp57
 70
     1
  0
XRECORD
  5
1FD5
102
{ACAD_REACTORS
330
1FD4
102
}
330
1FD4
100
AcDbXrecord
280
     1
102
RTVSPropertyOp0
 70
     1
102
RTVSPropertyOp1
 70
     1
102
RTVSPropertyOp2
 70
     1
102
RTVSPropertyOp3
 70
     1
102
RTVSPropertyOp4
 70
     1
102
RTVSPropertyOp5
 70
     1
102
RTVSPropertyOp6
 70
     1
102
RTVSPropertyOp7
 70
     1
102
RTVSPropertyOp8
 70
     1
102
RTVSPropertyOp9
 70
     1
102
RTVSPropertyOp10
 70
     1
102
RTVSPropertyOp11
 70
     1
102
RTVSPropertyOp12
 70
     1
102
RTVSPropertyOp13
 70
     1
102
RTVSPropertyOp14
 70
     1
102
RTVSPropertyOp15
 70
     1
102
RTVSPropertyOp16
 70
     1
102
RTVSPropertyOp17
 70
     1
102
RTVSPropertyOp18
 70
     1
102
RTVSPropertyOp19
 70
     1
102
RTVSPropertyOp20
 70
     1
102
RTVSPropertyOp21
 70
     1
102
RTVSPropertyOp22
 70
     1
102
RTVSPropertyOp23
 70
     1
102
RTVSPropertyOp24
 70
     1
102
RTVSPropertyOp25
 70
     1
102
RTVSPropertyOp26
 70
     1
102
RTVSPropertyOp27
 70
     1
102
RTVSPropertyOp28
 70
     1
102
RTVSPropertyOp29
 70
     1
102
RTVSPropertyOp30
 70
     1
102
RTVSPropertyOp31
 70
     1
102
RTVSPropertyOp32
 70
     1
102
RTVSPropertyOp33
 70
     1
102
RTVSPropertyOp34
 70
     1
102
RTVSPropertyOp35
 70
     1
102
RTVSPropertyOp36
 70
     1
102
RTVSPropertyOp37
 70
     1
102
RTVSPropertyOp38
 70
     1
102
RTVSPropertyOp39
 70
     1
102
RTVSPropertyOp40
 70
     1
102
RTVSPropertyOp41
 70
     1
102
RTVSPropertyOp42
 70
     1
102
RTVSPropertyOp43
 70
     1
102
RTVSPropertyOp44
 70
     1
102
RTVSPropertyOp45
 70
     1
102
RTVSPropertyOp46
 70
     1
102
RTVSPropertyOp47
 70
     1
102
RTVSPropertyOp48
 70
     1
102
RTVSPropertyOp49
 70
     1
102
RTVSPropertyOp50
 70
     1
102
RTVSPropertyOp51
 70
     0
102
RTVSPropertyOp52
 70
     0
102
RTVSPropertyOp53
 70
     1
102
RTVSPropertyOp54
 70
     1
102
RTVSPropertyOp55
 70
     1
102
RTVSPropertyOp56
 70
     1
102
RTVSPropertyOp57
 70
     1
102
RTVSPost2010Prop28
280
     0
102
RTVSPost2010PropOp28
 70
     1
102
RTVSPost2010Prop29
280
     1
102
RTVSPost2010PropOp29
 70
     1
102
RTVSPost2010Prop30
280
     1
102
RTVSPost2010PropOp30
 70
     1
102
RTVSPost2010Prop31
280
     0
102
RTVSPost2010PropOp31
 70
     1
102
RTVSPost2010Prop32
280
     0
102
RTVSPost2010PropOp32
 70
     1
102
RTVSPost2010Prop33
280
     0
102
RTVSPost2010PropOp33
 70
     1
102
RTVSPost2010Prop34
280
     0
102
RTVSPost2010PropOp34
 70
     1
102
RTVSPost2010Prop35
280
     0
102
RTVSPost2010PropOp35
 70
     1
102
RTVSPost2010Prop36
280
     0
102
RTVSPost2010PropOp36
 70
     1
102
RTVSPost2010Prop37
 90
       50
102
RTVSPost2010PropOp37
 70
     1
102
RTVSPost2010Prop38
140
0.0
102
RTVSPost2010PropOp38
 70
     1
102
RTVSPost2010Prop39
140
1.0
102
RTVSPost2010PropOp39
 70
     1
102
RTVSPost2010Prop40
 90
        0
102
RTVSPost2010PropOp40
 70
     1
102
RTVSPost2010Prop41ColorIndex
 90
       18
102
RTVSPost2010Prop41ColorRGB
 90
        0
102
RTVSPost2010PropOp41
 70
     1
102
RTVSPost2010Prop42
 90
       50
102
RTVSPost2010PropOp42
 70
     1
102
RTVSPost2010Prop43
 90
        3
102
RTVSPost2010PropOp43
 70
     1
102
RTVSPost2010Prop44ColorIndex
 90
        5
102
RTVSPost2010Prop44ColorRGB
 90
      255
102
RTVSPost2010PropOp44
 70
     1
102
RTVSPost2010Prop45
280
     0
102
RTVSPost2010PropOp45
 70
     1
102
RTVSPost2010Prop46
 90
       50
102
RTVSPost2010PropOp46
 70
     1
102
RTVSPost2010Prop47
 90
       50
102
RTVSPost2010PropOp47
 70
     1
102
RTVSPost2010Prop48
 90
       50
102
RTVSPost2010PropOp48
 70
     1
102
RTVSPost2010Prop49
280
     0
102
RTVSPost2010PropOp49
 70
     1
102
RTVSPost2010Prop50
 90
       50
102
RTVSPost2010PropOp50
 70
     1
102
RTVSPost2010Prop51ColorIndex
 90
      256
102
RTVSPost2010Prop51ColorRGB
 90
-16777216
102
RTVSPost2010PropOp51
 70
     0
102
RTVSPost2010Prop52
140
1.0
102
RTVSPost2010PropOp52
 70
     0
102
RTVSPost2010Prop53
 90
        2
102
RTVSPost2010PropOp53
 70
     1
102
RTVSPost2010Prop54
  1
strokes_ogs.tif
102
RTVSPost2010PropOp54
 70
     1
102
RTVSPost2010Prop55
280
     0
102
RTVSPost2010PropOp55
 70
     1
102
RTVSPost2010Prop56
140
1.0
102
RTVSPost2010PropOp56
 70
     1
102
RTVSPost2010Prop57
140
1.0
102
RTVSPost2010PropOp57
 70
     1
  0
XRECORD
  5
1FE3
102
{ACAD_REACTORS
330
1FE2
102
}
330
1FE2
100
AcDbXrecord
280
     1
102
RTVSPropertyOp0
 70
     1
102
RTVSPropertyOp1
 70
     1
102
RTVSPropertyOp2
 70
     1
102
RTVSPropertyOp3
 70
     1
102
RTVSPropertyOp4
 70
     1
102
RTVSPropertyOp5
 70
     1
102
RTVSPropertyOp6
 70
     1
102
RTVSPropertyOp7
 70
     1
102
RTVSPropertyOp8
 70
     1
102
RTVSPropertyOp9
 70
     1
102
RTVSPropertyOp10
 70
     1
102
RTVSPropertyOp11
 70
     1
102
RTVSPropertyOp12
 70
     1
102
RTVSPropertyOp13
 70
     1
102
RTVSPropertyOp14
 70
     1
102
RTVSPropertyOp15
 70
     1
102
RTVSPropertyOp16
 70
     1
102
RTVSPropertyOp17
 70
     1
102
RTVSPropertyOp18
 70
     1
102
RTVSPropertyOp19
 70
     1
102
RTVSPropertyOp20
 70
     1
102
RTVSPropertyOp21
 70
     1
102
RTVSPropertyOp22
 70
     1
102
RTVSPropertyOp23
 70
     1
102
RTVSPropertyOp24
 70
     1
102
RTVSPropertyOp25
 70
     1
102
RTVSPropertyOp26
 70
     1
102
RTVSPropertyOp27
 70
     1
102
RTVSPropertyOp28
 70
     1
102
RTVSPropertyOp29
 70
     1
102
RTVSPropertyOp30
 70
     1
102
RTVSPropertyOp31
 70
     1
102
RTVSPropertyOp32
 70
     1
102
RTVSPropertyOp33
 70
     1
102
RTVSPropertyOp34
 70
     1
102
RTVSPropertyOp35
 70
     1
102
RTVSPropertyOp36
 70
     1
102
RTVSPropertyOp37
 70
     1
102
RTVSPropertyOp38
 70
     1
102
RTVSPropertyOp39
 70
     1
102
RTVSPropertyOp40
 70
     1
102
RTVSPropertyOp41
 70
     1
102
RTVSPropertyOp42
 70
     1
102
RTVSPropertyOp43
 70
     1
102
RTVSPropertyOp44
 70
     1
102
RTVSPropertyOp45
 70
     1
102
RTVSPropertyOp46
 70
     1
102
RTVSPropertyOp47
 70
     1
102
RTVSPropertyOp48
 70
     1
102
RTVSPropertyOp49
 70
     1
102
RTVSPropertyOp50
 70
     1
102
RTVSPropertyOp51
 70
     0
102
RTVSPropertyOp52
 70
     0
102
RTVSPropertyOp53
 70
     1
102
RTVSPropertyOp54
 70
     1
102
RTVSPropertyOp55
 70
     1
102
RTVSPropertyOp56
 70
     1
102
RTVSPropertyOp57
 70
     1
102
RTVSPost2010Prop28
280
     0
102
RTVSPost2010PropOp28
 70
     1
102
RTVSPost2010Prop29
280
     1
102
RTVSPost2010PropOp29
 70
     1
102
RTVSPost2010Prop30
280
     1
102
RTVSPost2010PropOp30
 70
     1
102
RTVSPost2010Prop31
280
     0
102
RTVSPost2010PropOp31
 70
     1
102
RTVSPost2010Prop32
280
     0
102
RTVSPost2010PropOp32
 70
     1
102
RTVSPost2010Prop33
280
     0
102
RTVSPost2010PropOp33
 70
     1
102
RTVSPost2010Prop34
280
     0
102
RTVSPost2010PropOp34
 70
     1
102
RTVSPost2010Prop35
280
     0
102
RTVSPost2010PropOp35
 70
     1
102
RTVSPost2010Prop36
280
     0
102
RTVSPost2010PropOp36
 70
     1
102
RTVSPost2010Prop37
 90
       50
102
RTVSPost2010PropOp37
 70
     1
102
RTVSPost2010Prop38
140
0.0
102
RTVSPost2010PropOp38
 70
     1
102
RTVSPost2010Prop39
140
1.0
102
RTVSPost2010PropOp39
 70
     1
102
RTVSPost2010Prop40
 90
        0
102
RTVSPost2010PropOp40
 70
     1
102
RTVSPost2010Prop41ColorIndex
 90
       18
102
RTVSPost2010Prop41ColorRGB
 90
        0
102
RTVSPost2010PropOp41
 70
     1
102
RTVSPost2010Prop42
 90
       50
102
RTVSPost2010PropOp42
 70
     1
102
RTVSPost2010Prop43
 90
        3
102
RTVSPost2010PropOp43
 70
     1
102
RTVSPost2010Prop44ColorIndex
 90
        5
102
RTVSPost2010Prop44ColorRGB
 90
      255
102
RTVSPost2010PropOp44
 70
     1
102
RTVSPost2010Prop45
280
     0
102
RTVSPost2010PropOp45
 70
     1
102
RTVSPost2010Prop46
 90
       50
102
RTVSPost2010PropOp46
 70
     1
102
RTVSPost2010Prop47
 90
       50
102
RTVSPost2010PropOp47
 70
     1
102
RTVSPost2010Prop48
 90
       50
102
RTVSPost2010PropOp48
 70
     1
102
RTVSPost2010Prop49
280
     0
102
RTVSPost2010PropOp49
 70
     1
102
RTVSPost2010Prop50
 90
       50
102
RTVSPost2010PropOp50
 70
     1
102
RTVSPost2010Prop51ColorIndex
 90
      256
102
RTVSPost2010Prop51ColorRGB
 90
-16777216
102
RTVSPost2010PropOp51
 70
     0
102
RTVSPost2010Prop52
140
1.0
102
RTVSPost2010PropOp52
 70
     0
102
RTVSPost2010Prop53
 90
        2
102
RTVSPost2010PropOp53
 70
     1
102
RTVSPost2010Prop54
  1
strokes_ogs.tif
102
RTVSPost2010PropOp54
 70
     1
102
RTVSPost2010Prop55
280
     0
102
RTVSPost2010PropOp55
 70
     1
102
RTVSPost2010Prop56
140
1.0
102
RTVSPost2010PropOp56
 70
     1
102
RTVSPost2010Prop57
140
1.0
102
RTVSPost2010PropOp57
 70
     1
  0
ENDSEC
  0
SECTION
  2
THUMBNAILIMAGE
 90
    17448
310
28000000800000008000000001000800000000000000000000000000000000000000000000000000FFFFFF000000FF0000FFFF0000FF0000FFFF0000FF000000FF00FF000000000080808000C0C0C0000000FF007F7FFF000000A5005252A50000007F003F3F7F0000004C0026264C000000260013132600003FFF007F9FFF
310
000029A5005267A500001F7F003F4F7F0000134C00262F4C000009260013172600007FFF007FBFFF000052A500527CA500003F7F003F5F7F0000264C0026394C0000132600131C260000BFFF007FDFFF00007CA5005291A500005F7F003F6F7F0000394C0026424C00001C26001321260000FFFF007FFFFF0000A5A50052A5
310
A500007F7F003F7F7F00004C4C00264C4C00002626001326260000FFBF007FFFDF0000A57C0052A59100007F5F003F7F6F00004C3900264C420000261C001326210000FF7F007FFFBF0000A5520052A57C00007F3F003F7F5F00004C2600264C39000026130013261C0000FF3F007FFF9F0000A5290052A56700007F1F003F
310
7F4F00004C1300264C2F00002609001326170000FF00007FFF7F0000A5000052A55200007F00003F7F3F00004C0000264C260000260000132613003FFF00009FFF7F0029A5000067A552001F7F00004F7F3F00134C00002F4C260009260000172613007FFF0000BFFF7F0052A500007CA552003F7F00005F7F3F00264C0000
310
394C2600132600001C261300BFFF0000DFFF7F007CA5000091A552005F7F00006F7F3F00394C0000424C26001C26000021261300FFFF0000FFFF7F00A5A50000A5A552007F7F00007F7F3F004C4C00004C4C26002626000026261300FFBF0000FFDF7F00A57C0000A59152007F5F00007F6F3F004C3900004C422600261C00
310
0026211300FF7F0000FFBF7F00A5520000A57C52007F3F00007F5F3F004C2600004C39260026130000261C1300FF3F0000FF9F7F00A5290000A56752007F1F00007F4F3F004C1300004C2F26002609000026171300FF000000FF7F7F00A5000000A55252007F0000007F3F3F004C0000004C2626002600000026131300FF00
310
3F00FF7F9F00A5002900A55267007F001F007F3F4F004C0013004C262F002600090026131700FF007F00FF7FBF00A5005200A5527C007F003F007F3F5F004C0026004C2639002600130026131C00FF00BF00FF7FDF00A5007C00A55291007F005F007F3F6F004C0039004C26420026001C0026132100FF00FF00FF7FFF00A5
310
00A500A552A5007F007F007F3F7F004C004C004C264C002600260026132600BF00FF00DF7FFF007C00A5009152A5005F007F006F3F7F0039004C0042264C001C002600211326007F00FF00BF7FFF005200A5007C52A5003F007F005F3F7F0026004C0039264C00130026001C1326003F00FF009F7FFF002900A5006752A500
310
1F007F004F3F7F0013004C002F264C000900260017132600000000002D2D2D005B5B5B0089898900B7B7B700B3B3B30000000000000000000000000000000000000000000000000000000000000000000000000000000000000000000000000000000000000000000000000000000000000000000000000000000000000000
310
00000000000000000000000000000000000000000000000000000000000000000000000000000000000000000000000000000000000000000000000000000000000000000000000000000000000000000000000000000000000000000000000000000000000000000000000000000000000000000000000000000000000000
310
00000000000000000000000000000000000000000000000000000000000000000000000000000000000000000000000000000000000000000000000000000000000000000000000000000000000000000000000000000000000000000000000000000000000000000000000000000000000000000000000000000000000000
310
00000000000000000000000000000000000000000000000000000000000000000000000000000000000000000000000000000000000000000000000000000000000000000000000000000000000000000000000000000000000000000000000000000000000000000000000000000000000000000000000000000000000000
310
00000000000000000000000000000000000000000000000000000000000000000000000000000000000000000000000000000000000000000000000000000000000000000000000000000000000000000000000000000000000000000000000000000000000000000000000000000000000000000000000000000000000000
310
00000000000000000000000000000000000000000000000000000000000000000000000000000000000000000000000000000000000000000000000000000000000000000000000000000000000000000000000000000000000000000000000000000000000000000000000000000000000000000000000000000000000000
310
00000000000000000000000000000000000000000000000000000000000000000000000000000000000000000000000000000000000000000000000000000000000000000000000000000000000000000000000000000000000000000000000000000000000000000000000000000000000000000000000000000000000000
310
00000000000000000000000000000000000000000000000000000000000000000000000000000000000000000000000000000000000000000000000000000000000000000000000000000000000000000000000000000000000000000000000000000000000000000000000000000000000000000000000000000000000000
310
00000000000000000000000000000000000000000000000000000000000000000000000000000000000000000000000000000000000000000000000000000000000000000000000000000000000000000000000000000000000000000000000000000000000000000000000000000000000000000000000000000000000000
310
00000000000000000000000000000000000000000000000000000000000000000000000000000000000000000000000000000000000000000000000000000000000000000000000000000000000000000000000000000000000000000000000000000000000000000000000000000000000000000000000000000000000000
310
00000000000000000000000000000000000000000000000000000000000000000000000000000000000000000000000000000000000000000000000000000000000000000000000000000000000000000000000000000000000000000000000000000000000000000000000000000000000000000000000000000000000000
310
00000000000000000000000000000000000000000000000000000000000000000000000000000000000000000000000000000000000000000000000000000000000000000000000000000000000000000000000000000000000000000000000000000000000000000000000000000000000000000000000000000000000000
310
00000000000000000000000000000000000000000000000000000000000000000000000000000000000000000000000000000000000000000000000000000000000000000000000000000000000000000000000000000000000000000000000000000000000000000000000000000000000000000000000000000000000000
310
00000000000000000000000000000000000000000000000000000000000000000000000000000000000000000000000000000000000000000000000000000000000000000000000000000000000000000000000000000000000000000000000000000000000000000000000000000000000000000000000000000000000000
310
00000000000000000000000000000000000000000000000000000000000000000007000000000000000000000000000000000000000000000000000000000000000000000000000000000000000000000000000000000000000000000000000000000000000000000000000000000000000000000000000000000000000000
310
00000000000000000000000000000000000000000000000000000000000000000000000000000000000000000000000000000000000000000000000000000000000000000000000000000000000000000000000000000000000000000000000000000000000000000000000000000000000000000000000000000000000000
310
00000000000000000000000000000000000000000000000000000000000000000000000000000000000000000000000000000000000000000000000000000000000000000000000000000000000000000000000000000000000000000000000000000000000000000000000000000000000000000000000000000000000000
310
00000000000000000000000000000020202020200000200020202020202020202000000000000000000000000000000000000000000000000000000000000000000000000000000000000000000000000000000000000000000000000000000000000000000000000000000000000000000000000000000000000000000000
310
00000000000000000000000000000000202020202000202020202020202000202020000000000000000000000000000000000000000000000000000000000000000000000000000000000000000000000000000000000000000000000000000000000000000000000000000000000000000000000000000000000000000000
310
00000000000000000000000000000000000020000000000000000020000020002000000000000000000000000000000000000000000000000000000000000000000000000000000000000000000000000000000000000000000000000000000000000000000000000000000000000000000000000000000000000000000000
310
00000000000000000000000000000000000000000000000000000000000000000000000000000000000000000000000000000000000000000000000000000000000000000000000000000000000000000000000000000000000000000000000000000000000000000000000000000000000000000000000000000000000000
310
00000000000000000000000000000000000000000000000000000000000000000000000000000000000000000000000000000000000000000000000000000000000000000000000000000000000000000000000000000000000000000000000000000000000000000000000000000000000000000000000000000000000000
310
00000000000000000000000000000000000000000000000000000000000000202020202020000000000000000000000000000000000000000000000000000000000000000000000000000000000000000000000000000000000000000000000000000000000000000000000000000000000000000000000000000000000000
310
00000000000000000000000000000000000000000000000000000000000000000000000020200000000000000000000000000000000000000000000000000000000000000000000000000000000000000000000000000000000000000000000000000000000000000000000000000000000000000000000000000000000000
310
00000000000000000000000000000000000000000000000000000000000000000000000000000000000000000000000000000000000000000000000000000000000000000000000000000000000000000000000000000000000000000000000000000000000000000000000000000000000000000000000000000000000000
310
00000000000000000000000000000000000000000000000000000000000000000000000000000000000000000000000000000000000000000000000000000000000000000000000000000000000000000000000000000000000000000000000000000000000000000000000000000000000000000000000000000000000000
310
00000000000000000000000000000000000000000000000000000000000000000000000000000000000000000000000000000000000000000000000000000000000000000000000000000000000000000000000000000000000000000000000000000000000000000000000000000000000000000000000000000000000000
310
00000000000000000000000000000000000000000000000000000000000000000000000000000000000000000000000000000000000000000000000000000000000000000000000000000000000000000000000000000000000000000000000000000000000000000000000000000000000000000000000000000000000000
310
00000000000000000000000000000000000000000000000000000000000000000000000000000000000000000000000000000000000000000000000000000000000000000000000000000000000000000000000000000000000000000000000000000000000000000000000000000000000000000000000000000000000000
310
00000000000000000000000000000000000000000000000000000000000000000000000000000000000000000000000000000000000000000000000000000000000000000000000000000000000000000000000000000000000000000000000000000000000000000000000000000000000000000000000000000000000000
310
00000000000000000000000000000000000000000000000000000000000000000000000000000000000000000000000000000000000000000000000000000000000000000000000000000000000000000000000000000000000000000000000000000000000000000000000000000000000000000000000000000000000000
310
00000000000000000000000000000000000000000000000000000000000000000000000000000000000000000000000000000000000000000000000000000000000000000000000000000000000000000000000000000000000000000000000000000000000000000000000000000000000000000000000000000000000000
310
00000000000000000000000000000000000000000000000000000000000000000000000000000000000000000000000000000000000000000000000000000000000000000000000000000000000000000000000000000000000000000000000000000000000000000000000000000000000000000000000000000000000000
310
00000000000000000000000000000000000000000000000000000000000000000000000000000000000000000000000000000000000000000000000000000000000000000000000000000000000000000000000000000000000000000000000000000000000000000000000000000000000000000000000000000000000000
310
00000000000000000000000000000000000000030302020000000000000000000000000000000000000000000000000000000000000000000000000000000000000000000000000000000000000000000000000000000000000000000000000000000000000000000000000000000000000000000000000000000000000000
310
00000000000000000000000000000000000000030002000002000000000000000000000000000000000000000000000000000000000000000000000000000000000000000000000000000000000000000000000000000000000000000000000000000000000000000000000000000000000000000000000000000000000000
310
00000000000000000000000000000000000000070303030707020000000000000000000000000000000000000000000000000000000000000000000000000000000000000000000000000000000000000000000000000000000000000000000000000000000000000000000000000000000000000000000000000000000000
310
00000000000000000000000000000000000000000003000200000200000000000000000000000000000000000000000000000000000000000000000000000000000000000000000000000000000000000000000000000000000000000000000000000000000000000000000000000000000000000000000000000000000000
310
00000000000000000000000000000000000000000000030303020200000000000000000000000000000000000000000000000000000000000000000000000000000000000000000000000000000000000000000000000000000000000000000000000000000000000000000000000000000000000000000000000000000000
310
00000000000000000000000000000000000000000000000000000000000000000000000000000000000000000000000000000000000000000000000000000000000000000000000000000000000000000000000000000000000000000000000000000000000000000000000000000000000000000000000000000000000000
310
00000000000000000000000000000000000000000000000000000000000000000000000000000000000000000000000000000000000000000000000000000000000000000000000000000000000000000000000000000000000000000000000000000000000000000000000000000000000000000000000000000000000000
310
00000000000000000000000000000000000000000000000000000000000000000000000000000000000000000000000000000000000000000000000000000000000000000000000000000000000000000000000000000000000000000000000000000000000000000000000000000000000000000000000000000000000000
310
00000000000000000000000000000000000000000000000000000000000000000000000000000000000000000000000000000000000000000000000000000000000000000000000000000000000000000000000000000000000000000000000000000000000000000000000000000000000000000000000000000000000000
310
00000000000000000000000000000000000000000000000000000000000000000000000000000000000000000000000000000000000000000000000000000000000000000000000000000000000000000000000000000000000000000000000000000000000000000000000000000000000000000000000000000000000000
310
00000000000000000000000000000000000000000000000000000000000000000000000000000000000000000000000000000000000000000000000000000000000000000000000000000000000000000000000000000000000000000000000000000000000000000000000000000000000000000000000000000000000000
310
00000000000000000000000000000000000000000000000000000000000000000000000000000000000000000000000000000000000000000000000000000000000000000000000000000000000000000000000000000000000000000000000000000000000000000000000000000000000000000000000000000000000000
310
00000000000000000000000000000000000000000000000000000000000000000000000000000000000000000000000000000000000000000000000000000000000000000000000000000000000000000000000000000000000000000000000000000000000000000000000000000000000000000000000000000000000000
310
00000000000000000000000000000000000000000000000000000000000000000000000000000000000000000000000000000000000000000000000000000000000000000000000000000000000000000000000000000000000000000000000000000000000000000000000000000000000000000000000000000000000000
310
00000000000000000000000000000000000000000000000000000000000000000000000000000000000000000000000000000000000000000000000000000000000000000000000000000000000000000000000000000000000000000000000000000000000000000000000000000000000000000000000000000000000000
310
00000000000000000000000000000000000000000000000000000000000000000000000000000000000000000000000000000000000000000000000000000000000000000000000000000000000000000000000000000000000000000000000000000000000000000000000000000000000000000000000000000000000000
310
00000000000000000000000000000000000000000000000000000000000000000000000000000000000000000000000000000000000700000000000000000000000000000000000000000000000000000000000000000000000000000000000000000000000000000000000000000000000000000000000000000000000000
310
00000000000000000000000000000303030300000000000000000000000000000006060303030202020000000000000000000000020202020200000000000000000000000000000000000000000000000000000000000000000000000000000000000000000000000000000000000000000000000000000000000000000000
310
00000000000000000000000000000003030303000000000000000006060606060606060603030002060200000000000000000000000200020002000000000000000000000000000000000000000000000000000000000000000000000000000000000000000000000000000000000000000000000000000000000000000000
310
00000000000000000000000000000000030707030000000000000707070707070707070707070707070707070000000000000000000007070707070000000000000000000000000000000000000000000000000000000000000000000000000000000000000000000000000000000000000000000000000000000000000000
310
00000000000000000000000000000000000303030300000000000000000606060606060606060303030302020002020000000000000000020002020200000000000000000000000000000000000000000000000000000000000000000000000000000000000000000000000000000000000000000000000000000000000000
310
00000000000000000000000000000000000003030303000000000000000000000000000000000003000003030200000200000000000000000202020202000000000000000000000000000000000000000000000000000000000000000000000000000000000000000000000000000000000000000000000000000000000000
310
00000000000000000000000000000000000000030303030000000000000000000000000000000000030303020202020202000000000000000002020202020000000000000000000000000000000000000000000000000000000000000000000000000000000000000000000000000000000000000000000000000000000000
310
00000000000000000000000000000000000000000000000000000000000000000000000000000000000000000000000000000000000000000000000000000000000000000000000000000000000000000000000000000000000000000000000000000000000000000000000000000000000000000000000000000000000000
310
00000000000000000000000000000000000000000000000000000000000000000000000000000000000000000000000000000000000000000000000000000000000000000000000000000000000000000000000000000000000000000000000000000000000000000000000000000000000000000000000000000000000000
310
00000000000000000000000000000000000000000000000000000000000000000000000000000000000000000000000000000000000000000000000000000000000000000000000000000000000000000000000000000000000000000000000000000000000000000000000000000000000000000000000000000000000000
310
00000000000000000000000000000000000000000000000000000000000000000000000000000000000000000000000000000000000000000000000000000000000000000000000000000000000000000000000000000000000000000000000000000000000000000000000000000000000000000000000000000000000000
310
00000000000000000000000000000000000000000000000000000000000000000000000000000000000000000000000000000000000000000000000000000000000000000000000000000000000000000000000000000000000000000000000000000000000000000000000000000000000000000000000000000000000000
310
00000000000000000000000000000000000000000000000000000000000000000000000000000000000000000000000000000000000000000000000000000000000000000000000000000000000000000000000000000000000000000000000000000000000000000000000000000000000000000000000000000000000000
310
00000000000000000000000000000000000000000000000000000000000000000000000000000000000000000000000000000000000000000000000000000000000000000000000000000000000000000000000000000000000000000000000000000000000000000000000000000000000000000000000000000000000000
310
00000000000000000000000000000000000000000000000000000000000000000000000000000000000000000000000000000000000000000000000000000000000000000000000000000000000000000000000000000000000000000000000000000000000000000000000000000000000000000000000000000000000000
310
00000000000000000000000000000000000000000000000000000000000000000000000000000000000000000000000000000000000000000000000000000000000000000000000000000000000000000000000000000000000000000000000000000000000000000000000000000000000000000000000000000000000000
310
00000000000000000000000000000000000000000000000000000000000000000000000000000000000000000000000000000000000000000000000000000000000000000000000000000000000000000000000000000000000000000000000000000000000000000000000000000000000000000000000000000000000000
310
00000000000000000000000000000000000000000000000000000000000000000000000000000000000000000000000000000000000000000000000000000000000000000000000000000000000000000000000000000000000000000000000000000000000000000000000000000000000000000000000000000000000000
310
00000000000000000000000000000000000000000000000000000000000000000000000000000000000000000000000000000000000000000000000000000000000000000000000000000000000000000000000000000000000000000000000000000000000000000000000000000000000000000000000000000000000000
310
00000000000000000000000000000000000000000000000000000000000000000000000000000000000000000000000000000000000000000000000000000000000000000000000000000000000000000000000000000000000000000000000000000000000000000000000000000000000000000000000000000000000000
310
00000000000000000000000000000000000000000000000000000000000000000000000000000000000000000000000000000000000000000000000000000000000000000000000000000000000000000000000000000000000000000000000000000000000000000000000000000000000000000000000000000000000000
310
00000000000000000000000000000000000000000000000000000000000000000000000000000000000000000000000000000000000000000000000000000000000000000000000000000000000000000000000000000000000000000000000000000000000000000000000000000000000000000000000000000000000000
310
00000000000000000000000000000000000000000000000000000000000000000000000000000000000000000000000000000000000000000000000000000000000000000000000000000000000000000000000000000000000000000000000000000000000000000000000000000000000000000000000000000000000000
310
00000000000000000000000000000000000000000000000000000000000000000000000000000000000000000000000000000000000000000000000000000000000000000000000000000000000000000000000000000000000000000000000000000000000000000000000000000000000000000000000000000000000000
310
00000000000000000000000000000000000000000000000000000000000000000000000000000000000000000000000000000000000000000000000000000000000000000000000000000000000000000000000000000000000000000000000000000000000000000000000000000000000000000000000000000000000000
310
00000000000000000000000000000000000000000000000000000000000000000000000000000000000000000000000000000000000000000000000000000000000000000000000000000000000000000000000000000000000000000000000000000000000000000000000000000000000000000000000000000000000000
310
00000000000000000000000000000000000000000000000000000000000000000000000000000000000000000000000000000000000000000000000000000000000000000000000000000000000000000000000000000000000000000000000000000000000000000000000000000000000000000000000000000000000000
310
00000000000000000000000000000000000000000000000000000000000000000000000000000000000000000000000000000000000000000000000000000000000000000000000000000000000000000000000000000000000000000000000000000000000000000000000000000000000000000000000000000000000000
310
00000000000000000000000000000000000000000000000000000000000000000000000000000000000000000000000000000000000000000000000000000000000000000000000000000000000000000000000000000000000000000000000000000000000000000000000000000000000000000000000000000000000000
310
00000000000000000000000000000000000000000000000000000000000000000000000000000000000000000000000000000000000000000000000000000000000000000000000000000000000000000000000000000000000000000000000000000000000000000000000000000000000000000000000000000000000000
310
00000000000000000000000000000000000000000000000000000000000000000000000000000000000000000000000000000000000000000000000000000000000000000000000000000000000000000000000000000000000000000000000000000000000000000000000000000000000000000000000000000000000000
310
00000000000000000000000000000000000000000000000000000000000000000000000000000000000000000000000000000000000000000000000000000000000000000000000000000000000000000000000000000000000000000000000000000000000000000000000000000000000000000000000000000000000000
310
00000000000000000000000000000000000000000000000000000000000000000000000000000000000000000000000000000000000000000000000000000000000000000000000000000000000000000000000000000000000000000000000000000000000000000000000000000000000000000000000000000000000000
310
00000000000000000000000000000000000000000000000000000000000000000000000000000000000000000000000000000000000000000000000000000000000000000000000000000000000000000000000000000000000000000000000000000000000000000000000000000000000000000000000000000000000000
310
00000000000000000000000000000000000000000000000000000000000000000000000000000000000000000000000000000000000000000000000000000000000000000000000000000000000000000000000000000000000000000000000000000000000000000000000000000000000000000000000000000000000000
310
00000000000000000000000000000000000000000000000000000000000000000000000000000000000000000000000000000000000000000000000000000000000000000000000000000000000000000000000000000000000000000000000000000000000000000000000000000000000000000000000000000000000000
310
00000000000000000000000000000000000000000000000000000000000000000000000000000000000000000000000000000000000000000000000000000000000000000000000000000000000000000000000000000000000000000000000000000000000000000000000000000000000000000000000000000000000000
310
00000000000000000000000000000000000000000000000000000000000000000000000000000000000000000000000000000000000000000000000000000000000000000000000000000000000000000000000000000000000000000000000000000000000000000000000000000000000000000000000000000000000000
310
00000000000000000000000000000000000000000000000000000000000000000000000000000000000000000000000000000000000000000000000000000000000000000000000000000000000000000000000000000000000000000000000000000000000000000000000000000000000000000000000000000000000000
310
00000000000000000000000000000000000000000000000000000000000000000000000000000000000000000000000000000000000000000000000000000000000000000000000000000000000000000000000000000000000000000000000000000000000000000000000000000000000000000000000000000000000000
310
00000000000000000000000000000000000000000000000000000000000000000000000000000000000000000000000000000000000000000000000000000000000000000000000000000000000000000000000000000000000000000000000000000000000000000000000000000000000000000000000000000000000000
310
00000000000000000000000000000000000000000000000000000000000000000000000000000000000000000000000000000000000000000000000000000000000000000000000000000000000000000000000000000000000000000000000000000000000000000000000000000000000000000000000000000000000000
310
00000000000000000000000000000000000000000000000000000000000000000000000000000000000000000000000000000000000000000000000000000000000000000000000000000000000000000000000000000000000000000000000000000000000000000000000000000000000000000000000000000000000000
310
00000000000000000000000000000000000000000000000000000000000000000000000000000000000000000000000000000000000000000000000000000000000000000000000000000000000000000000000000000000000000000000000000000000000000000000000000000000000000000000000000000000000000
310
00000000000000000000000000000000000000000000000000000000000000000000000000000000000000000000000000000000000000000000000000000000000000000000000000000000000000000000000000000000000000000000000000000000000000000000000000000000000000000000000000000000000000
310
00000000000000000000000000000000000000000000000000000000000000000000000000000000000000000000000000000000000000000000000000000000000000000000000000000000000000000000000000000000000000000000000000000000000000000000000000000000000000000000000000000000000000
310
00000000000000000000000000000000000000000000000000000000000000000000000000000000000000000000000000000000000000000000000000000000000000000000000000000000000000000000000000000000000000000000000000000000000000000000000000000000000000000000000000000000000000
310
00000000000000000000000000000000000000000000000000000000000000000000000000000000000000000000000000000000000000000000000000000000000000000000000000000000000000000000000000000000000000000000000000000000000000000000000000000000000000000000000000000000000000
310
00000000000000000000000000000000000000000000000000000000000000000000000000000000000000000000000000000000000000000000000000000000000000000000000000000000000000000000000000000000000000000000000000000000000000000000000000000000000000000000000000000000000000
310
00000000000000000000000000000000000000000000000000000000000000000000000000000000000000000000000000000000000000000000000000000000000000000000000000000000000000000000000000000000000000000000000000000000000000000000000000000000000000000000000000000000000000
310
00000000000000000000000000000000000000000000000000000000000000000000000000000000000000000000000000000000000000000000000000000000000000000000000000000000000000000000000000000000000000000000000000000000000000000000000000000000000000000000000000000000000000
310
00000000000000000000000000000000000000000000000000000000000000000000000000000000000000000000000000000000000000000000000000000000000000000000000000000000000000000000000000000000000000000000000000000000000000000000000000000000000000000000000000000000000000
310
00000000000000000000000000000000000000000000000000000000000000000000000000000000000000000000000000000000000000000000000000000000000000000000000000000000000000000000000000000000000000000000000000000000000000000000000000000000000000000000000000000000000000
310
00000000000000000000000000000000000000000000000000000000000000000000000000000000000000000000000000000000000000000000000000000000000000000000000000000000000000000000000000000000000000000000000000000000000000000000000000000000000000000000000000000000000000
310
00000000000000000000000000000000000000000000000000000000000000000000000000000000000000000000000000000000000000000000000000000000000000000000000000000000000000000000000000000000000000000000000000000000000000000000000000000000000000000000000000000000000000
310
00000000000000000000000000000000000000000000000000000000000000000000000000000000000000000000000000000000000000000000000000000000000000000000000000000000000000000000000000000000000000000000000000000000000000000000000000000000000000000000000000000000000000
310
00000000000000000000000000000000000000000000000000000000000000000000000000000000000000000000000000000000000000000000000000000000000000000000000000000000000000000000000000000000000000000000000000000000000000000000000000000000000000000000000000000000000000
310
00000000000000000000000000000000000000000000000000000000000000000000000000000000000000000000000000000000000000000000000000000000000000000000000000000000000000000000000000000000000000000000000000000000000000000000000000000000000000000000000000000000000000
310
00000000000000000000000000000000000000000000000000000000000000000000000000000000000000000000000000000000000000000000000000000000000000000000000000000000000000000000000000000000000000000000000000000000000000000000000000000000000000000000000000000000000000
310
00000000000000000000000000000000000000000000000000000000000000000000000000000000000000000000000000000000000000000000000000000000000000000000000000000000000000000000000000000000000000000000000000000000000000000000000000000000000000000000000000000000000000
310
00000000000000000000000000000000000000000000000000000000000000000000000000000000000000000000000000000000000000000000000000000000000000000000000000000000000000000000000000000000000000000000000000000000000000000000000000000000000000000000000000000000000000
310
00000000000000000000000000000000000000000000000000000000000000000000000000000000000000000000000000000000000000000000000000000000000000000000000000000000000000000000000000000000000000000000000000000000000000000000000000000000000000000000000000000000000000
310
00000000000000000000000000000000000000000000000000000000000000000000000000000000000000000000000000000000000000000000000000000000000000000000000000000000000000000000000000000000000000000000000000000000000000000000000000000000000000000000000000000000000000
310
00000000000000000000000000000000000000000000000000000000000000000000000000000000000000000000000000000000000000000000000000000000000000000000000000000000000000000000000000000000000000000000000000000000000000000000000000000000000000000000000000000000000000
310
00000000000000000000000000000000000000000000000000000000000000000000000000000000000000000000000000000000000000000000000000000000000000000000000000000000000000000000000000000000000000000000000000000000000000000000000000000000000000000000000000000000000000
310
00000000000000000000000000000000000000000000000000000000000000000000000000000000000000000000000000000000000000000000000000000000000000000000000000000000000000000000000000000000000000000000000000000000000000000000000000000000000000000000000000000000000000
310
00000000000000000000000000000000000000000000000000000000000000000000000000000000000000000000000000000000000000000000000000000000000000000000000000000000000000000000000000000000000000000000000000000000000000000000000000000000000000000000000000000000000000
310
00000000000000000000000000000000000000000000000000000000000000000000000000000000000000000000000000000000000000000000000000000000000000000000000000000000000000000000000000000000000000000000000000000000000000000000000000000000000000000000000000000000000000
310
00000000000000000000000000000000000000000000000000000000000000000000000000000000000000000000000000000000000000000000000000000000000000000000000000000000000000000000000000000000000000000000000000000000000000000000000000000000000000000000000000000000000000
310
00000000000000000000000000000000000000000000000000000000000000000000000000000000000000000000000000000000000000000000000000000000000000000000000000000000000000000000000000000000000000000000000000000000000000000000000000000000000000000000000000000000000000
310
00000000000000000000000000000000000000000000000000000000000000000000000000000000000000000000000000000000000000000000000000000000000000000000000000000000000000000000000000000000000000000000000000000000000000000000000000000000000000000000000000000000000000
310
00000000000000000000000000000000000000000000000000000000000000000000000000000000000000000000000000000000000000000000000000000000000000000000000000000000000000000000000000000000000000000000000000000000000000000000000000000000000000000000000000000000000000
310
00000000000000000000000000000000000000000000000000000000000000000000000000000000000000000000000000000000000000000000000000000000000000000000000000000000000000000000000000000000000000000000000000000000000000000000000000000000000000000000000000000000000000
310
00000000000000000000000000000000000000000000000000000000000000000000000000000000000000000000000000000000000000000000000000000000000000000000000000000000000000000000000000000000000000000000000000000000000000000000000000000000000000000000000000000000000000
310
00000000000000000000000000000000000000000000000000000000000000000000000000000000000000000000000000000000000000000000000000000000000000000000000000000000000000000000000000000000000000000000000000000000000000000000000000000000000000000000000000000000000000
310
00000000000000000000000000000000000000000000000000000000000000000000000000000000000000000000000000000000000000000000000000000000000000000000000000000000000000000000000000000000000000000000000000000000000000000000000000000000000000000000000000000000000000
310
00000000000000000000000000000000000000000000000000000000000000000000000000000000000000000000000000000000000000000000000000000000000000000000000000000000000000000000000000000000000000000000000000000000000000000000000000000000000000000000000000000000000000
310
00000000000000000000000000000000000000000000000000000000000000000000000000000000000000000000000000000000000000000000000000000000000000000000000000000000000000000000000000000000000000000000000000000000000000000000000000000000000000000000000000000000000000
310
00000000000000000000000000000000000000000000000000000000000000000000000000000000000000000000000000000000000000000000000000000000000000000000000000000000000000000000000000000000000000000000000000000000000000000000000000000000000000000000000000000000000000
310
00000000000000000000000000000000000000000000000000000000000000000000000000000000000000000000000000
  0
ENDSEC
  0
EOF
