  0
SECTION
  2
HEADER
  9
$ACADVER
  1
AC1015
  9
$ACADMAINTVER
 70
     6
  9
$DWGCODEPAGE
  3
ANSI_932
  9
$INSBASE
 10
0.0
 20
0.0
 30
0.0
  9
$EXTMIN
 10
-172.3456115723
 20
33.876981244772
 30
0.0
  9
$EXTMAX
 10
-25.406798400865
 20
138.6851654053
 30
0.0
  9
$LIMMIN
 10
-215.175
 20
-3.175
  9
$LIMMAX
 10
3.175
 20
300.175
  9
$ORTHOMODE
 70
     0
  9
$REGENMODE
 70
     1
  9
$FILLMODE
 70
     1
  9
$QTEXTMODE
 70
     0
  9
$MIRRTEXT
 70
     0
  9
$LTSCALE
 40
1.0
  9
$ATTMODE
 70
     1
  9
$TEXTSIZE
 40
0.2
  9
$TRACEWID
 40
0.05
  9
$TEXTSTYLE
  7
IDEC_TEXT
  9
$CLAYER
  8
中線
  9
$CELTYPE
  6
BYLAYER
  9
$CECOLOR
 62
   256
  9
$CELTSCALE
 40
1.0
  9
$DISPSILH
 70
     0
  9
$DIMSCALE
 40
1.0
  9
$DIMASZ
 40
2.0
  9
$DIMEXO
 40
0.625
  9
$DIMDLI
 40
5.0
  9
$DIMRND
 40
0.0
  9
$DIMDLE
 40
0.0
  9
$DIMEXE
 40
1.25
  9
$DIMTP
 40
0.0
  9
$DIMTM
 40
0.0
  9
$DIMTXT
 40
2.5
  9
$DIMCEN
 40
2.5
  9
$DIMTSZ
 40
0.0
  9
$DIMTOL
 70
     0
  9
$DIMLIM
 70
     0
  9
$DIMTIH
 70
     0
  9
$DIMTOH
 70
     0
  9
$DIMSE1
 70
     0
  9
$DIMSE2
 70
     0
  9
$DIMTAD
 70
     1
  9
$DIMZIN
 70
     0
  9
$DIMBLK
  1
OPEN30
  9
$DIMASO
 70
     1
  9
$DIMSHO
 70
     0
  9
$DIMPOST
  1

  9
$DIMAPOST
  1

  9
$DIMALT
 70
     0
  9
$DIMALTD
 70
     1
  9
$DIMALTF
 40
0.03937007874
  9
$DIMLFAC
 40
1.0
  9
$DIMTOFL
 70
     1
  9
$DIMTVP
 40
0.0
  9
$DIMTIX
 70
     0
  9
$DIMSOXD
 70
     0
  9
$DIMSAH
 70
     0
  9
$DIMBLK1
  1

  9
$DIMBLK2
  1

  9
$DIMSTYLE
  2
IDEC_DIM
  9
$DIMCLRD
 70
   256
  9
$DIMCLRE
 70
   256
  9
$DIMCLRT
 70
   256
  9
$DIMTFAC
 40
0.5
  9
$DIMGAP
 40
0.5
  9
$DIMJUST
 70
     0
  9
$DIMSD1
 70
     0
  9
$DIMSD2
 70
     0
  9
$DIMTOLJ
 70
     2
  9
$DIMTZIN
 70
     8
  9
$DIMALTZ
 70
     0
  9
$DIMALTTZ
 70
     0
  9
$DIMUPT
 70
     0
  9
$DIMDEC
 70
     1
  9
$DIMTDEC
 70
     1
  9
$DIMALTU
 70
     2
  9
$DIMALTTD
 70
     3
  9
$DIMTXSTY
  7
IDEC_TEXT
  9
$DIMAUNIT
 70
     1
  9
$DIMADEC
 70
     1
  9
$DIMALTRND
 40
0.0
  9
$DIMAZIN
 70
     2
  9
$DIMDSEP
 70
    46
  9
$DIMATFIT
 70
     3
  9
$DIMFRAC
 70
     0
  9
$DIMLDRBLK
  1
OPEN30
  9
$DIMLUNIT
 70
     2
  9
$DIMLWD
 70
    13
  9
$DIMLWE
 70
    13
  9
$DIMTMOVE
 70
     0
  9
$LUNITS
 70
     2
  9
$LUPREC
 70
     3
  9
$SKETCHINC
 40
0.1
  9
$FILLETRAD
 40
0.0625
  9
$AUNITS
 70
     0
  9
$AUPREC
 70
     0
  9
$MENU
  1
ACAD
  9
$ELEVATION
 40
0.0
  9
$PELEVATION
 40
0.0
  9
$THICKNESS
 40
0.0
  9
$LIMCHECK
 70
     0
  9
$CHAMFERA
 40
0.0
  9
$CHAMFERB
 40
0.0
  9
$CHAMFERC
 40
0.0
  9
$CHAMFERD
 40
0.0
  9
$SKPOLY
 70
     0
  9
$TDCREATE
 40
2454809.694837963
  9
$TDUCREATE
 40
2454809.319837963
  9
$TDUPDATE
 40
2456094.604510532
  9
$TDUUPDATE
 40
2456094.229510532
  9
$TDINDWG
 40
0.0025549884
  9
$TDUSRTIMER
 40
0.0025549884
  9
$USRTIMER
 70
     1
  9
$ANGBASE
 50
0.0
  9
$ANGDIR
 70
     0
  9
$PDMODE
 70
     0
  9
$PDSIZE
 40
0.0
  9
$PLINEWID
 40
0.0
  9
$SPLFRAME
 70
     0
  9
$SPLINETYPE
 70
     6
  9
$SPLINESEGS
 70
     8
  9
$HANDSEED
  5
498
  9
$SURFTAB1
 70
     6
  9
$SURFTAB2
 70
     6
  9
$SURFTYPE
 70
     6
  9
$SURFU
 70
     6
  9
$SURFV
 70
     6
  9
$UCSBASE
  2

  9
$UCSNAME
  2

  9
$UCSORG
 10
0.0
 20
0.0
 30
0.0
  9
$UCSXDIR
 10
1.0
 20
0.0
 30
0.0
  9
$UCSYDIR
 10
0.0
 20
1.0
 30
0.0
  9
$UCSORTHOREF
  2

  9
$UCSORTHOVIEW
 70
     0
  9
$UCSORGTOP
 10
0.0
 20
0.0
 30
0.0
  9
$UCSORGBOTTOM
 10
0.0
 20
0.0
 30
0.0
  9
$UCSORGLEFT
 10
0.0
 20
0.0
 30
0.0
  9
$UCSORGRIGHT
 10
0.0
 20
0.0
 30
0.0
  9
$UCSORGFRONT
 10
0.0
 20
0.0
 30
0.0
  9
$UCSORGBACK
 10
0.0
 20
0.0
 30
0.0
  9
$PUCSBASE
  2

  9
$PUCSNAME
  2

  9
$PUCSORG
 10
0.0
 20
0.0
 30
0.0
  9
$PUCSXDIR
 10
1.0
 20
0.0
 30
0.0
  9
$PUCSYDIR
 10
0.0
 20
1.0
 30
0.0
  9
$PUCSORTHOREF
  2

  9
$PUCSORTHOVIEW
 70
     0
  9
$PUCSORGTOP
 10
0.0
 20
0.0
 30
0.0
  9
$PUCSORGBOTTOM
 10
0.0
 20
0.0
 30
0.0
  9
$PUCSORGLEFT
 10
0.0
 20
0.0
 30
0.0
  9
$PUCSORGRIGHT
 10
0.0
 20
0.0
 30
0.0
  9
$PUCSORGFRONT
 10
0.0
 20
0.0
 30
0.0
  9
$PUCSORGBACK
 10
0.0
 20
0.0
 30
0.0
  9
$USERI1
 70
     0
  9
$USERI2
 70
     0
  9
$USERI3
 70
     0
  9
$USERI4
 70
     0
  9
$USERI5
 70
     0
  9
$USERR1
 40
0.0
  9
$USERR2
 40
0.0
  9
$USERR3
 40
0.0
  9
$USERR4
 40
0.0
  9
$USERR5
 40
0.0
  9
$WORLDVIEW
 70
     1
  9
$SHADEDGE
 70
     3
  9
$SHADEDIF
 70
    70
  9
$TILEMODE
 70
     1
  9
$MAXACTVP
 70
    32
  9
$PINSBASE
 10
0.0
 20
0.0
 30
0.0
  9
$PLIMCHECK
 70
     0
  9
$PEXTMIN
 10
1.000000000000E+20
 20
1.000000000000E+20
 30
1.000000000000E+20
  9
$PEXTMAX
 10
-1.000000000000E+20
 20
-1.000000000000E+20
 30
-1.000000000000E+20
  9
$PLIMMIN
 10
-215.175
 20
-3.175
  9
$PLIMMAX
 10
3.175
 20
300.175
  9
$UNITMODE
 70
     0
  9
$VISRETAIN
 70
     0
  9
$PLINEGEN
 70
     0
  9
$PSLTSCALE
 70
     1
  9
$TREEDEPTH
 70
  3020
  9
$CMLSTYLE
  2
STANDARD
  9
$CMLJUST
 70
     0
  9
$CMLSCALE
 40
1.0
  9
$PROXYGRAPHICS
 70
     0
  9
$MEASUREMENT
 70
     0
  9
$CELWEIGHT
370
    -1
  9
$ENDCAPS
280
     0
  9
$JOINSTYLE
280
     0
  9
$LWDISPLAY
290
     0
  9
$INSUNITS
 70
     0
  9
$HYPERLINKBASE
  1

  9
$STYLESHEET
  1

  9
$XEDIT
290
     1
  9
$CEPSNTYPE
380
     0
  9
$PSTYLEMODE
290
     1
  9
$FINGERPRINTGUID
  2
{53FF28D4-D558-4700-8716-DA4A2372CFC4}
  9
$VERSIONGUID
  2
{6CDEDFEC-9E38-409D-A07F-E8E077340DFC}
  9
$EXTNAMES
290
     1
  9
$PSVPSCALE
 40
0.0
  9
$OLESTARTUP
290
     0
  0
ENDSEC
  0
SECTION
  2
CLASSES
  0
CLASS
  1
ACDBDICTIONARYWDFLT
  2
AcDbDictionaryWithDefault
  3
ObjectDBX Classes
 90
        0
280
     0
281
     0
  0
CLASS
  1
MATERIAL
  2
AcDbMaterial
  3
ObjectDBX Classes
 90
     1153
280
     0
281
     0
  0
CLASS
  1
VISUALSTYLE
  2
AcDbVisualStyle
  3
ObjectDBX Classes
 90
     4095
280
     0
281
     0
  0
CLASS
  1
TABLESTYLE
  2
AcDbTableStyle
  3
ObjectDBX Classes
 90
     4095
280
     0
281
     0
  0
CLASS
  1
DICTIONARYVAR
  2
AcDbDictionaryVar
  3
ObjectDBX Classes
 90
        0
280
     0
281
     0
  0
CLASS
  1
SCALE
  2
AcDbScale
  3
ObjectDBX Classes
 90
     1153
280
     0
281
     0
  0
CLASS
  1
SORTENTSTABLE
  2
AcDbSortentsTable
  3
ObjectDBX Classes
 90
        0
280
     0
281
     0
  0
CLASS
  1
ACDBPLACEHOLDER
  2
AcDbPlaceHolder
  3
ObjectDBX Classes
 90
        0
280
     0
281
     0
  0
CLASS
  1
LAYOUT
  2
AcDbLayout
  3
ObjectDBX Classes
 90
        0
280
     0
281
     0
  0
ENDSEC
  0
SECTION
  2
TABLES
  0
TABLE
  2
VPORT
  5
2
330
0
100
AcDbSymbolTable
 70
     1
  0
VPORT
  5
368
330
2
100
AcDbSymbolTableRecord
100
AcDbViewportTableRecord
  2
*Active
 70
     0
 10
0.0
 20
0.0
 11
1.0
 21
1.0
 12
-98.876204986582
 22
86.281073325036
 13
0.0
 23
0.0
 14
0.5
 24
0.5
 15
0.5
 25
0.5
 16
0.0
 26
0.0
 36
1.0
 17
0.0
 27
0.0
 37
0.0
 40
213.808695687477
 41
1.479262672811
 42
50.0
 43
0.0
 44
0.0
 50
0.0
 51
0.0
 71
    16
 72
   100
 73
     1
 74
     3
 75
     0
 76
     0
 77
     0
 78
     0
281
     0
 65
     1
110
0.0
120
0.0
130
0.0
111
1.0
121
0.0
131
0.0
112
0.0
122
1.0
132
0.0
 79
     0
146
0.0
  0
ENDTAB
  0
TABLE
  2
LTYPE
  5
3
330
0
100
AcDbSymbolTable
 70
     9
  0
LTYPE
  5
5
330
3
100
AcDbSymbolTableRecord
100
AcDbLinetypeTableRecord
  2
BYBLOCK
 70
     0
  3

 72
    65
 73
     0
 40
0.0
  0
LTYPE
  5
4
330
3
100
AcDbSymbolTableRecord
100
AcDbLinetypeTableRecord
  2
BYLAYER
 70
     0
  3

 72
    65
 73
     0
 40
0.0
  0
LTYPE
  5
2B
330
3
100
AcDbSymbolTableRecord
100
AcDbLinetypeTableRecord
  2
Continuous
 70
     0
  3
Solid line
 72
    65
 73
     0
 40
0.0
  0
LTYPE
  5
6
330
3
100
AcDbSymbolTableRecord
100
AcDbLinetypeTableRecord
  2
SOLID
 70
     0
  3
Solid
 72
    65
 73
     0
 40
0.0
  0
LTYPE
  5
8
330
3
100
AcDbSymbolTableRecord
100
AcDbLinetypeTableRecord
  2
PHANTOM
 70
     0
  3
Phantom
 72
    65
 73
     6
 40
30.1625
 49
19.05
 74
     0
 49
-1.5875
 74
     0
 49
3.175
 74
     0
 49
-1.5875
 74
     0
 49
3.175
 74
     0
 49
-1.5875
 74
     0
  0
LTYPE
  5
A
330
3
100
AcDbSymbolTableRecord
100
AcDbLinetypeTableRecord
  2
GAP
 70
     0
  3
Gap
 72
    65
 73
     3
 40
2540.9999980092
 49
0.0
 74
     0
 49
-0.9999980092
 74
     0
 49
2540.0
 74
     0
  0
LTYPE
  5
392
330
3
100
AcDbSymbolTableRecord
100
AcDbLinetypeTableRecord
  2
CENTERX2
 70
     0
  3
________  __  ________  __  ________  __  ______
 72
    65
 73
     4
 40
4.0
 49
2.5
 74
     0
 49
-0.5
 74
     0
 49
0.5
 74
     0
 49
-0.5
 74
     0
  0
LTYPE
  5
394
330
3
100
AcDbSymbolTableRecord
100
AcDbLinetypeTableRecord
  2
PHANTOMX2
 70
     0
  3
____________    ____    ____    ____________    
 72
    65
 73
     6
 40
5.0
 49
2.5
 74
     0
 49
-0.5
 74
     0
 49
0.5
 74
     0
 49
-0.5
 74
     0
 49
0.5
 74
     0
 49
-0.5
 74
     0
  0
LTYPE
  5
39A
330
3
100
AcDbSymbolTableRecord
100
AcDbLinetypeTableRecord
  2
DASHEDX2
 70
     0
  3
____  ____  ____  ____  ____  ____  ____  ____  
 72
    65
 73
     2
 40
1.5
 49
1.0
 74
     0
 49
-0.5
 74
     0
  0
ENDTAB
  0
TABLE
  2
LAYER
  5
B
330
0
100
AcDbSymbolTable
 70
    22
  0
LAYER
  5
C
330
B
100
AcDbSymbolTableRecord
100
AcDbLayerTableRecord
  2
0
 70
     0
 62
     7
  6
Continuous
370
    -3
390
348
  0
LAYER
  5
15
330
B
100
AcDbSymbolTableRecord
100
AcDbLayerTableRecord
  2
VIEWPORTS
 70
     0
 62
     7
  6
SOLID
370
    -3
390
348
  0
LAYER
  5
38F
330
B
100
AcDbSymbolTableRecord
100
AcDbLayerTableRecord
  2
Defpoints
 70
     0
 62
     7
  6
Continuous
290
     0
370
    -3
390
348
  0
LAYER
  5
390
330
B
100
AcDbSymbolTableRecord
100
AcDbLayerTableRecord
  2
CENTER
 70
     0
 62
     7
  6
CENTERX2
370
    13
390
348
  0
LAYER
  5
393
330
B
100
AcDbSymbolTableRecord
100
AcDbLayerTableRecord
  2
PHANTOM
 70
     0
 62
     4
  6
PHANTOMX2
370
    13
390
348
  0
LAYER
  5
395
330
B
100
AcDbSymbolTableRecord
100
AcDbLayerTableRecord
  2
太線
 70
     0
 62
     5
  6
Continuous
370
    40
390
348
  0
LAYER
  5
396
330
B
100
AcDbSymbolTableRecord
100
AcDbLayerTableRecord
  2
細線
 70
     0
 62
     7
  6
Continuous
370
    13
390
348
  0
LAYER
  5
397
330
B
100
AcDbSymbolTableRecord
100
AcDbLayerTableRecord
  2
中線
 70
     0
 62
     3
  6
Continuous
370
    25
390
348
  0
LAYER
  5
398
330
B
100
AcDbSymbolTableRecord
100
AcDbLayerTableRecord
  2
IDEC_DIM
 70
     0
 62
     2
  6
Continuous
370
    13
390
348
  0
LAYER
  5
399
330
B
100
AcDbSymbolTableRecord
100
AcDbLayerTableRecord
  2
HIDDEN
 70
     0
 62
     6
  6
DASHEDX2
370
    13
390
348
  0
LAYER
  5
39B
330
B
100
AcDbSymbolTableRecord
100
AcDbLayerTableRecord
  2
CMNT
 70
     0
 62
     7
  6
Continuous
370
    13
390
348
  0
LAYER
  5
39C
330
B
100
AcDbSymbolTableRecord
100
AcDbLayerTableRecord
  2
IDEC_DRAWINGFRAME
 70
     4
 62
     3
  6
Continuous
370
    13
390
348
  0
LAYER
  5
39D
330
B
100
AcDbSymbolTableRecord
100
AcDbLayerTableRecord
  2
DIF_SCALE_TEXT
 70
     0
 62
   250
  6
Continuous
290
     0
370
     0
390
348
  0
LAYER
  5
39E
330
B
100
AcDbSymbolTableRecord
100
AcDbLayerTableRecord
  2
DIF_SCALE_AREA
 70
     0
 62
   250
  6
Continuous
290
     0
370
     0
390
348
  0
ENDTAB
  0
TABLE
  2
STYLE
  5
16
330
0
100
AcDbSymbolTable
 70
     2
  0
STYLE
  5
17
330
16
100
AcDbSymbolTableRecord
100
AcDbTextStyleTableRecord
  2
STANDARD
 70
     0
 40
0.0
 41
1.0
 50
0.0
 71
     0
 42
3.1999998093
  3
simplex.shx
  4
extfont2.shx
  0
STYLE
  5
3A0
330
16
100
AcDbSymbolTableRecord
100
AcDbTextStyleTableRecord
  2
IDEC_TEXT
 70
     0
 40
0.0
 41
1.0
 50
0.0
 71
     0
 42
0.2
  3
simplex.shx
  4
extfont2.shx
  0
ENDTAB
  0
TABLE
  2
VIEW
  5
20
330
0
100
AcDbSymbolTable
 70
     0
  0
ENDTAB
  0
TABLE
  2
UCS
  5
21
330
0
100
AcDbSymbolTable
 70
     0
  0
ENDTAB
  0
TABLE
  2
APPID
  5
1E
330
0
100
AcDbSymbolTable
 70
     5
  0
APPID
  5
1F
330
1E
100
AcDbSymbolTableRecord
100
AcDbRegAppTableRecord
  2
ACAD
 70
     0
  0
APPID
  5
3A7
330
1E
100
AcDbSymbolTableRecord
100
AcDbRegAppTableRecord
  2
BJM_BLN_TBL
 70
     0
  0
APPID
  5
3A8
330
1E
100
AcDbSymbolTableRecord
100
AcDbRegAppTableRecord
  2
DENKISCL
 70
     0
  0
APPID
  5
3A9
330
1E
100
AcDbSymbolTableRecord
100
AcDbRegAppTableRecord
  2
DENKISCLORG
 70
     0
  0
APPID
  5
471
330
1E
100
AcDbSymbolTableRecord
100
AcDbRegAppTableRecord
  2
ACAD_DSTYLE_DIMTEXT_FILL
 70
     0
  0
ENDTAB
  0
TABLE
  2
DIMSTYLE
  5
18
330
0
100
AcDbSymbolTable
 70
     6
100
AcDbDimStyleTable
  0
DIMSTYLE
105
39F
102
{ACAD_REACTORS
330
3E2
330
3F7
102
}
330
18
100
AcDbSymbolTableRecord
100
AcDbDimStyleTableRecord
  2
IDEC_DIM
 70
     0
 41
2.0
 42
0.625
 43
5.0
 44
1.25
 73
     0
 74
     0
 77
     1
 79
     2
140
2.5
141
2.5
143
0.03937007874
146
0.5
147
0.5
171
     1
172
     1
176
   256
177
   256
271
     1
178
   256
179
     1
271
     1
272
     1
274
     3
275
     1
283
     2
284
     8
340
3A0
341
3A1
342
3A1
371
    13
372
    13
1001
ACAD_DSTYLE_DIMTEXT_FILL
1070
   376
1070
     0
  0
ENDTAB
  0
TABLE
  2
BLOCK_RECORD
  5
22
330
0
100
AcDbSymbolTable
 70
    40
  0
BLOCK_RECORD
  5
23
330
22
100
AcDbSymbolTableRecord
100
AcDbBlockTableRecord
  2
*MODEL_SPACE
340
364
  0
BLOCK_RECORD
  5
24
330
22
100
AcDbSymbolTableRecord
100
AcDbBlockTableRecord
  2
*PAPER_SPACE
340
365
  0
BLOCK_RECORD
  5
25
330
22
100
AcDbSymbolTableRecord
100
AcDbBlockTableRecord
  2
BLOCK0
340
0
102
{BLKREFS
331
1ED
102
}
  0
BLOCK_RECORD
  5
27
330
22
100
AcDbSymbolTableRecord
100
AcDbBlockTableRecord
  2
*D2
340
0
  0
BLOCK_RECORD
  5
28
330
22
100
AcDbSymbolTableRecord
100
AcDbBlockTableRecord
  2
*D3
340
0
  0
BLOCK_RECORD
  5
90
330
22
100
AcDbSymbolTableRecord
100
AcDbBlockTableRecord
  2
*D4
340
0
  0
BLOCK_RECORD
  5
91
330
22
100
AcDbSymbolTableRecord
100
AcDbBlockTableRecord
  2
*D5
340
0
  0
BLOCK_RECORD
  5
92
330
22
100
AcDbSymbolTableRecord
100
AcDbBlockTableRecord
  2
*D6
340
0
  0
BLOCK_RECORD
  5
93
330
22
100
AcDbSymbolTableRecord
100
AcDbBlockTableRecord
  2
*D7
340
0
  0
BLOCK_RECORD
  5
94
330
22
100
AcDbSymbolTableRecord
100
AcDbBlockTableRecord
  2
*D8
340
0
  0
BLOCK_RECORD
  5
95
330
22
100
AcDbSymbolTableRecord
100
AcDbBlockTableRecord
  2
*D9
340
0
  0
BLOCK_RECORD
  5
96
330
22
100
AcDbSymbolTableRecord
100
AcDbBlockTableRecord
  2
*D10
340
0
  0
BLOCK_RECORD
  5
3A1
330
22
100
AcDbSymbolTableRecord
100
AcDbBlockTableRecord
  2
_OPEN30
340
0
102
{BLKREFS
331
0
331
418
331
0
331
425
331
432
331
431
331
0
331
43E
331
44B
331
44A
331
457
331
456
331
417
331
424
331
43D
331
464
331
463
102
}
  0
BLOCK_RECORD
  5
3E3
330
22
100
AcDbSymbolTableRecord
100
AcDbBlockTableRecord
  2
*D29
340
0
  0
BLOCK_RECORD
  5
3E9
102
{ACAD_XDICTIONARY
360
3EA
102
}
330
22
100
AcDbSymbolTableRecord
100
AcDbBlockTableRecord
  2
_IDEC_OPEN30
340
0
102
{BLKREFS
331
3E8
331
3F1
102
}
1001
ACAD
1000
DesignCenter Data
1002
{
1070
     1
1070
     4
1002
}
  0
BLOCK_RECORD
  5
3F8
330
22
100
AcDbSymbolTableRecord
100
AcDbBlockTableRecord
  2
*D31
340
0
  0
BLOCK_RECORD
  5
3FE
102
{ACAD_XDICTIONARY
360
3FF
102
}
330
22
100
AcDbSymbolTableRecord
100
AcDbBlockTableRecord
  2
_IDEC_OPEN30R
340
0
102
{BLKREFS
331
3FD
331
406
102
}
1001
ACAD
1000
DesignCenter Data
1002
{
1070
     1
1070
     4
1002
}
  0
BLOCK_RECORD
  5
413
330
22
100
AcDbSymbolTableRecord
100
AcDbBlockTableRecord
  2
*D33
340
0
  0
BLOCK_RECORD
  5
420
330
22
100
AcDbSymbolTableRecord
100
AcDbBlockTableRecord
  2
*D34
340
0
  0
BLOCK_RECORD
  5
42D
330
22
100
AcDbSymbolTableRecord
100
AcDbBlockTableRecord
  2
*D35
340
0
  0
BLOCK_RECORD
  5
439
330
22
100
AcDbSymbolTableRecord
100
AcDbBlockTableRecord
  2
*D36
340
0
  0
BLOCK_RECORD
  5
446
330
22
100
AcDbSymbolTableRecord
100
AcDbBlockTableRecord
  2
*D37
340
0
  0
BLOCK_RECORD
  5
452
330
22
100
AcDbSymbolTableRecord
100
AcDbBlockTableRecord
  2
*D38
340
0
  0
BLOCK_RECORD
  5
45F
330
22
100
AcDbSymbolTableRecord
100
AcDbBlockTableRecord
  2
*D39
340
0
  0
ENDTAB
  0
ENDSEC
  0
SECTION
  2
BLOCKS
  0
BLOCK
  5
A7
330
23
100
AcDbEntity
  8
0
100
AcDbBlockBegin
  2
*MODEL_SPACE
 70
     0
 10
0.0
 20
0.0
 30
0.0
  3
*MODEL_SPACE
  1
*MODEL_SPACE
  0
ENDBLK
  5
A8
330
23
100
AcDbEntity
  8
0
100
AcDbBlockEnd
  0
BLOCK
  5
A9
330
24
100
AcDbEntity
 67
     1
  8
0
100
AcDbBlockBegin
  2
*PAPER_SPACE
 70
     0
 10
0.0
 20
0.0
 30
0.0
  3
*PAPER_SPACE
  1
*PAPER_SPACE
  0
ENDBLK
  5
AA
330
24
100
AcDbEntity
 67
     1
  8
0
100
AcDbBlockEnd
  0
BLOCK
  5
10A
330
25
100
AcDbEntity
  8
0
100
AcDbBlockBegin
  2
BLOCK0
 70
     0
 10
0.0
 20
0.0
 30
0.0
  3
BLOCK0
  1
BLOCK0
  0
POINT
  5
10B
330
25
100
AcDbEntity
  8
0
100
AcDbPoint
 10
-4.2001647949
 20
0.0
 30
0.0
  0
LINE
  5
10C
330
25
100
AcDbEntity
  8
0
  6
PHANTOM
 62
    31
100
AcDbLine
 10
-7.1996002197
 20
1.6924266815
 30
0.0
 11
-7.1996002197
 21
0.5999754667
 31
0.0
  0
LINE
  5
10D
330
25
100
AcDbEntity
  8
0
  6
PHANTOM
 62
    31
100
AcDbLine
 10
-7.1996002197
 20
1.6924266815
 30
0.0
 11
-4.1996002197
 21
1.6924266815
 31
0.0
  0
LINE
  5
10E
330
25
100
AcDbEntity
  8
0
  6
PHANTOM
 62
    31
100
AcDbLine
 10
-7.1996002197
 20
0.5999754667
 30
0.0
 11
-4.1996002197
 21
0.5999754667
 31
0.0
  0
LINE
  5
10F
330
25
100
AcDbEntity
  8
0
  6
PHANTOM
 62
    31
100
AcDbLine
 10
-7.1996002197
 20
3.9202404022
 30
0.0
 11
-7.1996002197
 21
2.877790451
 31
0.0
  0
LINE
  5
110
330
25
100
AcDbEntity
  8
0
  6
PHANTOM
 62
    31
100
AcDbLine
 10
-7.1996002197
 20
1.6924266815
 30
0.0
 11
-4.1996002197
 21
1.6924266815
 31
0.0
  0
LINE
  5
111
330
25
100
AcDbEntity
  8
0
  6
PHANTOM
 62
    31
100
AcDbLine
 10
-7.1996002197
 20
2.877790451
 30
0.0
 11
-4.1996002197
 21
2.877790451
 31
0.0
  0
LINE
  5
112
330
25
100
AcDbEntity
  8
0
  6
PHANTOM
 62
    31
100
AcDbLine
 10
-7.1996002197
 20
3.9202404022
 30
0.0
 11
-4.1996002197
 21
3.9202404022
 31
0.0
  0
LINE
  5
113
330
25
100
AcDbEntity
  8
0
  6
PHANTOM
 62
    31
100
AcDbLine
 10
-7.1996002197
 20
4.9594554901
 30
0.0
 11
-7.1996002197
 21
5.8344707489
 31
0.0
  0
LINE
  5
114
330
25
100
AcDbEntity
  8
0
  6
PHANTOM
 62
    31
100
AcDbLine
 10
-7.1996002197
 20
4.9594554901
 30
0.0
 11
-4.1996002197
 21
4.9594554901
 31
0.0
  0
LINE
  5
115
330
25
100
AcDbEntity
  8
0
  6
PHANTOM
 62
    31
100
AcDbLine
 10
-7.1996002197
 20
5.8344707489
 30
0.0
 11
-4.1996002197
 21
5.8344707489
 31
0.0
  0
LINE
  5
116
330
25
100
AcDbEntity
  8
0
  6
PHANTOM
 62
    31
100
AcDbLine
 10
-7.1996002197
 20
6.703168869
 30
0.0
 11
-4.1996002197
 21
6.703168869
 31
0.0
  0
LINE
  5
117
330
25
100
AcDbEntity
  8
0
  6
PHANTOM
 62
    31
100
AcDbLine
 10
-7.1996002197
 20
6.703168869
 30
0.0
 11
-7.1996002197
 21
7.3900585175
 31
0.0
  0
LINE
  5
118
330
25
100
AcDbEntity
  8
0
  6
PHANTOM
 62
    31
100
AcDbLine
 10
-7.1996002197
 20
7.3900585175
 30
0.0
 11
-4.1996002197
 21
7.3900585175
 31
0.0
  0
LINE
  5
119
330
25
100
AcDbEntity
  8
0
  6
PHANTOM
 62
    31
100
AcDbLine
 10
-7.1996002197
 20
7.9900493622
 30
0.0
 11
-4.1996002197
 21
7.9900493622
 31
0.0
  0
LINE
  5
11A
330
25
100
AcDbEntity
  8
0
  6
PHANTOM
 62
    31
100
AcDbLine
 10
-7.1996030807
 20
8.4131727219
 30
0.0
 11
-7.1996030807
 21
7.9900617599
 31
0.0
  0
LINE
  5
11B
330
25
100
AcDbEntity
  8
0
  6
PHANTOM
 62
    31
100
AcDbLine
 10
-7.1996002197
 20
8.4131755829
 30
0.0
 11
-4.1996002197
 21
8.4131755829
 31
0.0
  0
LINE
  5
11C
330
25
100
AcDbEntity
  8
0
  6
PHANTOM
 62
    31
100
AcDbLine
 10
-7.1996002197
 20
-0.6000518203
 30
0.0
 11
-7.1996002197
 21
-1.6925039291
 31
0.0
  0
LINE
  5
11D
330
25
100
AcDbEntity
  8
0
  6
PHANTOM
 62
    31
100
AcDbLine
 10
-4.1996002197
 20
-1.6925039291
 30
0.0
 11
-7.1996002197
 21
-1.6925039291
 31
0.0
  0
LINE
  5
11E
330
25
100
AcDbEntity
  8
0
  6
PHANTOM
 62
    31
100
AcDbLine
 10
-4.1996002197
 20
-0.6000518203
 30
0.0
 11
-7.1996002197
 21
-0.6000518203
 31
0.0
  0
LINE
  5
11F
330
25
100
AcDbEntity
  8
0
  6
PHANTOM
 62
    31
100
AcDbLine
 10
-7.1996002197
 20
-2.8778676987
 30
0.0
 11
-7.1996002197
 21
-3.9203176498
 31
0.0
  0
LINE
  5
120
330
25
100
AcDbEntity
  8
0
  6
PHANTOM
 62
    31
100
AcDbLine
 10
-4.1996002197
 20
-1.6925039291
 30
0.0
 11
-7.1996002197
 21
-1.6925039291
 31
0.0
  0
LINE
  5
121
330
25
100
AcDbEntity
  8
0
  6
PHANTOM
 62
    31
100
AcDbLine
 10
-4.1996002197
 20
-2.8778676987
 30
0.0
 11
-7.1996002197
 21
-2.8778676987
 31
0.0
  0
LINE
  5
122
330
25
100
AcDbEntity
  8
0
  6
PHANTOM
 62
    31
100
AcDbLine
 10
-4.1996002197
 20
-3.9203176498
 30
0.0
 11
-7.1996002197
 21
-3.9203176498
 31
0.0
  0
LINE
  5
123
330
25
100
AcDbEntity
  8
0
  6
PHANTOM
 62
    31
100
AcDbLine
 10
-7.1996002197
 20
-5.8345479965
 30
0.0
 11
-7.1996002197
 21
-4.9595327377
 31
0.0
  0
LINE
  5
124
330
25
100
AcDbEntity
  8
0
  6
PHANTOM
 62
    31
100
AcDbLine
 10
-4.1996002197
 20
-4.9595327377
 30
0.0
 11
-7.1996002197
 21
-4.9595327377
 31
0.0
  0
LINE
  5
125
330
25
100
AcDbEntity
  8
0
  6
PHANTOM
 62
    31
100
AcDbLine
 10
-4.1996002197
 20
-5.8345479965
 30
0.0
 11
-7.1996002197
 21
-5.8345479965
 31
0.0
  0
LINE
  5
126
330
25
100
AcDbEntity
  8
0
  6
PHANTOM
 62
    31
100
AcDbLine
 10
-4.1996002197
 20
-6.7032461166
 30
0.0
 11
-7.1996002197
 21
-6.7032461166
 31
0.0
  0
LINE
  5
127
330
25
100
AcDbEntity
  8
0
  6
PHANTOM
 62
    31
100
AcDbLine
 10
-7.1996002197
 20
-7.3901357651
 30
0.0
 11
-7.1996002197
 21
-6.7032461166
 31
0.0
  0
LINE
  5
128
330
25
100
AcDbEntity
  8
0
  6
PHANTOM
 62
    31
100
AcDbLine
 10
-4.1996002197
 20
-7.3901357651
 30
0.0
 11
-7.1996002197
 21
-7.3901357651
 31
0.0
  0
LINE
  5
129
330
25
100
AcDbEntity
  8
0
  6
PHANTOM
 62
    31
100
AcDbLine
 10
-4.1996002197
 20
-7.9901266098
 30
0.0
 11
-7.1996002197
 21
-7.9901266098
 31
0.0
  0
LINE
  5
12A
330
25
100
AcDbEntity
  8
0
  6
PHANTOM
 62
    31
100
AcDbLine
 10
-7.1996202469
 20
-7.9901456833
 30
0.0
 11
-7.1996202469
 21
-8.4132566452
 31
0.0
  0
LINE
  5
12B
330
25
100
AcDbEntity
  8
0
  6
PHANTOM
 62
    31
100
AcDbLine
 10
-4.1996002197
 20
-8.4132528305
 30
0.0
 11
-7.1996002197
 21
-8.4132528305
 31
0.0
  0
LINE
  5
12C
330
25
100
AcDbEntity
  8
0
  6
PHANTOM
 62
    31
100
AcDbLine
 10
-9.1995849609
 20
-8.379149437
 30
0.0
 11
-7.9995880127
 21
-8.379149437
 31
0.0
  0
LINE
  5
12D
330
25
100
AcDbEntity
  8
0
  6
PHANTOM
 62
    31
100
AcDbLine
 10
-9.1995849609
 20
-3.0000295639
 30
0.0
 11
-9.1995849609
 21
-8.379149437
 31
0.0
  0
LINE
  5
12E
330
25
100
AcDbEntity
  8
0
  6
PHANTOM
 62
    31
100
AcDbLine
 10
-7.9995880127
 20
-3.0000295639
 30
0.0
 11
-9.1995849609
 21
-3.0000295639
 31
0.0
  0
LINE
  5
12F
330
25
100
AcDbEntity
  8
0
  6
PHANTOM
 62
    31
100
AcDbLine
 10
-9.1995849609
 20
2.9999675751
 30
0.0
 11
-7.9995880127
 21
2.9999675751
 31
0.0
  0
LINE
  5
130
330
25
100
AcDbEntity
  8
0
  6
PHANTOM
 62
    31
100
AcDbLine
 10
-9.1995849609
 20
8.3791332245
 30
0.0
 11
-9.1995849609
 21
2.9999675751
 31
0.0
  0
LINE
  5
131
330
25
100
AcDbEntity
  8
0
  6
PHANTOM
 62
    31
100
AcDbLine
 10
-7.9995880127
 20
8.3791332245
 30
0.0
 11
-9.1995849609
 21
8.3791332245
 31
0.0
  0
LINE
  5
132
330
25
100
AcDbEntity
  8
0
  6
PHANTOM
 62
    31
100
AcDbLine
 10
-7.9995880127
 20
2.9999675751
 30
0.0
 11
-7.9995880127
 21
-3.0000295639
 31
0.0
  0
LINE
  5
133
330
25
100
AcDbEntity
  8
0
  6
PHANTOM
 62
    31
100
AcDbLine
 10
-7.9996198533
 20
-8.9000313622
 30
0.0
 11
-7.9996045944
 21
-8.37914208
 31
0.0
  0
LINE
  5
134
330
25
100
AcDbEntity
  8
0
  6
PHANTOM
 62
    31
100
AcDbLine
 10
-7.9995880127
 20
8.8999614716
 30
0.0
 11
-7.9995880127
 21
8.3791332245
 31
0.0
  0
LINE
  5
135
330
25
100
AcDbEntity
  8
0
  6
PHANTOM
 62
    31
100
AcDbLine
 10
-4.1996154785
 20
-8.9000387192
 30
0.0
 11
-7.9996032715
 21
-8.9000387192
 31
0.0
  0
LINE
  5
136
330
25
100
AcDbEntity
  8
0
  6
PHANTOM
 62
    31
100
AcDbLine
 10
-4.1996212006
 20
8.8999423981
 30
0.0
 11
-4.1996212006
 21
-8.9000425339
 31
0.0
  0
LINE
  5
137
330
25
100
AcDbEntity
  8
0
  6
PHANTOM
 62
    31
100
AcDbLine
 10
-7.9995880127
 20
8.8999614716
 30
0.0
 11
-4.1996002197
 21
8.8999614716
 31
0.0
  0
POINT
  5
138
330
25
100
AcDbEntity
  8
0
100
AcDbPoint
 10
-4.2001647949
 20
0.0
 30
0.0
  0
POINT
  5
139
330
25
100
AcDbEntity
  8
0
100
AcDbPoint
 10
0.0
 20
0.0
 30
0.0
  0
POINT
  5
13A
330
25
100
AcDbEntity
  8
0
100
AcDbPoint
 10
9.6000213623
 20
0.0
 30
0.0
  0
LINE
  5
13B
330
25
100
AcDbEntity
  8
0
  6
PHANTOM
100
AcDbLine
 10
-11.3999633789
 20
7.3997802734
 30
0.0
 11
-21.3999633789
 21
7.3997802734
 31
0.0
  0
LINE
  5
13C
330
25
100
AcDbEntity
  8
0
  6
PHANTOM
100
AcDbLine
 10
-21.3999633789
 20
-7.399520874
 30
0.0
 11
-11.3999633789
 21
-7.399520874
 31
0.0
  0
LINE
  5
13D
330
25
100
AcDbEntity
  8
0
  6
PHANTOM
100
AcDbLine
 10
-3.2560412058
 20
8.9499731881
 30
0.0
 11
-2.3089859572
 21
8.6289323412
 31
0.0
  0
LINE
  5
13E
330
25
100
AcDbEntity
  8
0
  6
PHANTOM
100
AcDbLine
 10
-3.2560713139
 20
-8.9500323265
 30
0.0
 11
-2.3090168353
 21
-8.6290070255
 31
0.0
  0
LINE
  5
13F
330
25
100
AcDbEntity
  8
0
  6
PHANTOM
100
AcDbLine
 10
-4.2001647949
 20
8.9499969482
 30
0.0
 11
-3.2560577393
 21
8.9499969482
 31
0.0
  0
LINE
  5
140
330
25
100
AcDbEntity
  8
0
  6
PHANTOM
100
AcDbLine
 10
-4.2001647949
 20
-8.950012207
 30
0.0
 11
-3.256072998
 21
-8.950012207
 31
0.0
  0
LINE
  5
141
330
25
100
AcDbEntity
  8
0
  6
PHANTOM
100
AcDbLine
 10
-4.200150472
 20
-6.1649362718
 30
0.0
 11
-3.2560649321
 21
-8.9500401125
 31
0.0
  0
LINE
  5
142
330
25
100
AcDbEntity
  8
0
  6
PHANTOM
100
AcDbLine
 10
-4.200158116
 20
6.1648269852
 30
0.0
 11
-3.2560534982
 21
8.949972777
 31
0.0
  0
LINE
  5
143
330
25
100
AcDbEntity
  8
0
  6
PHANTOM
100
AcDbLine
 10
-3.2001539405
 20
5.999981464
 30
0.0
 11
-2.3089984213
 21
8.6289253305
 31
0.0
  0
LINE
  5
144
330
25
100
AcDbEntity
  8
0
  6
PHANTOM
100
AcDbLine
 10
-3.2001584342
 20
-6.0000320656
 30
0.0
 11
-2.3089972542
 21
-8.6290061579
 31
0.0
  0
LINE
  5
145
330
25
100
AcDbEntity
  8
0
  6
PHANTOM
100
AcDbLine
 10
-3.2001647949
 20
-6.0000286102
 30
0.0
 11
-3.2001647949
 21
5.99995327
 31
0.0
  0
LINE
  5
146
330
25
100
AcDbEntity
  8
0
  6
PHANTOM
100
AcDbLine
 10
0.0
 20
-8.700012207
 30
0.0
 11
0.6000061035
 21
-8.700012207
 31
0.0
  0
LINE
  5
147
330
25
100
AcDbEntity
  8
0
  6
PHANTOM
100
AcDbLine
 10
0.0
 20
8.6999969482
 30
0.0
 11
0.6000061035
 21
8.6999969482
 31
0.0
  0
LINE
  5
148
330
25
100
AcDbEntity
  8
0
  6
PHANTOM
100
AcDbLine
 10
0.0
 20
-8.700012207
 30
0.0
 11
0.0
 21
8.6999969482
 31
0.0
  0
LINE
  5
149
330
25
100
AcDbEntity
  8
0
  6
PHANTOM
100
AcDbLine
 10
0.6000061035
 20
-8.99949646
 30
0.0
 11
0.6000061035
 21
8.9997558594
 31
0.0
  0
LINE
  5
14A
330
25
100
AcDbEntity
  8
0
  6
PHANTOM
100
AcDbLine
 10
-0.297958374
 20
-7.99949646
 30
0.0
 11
-2.5223855972
 21
-7.99949646
 31
0.0
  0
LINE
  5
14B
330
25
100
AcDbEntity
  8
0
  6
PHANTOM
100
AcDbLine
 10
0.0
 20
-7.399520874
 30
0.0
 11
-2.7257642746
 21
-7.399520874
 31
0.0
  0
LINE
  5
14C
330
25
100
AcDbEntity
  8
0
  6
PHANTOM
100
AcDbLine
 10
0.0
 20
-3.9995880127
 30
0.0
 11
-3.2001638412
 21
-3.9995880127
 31
0.0
  0
LINE
  5
14D
330
25
100
AcDbEntity
  8
0
  6
PHANTOM
100
AcDbLine
 10
-11.0000762939
 20
3.9998779297
 30
0.0
 11
-9.1995840073
 21
3.9998779297
 31
0.0
  0
LINE
  5
14E
330
25
100
AcDbEntity
  8
0
  6
PHANTOM
100
AcDbLine
 10
-11.3999786377
 20
7.3997802734
 30
0.0
 11
-9.1995840073
 21
7.3997802734
 31
0.0
  0
LINE
  5
14F
330
25
100
AcDbEntity
  8
0
  6
PHANTOM
100
AcDbLine
 10
-11.0000762939
 20
7.9998779297
 30
0.0
 11
-9.1995840073
 21
7.9998779297
 31
0.0
  0
LINE
  5
150
330
25
100
AcDbEntity
  8
0
  6
PHANTOM
100
AcDbLine
 10
-4.2001647949
 20
-8.9000530243
 30
0.0
 11
-4.2001647949
 21
8.8999013901
 31
0.0
  0
LINE
  5
151
330
25
100
AcDbEntity
  8
0
  6
PHANTOM
100
AcDbLine
 10
0.001739782744
 20
-7.4001511673
 30
0.0
 11
-0.2982466018
 21
-8.0001087434
 31
0.0
  0
LINE
  5
152
330
25
100
AcDbEntity
  8
0
  6
PHANTOM
100
AcDbLine
 10
0.000985653851
 20
7.3991774256
 30
0.0
 11
-0.2990064571
 21
7.9992686173
 31
0.0
  0
LINE
  5
153
330
25
100
AcDbEntity
  8
0
  6
PHANTOM
100
AcDbLine
 10
-2.725651741
 20
7.3997802734
 30
0.0
 11
0.0
 21
7.3997802734
 31
0.0
  0
LINE
  5
154
330
25
100
AcDbEntity
  8
0
  6
PHANTOM
100
AcDbLine
 10
-11.4011110906
 20
7.3992568376
 30
0.0
 11
-11.0010662384
 21
7.9993244168
 31
0.0
  0
LINE
  5
155
330
25
100
AcDbEntity
  8
0
  6
PHANTOM
100
AcDbLine
 10
0.0
 20
7.3997802734
 30
0.0
 11
0.0
 21
3.9998779297
 31
0.0
  0
LINE
  5
156
330
25
100
AcDbEntity
  8
0
  6
PHANTOM
100
AcDbLine
 10
-3.2001647949
 20
3.9998779297
 30
0.0
 11
0.0
 21
3.9998779297
 31
0.0
  0
LINE
  5
157
330
25
100
AcDbEntity
  8
0
  6
PHANTOM
100
AcDbLine
 10
-2.522231102
 20
7.9998779297
 30
0.0
 11
-0.2992706299
 21
7.9998779297
 31
0.0
  0
LINE
  5
158
330
25
100
AcDbEntity
  8
0
  6
PHANTOM
100
AcDbLine
 10
-11.0000762939
 20
3.9998779297
 30
0.0
 11
-11.0000762939
 21
7.9998779297
 31
0.0
  0
LINE
  5
159
330
25
100
AcDbEntity
  8
0
  6
PHANTOM
100
AcDbLine
 10
-9.1995849609
 20
-7.399520874
 30
0.0
 11
-11.3999786377
 21
-7.399520874
 31
0.0
  0
ARC
  5
15A
330
25
100
AcDbEntity
  8
0
  6
PHANTOM
100
AcDbCircle
 10
8.7999572754
 20
-0.000244140625
 30
0.0
 40
20.200012207
100
AcDbArc
 50
168.5787949053
 51
191.4211331503
  0
LINE
  5
15B
330
25
100
AcDbEntity
  8
0
  6
PHANTOM
100
AcDbLine
 10
-11.3999786377
 20
-7.399520874
 30
0.0
 11
-11.3999786377
 21
7.3997802734
 31
0.0
  0
LINE
  5
15C
330
25
100
AcDbEntity
  8
0
  6
PHANTOM
100
AcDbLine
 10
-11.0018258875
 20
-8.0006881873
 30
0.0
 11
-11.4018030273
 21
-7.4007221767
 31
0.0
  0
LINE
  5
15D
330
25
100
AcDbEntity
  8
0
  6
PHANTOM
100
AcDbLine
 10
0.0
 20
-3.9995880127
 30
0.0
 11
0.0
 21
-7.399520874
 31
0.0
  0
LINE
  5
15E
330
25
100
AcDbEntity
  8
0
  6
PHANTOM
100
AcDbLine
 10
-9.1995849609
 20
-3.9995880127
 30
0.0
 11
-11.0000762939
 21
-3.9995880127
 31
0.0
  0
LINE
  5
15F
330
25
100
AcDbEntity
  8
0
  6
PHANTOM
100
AcDbLine
 10
-9.1995849609
 20
-7.99949646
 30
0.0
 11
-11.0000762939
 21
-7.99949646
 31
0.0
  0
LINE
  5
160
330
25
100
AcDbEntity
  8
0
  6
PHANTOM
100
AcDbLine
 10
-11.0000762939
 20
-7.99949646
 30
0.0
 11
-11.0000762939
 21
-3.9995880127
 31
0.0
  0
LINE
  5
161
330
25
100
AcDbEntity
  8
0
  6
PHANTOM
100
AcDbLine
 10
-16.4004058838
 20
0.7997435927
 30
0.0
 11
-16.4004058838
 21
0.3997191787
 31
0.0
  0
LINE
  5
162
330
25
100
AcDbEntity
  8
0
  6
PHANTOM
100
AcDbLine
 10
-16.4004058838
 20
-0.4000853896
 30
0.0
 11
-16.4004058838
 21
-0.8001098037
 31
0.0
  0
LINE
  5
163
330
25
100
AcDbEntity
  8
0
  6
PHANTOM
100
AcDbLine
 10
-21.4003607443
 20
2.4994395707
 30
0.0
 11
-16.4003645711
 21
2.4496349437
 31
0.0
  0
LINE
  5
164
330
25
100
AcDbEntity
  8
0
  6
PHANTOM
100
AcDbLine
 10
-16.4002095022
 20
-2.449856767
 30
0.0
 11
-21.4002018009
 21
-2.5000275893
 31
0.0
  0
LINE
  5
165
330
25
100
AcDbEntity
  8
0
  6
PHANTOM
100
AcDbLine
 10
-16.4001617432
 20
2.4497671127
 30
0.0
 11
-16.4001617432
 21
-2.4499349594
 31
0.0
  0
LINE
  5
166
330
25
100
AcDbEntity
  8
0
  6
PHANTOM
100
AcDbLine
 10
9.598045568
 20
-8.4995255909
 30
0.0
 11
0.5919241445
 21
-8.6996623273
 31
0.0
  0
LINE
  5
167
330
25
100
AcDbEntity
  8
0
  6
PHANTOM
100
AcDbLine
 10
0.59246646
 20
8.6929023181
 30
0.0
 11
9.5987556888
 21
8.4927618527
 31
0.0
  0
LINE
  5
168
330
25
100
AcDbEntity
  8
0
  6
PHANTOM
100
AcDbLine
 10
9.3000946045
 20
-8.8063812256
 30
0.0
 11
9.3000946045
 21
8.8065185547
 31
0.0
  0
LINE
  5
169
330
25
100
AcDbEntity
  8
0
  6
PHANTOM
100
AcDbLine
 10
9.5986023718
 20
8.4927007853
 30
0.0
 11
9.2987234516
 21
8.8062098544
 31
0.0
  0
LINE
  5
16A
330
25
100
AcDbEntity
  8
0
  6
PHANTOM
100
AcDbLine
 10
9.2915879126
 20
-8.8071673335
 30
0.0
 11
9.5985306175
 21
-8.5002253531
 31
0.0
  0
LINE
  5
16B
330
25
100
AcDbEntity
  8
0
  6
PHANTOM
100
AcDbLine
 10
0.5992817503
 20
8.9995892974
 30
0.0
 11
9.2987772145
 21
8.8062664952
 31
0.0
  0
LINE
  5
16C
330
25
100
AcDbEntity
  8
0
  6
PHANTOM
100
AcDbLine
 10
-21.3999633789
 20
-7.399520874
 30
0.0
 11
-21.3999633789
 21
7.3997802734
 31
0.0
  0
LINE
  5
16D
330
25
100
AcDbEntity
  8
0
  6
PHANTOM
100
AcDbLine
 10
9.2912030109
 20
-8.8063451439
 30
0.0
 11
0.598587562
 21
-8.9995150563
 31
0.0
  0
LINE
  5
16E
330
25
100
AcDbEntity
  8
0
  6
PHANTOM
100
AcDbLine
 10
9.6000213623
 20
-8.49949646
 30
0.0
 11
9.6000213623
 21
8.4929199219
 31
0.0
  0
LINE
  5
16F
330
25
100
AcDbEntity
  8
0
  6
PHANTOM
100
AcDbLine
 10
-27.7969970703
 20
0.59992975
 30
0.0
 11
-26.3970336914
 21
0.59992975
 31
0.0
  0
LINE
  5
170
330
25
100
AcDbEntity
  8
0
  6
PHANTOM
100
AcDbLine
 10
-27.7969970703
 20
-0.6000518203
 30
0.0
 11
-26.3970336914
 21
-0.6000518203
 31
0.0
  0
LINE
  5
171
330
25
100
AcDbEntity
  8
0
  6
PHANTOM
100
AcDbLine
 10
-21.6970367432
 20
1.3999319077
 30
0.0
 11
-28.8970336914
 21
1.3999319077
 31
0.0
  0
LINE
  5
172
330
25
100
AcDbEntity
  8
0
  6
PHANTOM
100
AcDbLine
 10
-28.500753542
 20
-1.214197459
 30
0.0
 11
-26.5008660733
 21
-0.7856492299
 31
0.0
  0
LINE
  5
173
330
25
100
AcDbEntity
  8
0
  6
PHANTOM
100
AcDbLine
 10
-26.5004907353
 20
0.785208624
 30
0.0
 11
-28.5004976866
 21
1.2137818207
 31
0.0
  0
LINE
  5
174
330
25
100
AcDbEntity
  8
0
  6
PHANTOM
100
AcDbLine
 10
-28.3812564081
 20
0.1495525676
 30
0.0
 11
-29.3944400018
 21
0.1495505052
 31
0.0
  0
LINE
  5
175
330
25
100
AcDbEntity
  8
0
  6
PHANTOM
100
AcDbLine
 10
-28.3813934326
 20
-0.1501006484
 30
0.0
 11
-29.3944549561
 21
-0.1501006484
 31
0.0
  0
ARC
  5
176
330
25
100
AcDbEntity
  8
0
  6
PHANTOM
100
AcDbCircle
 10
-28.7002563477
 20
0.8498535156
 30
0.0
 40
0.1999999285
100
AcDbArc
 50
179.9999640278
 51
269.9999460417
  0
ARC
  5
177
330
25
100
AcDbEntity
  8
0
  6
PHANTOM
100
AcDbCircle
 10
-28.7002563477
 20
-0.8500976563
 30
0.0
 40
0.1999999285
100
AcDbArc
 50
90.0000366554
 51
179.9999640278
  0
LINE
  5
178
330
25
100
AcDbEntity
  8
0
  6
PHANTOM
100
AcDbLine
 10
-28.7003326416
 20
0.6497191787
 30
0.0
 11
-26.0714263916
 21
0.6497191787
 31
0.0
  0
LINE
  5
179
330
25
100
AcDbEntity
  8
0
  6
PHANTOM
100
AcDbLine
 10
-28.7003326416
 20
-0.6500853896
 30
0.0
 11
-26.0714263916
 21
-0.6500853896
 31
0.0
  0
LINE
  5
17A
330
25
100
AcDbEntity
  8
0
  6
PHANTOM
100
AcDbLine
 10
-25.7539215088
 20
-0.1001586318
 30
0.0
 11
-21.3999786377
 21
-0.1001586318
 31
0.0
  0
LINE
  5
17B
330
25
100
AcDbEntity
  8
0
  6
PHANTOM
100
AcDbLine
 10
-25.7539215088
 20
0.099914491177
 30
0.0
 11
-21.3999786377
 21
0.099914491177
 31
0.0
  0
LINE
  5
17C
330
25
100
AcDbEntity
  8
0
  6
PHANTOM
100
AcDbLine
 10
-28.9002838135
 20
1.3997182846
 30
0.0
 11
-21.3999786377
 21
1.3997182846
 31
0.0
  0
LINE
  5
17D
330
25
100
AcDbEntity
  8
0
  6
PHANTOM
100
AcDbLine
 10
-28.9002838135
 20
1.2997426987
 30
0.0
 11
-21.3999786377
 21
1.2997426987
 31
0.0
  0
LINE
  5
17E
330
25
100
AcDbEntity
  8
0
  6
PHANTOM
100
AcDbLine
 10
-26.0722621097
 20
0.6497257285
 30
0.0
 11
-25.7547572647
 21
0.099791111849
 31
0.0
  0
LINE
  5
17F
330
25
100
AcDbEntity
  8
0
  6
PHANTOM
100
AcDbLine
 10
-25.754611355
 20
-0.1006702042
 30
0.0
 11
-26.0721771973
 21
-0.6507105369
 31
0.0
  0
LINE
  5
180
330
25
100
AcDbEntity
  8
0
  6
PHANTOM
100
AcDbLine
 10
-28.9002838135
 20
1.3997182846
 30
0.0
 11
-28.9002838135
 21
0.8497924209
 31
0.0
  0
LINE
  5
181
330
25
100
AcDbEntity
  8
0
  6
PHANTOM
100
AcDbLine
 10
-28.9002838135
 20
-0.8501586318
 30
0.0
 11
-28.9002838135
 21
-1.3999624252
 31
0.0
  0
ARC
  5
182
330
25
100
AcDbEntity
  8
0
  6
PHANTOM
100
AcDbCircle
 10
-27.8002319336
 20
0.0
 30
0.0
 40
0.5999994278
100
AcDbArc
 50
90.0000366554
 51
269.9998914002
  0
LINE
  5
183
330
25
100
AcDbEntity
  8
0
  6
PHANTOM
100
AcDbLine
 10
-28.9002838135
 20
1.3997182846
 30
0.0
 11
-28.9002838135
 21
1.284239769
 31
0.0
  0
ARC
  5
184
330
25
100
AcDbEntity
  8
0
  6
PHANTOM
100
AcDbCircle
 10
-27.5003051758
 20
0.0
 30
0.0
 40
1.8999996185
100
AcDbArc
 50
137.4630758394
 51
222.5368522163
  0
LINE
  5
185
330
25
100
AcDbEntity
  8
0
  6
PHANTOM
100
AcDbLine
 10
-28.9002838135
 20
-1.2846059799
 30
0.0
 11
-28.9002838135
 21
-1.3999624252
 31
0.0
  0
LINE
  5
186
330
25
100
AcDbEntity
  8
0
  6
PHANTOM
100
AcDbLine
 10
-27.8003082275
 20
0.5997924209
 30
0.0
 11
-26.4004058838
 21
0.5997924209
 31
0.0
  0
LINE
  5
187
330
25
100
AcDbEntity
  8
0
  6
PHANTOM
100
AcDbLine
 10
-27.8003082275
 20
-0.6001586318
 30
0.0
 11
-26.4004058838
 21
-0.6001586318
 31
0.0
  0
ARC
  5
188
330
25
100
AcDbEntity
  8
0
  6
PHANTOM
100
AcDbCircle
 10
-26.4003295898
 20
0.0
 30
0.0
 40
0.5999994278
100
AcDbArc
 50
270.0000726276
 51
449.9999820139
  0
LINE
  5
189
330
25
100
AcDbEntity
  8
0
  6
PHANTOM
100
AcDbLine
 10
-21.3999786377
 20
-1.3001089096
 30
0.0
 11
-28.9002838135
 21
-1.3001089096
 31
0.0
  0
LINE
  5
18A
330
25
100
AcDbEntity
  8
0
  6
PHANTOM
100
AcDbLine
 10
-21.3999786377
 20
-1.3999624252
 30
0.0
 11
-28.9002838135
 21
-1.3999624252
 31
0.0
  0
LINE
  5
18B
330
25
100
AcDbEntity
  8
0
  6
PHANTOM
100
AcDbLine
 10
-22.3999176025
 20
-5.2000570297
 30
0.0
 11
-22.3999176025
 21
-1.3999624252
 31
0.0
  0
ARC
  5
18C
330
25
100
AcDbEntity
  8
0
  6
PHANTOM
100
AcDbCircle
 10
-22.0999145508
 20
5.3999786377
 30
0.0
 40
0.2999997735
100
AcDbArc
 50
89.9999820139
 51
180.0000186693
  0
ARC
  5
18D
330
25
100
AcDbEntity
  8
0
  6
PHANTOM
100
AcDbCircle
 10
-22.0999145508
 20
4.4499816895
 30
0.0
 40
0.2999997735
100
AcDbArc
 50
89.9999820139
 51
179.9999640278
  0
ARC
  5
18E
330
25
100
AcDbEntity
  8
0
  6
PHANTOM
100
AcDbCircle
 10
-22.0999145508
 20
-5.1999969482
 30
0.0
 40
0.2999997735
100
AcDbArc
 50
179.9999640278
 51
269.9999460417
  0
ARC
  5
18F
330
25
100
AcDbEntity
  8
0
  6
PHANTOM
100
AcDbCircle
 10
-22.0999145508
 20
-4.6000061035
 30
0.0
 40
0.2999997735
100
AcDbArc
 50
179.9999640278
 51
269.9999460417
  0
LINE
  5
190
330
25
100
AcDbEntity
  8
0
  6
PHANTOM
100
AcDbLine
 10
-22.0999145508
 20
4.7499227524
 30
0.0
 11
-21.3999633789
 21
4.7499227524
 31
0.0
  0
LINE
  5
191
330
25
100
AcDbEntity
  8
0
  6
PHANTOM
100
AcDbLine
 10
-22.0999145508
 20
-4.900053978
 30
0.0
 11
-21.3999633789
 21
-4.900053978
 31
0.0
  0
LINE
  5
192
330
25
100
AcDbEntity
  8
0
  6
PHANTOM
100
AcDbLine
 10
-21.3999786377
 20
5.6999282837
 30
0.0
 11
-22.0999298096
 21
5.6999282837
 31
0.0
  0
LINE
  5
193
330
25
100
AcDbEntity
  8
0
  6
PHANTOM
100
AcDbLine
 10
-22.0999145508
 20
-5.5000448227
 30
0.0
 11
-21.3999633789
 21
-5.5000448227
 31
0.0
  0
LINE
  5
194
330
25
100
AcDbEntity
  8
0
  6
PHANTOM
100
AcDbLine
 10
-22.3999176025
 20
1.3997030258
 30
0.0
 11
-22.3999176025
 21
5.3999319077
 31
0.0
  0
LINE
  5
195
330
25
100
AcDbEntity
  8
0
  6
PHANTOM
100
AcDbLine
 10
-21.6999664307
 20
-6.400053978
 30
0.0
 11
-28.8970336914
 21
-6.400053978
 31
0.0
  0
LINE
  5
196
330
25
100
AcDbEntity
  8
0
  6
PHANTOM
100
AcDbLine
 10
-21.6999664307
 20
6.3999319077
 30
0.0
 11
-21.6999664307
 21
5.6999197006
 31
0.0
  0
LINE
  5
197
330
25
100
AcDbEntity
  8
0
  6
PHANTOM
100
AcDbLine
 10
-21.6999664307
 20
-5.5000600815
 30
0.0
 11
-21.6999664307
 21
-6.400053978
 31
0.0
  0
LINE
  5
198
330
25
100
AcDbEntity
  8
0
  6
PHANTOM
100
AcDbLine
 10
-30.4166564941
 20
4.9999227524
 30
0.0
 11
-24.9485015869
 21
4.9999227524
 31
0.0
  0
LINE
  5
199
330
25
100
AcDbEntity
  8
0
  6
PHANTOM
100
AcDbLine
 10
-30.2986450195
 20
-5.0000600815
 30
0.0
 11
-24.9485015869
 21
-5.0000600815
 31
0.0
  0
LINE
  5
19A
330
25
100
AcDbEntity
  8
0
  6
PHANTOM
100
AcDbLine
 10
-27.7969970703
 20
-4.400053978
 30
0.0
 11
-26.3970336914
 21
-4.400053978
 31
0.0
  0
LINE
  5
19B
330
25
100
AcDbEntity
  8
0
  6
PHANTOM
100
AcDbLine
 10
-27.7969970703
 20
-5.6000509262
 30
0.0
 11
-26.3970336914
 21
-5.6000509262
 31
0.0
  0
ARC
  5
19C
330
25
100
AcDbEntity
  8
0
  6
PHANTOM
100
AcDbCircle
 10
-27.7969818115
 20
-5.0
 30
0.0
 40
0.599998951
100
AcDbArc
 50
89.9999820139
 51
269.9998914002
  0
ARC
  5
19D
330
25
100
AcDbEntity
  8
0
  6
PHANTOM
100
AcDbCircle
 10
-26.3970336914
 20
-5.0
 30
0.0
 40
0.599998951
100
AcDbArc
 50
270.0000726276
 51
449.9999820139
  0
LINE
  5
19E
330
25
100
AcDbEntity
  8
0
  6
PHANTOM
100
AcDbLine
 10
-27.7970428467
 20
5.5999288559
 30
0.0
 11
-26.3970336914
 21
5.5999288559
 31
0.0
  0
LINE
  5
19F
330
25
100
AcDbEntity
  8
0
  6
PHANTOM
100
AcDbLine
 10
-27.7970428467
 20
4.3999319077
 30
0.0
 11
-26.3970336914
 21
4.3999319077
 31
0.0
  0
ARC
  5
1A0
330
25
100
AcDbEntity
  8
0
  6
PHANTOM
100
AcDbCircle
 10
-27.7970275879
 20
4.9999847412
 30
0.0
 40
0.599998951
100
AcDbArc
 50
89.9999820139
 51
269.9998914002
  0
ARC
  5
1A1
330
25
100
AcDbEntity
  8
0
  6
PHANTOM
100
AcDbCircle
 10
-26.3970336914
 20
4.9999847412
 30
0.0
 40
0.599998951
100
AcDbArc
 50
270.0000726276
 51
449.9999820139
  0
ARC
  5
1A2
330
25
100
AcDbEntity
  8
0
  6
PHANTOM
100
AcDbCircle
 10
-27.1999664307
 20
4.9999847412
 30
0.0
 40
2.1999979019
100
AcDbArc
 50
140.4787409617
 51
219.5211324524
  0
ARC
  5
1A3
330
25
100
AcDbEntity
  8
0
  6
PHANTOM
100
AcDbCircle
 10
-27.1999664307
 20
-5.0
 30
0.0
 40
2.1999979019
100
AcDbArc
 50
140.4787956032
 51
219.5211870939
  0
LINE
  5
1A4
330
25
100
AcDbEntity
  8
0
  6
PHANTOM
100
AcDbLine
 10
-22.3999176025
 20
-3.6000509262
 30
0.0
 11
-28.8970336914
 21
-3.6000509262
 31
0.0
  0
LINE
  5
1A5
330
25
100
AcDbEntity
  8
0
  6
PHANTOM
100
AcDbLine
 10
-28.8970336914
 20
-3.6000509262
 30
0.0
 11
-28.8970336914
 21
-6.400053978
 31
0.0
  0
LINE
  5
1A6
330
25
100
AcDbEntity
  8
0
  6
PHANTOM
100
AcDbLine
 10
-22.3999328613
 20
3.5999288559
 30
0.0
 11
-28.8970336914
 21
3.5999288559
 31
0.0
  0
LINE
  5
1A7
330
25
100
AcDbEntity
  8
0
  6
PHANTOM
100
AcDbLine
 10
-21.6999664307
 20
6.3999319077
 30
0.0
 11
-28.8970336914
 21
6.3999319077
 31
0.0
  0
LINE
  5
1A8
330
25
100
AcDbEntity
  8
0
  6
PHANTOM
100
AcDbLine
 10
-28.8970336914
 20
6.3999319077
 30
0.0
 11
-28.8970336914
 21
3.5999288559
 31
0.0
  0
POINT
  5
1A9
330
25
100
AcDbEntity
  8
0
100
AcDbPoint
 10
1.0
 20
0.0
 30
0.0
  0
POINT
  5
1AA
330
25
100
AcDbEntity
  8
0
100
AcDbPoint
 10
0.0
 20
0.0
 30
0.0
  0
ENDBLK
  5
1AB
330
25
100
AcDbEntity
  8
0
100
AcDbBlockEnd
  0
BLOCK
  5
AB
330
27
100
AcDbEntity
  8
0
100
AcDbBlockBegin
  2
*D2
 70
     1
 10
0.0
 20
0.0
 30
0.0
  3
*D2
  1
*D2
  0
LINE
  5
AC
330
27
100
AcDbEntity
  8
0
100
AcDbLine
 10
-37.2702178955
 20
120.6639862061
 30
0.0
 11
-36.8800372514
 21
122.6255567674
 31
0.0
  0
LINE
  5
AD
330
27
100
AcDbEntity
  8
0
100
AcDbLine
 10
-37.2702178955
 20
120.6639862061
 30
0.0
 11
-37.6603985396
 21
122.6255567674
 31
0.0
  0
LINE
  5
AE
330
27
100
AcDbEntity
  8
0
100
AcDbLine
 10
-37.2702178955
 20
131.1639404297
 30
0.0
 11
-37.6603985396
 21
129.2023698684
 31
0.0
  0
LINE
  5
AF
330
27
100
AcDbEntity
  8
0
100
AcDbLine
 10
-37.2702178955
 20
131.1639404297
 30
0.0
 11
-36.8800372514
 21
129.2023698684
 31
0.0
  0
LINE
  5
B0
330
27
100
AcDbEntity
  8
0
100
AcDbLine
 10
-37.2702178955
 20
120.6639862061
 30
0.0
 11
-37.2702178955
 21
131.1639404297
 31
0.0
  0
LINE
  5
B1
330
27
100
AcDbEntity
  8
0
  6
GAP
100
AcDbLine
 10
-39.7302179337
 20
120.6639862061
 30
0.0
 11
-35.7702331543
 21
120.6639862061
 31
0.0
  0
LINE
  5
B2
330
27
100
AcDbEntity
  8
0
  6
GAP
100
AcDbLine
 10
-41.0212488174
 20
131.1639404297
 30
0.0
 11
-35.7702331543
 21
131.1639404297
 31
0.0
  0
TEXT
  5
B3
330
27
100
AcDbEntity
  8
0
100
AcDbText
 10
-37.8952176571
 20
121.2482042788
 30
0.0
 40
2.4999990979
  1
10.5
 50
90.0
 41
1.493040989837
 72
     5
 11
-37.8952176571
 21
130.5797070981
 31
0.0
100
AcDbText
  0
ENDBLK
  5
B4
330
27
100
AcDbEntity
  8
0
100
AcDbBlockEnd
  0
BLOCK
  5
B5
330
28
100
AcDbEntity
  8
0
100
AcDbBlockBegin
  2
*D3
 70
     1
 10
0.0
 20
0.0
 30
0.0
  3
*D3
  1
*D3
  0
LINE
  5
B6
330
28
100
AcDbEntity
  8
0
100
AcDbLine
 10
-32.2702178955
 20
120.6639862061
 30
0.0
 11
-31.8800372514
 21
122.6255567674
 31
0.0
  0
LINE
  5
B7
330
28
100
AcDbEntity
  8
0
100
AcDbLine
 10
-32.2702178955
 20
120.6639862061
 30
0.0
 11
-32.6603985396
 21
122.6255567674
 31
0.0
  0
LINE
  5
B8
330
28
100
AcDbEntity
  8
0
100
AcDbLine
 10
-32.2702178955
 20
133.6639404297
 30
0.0
 11
-32.6603985396
 21
131.7023698684
 31
0.0
  0
LINE
  5
B9
330
28
100
AcDbEntity
  8
0
100
AcDbLine
 10
-32.2702178955
 20
133.6639404297
 30
0.0
 11
-31.8800372514
 21
131.7023698684
 31
0.0
  0
LINE
  5
BA
330
28
100
AcDbEntity
  8
0
100
AcDbLine
 10
-32.2702178955
 20
120.6639862061
 30
0.0
 11
-32.2702178955
 21
133.6639404297
 31
0.0
  0
LINE
  5
BB
330
28
100
AcDbEntity
  8
0
  6
GAP
100
AcDbLine
 10
-39.7302179337
 20
120.6639862061
 30
0.0
 11
-30.7702331543
 21
120.6639862061
 31
0.0
  0
LINE
  5
BC
330
28
100
AcDbEntity
  8
0
  6
GAP
100
AcDbLine
 10
-40.0302209854
 20
133.6639404297
 30
0.0
 11
-30.7702331543
 21
133.6639404297
 31
0.0
  0
TEXT
  5
BD
330
28
100
AcDbEntity
  8
0
100
AcDbText
 10
-32.8952176571
 20
122.4982042788
 30
0.0
 40
2.4999990979
  1
13.0
 50
90.0
 41
1.493040989837
 72
     5
 11
-32.8952176571
 21
131.8297070981
 31
0.0
100
AcDbText
  0
ENDBLK
  5
BE
330
28
100
AcDbEntity
  8
0
100
AcDbBlockEnd
  0
BLOCK
  5
BF
330
90
100
AcDbEntity
  8
0
100
AcDbBlockBegin
  2
*D4
 70
     1
 10
0.0
 20
0.0
 30
0.0
  3
*D4
  1
*D4
  0
LINE
  5
C0
330
90
100
AcDbEntity
  8
0
100
AcDbLine
 10
-27.2702178955
 20
110.1639404297
 30
0.0
 11
-26.8800372514
 21
112.125510991
 31
0.0
  0
LINE
  5
C1
330
90
100
AcDbEntity
  8
0
100
AcDbLine
 10
-27.2702178955
 20
110.1639404297
 30
0.0
 11
-27.6603985396
 21
112.125510991
 31
0.0
  0
LINE
  5
C2
330
90
100
AcDbEntity
  8
0
100
AcDbLine
 10
-27.2702178955
 20
133.6639404297
 30
0.0
 11
-27.6603985396
 21
131.7023698684
 31
0.0
  0
LINE
  5
C3
330
90
100
AcDbEntity
  8
0
100
AcDbLine
 10
-27.2702178955
 20
133.6639404297
 30
0.0
 11
-26.8800372514
 21
131.7023698684
 31
0.0
  0
LINE
  5
C4
330
90
100
AcDbEntity
  8
0
100
AcDbLine
 10
-27.2702178955
 20
110.1639404297
 30
0.0
 11
-27.2702178955
 21
133.6639404297
 31
0.0
  0
LINE
  5
C5
330
90
100
AcDbEntity
  8
0
  6
GAP
100
AcDbLine
 10
-40.0302209854
 20
110.1639404297
 30
0.0
 11
-25.7702331543
 21
110.1639404297
 31
0.0
  0
LINE
  5
C6
330
90
100
AcDbEntity
  8
0
  6
GAP
100
AcDbLine
 10
-41.2257013321
 20
133.6639404297
 30
0.0
 11
-25.7702331543
 21
133.6639404297
 31
0.0
  0
TEXT
  5
C7
330
90
100
AcDbEntity
  8
0
100
AcDbText
 10
-27.8952176571
 20
117.2481890201
 30
0.0
 40
2.4999990979
  1
23.5
 50
90.0
 41
1.244200824851
 72
     5
 11
-27.8952176571
 21
126.5796918393
 31
0.0
100
AcDbText
  0
ENDBLK
  5
C8
330
90
100
AcDbEntity
  8
0
100
AcDbBlockEnd
  0
BLOCK
  5
C9
330
91
100
AcDbEntity
  8
0
100
AcDbBlockBegin
  2
*D5
 70
     1
 10
0.0
 20
0.0
 30
0.0
  3
*D5
  1
*D5
  0
LINE
  5
CA
330
91
100
AcDbEntity
  8
0
100
AcDbLine
 10
-106.0662841797
 20
51.171875
 30
0.0
 11
-104.1047136184
 21
50.7816943559
 31
0.0
  0
LINE
  5
CB
330
91
100
AcDbEntity
  8
0
100
AcDbLine
 10
-106.0662841797
 20
51.171875
 30
0.0
 11
-104.1047136184
 21
51.5620556441
 31
0.0
  0
LINE
  5
CC
330
91
100
AcDbEntity
  8
0
100
AcDbLine
 10
-92.0662841797
 20
51.171875
 30
0.0
 11
-94.027854741
 21
51.5620556441
 31
0.0
  0
LINE
  5
CD
330
91
100
AcDbEntity
  8
0
100
AcDbLine
 10
-92.0662841797
 20
51.171875
 30
0.0
 11
-94.027854741
 21
50.7816943559
 31
0.0
  0
LINE
  5
CE
330
91
100
AcDbEntity
  8
0
100
AcDbLine
 10
-106.0662841797
 20
51.171875
 30
0.0
 11
-92.0662841797
 21
51.171875
 31
0.0
  0
LINE
  5
CF
330
91
100
AcDbEntity
  8
0
  6
GAP
100
AcDbLine
 10
-106.0662841797
 20
58.6318750381
 30
0.0
 11
-106.0662841797
 21
49.671875
 31
0.0
  0
LINE
  5
D0
330
91
100
AcDbEntity
  8
0
  6
GAP
100
AcDbLine
 10
-92.0662841797
 20
58.6318750381
 30
0.0
 11
-92.0662841797
 21
49.671875
 31
0.0
  0
TEXT
  5
D1
330
91
100
AcDbEntity
  8
0
100
AcDbText
 10
-103.7320355893
 20
51.7968747616
 30
0.0
 40
2.4999990979
  1
14.0
 41
1.493040989821
 72
     5
 11
-94.4005327701
 21
51.7968747616
 31
0.0
100
AcDbText
  0
ENDBLK
  5
D2
330
91
100
AcDbEntity
  8
0
100
AcDbBlockEnd
  0
BLOCK
  5
D3
330
92
100
AcDbEntity
  8
0
100
AcDbBlockBegin
  2
*D6
 70
     1
 10
0.0
 20
0.0
 30
0.0
  3
*D6
  1
*D6
  0
LINE
  5
D4
330
92
100
AcDbEntity
  8
0
100
AcDbLine
 10
-106.0662841797
 20
143.6640167236
 30
0.0
 11
-104.1047136184
 21
143.2738360795
 31
0.0
  0
LINE
  5
D5
330
92
100
AcDbEntity
  8
0
100
AcDbLine
 10
-106.0662841797
 20
143.6640167236
 30
0.0
 11
-104.1047136184
 21
144.0541973678
 31
0.0
  0
LINE
  5
D6
330
92
100
AcDbEntity
  8
0
100
AcDbLine
 10
-74.0662994385
 20
143.6640167236
 30
0.0
 11
-76.0278699998
 21
144.0541973678
 31
0.0
  0
LINE
  5
D7
330
92
100
AcDbEntity
  8
0
100
AcDbLine
 10
-74.0662994385
 20
143.6640167236
 30
0.0
 11
-76.0278699998
 21
143.2738360795
 31
0.0
  0
LINE
  5
D8
330
92
100
AcDbEntity
  8
0
100
AcDbLine
 10
-106.0662841797
 20
143.6640167236
 30
0.0
 11
-74.0662994385
 21
143.6640167236
 31
0.0
  0
LINE
  5
D9
330
92
100
AcDbEntity
  8
0
  6
GAP
100
AcDbLine
 10
-106.0662841797
 20
136.2040166855
 30
0.0
 11
-106.0662841797
 21
145.1640014648
 31
0.0
  0
LINE
  5
DA
330
92
100
AcDbEntity
  8
0
  6
GAP
100
AcDbLine
 10
-74.0662994385
 20
136.7039556503
 30
0.0
 11
-74.0662994385
 21
145.1640014648
 31
0.0
  0
TEXT
  5
DB
330
92
100
AcDbEntity
  8
0
100
AcDbText
 10
-94.7320355893
 20
144.2890164852
 30
0.0
 40
2.4999990979
  1
32.0
 41
1.317389108666
 72
     5
 11
-85.4005327701
 21
144.2890164852
 31
0.0
100
AcDbText
  0
ENDBLK
  5
DC
330
92
100
AcDbEntity
  8
0
100
AcDbBlockEnd
  0
BLOCK
  5
DD
330
93
100
AcDbEntity
  8
0
100
AcDbBlockBegin
  2
*D7
 70
     1
 10
0.0
 20
0.0
 30
0.0
  3
*D7
  1
*D7
  0
LINE
  5
DE
330
93
100
AcDbEntity
  8
0
100
AcDbLine
 10
-59.4099578857
 20
245.0
 30
0.0
 11
-57.4483873244
 21
244.6098193559
 31
0.0
  0
LINE
  5
DF
330
93
100
AcDbEntity
  8
0
100
AcDbLine
 10
-59.4099578857
 20
245.0
 30
0.0
 11
-57.4483873244
 21
245.3901806441
 31
0.0
  0
LINE
  5
E0
330
93
100
AcDbEntity
  8
0
100
AcDbLine
 10
-40.9099578857
 20
245.0
 30
0.0
 11
-42.871528447
 21
245.3901806441
 31
0.0
  0
LINE
  5
E1
330
93
100
AcDbEntity
  8
0
100
AcDbLine
 10
-40.9099578857
 20
245.0
 30
0.0
 11
-42.871528447
 21
244.6098193559
 31
0.0
  0
LINE
  5
E2
330
93
100
AcDbEntity
  8
0
100
AcDbLine
 10
-59.4099578857
 20
245.0
 30
0.0
 11
-40.9099578857
 21
245.0
 31
0.0
  0
LINE
  5
E3
330
93
100
AcDbEntity
  8
0
  6
GAP
100
AcDbLine
 10
-59.4099578857
 20
237.7899999619
 30
0.0
 11
-59.4099578857
 21
246.4999847412
 31
0.0
  0
LINE
  5
E4
330
93
100
AcDbEntity
  8
0
  6
GAP
100
AcDbLine
 10
-40.9099578857
 20
237.7899999619
 30
0.0
 11
-40.9099578857
 21
246.4999847412
 31
0.0
  0
TEXT
  5
E5
330
93
100
AcDbEntity
  8
0
100
AcDbText
 10
-57.2892122032
 20
245.6249997616
 30
0.0
 40
2.4999990979
  1
19.0以上
 41
1.148336680272
 72
     5
 11
-43.0307035682
 21
245.6249997616
 31
0.0
100
AcDbText
  0
ENDBLK
  5
E6
330
93
100
AcDbEntity
  8
0
100
AcDbBlockEnd
  0
BLOCK
  5
E7
330
94
100
AcDbEntity
  8
0
100
AcDbBlockBegin
  2
*D8
 70
     1
 10
0.0
 20
0.0
 30
0.0
  3
*D8
  1
*D8
  0
LINE
  5
E8
330
94
100
AcDbEntity
  8
0
100
AcDbLine
 10
-74.6599578857
 20
197.5
 30
0.0
 11
-74.2697772416
 21
199.4615705613
 31
0.0
  0
LINE
  5
E9
330
94
100
AcDbEntity
  8
0
100
AcDbLine
 10
-74.6599578857
 20
197.5
 30
0.0
 11
-75.0501385299
 21
199.4615705613
 31
0.0
  0
LINE
  5
EA
330
94
100
AcDbEntity
  8
0
100
AcDbLine
 10
-74.6599578857
 20
226.0
 30
0.0
 11
-75.0501385299
 21
224.0384294387
 31
0.0
  0
LINE
  5
EB
330
94
100
AcDbEntity
  8
0
100
AcDbLine
 10
-74.6599578857
 20
226.0
 30
0.0
 11
-74.2697772416
 21
224.0384294387
 31
0.0
  0
LINE
  5
EC
330
94
100
AcDbEntity
  8
0
100
AcDbLine
 10
-74.6599578857
 20
197.5
 30
0.0
 11
-74.6599578857
 21
226.0
 31
0.0
  0
LINE
  5
ED
330
94
100
AcDbEntity
  8
0
  6
GAP
100
AcDbLine
 10
-71.1999578476
 20
197.5
 30
0.0
 11
-76.1599578857
 21
197.5
 31
0.0
  0
LINE
  5
EE
330
94
100
AcDbEntity
  8
0
  6
GAP
100
AcDbLine
 10
-71.1999578476
 20
226.0
 30
0.0
 11
-76.1599578857
 21
226.0
 31
0.0
  0
TEXT
  5
EF
330
94
100
AcDbEntity
  8
0
100
AcDbText
 10
-75.2849576473
 20
205.3334837196
 30
0.0
 40
2.4999990979
  1
26.5以上
 50
90.0
 41
1.043305886345
 72
     5
 11
-75.2849576473
 21
219.5919923546
 31
0.0
100
AcDbText
  0
ENDBLK
  5
F0
330
94
100
AcDbEntity
  8
0
100
AcDbBlockEnd
  0
BLOCK
  5
F1
330
95
100
AcDbEntity
  8
0
100
AcDbBlockBegin
  2
*D9
 70
     1
 10
0.0
 20
0.0
 30
0.0
  3
*D9
  1
*D9
  0
LINE
  5
F2
330
95
100
AcDbEntity
  8
0
100
AcDbLine
 10
-46.6515279058
 20
220.2857117094
 30
0.0
 11
-44.9858875727
 21
221.3927990062
 31
0.0
  0
LINE
  5
F3
330
95
100
AcDbEntity
  8
0
100
AcDbLine
 10
-46.6515279058
 20
220.2857117094
 30
0.0
 11
-45.5363408602
 21
221.9459399634
 31
0.0
  0
LINE
  5
F4
330
95
100
AcDbEntity
  8
0
100
AcDbLine
 10
-35.1685362278
 20
231.7129084078
 30
0.0
 11
-36.8341765609
 21
230.605821111
 31
0.0
  0
LINE
  5
F5
330
95
100
AcDbEntity
  8
0
100
AcDbLine
 10
-35.1685362278
 20
231.7129084078
 30
0.0
 11
-36.2837232734
 21
230.0526801538
 31
0.0
  0
LINE
  5
F6
330
95
100
AcDbEntity
  8
0
100
AcDbLine
 10
-46.6515279058
 20
220.2857117094
 30
0.0
 11
-35.1685362278
 21
231.7129084078
 31
0.0
  0
LINE
  5
F7
330
95
100
AcDbEntity
  8
0
100
AcDbLine
 10
-35.1685362278
 20
231.7129084078
 30
0.0
 11
-14.500931884
 21
252.2800904406
 31
0.0
  0
TEXT
  5
F8
330
95
100
AcDbEntity
  8
0
100
AcDbText
 10
-27.0738949755
 20
240.64995684
 30
0.0
 40
2.4999990979
  1
%%c16.2
 50
44.860463367882
 41
1.285255214825
 72
     5
 11
-18.7228512636
 21
248.9604234683
 31
0.0
100
AcDbText
  0
TEXT
  5
F9
330
95
100
AcDbEntity
  8
0
100
AcDbText
 10
-19.5715971694
 20
250.7610167058
 30
0.0
 40
1.249999549
  1
+0.2
 50
44.860463367634
 41
1.31738910863
 72
     5
 11
-16.2643877531
 21
254.0521566441
 31
0.0
100
AcDbText
  0
TEXT
  5
FA
330
95
100
AcDbEntity
  8
0
100
AcDbText
 10
-18.2490052675
 20
249.4319670532
 30
0.0
 40
1.249999549
  1
 0
 50
44.860463368391
 41
1.155068343836
 72
     5
 11
-16.7138620547
 21
250.9596511224
 31
0.0
100
AcDbText
  0
ENDBLK
  5
FB
330
95
100
AcDbEntity
  8
0
100
AcDbBlockEnd
  0
BLOCK
  5
FC
330
96
100
AcDbEntity
  8
0
100
AcDbBlockBegin
  2
*D10
 70
     1
 10
0.0
 20
0.0
 30
0.0
  3
*D10
  1
*D10
  0
LINE
  5
FD
330
96
100
AcDbEntity
  8
0
100
AcDbLine
 10
-60.2702178955
 20
143.6639709473
 30
0.0
 11
-58.3086473342
 21
143.2737903031
 31
0.0
  0
LINE
  5
FE
330
96
100
AcDbEntity
  8
0
100
AcDbLine
 10
-60.2702178955
 20
143.6639709473
 30
0.0
 11
-58.3086473342
 21
144.0541515914
 31
0.0
  0
LINE
  5
FF
330
96
100
AcDbEntity
  8
0
100
AcDbLine
 10
-42.2702178955
 20
143.6639709473
 30
0.0
 11
-44.2317884568
 21
144.0541515914
 31
0.0
  0
LINE
  5
100
330
96
100
AcDbEntity
  8
0
100
AcDbLine
 10
-42.2702178955
 20
143.6639709473
 30
0.0
 11
-44.2317884568
 21
143.2737903031
 31
0.0
  0
LINE
  5
101
330
96
100
AcDbEntity
  8
0
100
AcDbLine
 10
-60.2702178955
 20
143.6639709473
 30
0.0
 11
-42.2702178955
 21
143.6639709473
 31
0.0
  0
LINE
  5
102
330
96
100
AcDbEntity
  8
0
  6
GAP
100
AcDbLine
 10
-60.2702178955
 20
135.903922081
 30
0.0
 11
-60.2702178955
 21
145.1639556885
 31
0.0
  0
LINE
  5
103
330
96
100
AcDbEntity
  8
0
  6
GAP
100
AcDbLine
 10
-42.2702178955
 20
135.9039068222
 30
0.0
 11
-42.2702178955
 21
145.1639556885
 31
0.0
  0
TEXT
  5
104
330
96
100
AcDbEntity
  8
0
100
AcDbText
 10
-55.9359693051
 20
144.2889707088
 30
0.0
 40
2.4999990979
  1
18.0
 41
1.493040989821
 72
     5
 11
-46.6044664859
 21
144.2889707088
 31
0.0
100
AcDbText
  0
ENDBLK
  5
105
330
96
100
AcDbEntity
  8
0
100
AcDbBlockEnd
  0
BLOCK
  5
3A2
330
3A1
100
AcDbEntity
  8
0
100
AcDbBlockBegin
  2
_OPEN30
 70
     0
 10
0.0
 20
0.0
 30
0.0
  3
_OPEN30
  1
_OPEN30
  0
LINE
  5
3A3
330
3A1
100
AcDbEntity
  8
0
  6
ByBlock
 62
     0
370
    -2
100
AcDbLine
 10
-1.0
 20
0.267949
 30
0.0
 11
0.0
 21
0.0
 31
0.0
  0
LINE
  5
3A4
330
3A1
100
AcDbEntity
  8
0
  6
ByBlock
 62
     0
370
    -2
100
AcDbLine
 10
0.0
 20
0.0
 30
0.0
 11
-1.0
 21
-0.267949
 31
0.0
  0
LINE
  5
3A5
330
3A1
100
AcDbEntity
  8
0
  6
ByBlock
 62
     0
370
    -2
100
AcDbLine
 10
0.0
 20
0.0
 30
0.0
 11
-1.0
 21
0.0
 31
0.0
  0
ENDBLK
  5
3A6
330
3A1
100
AcDbEntity
  8
0
100
AcDbBlockEnd
  0
BLOCK
  5
3E4
330
3E3
100
AcDbEntity
  8
0
100
AcDbBlockBegin
  2
*D29
 70
     1
 10
0.0
 20
0.0
 30
0.0
  3
*D29
  1
*D29
  0
LINE
  5
3E5
330
3E3
100
AcDbEntity
  8
IDEC_DIM
370
    13
100
AcDbLine
 10
-67.986284281356
 20
2.655404490394
 30
0.0
 11
-67.986284281356
 21
14.744548293611
 31
0.0
  0
LINE
  5
3E6
330
3E3
100
AcDbEntity
  8
IDEC_DIM
370
    13
100
AcDbLine
 10
-57.986284281356
 20
3.280404490394
 30
0.0
 11
-57.986284281356
 21
14.744548293611
 31
0.0
  0
LINE
  5
3E7
330
3E3
100
AcDbEntity
  8
IDEC_DIM
370
    13
100
AcDbLine
 10
-65.986284281356
 20
13.494548293611
 30
0.0
 11
-59.986284281356
 21
13.494548293611
 31
0.0
  0
INSERT
  5
3E8
330
3E3
100
AcDbEntity
  8
IDEC_DIM
370
    13
100
AcDbBlockReference
  2
_IDEC_OPEN30
 10
-67.986284281356
 20
13.494548293611
 30
0.0
 41
2.0
 42
2.0
 43
2.0
 50
180.0
  0
INSERT
  5
3F1
330
3E3
100
AcDbEntity
  8
IDEC_DIM
370
    13
100
AcDbBlockReference
  2
_IDEC_OPEN30
 10
-57.986284281356
 20
13.494548293611
 30
0.0
 41
2.0
 42
2.0
 43
2.0
  0
MTEXT
  5
3F2
330
3E3
100
AcDbEntity
  8
IDEC_DIM
100
AcDbMText
 10
-62.986284281356
 20
15.244548293611
 30
0.0
 40
2.5
 41
0.0
 71
     5
 72
     1
  1
\A2;10.0
  7
IDEC_TEXT
 73
     1
 44
1.0
  0
POINT
  5
3F3
330
3E3
100
AcDbEntity
  8
Defpoints
 62
     0
100
AcDbPoint
 10
-67.986284281356
 20
2.030404490394
 30
0.0
  0
POINT
  5
3F4
330
3E3
100
AcDbEntity
  8
Defpoints
 62
     0
100
AcDbPoint
 10
-57.986284281356
 20
2.655404490394
 30
0.0
  0
POINT
  5
3F5
330
3E3
100
AcDbEntity
  8
Defpoints
 62
     0
100
AcDbPoint
 10
-57.986284281356
 20
13.494548293611
 30
0.0
  0
ENDBLK
  5
3F6
330
3E3
100
AcDbEntity
  8
0
100
AcDbBlockEnd
  0
BLOCK
  5
3EC
330
3E9
100
AcDbEntity
  8
0
100
AcDbBlockBegin
  2
_IDEC_OPEN30
 70
     0
 10
0.0
 20
0.0
 30
0.0
  3
_IDEC_OPEN30
  1
_IDEC_OPEN30
  0
LINE
  5
3ED
330
3E9
100
AcDbEntity
  8
0
  6
ByBlock
 62
     0
370
    -2
100
AcDbLine
 10
-1.0
 20
0.267949
 30
0.0
 11
0.0
 21
0.0
 31
0.0
  0
LINE
  5
3EE
330
3E9
100
AcDbEntity
  8
0
  6
ByBlock
 62
     0
370
    -2
100
AcDbLine
 10
0.0
 20
0.0
 30
0.0
 11
-1.0
 21
-0.267949
 31
0.0
  0
LINE
  5
3EF
330
3E9
100
AcDbEntity
  8
0
  6
ByBlock
 62
     0
370
    -2
100
AcDbLine
 10
0.0
 20
0.0
 30
0.0
 11
-2.0
 21
0.0
 31
0.0
  0
ENDBLK
  5
3F0
330
3E9
100
AcDbEntity
  8
0
100
AcDbBlockEnd
  0
BLOCK
  5
3F9
330
3F8
100
AcDbEntity
  8
0
100
AcDbBlockBegin
  2
*D31
 70
     1
 10
0.0
 20
0.0
 30
0.0
  3
*D31
  1
*D31
  0
LINE
  5
3FA
330
3F8
100
AcDbEntity
  8
IDEC_DIM
370
    13
100
AcDbLine
 10
-86.986284281356
 20
1.780574075025
 30
0.0
 11
-86.986284281356
 21
14.744548293611
 31
0.0
  0
LINE
  5
3FB
330
3F8
100
AcDbEntity
  8
IDEC_DIM
370
    13
100
AcDbLine
 10
-76.986284281356
 20
1.780574075025
 30
0.0
 11
-76.986284281356
 21
14.744548293611
 31
0.0
  0
LINE
  5
3FC
330
3F8
100
AcDbEntity
  8
IDEC_DIM
370
    13
100
AcDbLine
 10
-84.986284281356
 20
13.494548293611
 30
0.0
 11
-78.986284281356
 21
13.494548293611
 31
0.0
  0
INSERT
  5
3FD
330
3F8
100
AcDbEntity
  8
IDEC_DIM
370
    13
100
AcDbBlockReference
  2
_IDEC_OPEN30R
 10
-86.986284281356
 20
13.494548293611
 30
0.0
 41
2.0
 42
2.0
 43
2.0
 50
180.0
  0
INSERT
  5
406
330
3F8
100
AcDbEntity
  8
IDEC_DIM
370
    13
100
AcDbBlockReference
  2
_IDEC_OPEN30R
 10
-76.986284281356
 20
13.494548293611
 30
0.0
 41
2.0
 42
2.0
 43
2.0
  0
MTEXT
  5
407
330
3F8
100
AcDbEntity
  8
IDEC_DIM
100
AcDbMText
 10
-81.986284281356
 20
15.244548293611
 30
0.0
 40
2.5
 41
0.0
 71
     5
 72
     1
  1
\A2;10.0
  7
IDEC_TEXT
 73
     1
 44
1.0
  0
POINT
  5
408
330
3F8
100
AcDbEntity
  8
Defpoints
 62
     0
100
AcDbPoint
 10
-86.986284281356
 20
1.155574075025
 30
0.0
  0
POINT
  5
409
330
3F8
100
AcDbEntity
  8
Defpoints
 62
     0
100
AcDbPoint
 10
-76.986284281356
 20
1.155574075025
 30
0.0
  0
POINT
  5
40A
330
3F8
100
AcDbEntity
  8
Defpoints
 62
     0
100
AcDbPoint
 10
-76.986284281356
 20
13.494548293611
 30
0.0
  0
ENDBLK
  5
40B
330
3F8
100
AcDbEntity
  8
0
100
AcDbBlockEnd
  0
BLOCK
  5
401
330
3FE
100
AcDbEntity
  8
0
100
AcDbBlockBegin
  2
_IDEC_OPEN30R
 70
     0
 10
0.0
 20
0.0
 30
0.0
  3
_IDEC_OPEN30R
  1
_IDEC_OPEN30R
  0
LINE
  5
402
330
3FE
100
AcDbEntity
  8
0
  6
ByBlock
 62
     0
370
    -2
100
AcDbLine
 10
1.0
 20
0.267949
 30
0.0
 11
0.0
 21
0.0
 31
0.0
  0
LINE
  5
403
330
3FE
100
AcDbEntity
  8
0
  6
ByBlock
 62
     0
370
    -2
100
AcDbLine
 10
0.0
 20
0.0
 30
0.0
 11
1.0
 21
-0.267949
 31
0.0
  0
LINE
  5
404
330
3FE
100
AcDbEntity
  8
0
  6
ByBlock
 62
     0
370
    -2
100
AcDbLine
 10
-1.0
 20
0.0
 30
0.0
 11
2.0
 21
0.0
 31
0.0
  0
ENDBLK
  5
405
330
3FE
100
AcDbEntity
  8
0
100
AcDbBlockEnd
  0
BLOCK
  5
41E
330
413
100
AcDbEntity
  8
0
100
AcDbBlockBegin
  2
*D33
 70
     1
 10
0.0
 20
0.0
 30
0.0
  3
*D33
  1
*D33
  0
LINE
  5
414
330
413
100
AcDbEntity
  8
IDEC_DIM
370
    13
100
AcDbLine
 10
-41.6452178955
 20
120.6639862061
 30
0.0
 11
-36.0202178955
 21
120.6639862061
 31
0.0
  0
LINE
  5
415
330
413
100
AcDbEntity
  8
IDEC_DIM
370
    13
100
AcDbLine
 10
-42.9362487793
 20
131.1639404297
 30
0.0
 11
-36.0202178955
 21
131.1639404297
 31
0.0
  0
LINE
  5
416
330
413
100
AcDbEntity
  8
IDEC_DIM
370
    13
100
AcDbLine
 10
-37.2702178955
 20
122.6639862061
 30
0.0
 11
-37.2702178955
 21
129.1639404297
 31
0.0
  0
INSERT
  5
417
330
413
100
AcDbEntity
  8
IDEC_DIM
370
    13
100
AcDbBlockReference
  2
_OPEN30
 10
-37.2702178955
 20
120.6639862061
 30
0.0
 41
2.0
 42
2.0
 43
2.0
 50
270.0
  0
INSERT
  5
418
330
413
100
AcDbEntity
  8
IDEC_DIM
370
    13
100
AcDbBlockReference
  2
_OPEN30
 10
-37.2702178955
 20
131.1639404297
 30
0.0
 41
2.0
 42
2.0
 43
2.0
 50
90.0
  0
MTEXT
  5
419
330
413
100
AcDbEntity
  8
IDEC_DIM
100
AcDbMText
 10
-39.0202178955
 20
125.9139633179
 30
0.0
 40
2.5
 41
0.0
 71
     5
 72
     1
  1
\A2;10.5
  7
IDEC_TEXT
 11
0.0
 21
1.0
 31
0.0
 73
     1
 44
1.0
  0
POINT
  5
41A
330
413
100
AcDbEntity
  8
Defpoints
 62
     0
100
AcDbPoint
 10
-42.2702178955
 20
120.6639862061
 30
0.0
  0
POINT
  5
41B
330
413
100
AcDbEntity
  8
Defpoints
 62
     0
100
AcDbPoint
 10
-43.5612487793
 20
131.1639404297
 30
0.0
  0
POINT
  5
41C
330
413
100
AcDbEntity
  8
Defpoints
 62
     0
100
AcDbPoint
 10
-37.2702178955
 20
131.1639404297
 30
0.0
  0
ENDBLK
  5
41F
330
413
100
AcDbEntity
  8
0
100
AcDbBlockEnd
  0
BLOCK
  5
42B
330
420
100
AcDbEntity
  8
0
100
AcDbBlockBegin
  2
*D34
 70
     1
 10
0.0
 20
0.0
 30
0.0
  3
*D34
  1
*D34
  0
LINE
  5
421
330
420
100
AcDbEntity
  8
IDEC_DIM
370
    13
100
AcDbLine
 10
-41.6452178955
 20
120.6639862061
 30
0.0
 11
-31.0202178955
 21
120.6639862061
 31
0.0
  0
LINE
  5
422
330
420
100
AcDbEntity
  8
IDEC_DIM
370
    13
100
AcDbLine
 10
-41.9452209473
 20
133.6639404297
 30
0.0
 11
-31.0202178955
 21
133.6639404297
 31
0.0
  0
LINE
  5
423
330
420
100
AcDbEntity
  8
IDEC_DIM
370
    13
100
AcDbLine
 10
-32.2702178955
 20
122.6639862061
 30
0.0
 11
-32.2702178955
 21
131.6639404297
 31
0.0
  0
INSERT
  5
424
330
420
100
AcDbEntity
  8
IDEC_DIM
370
    13
100
AcDbBlockReference
  2
_OPEN30
 10
-32.2702178955
 20
120.6639862061
 30
0.0
 41
2.0
 42
2.0
 43
2.0
 50
270.0
  0
INSERT
  5
425
330
420
100
AcDbEntity
  8
IDEC_DIM
370
    13
100
AcDbBlockReference
  2
_OPEN30
 10
-32.2702178955
 20
133.6639404297
 30
0.0
 41
2.0
 42
2.0
 43
2.0
 50
90.0
  0
MTEXT
  5
426
330
420
100
AcDbEntity
  8
IDEC_DIM
100
AcDbMText
 10
-34.0202178955
 20
127.1639633179
 30
0.0
 40
2.5
 41
0.0
 71
     5
 72
     1
  1
\A2;13.0
  7
IDEC_TEXT
 11
0.0
 21
1.0
 31
0.0
 73
     1
 44
1.0
  0
POINT
  5
427
330
420
100
AcDbEntity
  8
Defpoints
 62
     0
100
AcDbPoint
 10
-42.2702178955
 20
120.6639862061
 30
0.0
  0
POINT
  5
428
330
420
100
AcDbEntity
  8
Defpoints
 62
     0
100
AcDbPoint
 10
-42.5702209473
 20
133.6639404297
 30
0.0
  0
POINT
  5
429
330
420
100
AcDbEntity
  8
Defpoints
 62
     0
100
AcDbPoint
 10
-32.2702178955
 20
133.6639404297
 30
0.0
  0
ENDBLK
  5
42C
330
420
100
AcDbEntity
  8
0
100
AcDbBlockEnd
  0
BLOCK
  5
437
330
42D
100
AcDbEntity
  8
0
100
AcDbBlockBegin
  2
*D35
 70
     1
 10
0.0
 20
0.0
 30
0.0
  3
*D35
  1
*D35
  0
LINE
  5
42E
330
42D
100
AcDbEntity
  8
IDEC_DIM
370
    13
100
AcDbLine
 10
-41.9452209473
 20
110.1639404297
 30
0.0
 11
-26.0202178955
 21
110.1639404297
 31
0.0
  0
LINE
  5
42F
330
42D
100
AcDbEntity
  8
IDEC_DIM
370
    13
100
AcDbLine
 10
-43.1407012939
 20
133.6639404297
 30
0.0
 11
-26.0202178955
 21
133.6639404297
 31
0.0
  0
LINE
  5
430
330
42D
100
AcDbEntity
  8
IDEC_DIM
370
    13
100
AcDbLine
 10
-27.2702178955
 20
112.1639404297
 30
0.0
 11
-27.2702178955
 21
131.6639404297
 31
0.0
  0
INSERT
  5
431
330
42D
100
AcDbEntity
  8
IDEC_DIM
370
    13
100
AcDbBlockReference
  2
_OPEN30
 10
-27.2702178955
 20
110.1639404297
 30
0.0
 41
2.0
 42
2.0
 43
2.0
 50
270.0
  0
INSERT
  5
432
330
42D
100
AcDbEntity
  8
IDEC_DIM
370
    13
100
AcDbBlockReference
  2
_OPEN30
 10
-27.2702178955
 20
133.6639404297
 30
0.0
 41
2.0
 42
2.0
 43
2.0
 50
90.0
  0
MTEXT
  5
433
330
42D
100
AcDbEntity
  8
IDEC_DIM
100
AcDbMText
 10
-29.0202178955
 20
121.9139404297
 30
0.0
 40
2.5
 41
0.0
 71
     5
 72
     1
  1
\A2;23.5
  7
IDEC_TEXT
 11
0.0
 21
1.0
 31
0.0
 73
     1
 44
1.0
  0
POINT
  5
434
330
42D
100
AcDbEntity
  8
Defpoints
 62
     0
100
AcDbPoint
 10
-42.5702209473
 20
110.1639404297
 30
0.0
  0
POINT
  5
435
330
42D
100
AcDbEntity
  8
Defpoints
 62
     0
100
AcDbPoint
 10
-43.7657012939
 20
133.6639404297
 30
0.0
  0
POINT
  5
436
330
42D
100
AcDbEntity
  8
Defpoints
 62
     0
100
AcDbPoint
 10
-27.2702178955
 20
133.6639404297
 30
0.0
  0
ENDBLK
  5
438
330
42D
100
AcDbEntity
  8
0
100
AcDbBlockEnd
  0
BLOCK
  5
444
330
439
100
AcDbEntity
  8
0
100
AcDbBlockBegin
  2
*D36
 70
     1
 10
0.0
 20
0.0
 30
0.0
  3
*D36
  1
*D36
  0
LINE
  5
43A
330
439
100
AcDbEntity
  8
IDEC_DIM
370
    13
100
AcDbLine
 10
-106.0662841797
 20
60.546875
 30
0.0
 11
-106.0662841797
 21
49.921875
 31
0.0
  0
LINE
  5
43B
330
439
100
AcDbEntity
  8
IDEC_DIM
370
    13
100
AcDbLine
 10
-92.0662841797
 20
60.546875
 30
0.0
 11
-92.0662841797
 21
49.921875
 31
0.0
  0
LINE
  5
43C
330
439
100
AcDbEntity
  8
IDEC_DIM
370
    13
100
AcDbLine
 10
-104.0662841797
 20
51.171875
 30
0.0
 11
-94.0662841797
 21
51.171875
 31
0.0
  0
INSERT
  5
43D
330
439
100
AcDbEntity
  8
IDEC_DIM
370
    13
100
AcDbBlockReference
  2
_OPEN30
 10
-106.0662841797
 20
51.171875
 30
0.0
 41
2.0
 42
2.0
 43
2.0
 50
180.0
  0
INSERT
  5
43E
330
439
100
AcDbEntity
  8
IDEC_DIM
370
    13
100
AcDbBlockReference
  2
_OPEN30
 10
-92.0662841797
 20
51.171875
 30
0.0
 41
2.0
 42
2.0
 43
2.0
  0
MTEXT
  5
43F
330
439
100
AcDbEntity
  8
IDEC_DIM
100
AcDbMText
 10
-99.0662841797
 20
52.921875
 30
0.0
 40
2.5
 41
0.0
 71
     5
 72
     1
  1
\A2;14.0
  7
IDEC_TEXT
 73
     1
 44
1.0
  0
POINT
  5
440
330
439
100
AcDbEntity
  8
Defpoints
 62
     0
100
AcDbPoint
 10
-106.0662841797
 20
61.171875
 30
0.0
  0
POINT
  5
441
330
439
100
AcDbEntity
  8
Defpoints
 62
     0
100
AcDbPoint
 10
-92.0662841797
 20
61.171875
 30
0.0
  0
POINT
  5
442
330
439
100
AcDbEntity
  8
Defpoints
 62
     0
100
AcDbPoint
 10
-92.0662841797
 20
51.171875
 30
0.0
  0
ENDBLK
  5
445
330
439
100
AcDbEntity
  8
0
100
AcDbBlockEnd
  0
BLOCK
  5
450
330
446
100
AcDbEntity
  8
0
100
AcDbBlockBegin
  2
*D37
 70
     1
 10
0.0
 20
0.0
 30
0.0
  3
*D37
  1
*D37
  0
LINE
  5
447
330
446
100
AcDbEntity
  8
IDEC_DIM
370
    13
100
AcDbLine
 10
-106.0662841797
 20
134.2890167236
 30
0.0
 11
-106.0662841797
 21
144.9140167236
 31
0.0
  0
LINE
  5
448
330
446
100
AcDbEntity
  8
IDEC_DIM
370
    13
100
AcDbLine
 10
-74.0662994385
 20
134.7889556885
 30
0.0
 11
-74.0662994385
 21
144.9140167236
 31
0.0
  0
LINE
  5
449
330
446
100
AcDbEntity
  8
IDEC_DIM
370
    13
100
AcDbLine
 10
-104.0662841797
 20
143.6640167236
 30
0.0
 11
-76.0662994385
 21
143.6640167236
 31
0.0
  0
INSERT
  5
44A
330
446
100
AcDbEntity
  8
IDEC_DIM
370
    13
100
AcDbBlockReference
  2
_OPEN30
 10
-106.0662841797
 20
143.6640167236
 30
0.0
 41
2.0
 42
2.0
 43
2.0
 50
180.0
  0
INSERT
  5
44B
330
446
100
AcDbEntity
  8
IDEC_DIM
370
    13
100
AcDbBlockReference
  2
_OPEN30
 10
-74.0662994385
 20
143.6640167236
 30
0.0
 41
2.0
 42
2.0
 43
2.0
  0
MTEXT
  5
44C
330
446
100
AcDbEntity
  8
IDEC_DIM
100
AcDbMText
 10
-90.0662918091
 20
145.4140167236
 30
0.0
 40
2.5
 41
0.0
 71
     5
 72
     1
  1
\A2;32.0
  7
IDEC_TEXT
 73
     1
 44
1.0
  0
POINT
  5
44D
330
446
100
AcDbEntity
  8
Defpoints
 62
     0
100
AcDbPoint
 10
-106.0662841797
 20
133.6640167236
 30
0.0
  0
POINT
  5
44E
330
446
100
AcDbEntity
  8
Defpoints
 62
     0
100
AcDbPoint
 10
-74.0662994385
 20
134.1639556885
 30
0.0
  0
POINT
  5
44F
330
446
100
AcDbEntity
  8
Defpoints
 62
     0
100
AcDbPoint
 10
-74.0662994385
 20
143.6640167236
 30
0.0
  0
ENDBLK
  5
451
330
446
100
AcDbEntity
  8
0
100
AcDbBlockEnd
  0
BLOCK
  5
45C
330
452
100
AcDbEntity
  8
0
100
AcDbBlockBegin
  2
*D38
 70
     1
 10
0.0
 20
0.0
 30
0.0
  3
*D38
  1
*D38
  0
LINE
  5
453
330
452
100
AcDbEntity
  8
IDEC_DIM
370
    13
100
AcDbLine
 10
-60.2702178955
 20
133.9889221191
 30
0.0
 11
-60.2702178955
 21
144.9139709473
 31
0.0
  0
LINE
  5
454
330
452
100
AcDbEntity
  8
IDEC_DIM
370
    13
100
AcDbLine
 10
-42.2702178955
 20
133.9889068604
 30
0.0
 11
-42.2702178955
 21
144.9139709473
 31
0.0
  0
LINE
  5
455
330
452
100
AcDbEntity
  8
IDEC_DIM
370
    13
100
AcDbLine
 10
-58.2702178955
 20
143.6639709473
 30
0.0
 11
-44.2702178955
 21
143.6639709473
 31
0.0
  0
INSERT
  5
456
330
452
100
AcDbEntity
  8
IDEC_DIM
370
    13
100
AcDbBlockReference
  2
_OPEN30
 10
-60.2702178955
 20
143.6639709473
 30
0.0
 41
2.0
 42
2.0
 43
2.0
 50
180.0
  0
INSERT
  5
457
330
452
100
AcDbEntity
  8
IDEC_DIM
370
    13
100
AcDbBlockReference
  2
_OPEN30
 10
-42.2702178955
 20
143.6639709473
 30
0.0
 41
2.0
 42
2.0
 43
2.0
  0
MTEXT
  5
458
330
452
100
AcDbEntity
  8
IDEC_DIM
100
AcDbMText
 10
-51.2702178955
 20
145.4139709473
 30
0.0
 40
2.5
 41
0.0
 71
     5
 72
     1
  1
\A2;18.0
  7
IDEC_TEXT
 73
     1
 44
1.0
  0
POINT
  5
459
330
452
100
AcDbEntity
  8
Defpoints
 62
     0
100
AcDbPoint
 10
-60.2702178955
 20
133.3639221191
 30
0.0
  0
POINT
  5
45A
330
452
100
AcDbEntity
  8
Defpoints
 62
     0
100
AcDbPoint
 10
-42.2702178955
 20
133.3639068604
 30
0.0
  0
POINT
  5
45B
330
452
100
AcDbEntity
  8
Defpoints
 62
     0
100
AcDbPoint
 10
-42.2702178955
 20
143.6639709473
 30
0.0
  0
ENDBLK
  5
45D
330
452
100
AcDbEntity
  8
0
100
AcDbBlockEnd
  0
BLOCK
  5
469
330
45F
100
AcDbEntity
  8
0
100
AcDbBlockBegin
  2
*D39
 70
     1
 10
0.0
 20
0.0
 30
0.0
  3
*D39
  1
*D39
  0
LINE
  5
460
330
45F
100
AcDbEntity
  8
IDEC_DIM
370
    13
100
AcDbLine
 10
-106.0662841797
 20
60.546875
 30
0.0
 11
-106.0662841797
 21
41.913212554942
 31
0.0
  0
LINE
  5
461
330
45F
100
AcDbEntity
  8
IDEC_DIM
370
    13
100
AcDbLine
 10
-92.154155096325
 20
60.634730926821
 30
0.0
 11
-92.154155096325
 21
41.913212554942
 31
0.0
  0
LINE
  5
462
330
45F
100
AcDbEntity
  8
IDEC_DIM
370
    13
100
AcDbLine
 10
-104.0662841797
 20
43.163212554942
 30
0.0
 11
-94.154155096325
 21
43.163212554942
 31
0.0
  0
INSERT
  5
463
330
45F
100
AcDbEntity
  8
IDEC_DIM
370
    13
100
AcDbBlockReference
  2
_OPEN30
 10
-106.0662841797
 20
43.163212554942
 30
0.0
 41
2.0
 42
2.0
 43
2.0
 50
180.0
  0
INSERT
  5
464
330
45F
100
AcDbEntity
  8
IDEC_DIM
370
    13
100
AcDbBlockReference
  2
_OPEN30
 10
-92.154155096325
 20
43.163212554942
 30
0.0
 41
2.0
 42
2.0
 43
2.0
  0
MTEXT
  5
465
330
45F
100
AcDbEntity
  8
IDEC_DIM
100
AcDbMText
 10
-99.110219638012
 20
44.913212554942
 30
0.0
 40
2.5
 41
0.0
 71
     5
 72
     1
  1
\A2;13.9
  7
IDEC_TEXT
 73
     1
 44
1.0
  0
POINT
  5
466
330
45F
100
AcDbEntity
  8
Defpoints
 62
     0
100
AcDbPoint
 10
-106.0662841797
 20
61.171875
 30
0.0
  0
POINT
  5
467
330
45F
100
AcDbEntity
  8
Defpoints
 62
     0
100
AcDbPoint
 10
-92.154155096325
 20
61.259730926821
 30
0.0
  0
POINT
  5
468
330
45F
100
AcDbEntity
  8
Defpoints
 62
     0
100
AcDbPoint
 10
-92.154155096325
 20
43.163212554942
 30
0.0
  0
ENDBLK
  5
46A
330
45F
100
AcDbEntity
  8
0
100
AcDbBlockEnd
  0
ENDSEC
  0
SECTION
  2
ENTITIES
  0
INSERT
  5
1ED
330
23
100
AcDbEntity
  8
中線
100
AcDbBlockReference
  2
BLOCK0
 10
-104.566284
 20
120.664017
 30
0.0
  0
TEXT
  5
1EF
330
23
100
AcDbEntity
  8
CMNT
100
AcDbText
 10
-180.0
 20
227.0
 30
0.0
 40
2.9999980927
  1

 72
     5
 11
-180.0
 21
227.0
 31
0.0
100
AcDbText
  0
TEXT
  5
1F1
330
23
100
AcDbEntity
  8
CMNT
100
AcDbText
 10
-180.0
 20
227.0
 30
0.0
 40
2.9999980927
  1

 72
     5
 11
-180.0
 21
227.0
 31
0.0
100
AcDbText
  0
LINE
  5
252
330
23
100
AcDbEntity
  8
中線
100
AcDbLine
 10
-55.2701873779
 20
133.6639251709
 30
0.0
 11
-55.2701873779
 21
132.6639404297
 31
0.0
  0
LINE
  5
253
330
23
100
AcDbEntity
  8
中線
100
AcDbLine
 10
-47.2701873779
 20
133.6639251709
 30
0.0
 11
-47.2701873779
 21
132.6639404297
 31
0.0
  0
LINE
  5
255
330
23
100
AcDbEntity
  8
中線
100
AcDbLine
 10
-55.2701873779
 20
133.1639251709
 30
0.0
 11
-47.2701873779
 21
133.1639251709
 31
0.0
  0
LINE
  5
256
330
23
100
AcDbEntity
  8
CENTER
100
AcDbLine
 10
-172.3456115723
 20
120.6640167236
 30
0.0
 11
-147.4987792969
 21
120.6640167236
 31
0.0
  0
LINE
  5
257
330
23
100
AcDbEntity
  8
CENTER
100
AcDbLine
 10
-159.8009643555
 20
106.002532959
 30
0.0
 11
-159.8009643555
 21
138.6851654053
 31
0.0
  0
LINE
  5
258
330
23
100
AcDbEntity
  8
中線
100
AcDbLine
 10
-168.8009643555
 20
110.4640197754
 30
0.0
 11
-168.8009643555
 21
133.3640136719
 31
0.0
  0
LINE
  5
25B
330
23
100
AcDbEntity
  8
中線
100
AcDbLine
 10
-168.5009765625
 20
133.6640014648
 30
0.0
 11
-151.1009216309
 21
133.6640014648
 31
0.0
  0
LINE
  5
25C
330
23
100
AcDbEntity
  8
中線
100
AcDbLine
 10
-168.5088653564
 20
110.1640167236
 30
0.0
 11
-151.0930480957
 21
110.1640167236
 31
0.0
  0
LINE
  5
25D
330
23
100
AcDbEntity
  8
中線
100
AcDbLine
 10
-167.3009490967
 20
132.6639862061
 30
0.0
 11
-165.1009368896
 21
132.6639862061
 31
0.0
  0
LINE
  5
25E
330
23
100
AcDbEntity
  8
中線
100
AcDbLine
 10
-167.3009490967
 20
130.463973999
 30
0.0
 11
-165.1009368896
 21
130.463973999
 31
0.0
  0
LINE
  5
25F
330
23
100
AcDbEntity
  8
中線
100
AcDbLine
 10
-159.3009643555
 20
110.1640167236
 30
0.0
 11
-159.3009643555
 21
110.9640045166
 31
0.0
  0
LINE
  5
260
330
23
100
AcDbEntity
  8
中線
100
AcDbLine
 10
-160.3009643555
 20
110.1640167236
 30
0.0
 11
-160.3009643555
 21
110.9640045166
 31
0.0
  0
LINE
  5
261
330
23
100
AcDbEntity
  8
中線
100
AcDbLine
 10
-160.3009643555
 20
110.9640045166
 30
0.0
 11
-159.3009643555
 21
110.9640045166
 31
0.0
  0
LINE
  5
262
330
23
100
AcDbEntity
  8
CENTER
100
AcDbLine
 10
-108.7075195313
 20
70.171875
 30
0.0
 11
-90.357131958
 21
70.171875
 31
0.0
  0
LINE
  5
265
330
23
100
AcDbEntity
  8
中線
100
AcDbLine
 10
-106.0662841797
 20
79.171875
 30
0.0
 11
-106.0662841797
 21
61.171875
 31
0.0
  0
LINE
  5
266
330
23
100
AcDbEntity
  8
中線
100
AcDbLine
 10
-106.0662841797
 20
79.171875
 30
0.0
 11
-98.0662841797
 21
79.171875
 31
0.0
  0
LINE
  5
267
330
23
100
AcDbEntity
  8
中線
100
AcDbLine
 10
-99.5662841797
 20
70.671875
 30
0.0
 11
-99.5662841797
 21
69.671875
 31
0.0
  0
LINE
  5
268
330
23
100
AcDbEntity
  8
CENTER
100
AcDbLine
 10
-51.2702178955
 20
106.4043731689
 30
0.0
 11
-51.2702178955
 21
136.2621459961
 31
0.0
  0
LINE
  5
269
330
23
100
AcDbEntity
  8
中線
 62
     2
100
AcDbLine
 10
-42.5702514648
 20
133.6639404297
 30
0.0
 11
-47.1702270508
 21
133.6639404297
 31
0.0
  0
LINE
  5
26A
330
23
100
AcDbEntity
  8
中線
 62
     2
100
AcDbLine
 10
-60.2702178955
 20
110.4639282227
 30
0.0
 11
-60.2702178955
 21
133.3639373779
 31
0.0
  0
LINE
  5
26B
330
23
100
AcDbEntity
  8
中線
 62
     2
100
AcDbLine
 10
-42.5643463135
 20
110.1639404297
 30
0.0
 11
-59.9752655029
 21
110.1639404297
 31
0.0
  0
LINE
  5
26C
330
23
100
AcDbEntity
  8
中線
 62
     2
100
AcDbLine
 10
-47.1702270508
 20
129.0639343262
 30
0.0
 11
-47.1702270508
 21
133.6639404297
 31
0.0
  0
LINE
  5
26D
330
23
100
AcDbEntity
  8
中線
 62
     2
100
AcDbLine
 10
-55.370223999
 20
129.0639343262
 30
0.0
 11
-55.370223999
 21
133.6639404297
 31
0.0
  0
LINE
  5
26E
330
23
100
AcDbEntity
  8
中線
 62
     2
100
AcDbLine
 10
-47.1702270508
 20
129.0639343262
 30
0.0
 11
-55.370223999
 21
129.0639343262
 31
0.0
  0
LINE
  5
26F
330
23
100
AcDbEntity
  8
中線
 62
     2
100
AcDbLine
 10
-47.1702270508
 20
132.6639404297
 30
0.0
 11
-55.370223999
 21
132.6639404297
 31
0.0
  0
LINE
  5
270
330
23
100
AcDbEntity
  8
中線
 62
     2
100
AcDbLine
 10
-55.370223999
 20
133.6639404297
 30
0.0
 11
-59.9702148438
 21
133.6639404297
 31
0.0
  0
LINE
  5
271
330
23
100
AcDbEntity
  8
CENTER
100
AcDbLine
 10
-40.5612487793
 20
131.1639404297
 30
0.0
 11
-61.5587768555
 21
131.1639404297
 31
0.0
  0
LINE
  5
272
330
23
100
AcDbEntity
  8
中線
 62
     2
100
AcDbLine
 10
-56.6702423096
 20
130.0639343262
 30
0.0
 11
-58.2702331543
 21
130.0639343262
 31
0.0
  0
LINE
  5
275
330
23
100
AcDbEntity
  8
中線
 62
     2
100
AcDbLine
 10
-56.6702423096
 20
132.2639312744
 30
0.0
 11
-58.2702331543
 21
132.2639312744
 31
0.0
  0
LINE
  5
276
330
23
100
AcDbEntity
  8
中線
100
AcDbLine
 10
-55.3702087402
 20
133.6639251709
 30
0.0
 11
-47.170211792
 21
133.6639251709
 31
0.0
  0
LINE
  5
277
330
23
100
AcDbEntity
  8
CENTER
100
AcDbLine
 10
-49.8182830811
 20
112.1639404297
 30
0.0
 11
-52.9691314697
 21
112.1639404297
 31
0.0
  0
LINE
  5
278
330
23
100
AcDbEntity
  8
中線
 62
     2
100
AcDbLine
 10
-98.0662841797
 20
79.171875
 30
0.0
 11
-98.0662841797
 21
61.171875
 31
0.0
  0
LINE
  5
279
330
23
100
AcDbEntity
  8
中線
 62
     2
100
AcDbLine
 10
-98.0662841797
 20
79.171875
 30
0.0
 11
-92.3662872314
 21
79.171875
 31
0.0
  0
LINE
  5
27F
330
23
100
AcDbEntity
  8
中線
 62
     2
100
AcDbLine
 10
-92.0662841797
 20
78.871887207
 30
0.0
 11
-92.0662841797
 21
61.471862793
 31
0.0
  0
LINE
  5
280
330
23
100
AcDbEntity
  8
CENTER
100
AcDbLine
 10
-138.0588531494
 20
120.6640167236
 30
0.0
 11
-88.9759521484
 21
120.6640167236
 31
0.0
  0
LINE
  5
281
330
23
100
AcDbEntity
  8
中線
100
AcDbLine
 10
-106.0662841797
 20
133.6640167236
 30
0.0
 11
-106.0662841797
 21
110.1640167236
 31
0.0
  0
LINE
  5
282
330
23
100
AcDbEntity
  8
中線
100
AcDbLine
 10
-106.0662841797
 20
133.6640167236
 30
0.0
 11
-100.0662841797
 21
133.6640167236
 31
0.0
  0
LINE
  5
283
330
23
100
AcDbEntity
  8
中線
100
AcDbLine
 10
-106.0662841797
 20
110.1640167236
 30
0.0
 11
-98.0662841797
 21
110.1640167236
 31
0.0
  0
LINE
  5
284
330
23
100
AcDbEntity
  8
中線
100
AcDbLine
 10
-104.5662841797
 20
129.6640167236
 30
0.0
 11
-104.5662841797
 21
111.6640167236
 31
0.0
  0
LINE
  5
285
330
23
100
AcDbEntity
  8
中線
100
AcDbLine
 10
-98.0662841797
 20
111.6640167236
 30
0.0
 11
-98.0662841797
 21
110.1640167236
 31
0.0
  0
LINE
  5
287
330
23
100
AcDbEntity
  8
中線
100
AcDbLine
 10
-104.5662841797
 20
111.6640167236
 30
0.0
 11
-98.0662841797
 21
111.6640167236
 31
0.0
  0
LINE
  5
288
330
23
100
AcDbEntity
  8
中線
100
AcDbLine
 10
-100.0662841797
 20
133.6640167236
 30
0.0
 11
-100.0662841797
 21
132.6640167236
 31
0.0
  0
LINE
  5
289
330
23
100
AcDbEntity
  8
中線
100
AcDbLine
 10
-100.0662841797
 20
132.6640167236
 30
0.0
 11
-95.6230621338
 21
132.6640167236
 31
0.0
  0
LINE
  5
28A
330
23
100
AcDbEntity
  8
中線
100
AcDbLine
 10
-104.5662841797
 20
129.6640167236
 30
0.0
 11
-95.6230621338
 21
129.6640167236
 31
0.0
  0
LINE
  5
28B
330
23
100
AcDbEntity
  8
中線
100
AcDbLine
 10
-102.0662841797
 20
131.8640289307
 30
0.0
 11
-96.5050354004
 21
131.8640289307
 31
0.0
  0
LINE
  5
28C
330
23
100
AcDbEntity
  8
中線
100
AcDbLine
 10
-102.0662841797
 20
130.4640197754
 30
0.0
 11
-96.5050354004
 21
130.4640197754
 31
0.0
  0
LINE
  5
28D
330
23
100
AcDbEntity
  8
中線
100
AcDbLine
 10
-102.0662841797
 20
133.6640167236
 30
0.0
 11
-102.0662841797
 21
131.6640167236
 31
0.0
  0
LINE
  5
28E
330
23
100
AcDbEntity
  8
中線
100
AcDbLine
 10
-102.0662841797
 20
130.6640167236
 30
0.0
 11
-102.0662841797
 21
129.6640167236
 31
0.0
  0
LINE
  5
28F
330
23
100
AcDbEntity
  8
中線
100
AcDbLine
 10
-97.0662841797
 20
132.6640167236
 30
0.0
 11
-97.0662841797
 21
131.8640289307
 31
0.0
  0
LINE
  5
291
330
23
100
AcDbEntity
  8
中線
100
AcDbLine
 10
-96.7662963867
 20
131.6640167236
 30
0.0
 11
-96.7662963867
 21
130.6640167236
 31
0.0
  0
LINE
  5
292
330
23
100
AcDbEntity
  8
中線
100
AcDbLine
 10
-102.0662841797
 20
131.6640167236
 30
0.0
 11
-96.7662963867
 21
131.6640167236
 31
0.0
  0
LINE
  5
293
330
23
100
AcDbEntity
  8
中線
100
AcDbLine
 10
-102.0662841797
 20
130.6640167236
 30
0.0
 11
-96.7662963867
 21
130.6640167236
 31
0.0
  0
LINE
  5
294
330
23
100
AcDbEntity
  8
PHANTOM
100
AcDbLine
 10
-97.5662841797
 20
134.1639709473
 30
0.0
 11
-74.0663146973
 21
134.1639709473
 31
0.0
  0
LINE
  5
295
330
23
100
AcDbEntity
  8
PHANTOM
100
AcDbLine
 10
-97.5662841797
 20
134.1639709473
 30
0.0
 11
-97.5662841797
 21
131.1639709473
 31
0.0
  0
LINE
  5
296
330
23
100
AcDbEntity
  8
PHANTOM
100
AcDbLine
 10
-74.0663146973
 20
134.1639709473
 30
0.0
 11
-74.0663146973
 21
128.1639709473
 31
0.0
  0
LINE
  5
297
330
23
100
AcDbEntity
  8
PHANTOM
100
AcDbLine
 10
-75.0663146973
 20
128.1639709473
 30
0.0
 11
-74.0663146973
 21
128.1639709473
 31
0.0
  0
LINE
  5
298
330
23
100
AcDbEntity
  8
PHANTOM
100
AcDbLine
 10
-93.5171203613
 20
130.7639770508
 30
0.0
 11
-75.0663146973
 21
130.7639770508
 31
0.0
  0
LINE
  5
299
330
23
100
AcDbEntity
  8
PHANTOM
100
AcDbLine
 10
-75.0663146973
 20
130.7639770508
 30
0.0
 11
-75.0663146973
 21
128.1639709473
 31
0.0
  0
LINE
  5
29A
330
23
100
AcDbEntity
  8
中線
 62
     2
100
AcDbLine
 10
-97.5662841797
 20
132.6639709473
 30
0.0
 11
-96.666305542
 21
132.6639709473
 31
0.0
  0
LINE
  5
29B
330
23
100
AcDbEntity
  8
PHANTOM
100
AcDbLine
 10
-97.5662841797
 20
131.1639709473
 30
0.0
 11
-96.666305542
 21
131.1639709473
 31
0.0
  0
LINE
  5
29C
330
23
100
AcDbEntity
  8
PHANTOM
100
AcDbLine
 10
-96.666305542
 20
132.6639709473
 30
0.0
 11
-96.666305542
 21
131.1639709473
 31
0.0
  0
LINE
  5
29D
330
23
100
AcDbEntity
  8
中線
 62
     2
100
AcDbLine
 10
-92.0662841797
 20
133.6640167236
 30
0.0
 11
-92.0662841797
 21
110.1640167236
 31
0.0
  0
LINE
  5
29E
330
23
100
AcDbEntity
  8
中線
 62
     2
100
AcDbLine
 10
-92.0662841797
 20
133.6640167236
 30
0.0
 11
-95.0662841797
 21
133.6640167236
 31
0.0
  0
LINE
  5
29F
330
23
100
AcDbEntity
  8
中線
 62
     2
100
AcDbLine
 10
-92.0662841797
 20
110.1640167236
 30
0.0
 11
-98.0662841797
 21
110.1640167236
 31
0.0
  0
LINE
  5
2A0
330
23
100
AcDbEntity
  8
中線
 62
     2
100
AcDbLine
 10
-98.0662841797
 20
111.1640167236
 30
0.0
 11
-98.0662841797
 21
110.1640167236
 31
0.0
  0
LINE
  5
2A1
330
23
100
AcDbEntity
  8
中線
 62
     2
100
AcDbLine
 10
-95.4662780762
 20
129.6148376465
 30
0.0
 11
-95.4662780762
 21
111.1640167236
 31
0.0
  0
LINE
  5
2A2
330
23
100
AcDbEntity
  8
中線
 62
     2
100
AcDbLine
 10
-95.4662780762
 20
111.1640167236
 30
0.0
 11
-98.0662841797
 21
111.1640167236
 31
0.0
  0
LINE
  5
2A3
330
23
100
AcDbEntity
  8
中線
 62
     2
100
AcDbLine
 10
-93.5662841797
 20
133.6640167236
 30
0.0
 11
-93.5662841797
 21
132.7640228271
 31
0.0
  0
LINE
  5
2A4
330
23
100
AcDbEntity
  8
中線
 62
     2
100
AcDbLine
 10
-95.0662841797
 20
133.6640167236
 30
0.0
 11
-95.0662841797
 21
132.7640228271
 31
0.0
  0
LINE
  5
2A5
330
23
100
AcDbEntity
  8
中線
 62
     2
100
AcDbLine
 10
-93.5662841797
 20
132.7640228271
 30
0.0
 11
-95.0662841797
 21
132.7640228271
 31
0.0
  0
LINE
  5
2A6
330
23
100
AcDbEntity
  8
中線
100
AcDbLine
 10
-106.0662841797
 20
70.671875
 30
0.0
 11
-99.5662841797
 21
70.671875
 31
0.0
  0
LINE
  5
2A7
330
23
100
AcDbEntity
  8
中線
100
AcDbLine
 10
-106.0662841797
 20
69.671875
 30
0.0
 11
-99.5662841797
 21
69.671875
 31
0.0
  0
LINE
  5
2A9
330
23
100
AcDbEntity
  8
CENTER
100
AcDbLine
 10
-61.9964599609
 20
120.6640167236
 30
0.0
 11
-40.2526702881
 21
120.6640167236
 31
0.0
  0
LINE
  5
2BF
330
23
100
AcDbEntity
  8
中線
100
AcDbLine
 10
-167.3009643555
 20
130.4639587402
 30
0.0
 11
-167.3009643555
 21
132.6639709473
 31
0.0
  0
LINE
  5
2C0
330
23
100
AcDbEntity
  8
中線
100
AcDbLine
 10
-165.1009521484
 20
130.4639587402
 30
0.0
 11
-165.1009521484
 21
132.6639709473
 31
0.0
  0
LINE
  5
2C1
330
23
100
AcDbEntity
  8
中線
100
AcDbLine
 10
-166.700958252
 20
130.4639587402
 30
0.0
 11
-166.700958252
 21
132.6639709473
 31
0.0
  0
LINE
  5
2C2
330
23
100
AcDbEntity
  8
中線
100
AcDbLine
 10
-150.8009643555
 20
133.3639984131
 30
0.0
 11
-150.8009643555
 21
110.4640045166
 31
0.0
  0
LINE
  5
2C3
330
23
100
AcDbEntity
  8
中線
100
AcDbLine
 10
-154.5009918213
 20
132.6639862061
 30
0.0
 11
-152.3009796143
 21
132.6639862061
 31
0.0
  0
LINE
  5
2C4
330
23
100
AcDbEntity
  8
中線
100
AcDbLine
 10
-154.5009918213
 20
130.463973999
 30
0.0
 11
-152.3009796143
 21
130.463973999
 31
0.0
  0
LINE
  5
2C5
330
23
100
AcDbEntity
  8
中線
100
AcDbLine
 10
-152.3009643555
 20
132.6639556885
 30
0.0
 11
-152.3009643555
 21
130.4639434814
 31
0.0
  0
LINE
  5
2C6
330
23
100
AcDbEntity
  8
中線
100
AcDbLine
 10
-154.5009765625
 20
132.6639556885
 30
0.0
 11
-154.5009765625
 21
130.4639434814
 31
0.0
  0
LINE
  5
2C7
330
23
100
AcDbEntity
  8
中線
100
AcDbLine
 10
-152.900970459
 20
132.6639556885
 30
0.0
 11
-152.900970459
 21
130.4639434814
 31
0.0
  0
LINE
  5
2C8
330
23
100
AcDbEntity
  8
中線
100
AcDbLine
 10
-166.7009429932
 20
131.8640136719
 30
0.0
 11
-165.1009368896
 21
131.8640136719
 31
0.0
  0
LINE
  5
2C9
330
23
100
AcDbEntity
  8
中線
100
AcDbLine
 10
-154.5009613037
 20
131.8640136719
 30
0.0
 11
-152.9009552002
 21
131.8640136719
 31
0.0
  0
LINE
  5
2CA
330
23
100
AcDbEntity
  8
中線
 62
     2
100
AcDbLine
 10
-58.2702178955
 20
130.0639190674
 30
0.0
 11
-58.2702178955
 21
132.2639160156
 31
0.0
  0
LINE
  5
2CB
330
23
100
AcDbEntity
  8
中線
 62
     2
100
AcDbLine
 10
-56.6702270508
 20
130.0639190674
 30
0.0
 11
-56.6702270508
 21
132.2639160156
 31
0.0
  0
LINE
  5
2CC
330
23
100
AcDbEntity
  8
中線
 62
     2
100
AcDbLine
 10
-42.2702178955
 20
133.3639221191
 30
0.0
 11
-42.2702178955
 21
110.4639129639
 31
0.0
  0
LINE
  5
2CD
330
23
100
AcDbEntity
  8
中線
 62
     2
100
AcDbLine
 10
-44.2702026367
 20
130.0639190674
 30
0.0
 11
-45.8701934814
 21
130.0639190674
 31
0.0
  0
LINE
  5
2CE
330
23
100
AcDbEntity
  8
中線
 62
     2
100
AcDbLine
 10
-44.2702026367
 20
132.2639160156
 30
0.0
 11
-45.8701934814
 21
132.2639160156
 31
0.0
  0
LINE
  5
2CF
330
23
100
AcDbEntity
  8
中線
 62
     2
100
AcDbLine
 10
-44.2702178955
 20
132.2639007568
 30
0.0
 11
-44.2702178955
 21
130.0639038086
 31
0.0
  0
LINE
  5
2D0
330
23
100
AcDbEntity
  8
中線
 62
     2
100
AcDbLine
 10
-45.8702087402
 20
132.2639007568
 30
0.0
 11
-45.8702087402
 21
130.0639038086
 31
0.0
  0
LINE
  5
2D3
330
23
100
AcDbEntity
  8
中線
100
AcDbLine
 10
-98.0662841797
 20
61.171875
 30
0.0
 11
-106.0662841797
 21
61.171875
 31
0.0
  0
LINE
  5
2D6
330
23
100
AcDbEntity
  8
中線
 62
     2
100
AcDbLine
 10
-92.3662872314
 20
61.171875
 30
0.0
 11
-98.0662841797
 21
61.171875
 31
0.0
  0
ARC
  5
2E4
330
23
100
AcDbEntity
  8
中線
 62
     2
100
AcDbCircle
 10
-59.970199585
 20
110.4639129639
 30
0.0
 40
0.2999999523
100
AcDbArc
 50
180.0000359722
 51
270.0000179861
  0
ARC
  5
2E5
330
23
100
AcDbEntity
  8
中線
 62
     2
100
AcDbCircle
 10
-59.970199585
 20
133.3639221191
 30
0.0
 40
0.2999999523
100
AcDbArc
 50
89.9999820139
 51
179.9999640278
  0
ARC
  5
2E6
330
23
100
AcDbEntity
  8
中線
100
AcDbCircle
 10
-168.5009918213
 20
133.3639068604
 30
0.0
 40
0.2999999523
100
AcDbArc
 50
89.9997634479
 51
179.9999640278
  0
ARC
  5
2E7
330
23
100
AcDbEntity
  8
中線
100
AcDbCircle
 10
-168.5009918213
 20
110.4639129639
 30
0.0
 40
0.2999999523
100
AcDbArc
 50
179.9999640278
 51
270.0002192493
  0
CIRCLE
  5
2E8
330
23
100
AcDbEntity
  8
中線
 62
     2
100
AcDbCircle
 10
-51.2702026367
 20
112.1639404297
 30
0.0
 40
0.5
  0
ARC
  5
2E9
330
23
100
AcDbEntity
  8
中線
100
AcDbCircle
 10
-92.3662872314
 20
78.871887207
 30
0.0
 40
0.2999999523
100
AcDbArc
 50
0.0
 51
89.9999820139
  0
ARC
  5
2EA
330
23
100
AcDbEntity
  8
PHANTOM
100
AcDbCircle
 10
-95.0662841797
 20
131.1640167236
 30
0.0
 40
1.5999994278
100
AcDbArc
 50
179.9999640278
 51
345.5226044494
  0
ARC
  5
2EB
330
23
100
AcDbEntity
  8
中線
 62
     2
100
AcDbCircle
 10
-95.0662841797
 20
131.1640167236
 30
0.0
 40
1.5999994278
100
AcDbArc
 50
89.9999820139
 51
255.5226224355
  0
CIRCLE
  5
2EE
330
23
100
AcDbEntity
  8
中線
100
AcDbCircle
 10
-159.8009643555
 20
120.6640014648
 30
0.0
 40
8.0999994278
  0
ARC
  5
2F4
330
23
100
AcDbEntity
  8
中線
100
AcDbCircle
 10
-151.1009368896
 20
133.3639068604
 30
0.0
 40
0.2999999523
100
AcDbArc
 50
0.0
 51
90.00020058
  0
ARC
  5
2F5
330
23
100
AcDbEntity
  8
中線
100
AcDbCircle
 10
-151.1009368896
 20
110.4639129639
 30
0.0
 40
0.2999999523
100
AcDbArc
 50
269.99979942
 51
360.0
  0
ARC
  5
2F6
330
23
100
AcDbEntity
  8
中線
 62
     2
100
AcDbCircle
 10
-42.5702362061
 20
110.4638977051
 30
0.0
 40
0.2999999523
100
AcDbArc
 50
270.0000179861
 51
360.0
  0
ARC
  5
2F7
330
23
100
AcDbEntity
  8
中線
 62
     2
100
AcDbCircle
 10
-42.5702362061
 20
133.3639068604
 30
0.0
 40
0.2999999523
100
AcDbArc
 50
0.0
 51
89.9999820139
  0
ARC
  5
2F8
330
23
100
AcDbEntity
  8
中線
100
AcDbCircle
 10
-92.3662872314
 20
61.471862793
 30
0.0
 40
0.2999999523
100
AcDbArc
 50
270.0000726276
 51
360.0
  0
TEXT
  5
40F
330
23
100
AcDbEntity
  8
CMNT
100
AcDbText
 10
-74.740142400865
 20
33.876981244772
 30
0.0
 40
5.0
  1
MA4-H00714
 41
1.010731925854
 72
     5
 11
-25.406798400865
 21
33.876981244772
 31
0.0
100
AcDbText
  0
TEXT
  5
411
330
23
100
AcDbEntity
  8
CMNT
100
AcDbText
 10
-76.106629096717
 20
44.36814178855
 30
0.0
 40
4.167171
  1
AL-K6
100
AcDbText
  0
VIEWPORT
  5
1EC
330
24
100
AcDbEntity
 67
     1
  8
0
  6
SOLID
100
AcDbViewport
 10
-106.0
 20
148.5
 30
0.0
 40
218.35
 41
303.35
 68
     2
 69
     1
 12
-106.0
 22
148.5
 13
0.0
 23
0.0
 14
1.0
 24
1.0
 15
0.0
 25
0.0
 16
0.0
 26
0.0
 36
1.0
 17
0.0
 27
0.0
 37
0.0
 42
0.0
 43
0.0
 44
0.0
 45
303.35
 50
0.0
 51
0.0
 72
   100
 90
      160
  1

281
     0
 71
     1
 74
     0
110
0.0
120
0.0
130
0.0
111
1.0
121
0.0
131
0.0
112
0.0
122
1.0
132
0.0
 79
     0
146
0.0
  0
VIEWPORT
  5
342
330
24
100
AcDbEntity
 67
     1
  8
VIEWPORTS
  6
SOLID
100
AcDbViewport
 10
-106.0
 20
148.5
 30
0.0
 40
218.35
 41
303.35
 68
     1
 69
     2
 12
-106.0
 22
148.5
 13
0.0
 23
0.0
 14
1.0
 24
1.0
 15
0.0
 25
0.0
 16
0.0
 26
0.0
 36
1.0
 17
0.0
 27
0.0
 37
0.0
 42
0.0
 43
0.0
 44
0.0
 45
303.35
 50
0.0
 51
0.0
 72
   100
 90
      160
  1

281
     0
 71
     1
 74
     0
110
0.0
120
0.0
130
0.0
111
1.0
121
0.0
131
0.0
112
0.0
122
1.0
132
0.0
 79
     0
146
0.0
  0
ENDSEC
  0
SECTION
  2
OBJECTS
  0
DICTIONARY
  5
343
330
0
100
AcDbDictionary
281
     1
  3
ACAD_COLOR
350
35E
  3
ACAD_GROUP
350
344
  3
ACAD_LAYOUT
350
363
  3
ACAD_MATERIAL
350
349
  3
ACAD_MLEADERSTYLE
350
38C
  3
ACAD_MLINESTYLE
350
345
  3
ACAD_PLOTSETTINGS
350
362
  3
ACAD_PLOTSTYLENAME
350
347
  3
ACAD_SCALELIST
350
369
  3
ACAD_TABLESTYLE
350
35F
  3
ACAD_VISUALSTYLE
350
34D
  3
ACDBHEADERROUNDTRIPXREC
350
46D
  3
AcDbVariableDictionary
350
366
  3
DWGPROPS
350
470
  0
DICTIONARY
  5
3EA
330
3E9
100
AcDbDictionary
280
     1
281
     1
  3
ACAD_SORTENTS
360
3EB
  0
DICTIONARY
  5
3FF
330
3FE
100
AcDbDictionary
280
     1
281
     1
  3
ACAD_SORTENTS
360
400
  0
DICTIONARY
  5
35E
102
{ACAD_REACTORS
330
343
102
}
330
343
100
AcDbDictionary
281
     1
  0
DICTIONARY
  5
344
102
{ACAD_REACTORS
330
343
102
}
330
343
100
AcDbDictionary
281
     1
  0
DICTIONARY
  5
363
102
{ACAD_REACTORS
330
343
102
}
330
343
100
AcDbDictionary
281
     1
  3
Model
350
364
  3
レイアウト1
350
365
  0
DICTIONARY
  5
349
102
{ACAD_REACTORS
330
343
102
}
330
343
100
AcDbDictionary
281
     1
  3
ByBlock
350
34B
  3
ByLayer
350
34A
  3
Global
350
34C
  0
DICTIONARY
  5
38C
102
{ACAD_REACTORS
330
343
102
}
330
343
100
AcDbDictionary
281
     1
  0
DICTIONARY
  5
345
102
{ACAD_REACTORS
330
343
102
}
330
343
100
AcDbDictionary
281
     1
  3
STANDARD
350
346
  0
DICTIONARY
  5
362
102
{ACAD_REACTORS
330
343
102
}
330
343
100
AcDbDictionary
281
     1
  0
ACDBDICTIONARYWDFLT
  5
347
102
{ACAD_REACTORS
330
343
102
}
330
343
100
AcDbDictionary
281
     1
  3
Normal
350
348
100
AcDbDictionaryWithDefault
340
348
  0
DICTIONARY
  5
369
102
{ACAD_REACTORS
330
343
102
}
330
343
100
AcDbDictionary
281
     1
  3
A0
350
36A
  3
A1
350
36B
  3
A2
350
36C
  3
A3
350
36D
  3
A4
350
36E
  3
A5
350
36F
  3
A6
350
370
  3
A7
350
371
  3
A8
350
372
  3
A9
350
373
  3
B0
350
374
  3
B1
350
375
  3
B2
350
376
  3
B3
350
377
  3
B4
350
378
  3
B5
350
379
  3
B6
350
37A
  3
B7
350
37B
  3
B8
350
37C
  3
B9
350
37D
  3
C0
350
37E
  3
C1
350
37F
  3
C2
350
380
  3
C3
350
381
  3
C4
350
382
  3
C5
350
383
  3
C6
350
384
  3
C7
350
385
  3
C8
350
386
  3
C9
350
387
  3
D0
350
388
  3
D1
350
389
  3
D2
350
38A
  0
DICTIONARY
  5
35F
102
{ACAD_REACTORS
330
343
102
}
330
343
100
AcDbDictionary
281
     1
  3
Standard
350
360
  0
DICTIONARY
  5
34D
102
{ACAD_REACTORS
330
343
102
}
330
343
100
AcDbDictionary
281
     1
  3
2dWireframe
350
353
  3
3D Hidden
350
355
  3
3dWireframe
350
354
  3
Basic
350
352
  3
Brighten
350
359
  3
ColorChange
350
35D
  3
Conceptual
350
356
  3
Dim
350
358
  3
Facepattern
350
35C
  3
Flat
350
34E
  3
FlatWithEdges
350
34F
  3
Gouraud
350
350
  3
GouraudWithEdges
350
351
  3
Linepattern
350
35B
  3
Realistic
350
357
  3
Thicken
350
35A
  0
DICTIONARY
  5
46D
102
{ACAD_REACTORS
330
343
102
}
330
343
100
AcDbDictionary
281
     1
  3
COLORDICT
350
46E
  3
MATERIALDICT
350
46F
  0
DICTIONARY
  5
366
102
{ACAD_REACTORS
330
343
102
}
330
343
100
AcDbDictionary
281
     1
  3
CANNOSCALE
350
38B
  3
CTABLESTYLE
350
367
  3
DIMASSOC
350
46B
  3
HIDETEXT
350
46C
  3
XCLIPFRAME
350
38D
  0
XRECORD
  5
470
102
{ACAD_REACTORS
330
343
102
}
330
343
100
AcDbXrecord
280
     1
  1
DWGPROPS COOKIE
  2

  3

  4

  6

  7

  8
3167
  9

300
=
301
=
302
=
303
=
304
=
305
=
306
=
307
=
308
=
309
=
 40
0.0
 41
2454809.319837963
 42
2456094.229510532
  1

 90
        0
  0
SORTENTSTABLE
  5
3EB
102
{ACAD_REACTORS
330
3EA
330
3EA
102
}
330
3EA
100
AcDbSortentsTable
330
3E9
  0
SORTENTSTABLE
  5
400
102
{ACAD_REACTORS
330
3FF
330
3FF
102
}
330
3FF
100
AcDbSortentsTable
330
3FE
  0
LAYOUT
  5
364
102
{ACAD_REACTORS
330
363
102
}
330
363
100
AcDbPlotSettings
  1

  2
Microsoft XPS Document Writer
  4

  6

 40
0.0
 41
0.0
 42
0.0
 43
0.0
 44
0.0
 45
0.0
 46
0.0
 47
0.0
 48
0.0
 49
0.0
140
0.0
141
0.0
142
1.0
143
1.0
 70
  1712
 72
     0
 73
     0
 74
     0
  7

 75
     0
147
1.0
148
0.0
149
0.0
100
AcDbLayout
  1
Model
 70
     1
 71
     0
 10
0.0
 20
0.0
 11
12.0
 21
9.0
 12
0.0
 22
0.0
 32
0.0
 14
-172.3456115723
 24
33.876981244772
 34
0.0
 15
-25.406798400865
 25
138.6851654053
 35
0.0
146
0.0
 13
0.0
 23
0.0
 33
0.0
 16
1.0
 26
0.0
 36
0.0
 17
0.0
 27
1.0
 37
0.0
 76
     0
330
23
331
368
  0
LAYOUT
  5
365
102
{ACAD_REACTORS
330
363
102
}
330
363
100
AcDbPlotSettings
  1

  2
Microsoft XPS Document Writer
  4

  6

 40
0.0
 41
0.0
 42
0.0
 43
0.0
 44
0.0
 45
0.0
 46
0.0
 47
0.0
 48
0.0
 49
0.0
140
0.0
141
0.0
142
1.0
143
1.0
 70
   688
 72
     0
 73
     0
 74
     5
  7

 75
    16
147
1.0
148
0.0
149
0.0
100
AcDbLayout
  1
レイアウト1
 70
     1
 71
     1
 10
0.0
 20
0.0
 11
12.0
 21
9.0
 12
0.0
 22
0.0
 32
0.0
 14
1.000000000000E+20
 24
1.000000000000E+20
 34
1.000000000000E+20
 15
-1.000000000000E+20
 25
-1.000000000000E+20
 35
-1.000000000000E+20
146
0.0
 13
0.0
 23
0.0
 33
0.0
 16
1.0
 26
0.0
 36
0.0
 17
0.0
 27
1.0
 37
0.0
 76
     0
330
24
331
342
  0
MATERIAL
  5
34B
102
{ACAD_REACTORS
330
349
102
}
102
{ACAD_XDICTIONARY
360
472
102
}
330
349
100
AcDbMaterial
  1
ByBlock
  0
MATERIAL
  5
34A
102
{ACAD_REACTORS
330
349
102
}
102
{ACAD_XDICTIONARY
360
474
102
}
330
349
100
AcDbMaterial
  1
ByLayer
  0
MATERIAL
  5
34C
102
{ACAD_REACTORS
330
349
102
}
102
{ACAD_XDICTIONARY
360
476
102
}
330
349
100
AcDbMaterial
  1
Global
  0
MLINESTYLE
  5
346
102
{ACAD_REACTORS
330
345
102
}
330
345
100
AcDbMlineStyle
  2
STANDARD
 70
     0
  3

 62
   256
 51
90.0
 52
90.0
 71
     2
 49
1.5
 62
   256
  6
Continuous
 49
0.5
 62
   256
  6
Continuous
  0
ACDBPLACEHOLDER
  5
348
102
{ACAD_REACTORS
330
347
102
}
330
347
  0
SCALE
  5
36A
102
{ACAD_REACTORS
330
369
102
}
330
369
100
AcDbScale
 70
     0
300
1:1
140
1.0
141
1.0
290
     1
  0
SCALE
  5
36B
102
{ACAD_REACTORS
330
369
102
}
330
369
100
AcDbScale
 70
     0
300
1:2
140
1.0
141
2.0
290
     0
  0
SCALE
  5
36C
102
{ACAD_REACTORS
330
369
102
}
330
369
100
AcDbScale
 70
     0
300
1:4
140
1.0
141
4.0
290
     0
  0
SCALE
  5
36D
102
{ACAD_REACTORS
330
369
102
}
330
369
100
AcDbScale
 70
     0
300
1:5
140
1.0
141
5.0
290
     0
  0
SCALE
  5
36E
102
{ACAD_REACTORS
330
369
102
}
330
369
100
AcDbScale
 70
     0
300
1:8
140
1.0
141
8.0
290
     0
  0
SCALE
  5
36F
102
{ACAD_REACTORS
330
369
102
}
330
369
100
AcDbScale
 70
     0
300
1:10
140
1.0
141
10.0
290
     0
  0
SCALE
  5
370
102
{ACAD_REACTORS
330
369
102
}
330
369
100
AcDbScale
 70
     0
300
1:16
140
1.0
141
16.0
290
     0
  0
SCALE
  5
371
102
{ACAD_REACTORS
330
369
102
}
330
369
100
AcDbScale
 70
     0
300
1:20
140
1.0
141
20.0
290
     0
  0
SCALE
  5
372
102
{ACAD_REACTORS
330
369
102
}
330
369
100
AcDbScale
 70
     0
300
1:30
140
1.0
141
30.0
290
     0
  0
SCALE
  5
373
102
{ACAD_REACTORS
330
369
102
}
330
369
100
AcDbScale
 70
     0
300
1:40
140
1.0
141
40.0
290
     0
  0
SCALE
  5
374
102
{ACAD_REACTORS
330
369
102
}
330
369
100
AcDbScale
 70
     0
300
1:50
140
1.0
141
50.0
290
     0
  0
SCALE
  5
375
102
{ACAD_REACTORS
330
369
102
}
330
369
100
AcDbScale
 70
     0
300
1:100
140
1.0
141
100.0
290
     0
  0
SCALE
  5
376
102
{ACAD_REACTORS
330
369
102
}
330
369
100
AcDbScale
 70
     0
300
2:1
140
2.0
141
1.0
290
     0
  0
SCALE
  5
377
102
{ACAD_REACTORS
330
369
102
}
330
369
100
AcDbScale
 70
     0
300
4:1
140
4.0
141
1.0
290
     0
  0
SCALE
  5
378
102
{ACAD_REACTORS
330
369
102
}
330
369
100
AcDbScale
 70
     0
300
8:1
140
8.0
141
1.0
290
     0
  0
SCALE
  5
379
102
{ACAD_REACTORS
330
369
102
}
330
369
100
AcDbScale
 70
     0
300
10:1
140
10.0
141
1.0
290
     0
  0
SCALE
  5
37A
102
{ACAD_REACTORS
330
369
102
}
330
369
100
AcDbScale
 70
     0
300
100:1
140
100.0
141
1.0
290
     0
  0
SCALE
  5
37B
102
{ACAD_REACTORS
330
369
102
}
330
369
100
AcDbScale
 70
     0
300
1/128" = 1'-0"
140
0.0078125
141
12.0
290
     0
  0
SCALE
  5
37C
102
{ACAD_REACTORS
330
369
102
}
330
369
100
AcDbScale
 70
     0
300
1/64" = 1'-0"
140
0.015625
141
12.0
290
     0
  0
SCALE
  5
37D
102
{ACAD_REACTORS
330
369
102
}
330
369
100
AcDbScale
 70
     0
300
1/32" = 1'-0"
140
0.03125
141
12.0
290
     0
  0
SCALE
  5
37E
102
{ACAD_REACTORS
330
369
102
}
330
369
100
AcDbScale
 70
     0
300
1/16" = 1'-0"
140
0.0625
141
12.0
290
     0
  0
SCALE
  5
37F
102
{ACAD_REACTORS
330
369
102
}
330
369
100
AcDbScale
 70
     0
300
3/32" = 1'-0"
140
0.09375
141
12.0
290
     0
  0
SCALE
  5
380
102
{ACAD_REACTORS
330
369
102
}
330
369
100
AcDbScale
 70
     0
300
1/8" = 1'-0"
140
0.125
141
12.0
290
     0
  0
SCALE
  5
381
102
{ACAD_REACTORS
330
369
102
}
330
369
100
AcDbScale
 70
     0
300
3/16" = 1'-0"
140
0.1875
141
12.0
290
     0
  0
SCALE
  5
382
102
{ACAD_REACTORS
330
369
102
}
330
369
100
AcDbScale
 70
     0
300
1/4" = 1'-0"
140
0.25
141
12.0
290
     0
  0
SCALE
  5
383
102
{ACAD_REACTORS
330
369
102
}
330
369
100
AcDbScale
 70
     0
300
3/8" = 1'-0"
140
0.375
141
12.0
290
     0
  0
SCALE
  5
384
102
{ACAD_REACTORS
330
369
102
}
330
369
100
AcDbScale
 70
     0
300
1/2" = 1'-0"
140
0.5
141
12.0
290
     0
  0
SCALE
  5
385
102
{ACAD_REACTORS
330
369
102
}
330
369
100
AcDbScale
 70
     0
300
3/4" = 1'-0"
140
0.75
141
12.0
290
     0
  0
SCALE
  5
386
102
{ACAD_REACTORS
330
369
102
}
330
369
100
AcDbScale
 70
     0
300
1" = 1'-0"
140
1.0
141
12.0
290
     0
  0
SCALE
  5
387
102
{ACAD_REACTORS
330
369
102
}
330
369
100
AcDbScale
 70
     0
300
1-1/2" = 1'-0"
140
1.5
141
12.0
290
     0
  0
SCALE
  5
388
102
{ACAD_REACTORS
330
369
102
}
330
369
100
AcDbScale
 70
     0
300
3" = 1'-0"
140
3.0
141
12.0
290
     0
  0
SCALE
  5
389
102
{ACAD_REACTORS
330
369
102
}
330
369
100
AcDbScale
 70
     0
300
6" = 1'-0"
140
6.0
141
12.0
290
     0
  0
SCALE
  5
38A
102
{ACAD_REACTORS
330
369
102
}
330
369
100
AcDbScale
 70
     0
300
1'-0" = 1'-0"
140
12.0
141
12.0
290
     0
  0
TABLESTYLE
  5
360
102
{ACAD_REACTORS
330
35F
102
}
330
35F
100
AcDbTableStyle
  3
Standard
 70
     0
 71
     0
 40
0.06
 41
0.06
280
     0
281
     0
  7
STANDARD
140
0.18
170
     2
 62
     0
 63
   257
283
     0
274
    -2
284
     1
 64
     0
275
    -2
285
     1
 65
     0
276
    -2
286
     1
 66
     0
277
    -2
287
     1
 67
     0
278
    -2
288
     1
 68
     0
279
    -2
289
     1
 69
     0
  7
STANDARD
140
0.25
170
     5
 62
     0
 63
   257
283
     0
274
    -2
284
     1
 64
     0
275
    -2
285
     1
 65
     0
276
    -2
286
     1
 66
     0
277
    -2
287
     1
 67
     0
278
    -2
288
     1
 68
     0
279
    -2
289
     1
 69
     0
  7
STANDARD
140
0.18
170
     5
 62
     0
 63
   257
283
     0
274
    -2
284
     1
 64
     0
275
    -2
285
     1
 65
     0
276
    -2
286
     1
 66
     0
277
    -2
287
     1
 67
     0
278
    -2
288
     1
 68
     0
279
    -2
289
     1
 69
     0
  0
VISUALSTYLE
  5
353
102
{ACAD_REACTORS
330
34D
102
}
102
{ACAD_XDICTIONARY
360
478
102
}
330
34D
100
AcDbVisualStyle
  2
2dWireframe
 70
     4
 71
     0
 72
     2
 73
     0
 90
        0
 40
-0.6
 41
-30.0
 62
     5
 63
     7
 74
     1
 91
        4
 64
     7
 65
   257
 75
     1
175
     1
 42
1.0
 92
        0
 66
   257
 43
1.0
 76
     1
 77
     6
 78
     2
 67
     7
 79
     5
170
     0
171
     0
290
     0
174
     0
 93
        1
 44
0.0
173
     0
291
     0
 45
0.0
1001
ACAD
1000
AcDbSavedByObjectVersion
1070
     0
  0
VISUALSTYLE
  5
355
102
{ACAD_REACTORS
330
34D
102
}
102
{ACAD_XDICTIONARY
360
47A
102
}
330
34D
100
AcDbVisualStyle
  2
3D Hidden
 70
     6
 71
     1
 72
     2
 73
     2
 90
        0
 40
-0.6
 41
-30.0
 62
     5
 63
     7
 74
     2
 91
        2
 64
     7
 65
   257
 75
     2
175
     1
 42
40.0
 92
        0
 66
   257
 43
1.0
 76
     1
 77
     6
 78
     2
 67
     7
 79
     3
170
     0
171
     0
290
     0
174
     0
 93
        1
 44
0.0
173
     0
291
     0
 45
0.0
1001
ACAD
1000
AcDbSavedByObjectVersion
1070
     0
  0
VISUALSTYLE
  5
354
102
{ACAD_REACTORS
330
34D
102
}
102
{ACAD_XDICTIONARY
360
47C
102
}
330
34D
100
AcDbVisualStyle
  2
3dWireframe
 70
     5
 71
     0
 72
     2
 73
     0
 90
        0
 40
-0.6
 41
-30.0
 62
     5
 63
     7
 74
     1
 91
        4
 64
     7
 65
   257
 75
     1
175
     1
 42
1.0
 92
        0
 66
   257
 43
1.0
 76
     1
 77
     6
 78
     2
 67
     7
 79
     5
170
     0
171
     0
290
     0
174
     0
 93
        1
 44
0.0
173
     0
291
     0
 45
0.0
1001
ACAD
1000
AcDbSavedByObjectVersion
1070
     0
  0
VISUALSTYLE
  5
352
102
{ACAD_REACTORS
330
34D
102
}
102
{ACAD_XDICTIONARY
360
47E
102
}
330
34D
100
AcDbVisualStyle
  2
Basic
 70
     7
 71
     1
 72
     0
 73
     1
 90
        0
 40
-0.6
 41
-30.0
 62
     5
 63
     7
 74
     0
 91
        4
 64
     7
 65
   257
 75
     1
175
     1
 42
1.0
 92
        8
 66
     7
 43
1.0
 76
     1
 77
     6
 78
     2
 67
     7
 79
     5
170
     0
171
     0
290
     0
174
     0
 93
        1
 44
0.0
173
     0
291
     1
 45
0.0
1001
ACAD
1000
AcDbSavedByObjectVersion
1070
     0
  0
VISUALSTYLE
  5
359
102
{ACAD_REACTORS
330
34D
102
}
102
{ACAD_XDICTIONARY
360
480
102
}
330
34D
100
AcDbVisualStyle
  2
Brighten
 70
    12
 71
     2
 72
     2
 73
     0
 90
        0
 40
-0.6
 41
-30.0
 62
     5
 63
     7
 74
     1
 91
        4
 64
     7
 65
   257
 75
     1
175
     1
 42
1.0
 92
        8
 66
     7
 43
1.0
 76
     1
 77
     6
 78
     2
 67
     7
 79
     5
170
     0
171
     0
290
     0
174
     0
 93
        1
 44
50.0
173
     0
291
     1
 45
0.0
1001
ACAD
1000
AcDbSavedByObjectVersion
1070
     0
  0
VISUALSTYLE
  5
35D
102
{ACAD_REACTORS
330
34D
102
}
102
{ACAD_XDICTIONARY
360
482
102
}
330
34D
100
AcDbVisualStyle
  2
ColorChange
 70
    16
 71
     2
 72
     2
 73
     3
 90
        0
 40
-0.6
 41
-30.0
 62
     5
 63
     8
 74
     1
 91
        4
 64
     7
 65
   257
 75
     1
175
     1
 42
1.0
 92
        8
 66
     8
 43
1.0
 76
     1
 77
     6
 78
     2
 67
     7
 79
     5
170
     0
171
     0
290
     0
174
     0
 93
        1
 44
0.0
173
     0
291
     1
 45
0.0
1001
ACAD
1000
AcDbSavedByObjectVersion
1070
     0
  0
VISUALSTYLE
  5
356
102
{ACAD_REACTORS
330
34D
102
}
102
{ACAD_XDICTIONARY
360
484
102
}
330
34D
100
AcDbVisualStyle
  2
Conceptual
 70
     9
 71
     3
 72
     2
 73
     0
 90
        0
 40
-0.6
 41
-30.0
 62
     5
 63
     7
 74
     2
 91
        2
 64
     7
 65
   257
 75
     1
175
     1
 42
40.0
 92
        8
 66
     7
 43
1.0
 76
     1
 77
     6
 78
     2
 67
     7
 79
     3
170
     0
171
     0
290
     0
174
     0
 93
        1
 44
0.0
173
     0
291
     0
 45
0.0
1001
ACAD
1000
AcDbSavedByObjectVersion
1070
     0
  0
VISUALSTYLE
  5
358
102
{ACAD_REACTORS
330
34D
102
}
102
{ACAD_XDICTIONARY
360
486
102
}
330
34D
100
AcDbVisualStyle
  2
Dim
 70
    11
 71
     2
 72
     2
 73
     0
 90
        0
 40
-0.6
 41
-30.0
 62
     5
 63
     7
 74
     1
 91
        4
 64
     7
 65
   257
 75
     1
175
     1
 42
1.0
 92
        8
 66
     7
 43
1.0
 76
     1
 77
     6
 78
     2
 67
     7
 79
     5
170
     0
171
     0
290
     0
174
     0
 93
        1
 44
-50.0
173
     0
291
     1
 45
0.0
1001
ACAD
1000
AcDbSavedByObjectVersion
1070
     0
  0
VISUALSTYLE
  5
35C
102
{ACAD_REACTORS
330
34D
102
}
102
{ACAD_XDICTIONARY
360
488
102
}
330
34D
100
AcDbVisualStyle
  2
Facepattern
 70
    15
 71
     2
 72
     2
 73
     0
 90
        0
 40
-0.6
 41
-30.0
 62
     5
 63
     7
 74
     1
 91
        4
 64
     7
 65
   257
 75
     1
175
     1
 42
1.0
 92
        8
 66
     7
 43
1.0
 76
     1
 77
     6
 78
     2
 67
     7
 79
     5
170
     0
171
     0
290
     0
174
     0
 93
        1
 44
0.0
173
     0
291
     1
 45
0.0
1001
ACAD
1000
AcDbSavedByObjectVersion
1070
     0
  0
VISUALSTYLE
  5
34E
102
{ACAD_REACTORS
330
34D
102
}
102
{ACAD_XDICTIONARY
360
48A
102
}
330
34D
100
AcDbVisualStyle
  2
Flat
 70
     0
 71
     2
 72
     1
 73
     1
 90
        2
 40
-0.6
 41
30.0
 62
     5
 63
     7
 74
     0
 91
        4
 64
     7
 65
   257
 75
     1
175
     1
 42
1.0
 92
        8
 66
     7
 43
1.0
 76
     1
 77
     6
 78
     2
 67
     7
 79
     5
170
     0
171
     0
290
     0
174
     0
 93
       13
 44
0.0
173
     0
291
     1
 45
0.0
1001
ACAD
1000
AcDbSavedByObjectVersion
1070
     0
  0
VISUALSTYLE
  5
34F
102
{ACAD_REACTORS
330
34D
102
}
102
{ACAD_XDICTIONARY
360
48C
102
}
330
34D
100
AcDbVisualStyle
  2
FlatWithEdges
 70
     1
 71
     2
 72
     1
 73
     1
 90
        2
 40
-0.6
 41
30.0
 62
     5
 63
     7
 74
     1
 91
        4
 64
     7
 65
   257
 75
     1
175
     1
 42
1.0
 92
        0
 66
   257
 43
1.0
 76
     1
 77
     6
 78
     2
 67
     7
 79
     5
170
     0
171
     0
290
     0
174
     0
 93
       13
 44
0.0
173
     0
291
     1
 45
0.0
1001
ACAD
1000
AcDbSavedByObjectVersion
1070
     0
  0
VISUALSTYLE
  5
350
102
{ACAD_REACTORS
330
34D
102
}
102
{ACAD_XDICTIONARY
360
48E
102
}
330
34D
100
AcDbVisualStyle
  2
Gouraud
 70
     2
 71
     2
 72
     2
 73
     1
 90
        2
 40
-0.6
 41
30.0
 62
     5
 63
     7
 74
     0
 91
        4
 64
     7
 65
   257
 75
     1
175
     1
 42
1.0
 92
        0
 66
     7
 43
1.0
 76
     1
 77
     6
 78
     2
 67
     7
 79
     5
170
     0
171
     0
290
     0
174
     0
 93
       13
 44
0.0
173
     0
291
     1
 45
0.0
1001
ACAD
1000
AcDbSavedByObjectVersion
1070
     0
  0
VISUALSTYLE
  5
351
102
{ACAD_REACTORS
330
34D
102
}
102
{ACAD_XDICTIONARY
360
490
102
}
330
34D
100
AcDbVisualStyle
  2
GouraudWithEdges
 70
     3
 71
     2
 72
     2
 73
     1
 90
        2
 40
-0.6
 41
30.0
 62
     5
 63
     7
 74
     1
 91
        4
 64
     7
 65
   257
 75
     1
175
     1
 42
1.0
 92
        0
 66
   257
 43
1.0
 76
     1
 77
     6
 78
     2
 67
     7
 79
     5
170
     0
171
     0
290
     0
174
     0
 93
       13
 44
0.0
173
     0
291
     1
 45
0.0
1001
ACAD
1000
AcDbSavedByObjectVersion
1070
     0
  0
VISUALSTYLE
  5
35B
102
{ACAD_REACTORS
330
34D
102
}
102
{ACAD_XDICTIONARY
360
492
102
}
330
34D
100
AcDbVisualStyle
  2
Linepattern
 70
    14
 71
     2
 72
     2
 73
     0
 90
        0
 40
-0.6
 41
-30.0
 62
     5
 63
     7
 74
     1
 91
        4
 64
     7
 65
   257
 75
     7
175
     7
 42
1.0
 92
        8
 66
     7
 43
1.0
 76
     1
 77
     6
 78
     2
 67
     7
 79
     5
170
     0
171
     0
290
     0
174
     0
 93
        1
 44
0.0
173
     0
291
     1
 45
0.0
1001
ACAD
1000
AcDbSavedByObjectVersion
1070
     0
  0
VISUALSTYLE
  5
357
102
{ACAD_REACTORS
330
34D
102
}
102
{ACAD_XDICTIONARY
360
494
102
}
330
34D
100
AcDbVisualStyle
  2
Realistic
 70
     8
 71
     2
 72
     2
 73
     0
 90
        0
 40
-0.6
 41
-30.0
 62
     5
 63
     7
 74
     1
 91
        0
 64
     7
 65
   257
 75
     1
175
     1
 42
1.0
 92
        8
 66
     8
 43
1.0
 76
     1
 77
     6
 78
     2
 67
     7
 79
     5
170
     0
171
     0
290
     0
174
     0
 93
       13
 44
0.0
173
     0
291
     0
 45
0.0
1001
ACAD
1000
AcDbSavedByObjectVersion
1070
     0
  0
VISUALSTYLE
  5
35A
102
{ACAD_REACTORS
330
34D
102
}
102
{ACAD_XDICTIONARY
360
496
102
}
330
34D
100
AcDbVisualStyle
  2
Thicken
 70
    13
 71
     2
 72
     2
 73
     0
 90
        0
 40
-0.6
 41
-30.0
 62
     5
 63
     7
 74
     1
 91
        4
 64
     7
 65
   257
 75
     1
175
     1
 42
1.0
 92
       12
 66
     7
 43
1.0
 76
     1
 77
     6
 78
     2
 67
     7
 79
     5
170
     0
171
     0
290
     0
174
     0
 93
        1
 44
0.0
173
     0
291
     1
 45
0.0
1001
ACAD
1000
AcDbSavedByObjectVersion
1070
     0
  0
XRECORD
  5
46E
102
{ACAD_REACTORS
330
46D
102
}
330
46D
100
AcDbXrecord
280
     1
340
35E
  0
XRECORD
  5
46F
102
{ACAD_REACTORS
330
46D
102
}
330
46D
100
AcDbXrecord
280
     1
340
349
  0
DICTIONARYVAR
  5
38B
102
{ACAD_REACTORS
330
366
102
}
330
366
100
DictionaryVariables
280
     0
  1
1:1
  0
DICTIONARYVAR
  5
367
102
{ACAD_REACTORS
330
366
102
}
330
366
100
DictionaryVariables
280
     0
  1
Standard
  0
DICTIONARYVAR
  5
46B
102
{ACAD_REACTORS
330
366
102
}
330
366
100
DictionaryVariables
280
     0
  1
1
  0
DICTIONARYVAR
  5
46C
102
{ACAD_REACTORS
330
366
102
}
330
366
100
DictionaryVariables
280
     0
  1
0
  0
DICTIONARYVAR
  5
38D
102
{ACAD_REACTORS
330
366
102
}
330
366
100
DictionaryVariables
280
     0
  1
0
  0
DICTIONARY
  5
472
330
34B
100
AcDbDictionary
280
     1
281
     1
  3
ACAD_XREC_ROUNDTRIP
360
473
  0
DICTIONARY
  5
474
330
34A
100
AcDbDictionary
280
     1
281
     1
  3
ACAD_XREC_ROUNDTRIP
360
475
  0
DICTIONARY
  5
476
330
34C
100
AcDbDictionary
280
     1
281
     1
  3
ACAD_XREC_ROUNDTRIP
360
477
  0
DICTIONARY
  5
478
330
353
100
AcDbDictionary
280
     1
281
     1
  3
ACAD_XREC_ROUNDTRIP
360
479
  0
DICTIONARY
  5
47A
330
355
100
AcDbDictionary
280
     1
281
     1
  3
ACAD_XREC_ROUNDTRIP
360
47B
  0
DICTIONARY
  5
47C
330
354
100
AcDbDictionary
280
     1
281
     1
  3
ACAD_XREC_ROUNDTRIP
360
47D
  0
DICTIONARY
  5
47E
330
352
100
AcDbDictionary
280
     1
281
     1
  3
ACAD_XREC_ROUNDTRIP
360
47F
  0
DICTIONARY
  5
480
330
359
100
AcDbDictionary
280
     1
281
     1
  3
ACAD_XREC_ROUNDTRIP
360
481
  0
DICTIONARY
  5
482
330
35D
100
AcDbDictionary
280
     1
281
     1
  3
ACAD_XREC_ROUNDTRIP
360
483
  0
DICTIONARY
  5
484
330
356
100
AcDbDictionary
280
     1
281
     1
  3
ACAD_XREC_ROUNDTRIP
360
485
  0
DICTIONARY
  5
486
330
358
100
AcDbDictionary
280
     1
281
     1
  3
ACAD_XREC_ROUNDTRIP
360
487
  0
DICTIONARY
  5
488
330
35C
100
AcDbDictionary
280
     1
281
     1
  3
ACAD_XREC_ROUNDTRIP
360
489
  0
DICTIONARY
  5
48A
330
34E
100
AcDbDictionary
280
     1
281
     1
  3
ACAD_XREC_ROUNDTRIP
360
48B
  0
DICTIONARY
  5
48C
330
34F
100
AcDbDictionary
280
     1
281
     1
  3
ACAD_XREC_ROUNDTRIP
360
48D
  0
DICTIONARY
  5
48E
330
350
100
AcDbDictionary
280
     1
281
     1
  3
ACAD_XREC_ROUNDTRIP
360
48F
  0
DICTIONARY
  5
490
330
351
100
AcDbDictionary
280
     1
281
     1
  3
ACAD_XREC_ROUNDTRIP
360
491
  0
DICTIONARY
  5
492
330
35B
100
AcDbDictionary
280
     1
281
     1
  3
ACAD_XREC_ROUNDTRIP
360
493
  0
DICTIONARY
  5
494
330
357
100
AcDbDictionary
280
     1
281
     1
  3
ACAD_XREC_ROUNDTRIP
360
495
  0
DICTIONARY
  5
496
330
35A
100
AcDbDictionary
280
     1
281
     1
  3
ACAD_XREC_ROUNDTRIP
360
497
  0
XRECORD
  5
473
102
{ACAD_REACTORS
330
472
102
}
330
472
100
AcDbXrecord
280
     1
102
MATERIAL
148
0.0
149
0.0
149
0.0
 93
        0
 94
       63
282
     0
 72
     1
 77
     1
171
     1
175
     1
179
     1
273
     0
  0
XRECORD
  5
475
102
{ACAD_REACTORS
330
474
102
}
330
474
100
AcDbXrecord
280
     1
102
MATERIAL
148
0.0
149
0.0
149
0.0
 93
        0
 94
       63
282
     0
 72
     1
 77
     1
171
     1
175
     1
179
     1
273
     0
  0
XRECORD
  5
477
102
{ACAD_REACTORS
330
476
102
}
330
476
100
AcDbXrecord
280
     1
102
MATERIAL
148
0.0
149
0.0
149
0.0
 93
        0
 94
       63
282
     0
 72
     1
 77
     1
171
     1
175
     1
179
     1
273
     0
  0
XRECORD
  5
479
102
{ACAD_REACTORS
330
478
102
}
330
478
100
AcDbXrecord
280
     1
102
RTVSPropertyOp0
 70
     1
102
RTVSPropertyOp1
 70
     1
102
RTVSPropertyOp2
 70
     1
102
RTVSPropertyOp3
 70
     1
102
RTVSPropertyOp4
 70
     1
102
RTVSPropertyOp5
 70
     1
102
RTVSPropertyOp6
 70
     1
102
RTVSPropertyOp7
 70
     1
102
RTVSPropertyOp8
 70
     1
102
RTVSPropertyOp9
 70
     1
102
RTVSPropertyOp10
 70
     1
102
RTVSPropertyOp11
 70
     1
102
RTVSPropertyOp12
 70
     1
102
RTVSPropertyOp13
 70
     1
102
RTVSPropertyOp14
 70
     1
102
RTVSPropertyOp15
 70
     1
102
RTVSPropertyOp16
 70
     1
102
RTVSPropertyOp17
 70
     1
102
RTVSPropertyOp18
 70
     1
102
RTVSPropertyOp19
 70
     1
102
RTVSPropertyOp20
 70
     1
102
RTVSPropertyOp21
 70
     1
102
RTVSPropertyOp22
 70
     1
102
RTVSPropertyOp23
 70
     1
102
RTVSPropertyOp24
 70
     1
102
RTVSPropertyOp25
 70
     1
102
RTVSPropertyOp26
 70
     1
102
RTVSPropertyOp27
 70
     1
102
RTVSPropertyOp28
 70
     1
102
RTVSPropertyOp29
 70
     1
102
RTVSPropertyOp30
 70
     1
102
RTVSPropertyOp31
 70
     1
102
RTVSPropertyOp32
 70
     1
  0
XRECORD
  5
47B
102
{ACAD_REACTORS
330
47A
102
}
330
47A
100
AcDbXrecord
280
     1
102
RTVSPropertyOp0
 70
     1
102
RTVSPropertyOp1
 70
     1
102
RTVSPropertyOp2
 70
     1
102
RTVSPropertyOp3
 70
     1
102
RTVSPropertyOp4
 70
     1
102
RTVSPropertyOp5
 70
     1
102
RTVSPropertyOp6
 70
     1
102
RTVSPropertyOp7
 70
     1
102
RTVSPropertyOp8
 70
     1
102
RTVSPropertyOp9
 70
     1
102
RTVSPropertyOp10
 70
     1
102
RTVSPropertyOp11
 70
     1
102
RTVSPropertyOp12
 70
     1
102
RTVSPropertyOp13
 70
     1
102
RTVSPropertyOp14
 70
     1
102
RTVSPropertyOp15
 70
     1
102
RTVSPropertyOp16
 70
     1
102
RTVSPropertyOp17
 70
     1
102
RTVSPropertyOp18
 70
     1
102
RTVSPropertyOp19
 70
     1
102
RTVSPropertyOp20
 70
     1
102
RTVSPropertyOp21
 70
     1
102
RTVSPropertyOp22
 70
     1
102
RTVSPropertyOp23
 70
     1
102
RTVSPropertyOp24
 70
     1
102
RTVSPropertyOp25
 70
     1
102
RTVSPropertyOp26
 70
     1
102
RTVSPropertyOp27
 70
     1
102
RTVSPropertyOp28
 70
     1
102
RTVSPropertyOp29
 70
     1
102
RTVSPropertyOp30
 70
     1
102
RTVSPropertyOp31
 70
     1
102
RTVSPropertyOp32
 70
     1
  0
XRECORD
  5
47D
102
{ACAD_REACTORS
330
47C
102
}
330
47C
100
AcDbXrecord
280
     1
102
RTVSPropertyOp0
 70
     1
102
RTVSPropertyOp1
 70
     1
102
RTVSPropertyOp2
 70
     1
102
RTVSPropertyOp3
 70
     1
102
RTVSPropertyOp4
 70
     1
102
RTVSPropertyOp5
 70
     1
102
RTVSPropertyOp6
 70
     1
102
RTVSPropertyOp7
 70
     1
102
RTVSPropertyOp8
 70
     1
102
RTVSPropertyOp9
 70
     1
102
RTVSPropertyOp10
 70
     1
102
RTVSPropertyOp11
 70
     1
102
RTVSPropertyOp12
 70
     1
102
RTVSPropertyOp13
 70
     1
102
RTVSPropertyOp14
 70
     1
102
RTVSPropertyOp15
 70
     1
102
RTVSPropertyOp16
 70
     1
102
RTVSPropertyOp17
 70
     1
102
RTVSPropertyOp18
 70
     1
102
RTVSPropertyOp19
 70
     1
102
RTVSPropertyOp20
 70
     1
102
RTVSPropertyOp21
 70
     1
102
RTVSPropertyOp22
 70
     1
102
RTVSPropertyOp23
 70
     1
102
RTVSPropertyOp24
 70
     1
102
RTVSPropertyOp25
 70
     1
102
RTVSPropertyOp26
 70
     1
102
RTVSPropertyOp27
 70
     1
102
RTVSPropertyOp28
 70
     1
102
RTVSPropertyOp29
 70
     1
102
RTVSPropertyOp30
 70
     1
102
RTVSPropertyOp31
 70
     1
102
RTVSPropertyOp32
 70
     1
  0
XRECORD
  5
47F
102
{ACAD_REACTORS
330
47E
102
}
330
47E
100
AcDbXrecord
280
     1
102
RTVSPropertyOp0
 70
     1
102
RTVSPropertyOp1
 70
     1
102
RTVSPropertyOp2
 70
     1
102
RTVSPropertyOp3
 70
     1
102
RTVSPropertyOp4
 70
     1
102
RTVSPropertyOp5
 70
     1
102
RTVSPropertyOp6
 70
     1
102
RTVSPropertyOp7
 70
     1
102
RTVSPropertyOp8
 70
     1
102
RTVSPropertyOp9
 70
     1
102
RTVSPropertyOp10
 70
     1
102
RTVSPropertyOp11
 70
     1
102
RTVSPropertyOp12
 70
     1
102
RTVSPropertyOp13
 70
     1
102
RTVSPropertyOp14
 70
     1
102
RTVSPropertyOp15
 70
     1
102
RTVSPropertyOp16
 70
     1
102
RTVSPropertyOp17
 70
     1
102
RTVSPropertyOp18
 70
     1
102
RTVSPropertyOp19
 70
     1
102
RTVSPropertyOp20
 70
     1
102
RTVSPropertyOp21
 70
     1
102
RTVSPropertyOp22
 70
     1
102
RTVSPropertyOp23
 70
     1
102
RTVSPropertyOp24
 70
     1
102
RTVSPropertyOp25
 70
     1
102
RTVSPropertyOp26
 70
     1
102
RTVSPropertyOp27
 70
     1
102
RTVSPropertyOp28
 70
     1
102
RTVSPropertyOp29
 70
     1
102
RTVSPropertyOp30
 70
     1
102
RTVSPropertyOp31
 70
     1
102
RTVSPropertyOp32
 70
     1
  0
XRECORD
  5
481
102
{ACAD_REACTORS
330
480
102
}
330
480
100
AcDbXrecord
280
     1
102
RTVSPropertyOp0
 70
     1
102
RTVSPropertyOp1
 70
     1
102
RTVSPropertyOp2
 70
     1
102
RTVSPropertyOp3
 70
     1
102
RTVSPropertyOp4
 70
     1
102
RTVSPropertyOp5
 70
     1
102
RTVSPropertyOp6
 70
     1
102
RTVSPropertyOp7
 70
     1
102
RTVSPropertyOp8
 70
     1
102
RTVSPropertyOp9
 70
     1
102
RTVSPropertyOp10
 70
     1
102
RTVSPropertyOp11
 70
     1
102
RTVSPropertyOp12
 70
     1
102
RTVSPropertyOp13
 70
     1
102
RTVSPropertyOp14
 70
     1
102
RTVSPropertyOp15
 70
     1
102
RTVSPropertyOp16
 70
     1
102
RTVSPropertyOp17
 70
     1
102
RTVSPropertyOp18
 70
     1
102
RTVSPropertyOp19
 70
     1
102
RTVSPropertyOp20
 70
     1
102
RTVSPropertyOp21
 70
     1
102
RTVSPropertyOp22
 70
     1
102
RTVSPropertyOp23
 70
     1
102
RTVSPropertyOp24
 70
     1
102
RTVSPropertyOp25
 70
     1
102
RTVSPropertyOp26
 70
     1
102
RTVSPropertyOp27
 70
     1
102
RTVSPropertyOp28
 70
     1
102
RTVSPropertyOp29
 70
     1
102
RTVSPropertyOp30
 70
     1
102
RTVSPropertyOp31
 70
     1
102
RTVSPropertyOp32
 70
     1
  0
XRECORD
  5
483
102
{ACAD_REACTORS
330
482
102
}
330
482
100
AcDbXrecord
280
     1
102
RTVSPropertyOp0
 70
     1
102
RTVSPropertyOp1
 70
     1
102
RTVSPropertyOp2
 70
     1
102
RTVSPropertyOp3
 70
     1
102
RTVSPropertyOp4
 70
     1
102
RTVSPropertyOp5
 70
     1
102
RTVSPropertyOp6
 70
     1
102
RTVSPropertyOp7
 70
     1
102
RTVSPropertyOp8
 70
     1
102
RTVSPropertyOp9
 70
     1
102
RTVSPropertyOp10
 70
     1
102
RTVSPropertyOp11
 70
     1
102
RTVSPropertyOp12
 70
     1
102
RTVSPropertyOp13
 70
     1
102
RTVSPropertyOp14
 70
     1
102
RTVSPropertyOp15
 70
     1
102
RTVSPropertyOp16
 70
     1
102
RTVSPropertyOp17
 70
     1
102
RTVSPropertyOp18
 70
     1
102
RTVSPropertyOp19
 70
     1
102
RTVSPropertyOp20
 70
     1
102
RTVSPropertyOp21
 70
     1
102
RTVSPropertyOp22
 70
     1
102
RTVSPropertyOp23
 70
     1
102
RTVSPropertyOp24
 70
     1
102
RTVSPropertyOp25
 70
     1
102
RTVSPropertyOp26
 70
     1
102
RTVSPropertyOp27
 70
     1
102
RTVSPropertyOp28
 70
     1
102
RTVSPropertyOp29
 70
     1
102
RTVSPropertyOp30
 70
     1
102
RTVSPropertyOp31
 70
     1
102
RTVSPropertyOp32
 70
     1
  0
XRECORD
  5
485
102
{ACAD_REACTORS
330
484
102
}
330
484
100
AcDbXrecord
280
     1
102
RTVSPropertyOp0
 70
     1
102
RTVSPropertyOp1
 70
     1
102
RTVSPropertyOp2
 70
     1
102
RTVSPropertyOp3
 70
     1
102
RTVSPropertyOp4
 70
     1
102
RTVSPropertyOp5
 70
     1
102
RTVSPropertyOp6
 70
     1
102
RTVSPropertyOp7
 70
     1
102
RTVSPropertyOp8
 70
     1
102
RTVSPropertyOp9
 70
     1
102
RTVSPropertyOp10
 70
     1
102
RTVSPropertyOp11
 70
     1
102
RTVSPropertyOp12
 70
     1
102
RTVSPropertyOp13
 70
     1
102
RTVSPropertyOp14
 70
     1
102
RTVSPropertyOp15
 70
     1
102
RTVSPropertyOp16
 70
     1
102
RTVSPropertyOp17
 70
     1
102
RTVSPropertyOp18
 70
     1
102
RTVSPropertyOp19
 70
     1
102
RTVSPropertyOp20
 70
     1
102
RTVSPropertyOp21
 70
     1
102
RTVSPropertyOp22
 70
     1
102
RTVSPropertyOp23
 70
     1
102
RTVSPropertyOp24
 70
     1
102
RTVSPropertyOp25
 70
     1
102
RTVSPropertyOp26
 70
     1
102
RTVSPropertyOp27
 70
     1
102
RTVSPropertyOp28
 70
     1
102
RTVSPropertyOp29
 70
     1
102
RTVSPropertyOp30
 70
     1
102
RTVSPropertyOp31
 70
     1
102
RTVSPropertyOp32
 70
     1
  0
XRECORD
  5
487
102
{ACAD_REACTORS
330
486
102
}
330
486
100
AcDbXrecord
280
     1
102
RTVSPropertyOp0
 70
     1
102
RTVSPropertyOp1
 70
     1
102
RTVSPropertyOp2
 70
     1
102
RTVSPropertyOp3
 70
     1
102
RTVSPropertyOp4
 70
     1
102
RTVSPropertyOp5
 70
     1
102
RTVSPropertyOp6
 70
     1
102
RTVSPropertyOp7
 70
     1
102
RTVSPropertyOp8
 70
     1
102
RTVSPropertyOp9
 70
     1
102
RTVSPropertyOp10
 70
     1
102
RTVSPropertyOp11
 70
     1
102
RTVSPropertyOp12
 70
     1
102
RTVSPropertyOp13
 70
     1
102
RTVSPropertyOp14
 70
     1
102
RTVSPropertyOp15
 70
     1
102
RTVSPropertyOp16
 70
     1
102
RTVSPropertyOp17
 70
     1
102
RTVSPropertyOp18
 70
     1
102
RTVSPropertyOp19
 70
     1
102
RTVSPropertyOp20
 70
     1
102
RTVSPropertyOp21
 70
     1
102
RTVSPropertyOp22
 70
     1
102
RTVSPropertyOp23
 70
     1
102
RTVSPropertyOp24
 70
     1
102
RTVSPropertyOp25
 70
     1
102
RTVSPropertyOp26
 70
     1
102
RTVSPropertyOp27
 70
     1
102
RTVSPropertyOp28
 70
     1
102
RTVSPropertyOp29
 70
     1
102
RTVSPropertyOp30
 70
     1
102
RTVSPropertyOp31
 70
     1
102
RTVSPropertyOp32
 70
     1
  0
XRECORD
  5
489
102
{ACAD_REACTORS
330
488
102
}
330
488
100
AcDbXrecord
280
     1
102
RTVSPropertyOp0
 70
     1
102
RTVSPropertyOp1
 70
     1
102
RTVSPropertyOp2
 70
     1
102
RTVSPropertyOp3
 70
     1
102
RTVSPropertyOp4
 70
     1
102
RTVSPropertyOp5
 70
     1
102
RTVSPropertyOp6
 70
     1
102
RTVSPropertyOp7
 70
     1
102
RTVSPropertyOp8
 70
     1
102
RTVSPropertyOp9
 70
     1
102
RTVSPropertyOp10
 70
     1
102
RTVSPropertyOp11
 70
     1
102
RTVSPropertyOp12
 70
     1
102
RTVSPropertyOp13
 70
     1
102
RTVSPropertyOp14
 70
     1
102
RTVSPropertyOp15
 70
     1
102
RTVSPropertyOp16
 70
     1
102
RTVSPropertyOp17
 70
     1
102
RTVSPropertyOp18
 70
     1
102
RTVSPropertyOp19
 70
     1
102
RTVSPropertyOp20
 70
     1
102
RTVSPropertyOp21
 70
     1
102
RTVSPropertyOp22
 70
     1
102
RTVSPropertyOp23
 70
     1
102
RTVSPropertyOp24
 70
     1
102
RTVSPropertyOp25
 70
     1
102
RTVSPropertyOp26
 70
     1
102
RTVSPropertyOp27
 70
     1
102
RTVSPropertyOp28
 70
     1
102
RTVSPropertyOp29
 70
     1
102
RTVSPropertyOp30
 70
     1
102
RTVSPropertyOp31
 70
     1
102
RTVSPropertyOp32
 70
     1
  0
XRECORD
  5
48B
102
{ACAD_REACTORS
330
48A
102
}
330
48A
100
AcDbXrecord
280
     1
102
RTVSPropertyOp0
 70
     1
102
RTVSPropertyOp1
 70
     1
102
RTVSPropertyOp2
 70
     1
102
RTVSPropertyOp3
 70
     1
102
RTVSPropertyOp4
 70
     1
102
RTVSPropertyOp5
 70
     1
102
RTVSPropertyOp6
 70
     1
102
RTVSPropertyOp7
 70
     1
102
RTVSPropertyOp8
 70
     1
102
RTVSPropertyOp9
 70
     1
102
RTVSPropertyOp10
 70
     1
102
RTVSPropertyOp11
 70
     1
102
RTVSPropertyOp12
 70
     1
102
RTVSPropertyOp13
 70
     1
102
RTVSPropertyOp14
 70
     1
102
RTVSPropertyOp15
 70
     1
102
RTVSPropertyOp16
 70
     1
102
RTVSPropertyOp17
 70
     1
102
RTVSPropertyOp18
 70
     1
102
RTVSPropertyOp19
 70
     1
102
RTVSPropertyOp20
 70
     1
102
RTVSPropertyOp21
 70
     1
102
RTVSPropertyOp22
 70
     1
102
RTVSPropertyOp23
 70
     1
102
RTVSPropertyOp24
 70
     1
102
RTVSPropertyOp25
 70
     1
102
RTVSPropertyOp26
 70
     1
102
RTVSPropertyOp27
 70
     1
102
RTVSPropertyOp28
 70
     1
102
RTVSPropertyOp29
 70
     1
102
RTVSPropertyOp30
 70
     1
102
RTVSPropertyOp31
 70
     1
102
RTVSPropertyOp32
 70
     1
  0
XRECORD
  5
48D
102
{ACAD_REACTORS
330
48C
102
}
330
48C
100
AcDbXrecord
280
     1
102
RTVSPropertyOp0
 70
     1
102
RTVSPropertyOp1
 70
     1
102
RTVSPropertyOp2
 70
     1
102
RTVSPropertyOp3
 70
     1
102
RTVSPropertyOp4
 70
     1
102
RTVSPropertyOp5
 70
     1
102
RTVSPropertyOp6
 70
     1
102
RTVSPropertyOp7
 70
     1
102
RTVSPropertyOp8
 70
     1
102
RTVSPropertyOp9
 70
     1
102
RTVSPropertyOp10
 70
     1
102
RTVSPropertyOp11
 70
     1
102
RTVSPropertyOp12
 70
     1
102
RTVSPropertyOp13
 70
     1
102
RTVSPropertyOp14
 70
     1
102
RTVSPropertyOp15
 70
     1
102
RTVSPropertyOp16
 70
     1
102
RTVSPropertyOp17
 70
     1
102
RTVSPropertyOp18
 70
     1
102
RTVSPropertyOp19
 70
     1
102
RTVSPropertyOp20
 70
     1
102
RTVSPropertyOp21
 70
     1
102
RTVSPropertyOp22
 70
     1
102
RTVSPropertyOp23
 70
     1
102
RTVSPropertyOp24
 70
     1
102
RTVSPropertyOp25
 70
     1
102
RTVSPropertyOp26
 70
     1
102
RTVSPropertyOp27
 70
     1
102
RTVSPropertyOp28
 70
     1
102
RTVSPropertyOp29
 70
     1
102
RTVSPropertyOp30
 70
     1
102
RTVSPropertyOp31
 70
     1
102
RTVSPropertyOp32
 70
     1
  0
XRECORD
  5
48F
102
{ACAD_REACTORS
330
48E
102
}
330
48E
100
AcDbXrecord
280
     1
102
RTVSPropertyOp0
 70
     1
102
RTVSPropertyOp1
 70
     1
102
RTVSPropertyOp2
 70
     1
102
RTVSPropertyOp3
 70
     1
102
RTVSPropertyOp4
 70
     1
102
RTVSPropertyOp5
 70
     1
102
RTVSPropertyOp6
 70
     1
102
RTVSPropertyOp7
 70
     1
102
RTVSPropertyOp8
 70
     1
102
RTVSPropertyOp9
 70
     1
102
RTVSPropertyOp10
 70
     1
102
RTVSPropertyOp11
 70
     1
102
RTVSPropertyOp12
 70
     1
102
RTVSPropertyOp13
 70
     1
102
RTVSPropertyOp14
 70
     1
102
RTVSPropertyOp15
 70
     1
102
RTVSPropertyOp16
 70
     1
102
RTVSPropertyOp17
 70
     1
102
RTVSPropertyOp18
 70
     1
102
RTVSPropertyOp19
 70
     1
102
RTVSPropertyOp20
 70
     1
102
RTVSPropertyOp21
 70
     1
102
RTVSPropertyOp22
 70
     1
102
RTVSPropertyOp23
 70
     1
102
RTVSPropertyOp24
 70
     1
102
RTVSPropertyOp25
 70
     1
102
RTVSPropertyOp26
 70
     1
102
RTVSPropertyOp27
 70
     1
102
RTVSPropertyOp28
 70
     1
102
RTVSPropertyOp29
 70
     1
102
RTVSPropertyOp30
 70
     1
102
RTVSPropertyOp31
 70
     1
102
RTVSPropertyOp32
 70
     1
  0
XRECORD
  5
491
102
{ACAD_REACTORS
330
490
102
}
330
490
100
AcDbXrecord
280
     1
102
RTVSPropertyOp0
 70
     1
102
RTVSPropertyOp1
 70
     1
102
RTVSPropertyOp2
 70
     1
102
RTVSPropertyOp3
 70
     1
102
RTVSPropertyOp4
 70
     1
102
RTVSPropertyOp5
 70
     1
102
RTVSPropertyOp6
 70
     1
102
RTVSPropertyOp7
 70
     1
102
RTVSPropertyOp8
 70
     1
102
RTVSPropertyOp9
 70
     1
102
RTVSPropertyOp10
 70
     1
102
RTVSPropertyOp11
 70
     1
102
RTVSPropertyOp12
 70
     1
102
RTVSPropertyOp13
 70
     1
102
RTVSPropertyOp14
 70
     1
102
RTVSPropertyOp15
 70
     1
102
RTVSPropertyOp16
 70
     1
102
RTVSPropertyOp17
 70
     1
102
RTVSPropertyOp18
 70
     1
102
RTVSPropertyOp19
 70
     1
102
RTVSPropertyOp20
 70
     1
102
RTVSPropertyOp21
 70
     1
102
RTVSPropertyOp22
 70
     1
102
RTVSPropertyOp23
 70
     1
102
RTVSPropertyOp24
 70
     1
102
RTVSPropertyOp25
 70
     1
102
RTVSPropertyOp26
 70
     1
102
RTVSPropertyOp27
 70
     1
102
RTVSPropertyOp28
 70
     1
102
RTVSPropertyOp29
 70
     1
102
RTVSPropertyOp30
 70
     1
102
RTVSPropertyOp31
 70
     1
102
RTVSPropertyOp32
 70
     1
  0
XRECORD
  5
493
102
{ACAD_REACTORS
330
492
102
}
330
492
100
AcDbXrecord
280
     1
102
RTVSPropertyOp0
 70
     1
102
RTVSPropertyOp1
 70
     1
102
RTVSPropertyOp2
 70
     1
102
RTVSPropertyOp3
 70
     1
102
RTVSPropertyOp4
 70
     1
102
RTVSPropertyOp5
 70
     1
102
RTVSPropertyOp6
 70
     1
102
RTVSPropertyOp7
 70
     1
102
RTVSPropertyOp8
 70
     1
102
RTVSPropertyOp9
 70
     1
102
RTVSPropertyOp10
 70
     1
102
RTVSPropertyOp11
 70
     1
102
RTVSPropertyOp12
 70
     1
102
RTVSPropertyOp13
 70
     1
102
RTVSPropertyOp14
 70
     1
102
RTVSPropertyOp15
 70
     1
102
RTVSPropertyOp16
 70
     1
102
RTVSPropertyOp17
 70
     1
102
RTVSPropertyOp18
 70
     1
102
RTVSPropertyOp19
 70
     1
102
RTVSPropertyOp20
 70
     1
102
RTVSPropertyOp21
 70
     1
102
RTVSPropertyOp22
 70
     1
102
RTVSPropertyOp23
 70
     1
102
RTVSPropertyOp24
 70
     1
102
RTVSPropertyOp25
 70
     1
102
RTVSPropertyOp26
 70
     1
102
RTVSPropertyOp27
 70
     1
102
RTVSPropertyOp28
 70
     1
102
RTVSPropertyOp29
 70
     1
102
RTVSPropertyOp30
 70
     1
102
RTVSPropertyOp31
 70
     1
102
RTVSPropertyOp32
 70
     1
  0
XRECORD
  5
495
102
{ACAD_REACTORS
330
494
102
}
330
494
100
AcDbXrecord
280
     1
102
RTVSPropertyOp0
 70
     1
102
RTVSPropertyOp1
 70
     1
102
RTVSPropertyOp2
 70
     1
102
RTVSPropertyOp3
 70
     1
102
RTVSPropertyOp4
 70
     1
102
RTVSPropertyOp5
 70
     1
102
RTVSPropertyOp6
 70
     1
102
RTVSPropertyOp7
 70
     1
102
RTVSPropertyOp8
 70
     1
102
RTVSPropertyOp9
 70
     1
102
RTVSPropertyOp10
 70
     1
102
RTVSPropertyOp11
 70
     1
102
RTVSPropertyOp12
 70
     1
102
RTVSPropertyOp13
 70
     1
102
RTVSPropertyOp14
 70
     1
102
RTVSPropertyOp15
 70
     1
102
RTVSPropertyOp16
 70
     1
102
RTVSPropertyOp17
 70
     1
102
RTVSPropertyOp18
 70
     1
102
RTVSPropertyOp19
 70
     1
102
RTVSPropertyOp20
 70
     1
102
RTVSPropertyOp21
 70
     1
102
RTVSPropertyOp22
 70
     1
102
RTVSPropertyOp23
 70
     1
102
RTVSPropertyOp24
 70
     1
102
RTVSPropertyOp25
 70
     1
102
RTVSPropertyOp26
 70
     1
102
RTVSPropertyOp27
 70
     1
102
RTVSPropertyOp28
 70
     1
102
RTVSPropertyOp29
 70
     1
102
RTVSPropertyOp30
 70
     1
102
RTVSPropertyOp31
 70
     1
102
RTVSPropertyOp32
 70
     1
  0
XRECORD
  5
497
102
{ACAD_REACTORS
330
496
102
}
330
496
100
AcDbXrecord
280
     1
102
RTVSPropertyOp0
 70
     1
102
RTVSPropertyOp1
 70
     1
102
RTVSPropertyOp2
 70
     1
102
RTVSPropertyOp3
 70
     1
102
RTVSPropertyOp4
 70
     1
102
RTVSPropertyOp5
 70
     1
102
RTVSPropertyOp6
 70
     1
102
RTVSPropertyOp7
 70
     1
102
RTVSPropertyOp8
 70
     1
102
RTVSPropertyOp9
 70
     1
102
RTVSPropertyOp10
 70
     1
102
RTVSPropertyOp11
 70
     1
102
RTVSPropertyOp12
 70
     1
102
RTVSPropertyOp13
 70
     1
102
RTVSPropertyOp14
 70
     1
102
RTVSPropertyOp15
 70
     1
102
RTVSPropertyOp16
 70
     1
102
RTVSPropertyOp17
 70
     1
102
RTVSPropertyOp18
 70
     1
102
RTVSPropertyOp19
 70
     1
102
RTVSPropertyOp20
 70
     1
102
RTVSPropertyOp21
 70
     1
102
RTVSPropertyOp22
 70
     1
102
RTVSPropertyOp23
 70
     1
102
RTVSPropertyOp24
 70
     1
102
RTVSPropertyOp25
 70
     1
102
RTVSPropertyOp26
 70
     1
102
RTVSPropertyOp27
 70
     1
102
RTVSPropertyOp28
 70
     1
102
RTVSPropertyOp29
 70
     1
102
RTVSPropertyOp30
 70
     1
102
RTVSPropertyOp31
 70
     1
102
RTVSPropertyOp32
 70
     1
  0
ENDSEC
  0
SECTION
  2
THUMBNAILIMAGE
 90
    16364
310
28000000B40000005500000001000800000000000000000000000000000000000000000000000000FFFFFF000000FF0000FFFF0000FF0000FFFF0000FF000000FF00FF000000000080808000C0C0C0000000FF007F7FFF000000A5005252A50000007F003F3F7F0000004C0026264C000000260013132600003FFF007F9FFF
310
000029A5005267A500001F7F003F4F7F0000134C00262F4C000009260013172600007FFF007FBFFF000052A500527CA500003F7F003F5F7F0000264C0026394C0000132600131C260000BFFF007FDFFF00007CA5005291A500005F7F003F6F7F0000394C0026424C00001C26001321260000FFFF007FFFFF0000A5A50052A5
310
A500007F7F003F7F7F00004C4C00264C4C00002626001326260000FFBF007FFFDF0000A57C0052A59100007F5F003F7F6F00004C3900264C420000261C001326210000FF7F007FFFBF0000A5520052A57C00007F3F003F7F5F00004C2600264C39000026130013261C0000FF3F007FFF9F0000A5290052A56700007F1F003F
310
7F4F00004C1300264C2F00002609001326170000FF00007FFF7F0000A5000052A55200007F00003F7F3F00004C0000264C260000260000132613003FFF00009FFF7F0029A5000067A552001F7F00004F7F3F00134C00002F4C260009260000172613007FFF0000BFFF7F0052A500007CA552003F7F00005F7F3F00264C0000
310
394C2600132600001C261300BFFF0000DFFF7F007CA5000091A552005F7F00006F7F3F00394C0000424C26001C26000021261300FFFF0000FFFF7F00A5A50000A5A552007F7F00007F7F3F004C4C00004C4C26002626000026261300FFBF0000FFDF7F00A57C0000A59152007F5F00007F6F3F004C3900004C422600261C00
310
0026211300FF7F0000FFBF7F00A5520000A57C52007F3F00007F5F3F004C2600004C39260026130000261C1300FF3F0000FF9F7F00A5290000A56752007F1F00007F4F3F004C1300004C2F26002609000026171300FF000000FF7F7F00A5000000A55252007F0000007F3F3F004C0000004C2626002600000026131300FF00
310
3F00FF7F9F00A5002900A55267007F001F007F3F4F004C0013004C262F002600090026131700FF007F00FF7FBF00A5005200A5527C007F003F007F3F5F004C0026004C2639002600130026131C00FF00BF00FF7FDF00A5007C00A55291007F005F007F3F6F004C0039004C26420026001C0026132100FF00FF00FF7FFF00A5
310
00A500A552A5007F007F007F3F7F004C004C004C264C002600260026132600BF00FF00DF7FFF007C00A5009152A5005F007F006F3F7F0039004C0042264C001C002600211326007F00FF00BF7FFF005200A5007C52A5003F007F005F3F7F0026004C0039264C00130026001C1326003F00FF009F7FFF002900A5006752A500
310
1F007F004F3F7F0013004C002F264C000900260017132600000000002D2D2D005B5B5B0089898900B7B7B700B3B3B30000000000000000000000000000000000000000000000000000000000000000000000000000000000000000000000000000000000000000000000000000000000000000000000000000000000000000
310
00000000000000000000000000000000000000000000000000000000000000000000000000000000000000000000000000000000000000000000000000000000000000000000000000000000000000000000000000000000000000000000000000000000000000000000000000000000000000000000000000000000000000
310
00000000000000000000000000000000000000000000000000000000000000000000000000000000000000000000000000000000000000000000000000000000000000000000000000000000000000000000000000000000000000000000000000000000000000000000000000000000000000000000000000000000000000
310
00000000000000000000000000000000000000000000000000000000000000000000000000000000000000000000000000000000000000000000000000000000000000000000000000000000000000000000000000000000000000000000000000000000000000000000000000000000000000000000000000000000000000
310
00000000000000000000000000000000000000000000000000000000000000000000000000000000000000000000000000000000000000000000000000000000000000000000000000000000000000000000000000000000000000000000000000000000000000000000000000000000000000000000000000000000000000
310
00000000000000000000000000000000000000000000000000000000000000000000000000000000000000000000000000000000000000000000000000000000000000000000000000000000000000000000000000000000000000000000000000000000000000000000000000000000000000000000000000000000000000
310
00000000000000000000000000000000000000000000000000000000000000000000000000000000000000000000000000000000000000000000000000000000000000000000000000000000000000000000000000000000000000000000000000000000000000000000000000000000000000000000000000000000000000
310
00000000000000000000000000000000000000000000000000000000000000000000000000000000000000000000000000000000000000000000000000000000000000000000000000000000000000000000000000000000000000000000000000000000000000000000000000000000000000000000000000000000000000
310
00000000000000000000000000000000000000000000000000000000000000000000000000000000000000000000000000000000000000000000000000000000000000000000000000000000000000000000000000000000000000000000000000000000000000000000000000000000000000000000000000000000000000
310
00000000000000000000000000000000000000000000000000000000000000000000000000000000000000000000000000000000000000000000000000000000000000000000000000000000000000000000000000000000000000000000000000000000000000000000000000000000000000000000000000000000000000
310
00000000000000000000000000000000000000000000000000000000000000000000000000000000000000000000000000000000000000000000000000000000000000000000000000000000000000000000000000000000000000000000000000000000000000000000000000000000000000000000000000000000000000
310
00000000000000000000000000000000000000000000000000000000000000000000000000000000000000000000000000000000000000000000000000000000000000000000000000000000000000000000000000000000000000000000000000000000000000000000000000000000000000000000000000000000000000
310
00000000000000000000000000000000000000000000000000000000000000000000000000000000000000000000000000000000000000000000000000000000000000000000000000000000000000000000000000000000000000000000000000000000000000000000000000000000000000000000000000000000000000
310
00000000000000000000000000000000000000000000000000000000000000000000000000000000000000000000000000000000000000000000000000000000000000000000000000000000000000000000000000000000000000000000000000000000000000000000000000000000000000000000000000000000000000
310
00000000000000000000000000000000000000000000000000000000000000000000000000000000000000000000000000000000000000000000000000000000000000000000000000000000000000000000000000000000000000000000000000000000000000000000000000000000000000000000000000000000000000
310
00000000000000000000000000000000000000000000000000000000000000000000000000000000000000000000000000000000000000000000000000000000000000000000000000000000000000000000000000000000000000000000000000000000000000000000000000000000000000000000000000000000000000
310
00000000000000000000000000000000000000000000000000000000000000000000000000000000000000000000000000000000000000000000000000000000000000000000000000000000000000000000000000000000000000000000000000000000000000000000000000000000000000000000000000000000000000
310
00000000000000000000000000000000000000000000000000000000000000000000000000000000000000000000000000000000000000000000000000000000000000000000000000000000000000000000000000000000000000000000000000000000000000000000000000000000000000000000000000000000000000
310
00000000000000000000000000000000000000000000000000000000000000000000000000000000000000000000000000000000000000000000000000000000000000000000000000000000000000000000000000000000000000000000000000000000000000000000000000000000000000000000000000000000000000
310
00000000000000000000000000000000000000000000000000000000000000000000000000000000000000000000000000000000000000000000000000000000000000000000000000000000000000000000000000000000000000000000000000000000000000000000000000000000000000000000000000000000000000
310
00000000000000000000000000000000000000000000000000000000000000000000000000000000000000000000000000000000000000000000000000000000000000000000000000000000000000000000000000000000000000000000000000000000000000000000000000000000000000000000000000000000000000
310
00000000000000000000000000000000000000000000000000000000000000000000000000000000000000000000000000000000000000000000000000000000000000000000000000000000000000000000000000000000000000000000000000000000000000000000000000000000000000000000000000000000000000
310
00000000000000000000000000000000000000000000000000000000000000000000000000000000000000000000000000000000000000000000000000000000000000000000000000000000000000000000000000000000000000000000000000000000000000000000000000000000000000000000000000000000000000
310
00000000000000000000000000000000000000000000000000000000000000000000000000000000000000000000000000000000000000000000000000000000000000000000000000000000000000000000000000000000000000000000000000000000000000000000000000000000000000000000000000000000000000
310
00000000000000000000000000000000000000000000000000000000000000000000000000000000000000000000000000000000000000000000000000000000000000000000000000000000000000000000000000000000000000000000000000000000000000000000000000000000000000000000000000000000000000
310
00000000000000000000000000000000000000000000000000000000000000000000000000000000000000000000000000000000000000000000000000000000000000000000000000000000000000000000000000000000000000000000000000000000000000000000000000000000000000000000000000000000000000
310
00000000000000000000000000000000000000000000000000000000000000000000000000000000000000000000000000000000000000000000000000000000000000000000000000000000000000000000000000000000000000000000000000000000000000000000000000000000000000000000000000000000000000
310
00000000000000000000000000000000000000000000000000000000000000000000000000000000000000000000000000000000000000000000000000000000000000000000000000000000000000000000000000000000000000000000000000000000000000000000000000000000000000000000000000000000000000
310
00000000000000000000000000000000000000000000000000000000000000000000000000000000000000000000000000000000000000000000000000000000000000000000000000000000000000000000000000000000000000000000000000000000000000000000000000000000000000000000000000000000000000
310
00000000000000000000000000000000000000000000000000000000000000000000000000000000000000000000000000000000000000000000000000000000000000000000000000000000000000000000000000000000000000000000000000000000000000000000000000000000000000000000000000000000000000
310
00000000000000000000000000000000000000000000000000000000000000000000000000000000000000000000000000000000000000000000000000000000000000000000000000000000000000000000000000000000000000000000000000000000000000000000000000000000000000000000070007070707000007
310
00000707070707000707070000000000000000000000000000000000000000000000000000000000000000000000000000000000000000000000000000000000000000000000000000000000000000000000000000000000000000000000000000000000000000000000000000000000000000000000000000000000000000
310
00000000000000000000000000000000000000000000000000000000000000000000000000000000000000000707070707070707070707070707070700070707000000000000000000000000000000000000000000000000000000000000000000000000000000000000000000000000000000000000000000000000000000
310
00000000000000000000000000000000000000000000000000000000000000000000000000000000000000000000000000000000000000000000000000000000000000000000000000000000000000000000000000000000000000000000000000070700070007000000000707070700070707000700000000000000000000
310
00000000000000000000000000000000000000000000000000000000000000000000000000000000000000000000000000000000000000000000000000000000000000000000000000000000000000000000000000000000000000000000000000000000000000000000000000000000000000000000000000000000000000
310
00000000000000000000000000000000000000000000000000000000000000000000000000000000000000000000000000000000000000000000000000000000000000000000000000000000000000000000000000000000000000000000000000000000000000000000000000000000000000000000000000000000000000
310
00000000000000000000000000000000000000000000000000000000000000000000000000000000000000000000000000000000000000000000000000000000000000000000000000000007070707000700070700000000000000000000000000000000000000000000000000000000000000000000000000000000000000
310
00000000000000000000000000000000000000000000000000000000000000000000000000000000000000000000000000000000000000000000000000000000000000000000000000000000000000000000000000000000000000000000000000000000000000000000000000000000000000000000000000000000000000
310
00000700070700070707000000000000000000000000000000000000000000000000000000000000000000000000000000000000000000000000000000000000000000000000000000000000000000000000000000000000000000000000000000000000000000000000000000000000000000000000000000000000000000
310
00000000000000000000000000000000000000000000000000000000000000000000000000000000000000000000000000000000000000000000000000000000000000000000000000000000000000000000000000000000000000000000000000000000000000000000000000000000000000000000000000000000000000
310
00000000000000000000000000000000000000000000000000000000000000000000000000000000000000000000000000000000000000000000000000000000000000000000000000000000000000000000000000000000000000000000000000000000000000000000000000000000000000000000000000000000000000
310
00000000000000000000000000000000000000000000000000000000000000000000000000000000000000000000000000000000000000000000000000000000000000000000000000000000000000000000000000000000000000000000000000000000000000000000000000000000000000000000000000000000000000
310
00000000000000000000000000000000000000000000000000000000000000000000000000000000000000000000000000000000000000000000000000000000000000000000000000000000000000000000000000000000000000000000000000000000000000000000000000000000000000000000000000000000000000
310
00000000000000000000000000000000000000000000000000000000000000000000000000000000000000000000000000000000000000000000000000000000000000000000000000000000000000000000000000000000000000000000000000000000000000000000000000000000000000000000000000000000000000
310
00000000000000000000000000000000000000000000000000000000000000000000000000000000000000000000000000000000000000000000000000000000000000000000000000000000000000000000000000000000000000000000000000000000000000000000000000000000000000000000000000000000000000
310
00000000000000000000000000000000000000000000000000000000000000000000000000000000000000000000000000000000000000000000000000000000000000000000000000000000000000000000000000000000000000000000000000000000000000000000000000000000000000000000000000000000000000
310
00000000000000000000000000000000000000000000000000000000000000000000000000000000000000000000000000000000000003030302020300000000000000000000000000000000000000000000000000000000000000000000000000000000000000000000000000000000000000000000000000000000000000
310
00000000000000000000000000000000000000000000000000000000000000000000000000000000000000000000000000000000000000000000000000000000000000000000000000000000000000000000000000000000000000000000000000000000000000000000030000020000020000000000000000000000000000
310
00000000000000000000000000000000000000000000000000000000000000000000000000000000000000000000000000000000000000000000000000000000000000000000000000000000000000000000000000000000000000000000000000000000000000000000000000000000000000000000000000000000000000
310
00000000000000000000000000000000000000000000000000000000000000000300000200000200000000000000000000000000000000000000000000000000000000000000000000000000000000000000000000000000000000000000000000000000000000000000000000000000000000000000000000000000000000
310
00000000000000000000000000000000000000000000000000000000000000000000000000000000000000000000000000000000000000000000000000000000000000000000000000000000000000000000000007030303020707020000000000000000000000000000000000000000000000000000000000000000000000
310
00000000000000000000000000000000000000000000000000000000000000000000000000000000000000000000000000000000000000000000000000000000000000000000000000000000000000000000000000000000000000000000000000000000000000000000000000000000000000000000000000000000000000
310
00000000000000000000000300000200000200000000000000000000000000000000000000000000000000000000000000000000000000000000000000000000000000000000000000000000000000000000000000000000000000000000000000000000000000000000000000000000000000000000000000000000000000
310
00000000000000000000000000000000000000000000000000000000000000000000000000000000000000000000000000000000000000000000000000000000030000020000020000000000000000000000000000000000000000000000000000000000000000000000000000000000000000000000000000000000000000
310
00000000000000000000000000000000000000000000000000000000000000000000000000000000000000000000000000000000000000000000000000000000000000000000000000000000000000000000000000000000000000000000000000000000000000000000000000000000000000000003000002000002000000
310
00000000000000000000000000000000000000000000000000000000000000000000000000000000000000000000000000000000000000000000000000000000000000000000000000000000000000000000000000000000000000000000000000000000000000000000000000000000000000000000000000000000000000
310
00000000000000000000000000000000000000000000000000000000000000000000000000000000000000030303020202030000000000000000000000000000000000000000000000000000000000000000000000000000000000000000000000000000000000000000000000000000000000000000000000000000000000
310
00000000000000000000000000000000000000000000000000000000000000000000000000000000000000000000000000000000000000000000000000000000000000000000000000000000000000000000000000000000000000000000000000000000000000000000000000000000000000000000000000000000000000
310
00000000000000000000000000000000000000000000000000000000000000000000000000000000000000000000000000000000000000000000000000000000000000000000000000000000000000000000000000000000000000000000000000000000000000000000000000000000000000000000000000000000000000
310
00000000000000000000000000000000000000000000000000000000000000000000000000000000000000000000000000000000000000000000000000000000000000000000000000000000000000000000000000000000000000000000000000000000000000000000000000000000000000000000000000000000000000
310
00000000000000000000000000000000000000000000000000000000000000000000000000000000000000000000000000000000000000000000000000000000000000000000000000000000000000000000000000000000000000000000000000000000000000000000000000000000000000000000000000000000000000
310
00000000000000000000000000000000000000000000000000000000000000000000000000000000000000000000000000000000000000000000000000000000000000000000000000000000000000000000000000000000000000000000000000000000000000000000000000000000000000000000000000000000000000
310
00000000000000000000000000000000000000000000000000000000000000000000000000000000000000000000000000000000000000000000000000000000000000000000000000000000000000000000000000000000000000000000000000000000000000000000000000000000000000000000000000000000000000
310
00000000000000000000000000000000000000000000000000000000000000000000000000000000000000000000000000000000000000000000000000000000000000000000000000000000000000000000000000000000000000000000000000000000000000000000000000000000000000000000000000000000000000
310
00000000000000000000000000000000000000000000000000000000000000000000000000000000000000000000000000000000000000000000000000000000000000000000000000000000000000000000000000000000000000000000000000000000000000000000000000000000000000000000000000000000000000
310
00000000000000000000000000000000000000000000000000000000000000000000000000000000000000000000000000000000000000000000000000000000000000000000000000000000000000000000000000000000000000000000000000000000000000000000000000000000000000000000000000000000000000
310
00000000000000000000000000000000000000000000000000000000000000000000000000000000000000000000000000000000000000000000000000000000000000000000000000000000000000000000000000000000000000000000000000000000000000000000000000000000000000000000000000000000000000
310
00000000000000000000000000000000000000000000000000000000000000000000000000000000000000000000000000000000000000000000000000000000000000000000000000000000000000000000000000000000000000000000000000000000000000000000000000000000000000000000000000000000000000
310
00000000000000000000000000000000000000000000000000000000000000000000000000000000000000000000000000000000000000000000000000000000000000000000000000000000000000000000000000000000000000000000000000000000000000000000000000000000000000000000000000000000000000
310
00000000000000000000000000000000000000000000000000000000000000000000000000000000000000000000000000000000000000000000000000000000000000000000000000000000000000000000000000000000000000000000000000000000000000000000000000000000000000000000000000000000000000
310
00000000000000000000000000000000000000000000000000000000000000000000000000000000000000000700000000000000000000000000000000000000000000000000000000000000000000000000000000000000000000000000000000000000000000000000000000000000000000000000000000000000000000
310
00000000000000000000000000000000000000000000000000000000000000000000000000000000000000000000000000000000000000000000000000000000000000000000000000000000000000000000000000000000000000000000000000070000000000000000000000000000000000000000000000000000000000
310
00000000000000000000000000070000000000000000000000000000000000000000000000000000000000000000000000000000000000000000000000000000000000000000000000000000000000000000000000000000000000000000000000000000000000000000000000000000000000000000000000000000000000
310
00000000000000000000000000000000000000030303030303030300000000000000000000000000000000000303030202020200000000000000000000000202020202020202000000000000000000000000000000000000000000000000000000000000000000000000000000000000000000000000000000000000000000
310
00000000000000000000000000000000000000000000000000000000000000000000000000000000000000000000000000000000000000000000000000000000000000000000000003000000030000030000000000000000000303030303031F03030303030203020000000000000000000000020000000207000002000000
310
00000000000000000000000000000000000000000000000000000000000000000000000000000000000000000000000000000000000000000000000000000000000000000000000000000000000000000000000000000000000000000000000000000000000000000000000000000000000000000000000000000000000300
310
03030703030300000000000003030303000000031F1F030303000002030200000000000000000000000200000007000000020000000000000000000000000000000000000000000000000000000000000000000000000000000000000000000000000000000000000000000000000000000000000000000000000000000000
310
00000000000000000000000000000000000000000000000000000000000000000000000000000000000000000000000000000003030000070003030000000000000303030303030003031F03030300000203020000000000000000000000020000000700000002000000000000000000000000000000000000000000000000
310
00000000000000000000000000000000000000000000000000000000000000000000000000000000000000000000000000000000000000000000000000000000000000000000000000000000000000000000000000000000000000000000000000000000000000070303070707070703070000000707070703070707070707
310
07070303000702070200000000000000000000000707070707070707020000000000000000000000000000000000000000000000000000000000000000000000000000000000000000000000000000000000000000000000000000000000000000000000000000000000000000000000000000000000000000000000000000
310
000000000000000000000000000000000000000000000000000000000000030300000000030300000000000003030303030300031F1F03030300000203020000000000000000000000020000000700000002000000000000000000000000000000000000000000000000000000000000000000000000000000000000000000
310
0000000000000000000000000000000000000000000000000000000000000000000000000000000000000000000000000000000000000000000000000000000000000000000000000000000000000000000000030003000700030300000000000003030303000000031F1F0303030000020302000000000000000000000002
310
00000007000000020000000000000000000000000000000000000000000000000000000000000000000000000000000000000000000000000000000000000000000000000000000000000000000000000000000000000000000000000000000000000000000000000000000000000000000000000000000000000000000000
310
000000000000000000030000030303000300000000000003030303030303031F1F03030300000203020000000000040000000000020000000000000002000000000000000000000000000000000000000000000000000000000000000000000000000000000000000000000000000000000000000000000000000000000000
310
0000000000000000000000000000000000000000000000000000000000000000000000000000000000000000000000000000000000000000000000000000030303000700030300000000000000000000000000001F1F0303030303040402040404040404040000000002020207070707020200000000000000000000000000
310
00000000000000000000000000000000000000000000000000000000000000000000000000000000000000000000000000000000000000000000000000000000000000000000000000000000000000000000000000000000000000000000000000000000000000000000000000000000000000030303030303030300000000
310
00000000000000000000000000030303030202020000000000000400000000020203030303020202000000000000000000000000000000000000000000000000000000000000000000000000000000000000000000000000000000000000000000000000000000000000000000000000000000000000000000000000000000
310
00000000000000000000000000000000000000000000000000000000000000000000000000000000000000000007000000000000000000000000000000000000000000000000040404040404040404040000000000000000070000000000000000000000000000000000000000000000000000000000000000000000000000
310
00000000000000000000000000000000000000000000000000000000000000000000000000000000000000000000000000000000000000000000000000000000000000000000000000000000000000000000000000000000000000000000000000000700000000000000000000000000000000000000000000000000000000
310
00000000000000000000000000000000000000000000000000000000000000000000000000000000000000000000000000000000000000000000000000000000000000000000000000000000000000000000000000000000000000000000000000000000000000000000000000000000000000000000000000000000000000
310
00000000000000000000000000000000000000000000000000000000000000000000000000000000000000000000000000000000000000000000000000000000000000000000000000000000000000000000000000000000000000000000000000000000000000000000000000000000000000000000000000000000000000
310
00000000000000000000000000000000000000000000000000000000000000000000000000000000000000000000000000000000000000000000000000000000000000000000000000000000000000000000000000000000000000000000000000000000000000000000000000000000000000000000000000000000000000
310
00000000000000000000000000000000000000000000000000000000000000000000000000000000000000000000000000000000000000000000000000000000000000000000000000000000000000000000000000000000000000000000000000000000000000000000000000000000000000000000000000000000000000
310
00000000000000000000000000000000000000000000000000000000000000000000000000000000000000000000000000000000000000000000000000000000000000000000000000000000000000000000000000000000000000000000000000000000000000000000000000000000000000000000000000000000000000
310
00000000000000000000000000000000000000000000000000000000000000000000000000000000000000000000000000000000000000000000000000000000000000000000000000000000000000000000000000000000000000000000000000000000000000000000000000000000000000000000000000000000000000
310
00000000000000000000000000000000000000000000000000000000000000000000000000000000000000000000000000000000000000000000000000000000000000000000000000000000000000000000000000000000000000000000000000000000000000000000000000000000000000000000000000000000000000
310
00000000000000000000000000000000000000000000000000000000000000000000000000000000000000000000000000000000000000000000000000000000000000000000000000000000000000000000000000000000000000000000000000000000000000000000000000000000000000000000000000000000000000
310
00000000000000000000000000000000000000000000000000000000000000000000000000000000000000000000000000000000000000000000000000000000000000000000000000000000000000000000000000000000000000000000000000000000000000000000000000000000000000000000000000000000000000
310
00000000000000000000000000000000000000000000000000000000000000000000000000000000000000000000000000000000000000000000000000000000000000000000000000000000000000000000000000000000000000000000000000000000000000000000000000000000000000000000000000000000000000
310
00000000000000000000000000000000000000000000000000000000000000000000000000000000000000000000000000000000000000000000000000000000000000000000000000000000000000000000000000000000000000000000000000000000000000000000000000000000000000000000000000000000000000
310
00000000000000000000000000000000000000000000000000000000000000000000000000000000000000000000000000000000000000000000000000000000000000000000000000000000000000000000000000000000000000000000000000000000000000000000000000000000000000000000000000000000000000
310
00000000000000000000000000000000000000000000000000000000000000000000000000000000000000000000000000000000000000000000000000000000000000000000000000000000000000000000000000000000000000000000000000000000000000000000000000000000000000000000000000000000000000
310
00000000000000000000000000000000000000000000000000000000000000000000000000000000000000000000000000000000000000000000000000000000000000000000000000000000000000000000000000000000000000000000000000000000000000000000000000000000000000000000000000000000000000
310
00000000000000000000000000000000000000000000000000000000000000000000000000000000000000000000000000000000000000000000000000000000000000000000000000000000000000000000000000000000000000000000000000000000000000000000000000000000000000000000000000000000000000
310
00000000000000000000000000000000000000000000000000000000000000000000000000000000000000000000000000000000000000000000000000000000000000000000000000000000000000000000000000000000000000000000000000000000000000000000000000000000000000000000000000000000000000
310
00000000000000000000000000000000000000000000000000000000000000000000000000000000000000000000000000000000000000000000000000000000000000000000000000000000000000000000000000000000000000000000000000000000000000000000000000000000000000000000000000000000000000
310
00000000000000000000000000000000000000000000000000000000000000000000000000000000000000000000000000000000000000000000000000000000000000000000000000000000000000000000000000000000000000000000000000000000000000000000000000000000000000000000000000000000000000
310
00000000000000000000000000000000000000000000000000000000000000000000000000000000000000000000000000000000000000000000000000000000000000000000000000000000000000000000000000000000000000000000000000000000000000000000000000000000000000000000000000000000000000
310
00000000000000000000000000000000000000000000000000000000000000000000000000000000000000000000000000000000000000000000000000000000000000000000000000000000000000000000000000000000000000000000000000000000000000000000000000000000000000000000000000000000000000
310
00000000000000000000000000000000000000000000000000000000000000000000000000000000000000000000000000000000000000000000000000000000000000000000000000000000000000000000000000000000000000000000000000000000000000000000000000000000000000000000000000000000000000
310
00000000000000000000000000000000000000000000000000000000000000000000000000000000000000000000000000000000000000000000000000000000000000000000000000000000000000000000000000000000000000000000000000000000000000000000000000000000000000000000000000000000000000
310
00000000000000000000000000000000000000000000000000000000000000000000000000000000000000000000000000000000000000000000000000000000000000000000000000000000000000000000000000000000000000000000000000000000000000000000000000000000000000000000000000000000000000
310
00000000000000000000000000000000000000000000000000000000000000000000000000000000000000000000000000000000000000000000000000000000000000000000000000000000000000000000000000000000000000000000000000000000000000000000000000000000000000000000000000000000000000
310
00000000000000000000000000000000000000000000000000000000000000000000000000000000000000000000000000000000000000000000000000000000000000000000000000000000000000000000000000000000000000000000000000000000000000000000000000000000000000000000000000000000000000
310
00000000000000000000000000000000000000000000000000000000000000000000000000000000000000000000000000000000000000000000000000000000000000000000000000000000000000000000000000000000000000000000000000000000000000000000000000000000000000000000000000000000000000
310
00000000000000000000000000000000000000000000000000000000000000000000000000000000000000000000000000000000000000000000000000000000000000000000000000000000000000000000000000000000000000000000000000000000000000000000000000000000000000000000000000000000000000
310
00000000000000000000000000000000000000000000000000000000000000000000000000000000000000000000000000000000000000000000000000000000000000000000000000000000000000000000000000000000000000000000000000000000000000000000000000000000000000000000000000000000000000
310
00000000000000000000000000000000000000000000000000000000000000000000000000000000000000000000000000000000000000000000000000000000000000000000000000000000000000000000000000000000000000000000000000000000000000000000000000000000000000000000000000000000000000
310
00000000000000000000000000000000000000000000000000000000000000000000000000000000000000000000000000000000000000000000000000000000000000000000000000000000000000000000000000000000000000000000000000000000000000000000000000000000000000000000000000000000000000
310
00000000000000000000000000000000000000000000000000000000000000000000000000000000000000000000000000000000000000000000000000000000000000000000000000000000000000000000000000000000000000000000000000000000000000000000000000000000000000000000000000000000000000
310
000000000000000000000000000000000000000000000000000000000000000000000000000000000000000000000000000000000000000000000000000000000000000000000000000000000000000000000000000000000000000000000000000000000000000000000000
  0
ENDSEC
  0
EOF
