  0
SECTION
  2
HEADER
  9
$ACADVER
  1
AC1015
  9
$ACADMAINTVER
 70
    20
  9
$DWGCODEPAGE
  3
ANSI_932
  9
$INSBASE
 10
0.0
 20
0.0
 30
0.0
  9
$EXTMIN
 10
303.7424722482
 20
10.0
 30
0.0
  9
$EXTMAX
 10
407.8385626212999
 20
213.2760557568
 30
0.0
  9
$LIMMIN
 10
-3.174999999999999
 20
-3.174999999999999
  9
$LIMMAX
 10
411.0135620117
 20
216.4510620117
  9
$ORTHOMODE
 70
     0
  9
$REGENMODE
 70
     1
  9
$FILLMODE
 70
     1
  9
$QTEXTMODE
 70
     0
  9
$MIRRTEXT
 70
     0
  9
$LTSCALE
 40
1.0
  9
$ATTMODE
 70
     1
  9
$TEXTSIZE
 40
0.200000003
  9
$TRACEWID
 40
0.05
  9
$TEXTSTYLE
  7
STANDARD
  9
$CLAYER
  8
0
  9
$CELTYPE
  6
ByLayer
  9
$CECOLOR
 62
   256
  9
$CELTSCALE
 40
1.0
  9
$DISPSILH
 70
     0
  9
$DIMSCALE
 40
1.0
  9
$DIMASZ
 40
0.1799999994
  9
$DIMEXO
 40
2.539999961899999
  9
$DIMDLI
 40
0.38
  9
$DIMRND
 40
0.0
  9
$DIMDLE
 40
0.0
  9
$DIMEXE
 40
3.809999942799999
  9
$DIMTP
 40
0.0
  9
$DIMTM
 40
0.0
  9
$DIMTXT
 40
0.200000003
  9
$DIMCEN
 40
0.09
  9
$DIMTSZ
 40
0.0
  9
$DIMTOL
 70
     0
  9
$DIMLIM
 70
     0
  9
$DIMTIH
 70
     0
  9
$DIMTOH
 70
     1
  9
$DIMSE1
 70
     0
  9
$DIMSE2
 70
     0
  9
$DIMTAD
 70
     0
  9
$DIMZIN
 70
     0
  9
$DIMBLK
  1

  9
$DIMASO
 70
     1
  9
$DIMSHO
 70
     0
  9
$DIMPOST
  1

  9
$DIMAPOST
  1

  9
$DIMALT
 70
     0
  9
$DIMALTD
 70
     2
  9
$DIMALTF
 40
25.4
  9
$DIMLFAC
 40
1.0
  9
$DIMTOFL
 70
     0
  9
$DIMTVP
 40
0.0
  9
$DIMTIX
 70
     0
  9
$DIMSOXD
 70
     0
  9
$DIMSAH
 70
     0
  9
$DIMBLK1
  1

  9
$DIMBLK2
  1

  9
$DIMSTYLE
  2
Standard
  9
$DIMCLRD
 70
     0
  9
$DIMCLRE
 70
     0
  9
$DIMCLRT
 70
     0
  9
$DIMTFAC
 40
1.0
  9
$DIMGAP
 40
0.09
  9
$DIMJUST
 70
     0
  9
$DIMSD1
 70
     0
  9
$DIMSD2
 70
     0
  9
$DIMTOLJ
 70
     1
  9
$DIMTZIN
 70
     0
  9
$DIMALTZ
 70
     0
  9
$DIMALTTZ
 70
     0
  9
$DIMUPT
 70
     0
  9
$DIMDEC
 70
     4
  9
$DIMTDEC
 70
     4
  9
$DIMALTU
 70
     2
  9
$DIMALTTD
 70
     2
  9
$DIMTXSTY
  7
STANDARD
  9
$DIMAUNIT
 70
     0
  9
$DIMADEC
 70
     0
  9
$DIMALTRND
 40
0.0
  9
$DIMAZIN
 70
     0
  9
$DIMDSEP
 70
    46
  9
$DIMATFIT
 70
     3
  9
$DIMFRAC
 70
     0
  9
$DIMLDRBLK
  1

  9
$DIMLUNIT
 70
     2
  9
$DIMLWD
 70
    -2
  9
$DIMLWE
 70
    -2
  9
$DIMTMOVE
 70
     0
  9
$LUNITS
 70
     2
  9
$LUPREC
 70
     3
  9
$SKETCHINC
 40
0.1
  9
$FILLETRAD
 40
0.0625
  9
$AUNITS
 70
     0
  9
$AUPREC
 70
     0
  9
$MENU
  1
ACAD
  9
$ELEVATION
 40
0.0
  9
$PELEVATION
 40
0.0
  9
$THICKNESS
 40
0.0
  9
$LIMCHECK
 70
     0
  9
$CHAMFERA
 40
0.0
  9
$CHAMFERB
 40
0.0
  9
$CHAMFERC
 40
0.0
  9
$CHAMFERD
 40
0.0
  9
$SKPOLY
 70
     0
  9
$TDCREATE
 40
2453397.980208333
  9
$TDUCREATE
 40
2453397.605208333
  9
$TDUPDATE
 40
2453398.698796702
  9
$TDUUPDATE
 40
2453398.323796702
  9
$TDINDWG
 40
0.0000937269
  9
$TDUSRTIMER
 40
0.0000933681
  9
$USRTIMER
 70
     1
  9
$ANGBASE
 50
0.0
  9
$ANGDIR
 70
     0
  9
$PDMODE
 70
     0
  9
$PDSIZE
 40
0.0
  9
$PLINEWID
 40
0.0
  9
$SPLFRAME
 70
     0
  9
$SPLINETYPE
 70
     6
  9
$SPLINESEGS
 70
     8
  9
$HANDSEED
  5
179
  9
$SURFTAB1
 70
     6
  9
$SURFTAB2
 70
     6
  9
$SURFTYPE
 70
     6
  9
$SURFU
 70
     6
  9
$SURFV
 70
     6
  9
$UCSBASE
  2

  9
$UCSNAME
  2

  9
$UCSORG
 10
0.0
 20
0.0
 30
0.0
  9
$UCSXDIR
 10
1.0
 20
0.0
 30
0.0
  9
$UCSYDIR
 10
0.0
 20
1.0
 30
0.0
  9
$UCSORTHOREF
  2

  9
$UCSORTHOVIEW
 70
     0
  9
$UCSORGTOP
 10
0.0
 20
0.0
 30
0.0
  9
$UCSORGBOTTOM
 10
0.0
 20
0.0
 30
0.0
  9
$UCSORGLEFT
 10
0.0
 20
0.0
 30
0.0
  9
$UCSORGRIGHT
 10
0.0
 20
0.0
 30
0.0
  9
$UCSORGFRONT
 10
0.0
 20
0.0
 30
0.0
  9
$UCSORGBACK
 10
0.0
 20
0.0
 30
0.0
  9
$PUCSBASE
  2

  9
$PUCSNAME
  2

  9
$PUCSORG
 10
0.0
 20
0.0
 30
0.0
  9
$PUCSXDIR
 10
1.0
 20
0.0
 30
0.0
  9
$PUCSYDIR
 10
0.0
 20
1.0
 30
0.0
  9
$PUCSORTHOREF
  2

  9
$PUCSORTHOVIEW
 70
     0
  9
$PUCSORGTOP
 10
0.0
 20
0.0
 30
0.0
  9
$PUCSORGBOTTOM
 10
0.0
 20
0.0
 30
0.0
  9
$PUCSORGLEFT
 10
0.0
 20
0.0
 30
0.0
  9
$PUCSORGRIGHT
 10
0.0
 20
0.0
 30
0.0
  9
$PUCSORGFRONT
 10
0.0
 20
0.0
 30
0.0
  9
$PUCSORGBACK
 10
0.0
 20
0.0
 30
0.0
  9
$USERI1
 70
     0
  9
$USERI2
 70
     0
  9
$USERI3
 70
     0
  9
$USERI4
 70
     0
  9
$USERI5
 70
     0
  9
$USERR1
 40
0.0
  9
$USERR2
 40
0.0
  9
$USERR3
 40
0.0
  9
$USERR4
 40
0.0
  9
$USERR5
 40
0.0
  9
$WORLDVIEW
 70
     1
  9
$SHADEDGE
 70
     3
  9
$SHADEDIF
 70
    70
  9
$TILEMODE
 70
     1
  9
$MAXACTVP
 70
    64
  9
$PINSBASE
 10
0.0
 20
0.0
 30
0.0
  9
$PLIMCHECK
 70
     0
  9
$PEXTMIN
 10
1.000000000000000E+20
 20
1.000000000000000E+20
 30
1.000000000000000E+20
  9
$PEXTMAX
 10
-1.000000000000000E+20
 20
-1.000000000000000E+20
 30
-1.000000000000000E+20
  9
$PLIMMIN
 10
0.0
 20
0.0
  9
$PLIMMAX
 10
12.0
 20
9.0
  9
$UNITMODE
 70
     0
  9
$VISRETAIN
 70
     1
  9
$PLINEGEN
 70
     0
  9
$PSLTSCALE
 70
     1
  9
$TREEDEPTH
 70
  3020
  9
$CMLSTYLE
  2
Standard
  9
$CMLJUST
 70
     0
  9
$CMLSCALE
 40
1.0
  9
$PROXYGRAPHICS
 70
     1
  9
$MEASUREMENT
 70
     0
  9
$CELWEIGHT
370
    -1
  9
$ENDCAPS
280
     0
  9
$JOINSTYLE
280
     0
  9
$LWDISPLAY
290
     0
  9
$INSUNITS
 70
     0
  9
$HYPERLINKBASE
  1

  9
$STYLESHEET
  1

  9
$XEDIT
290
     1
  9
$CEPSNTYPE
380
     0
  9
$PSTYLEMODE
290
     1
  9
$FINGERPRINTGUID
  2
{DB257097-9A41-4A9B-A72C-6A4E6661ECD1}
  9
$VERSIONGUID
  2
{42C84192-B8FD-45E3-AE8D-EBA52D37BB9A}
  9
$EXTNAMES
290
     1
  9
$PSVPSCALE
 40
0.0
  9
$OLESTARTUP
290
     0
  0
ENDSEC
  0
SECTION
  2
CLASSES
  0
CLASS
  1
ACDBDICTIONARYWDFLT
  2
AcDbDictionaryWithDefault
  3
ObjectDBX Classes
 90
        0
280
     0
281
     0
  0
CLASS
  1
TABLESTYLE
  2
AcDbTableStyle
  3
ObjectDBX Classes
 90
     2047
280
     0
281
     0
  0
CLASS
  1
DICTIONARYVAR
  2
AcDbDictionaryVar
  3
ObjectDBX Classes
 90
        0
280
     0
281
     0
  0
CLASS
  1
ACDBPLACEHOLDER
  2
AcDbPlaceHolder
  3
ObjectDBX Classes
 90
        0
280
     0
281
     0
  0
CLASS
  1
LAYOUT
  2
AcDbLayout
  3
ObjectDBX Classes
 90
        0
280
     0
281
     0
  0
ENDSEC
  0
SECTION
  2
TABLES
  0
TABLE
  2
VPORT
  5
8
330
0
100
AcDbSymbolTable
 70
     2
  0
VPORT
  5
173
330
8
100
AcDbSymbolTableRecord
100
AcDbViewportTableRecord
  2
*Active
 70
     0
 10
0.0
 20
0.0
 11
1.0
 21
1.0
 12
6.823492462311557
 22
4.5
 13
0.0
 23
0.0
 14
1.0
 24
1.0
 15
0.0
 25
0.0
 16
0.0
 26
0.0
 36
1.0
 17
0.0
 27
0.0
 37
0.0
 40
9.002933675420216
 41
1.087939698492462
 42
50.0
 43
0.0
 44
0.0
 50
0.0
 51
0.0
 71
     0
 72
   100
 73
     1
 74
     1
 75
     0
 76
     0
 77
     0
 78
     0
281
     0
 65
     1
110
0.0
120
0.0
130
0.0
111
1.0
121
0.0
131
0.0
112
0.0
122
1.0
132
0.0
 79
     0
146
0.0
  0
ENDTAB
  0
TABLE
  2
LTYPE
  5
5
330
0
100
AcDbSymbolTable
 70
     3
  0
LTYPE
  5
13
330
5
100
AcDbSymbolTableRecord
100
AcDbLinetypeTableRecord
  2
ByBlock
 70
     0
  3

 72
    65
 73
     0
 40
0.0
  0
LTYPE
  5
14
330
5
100
AcDbSymbolTableRecord
100
AcDbLinetypeTableRecord
  2
ByLayer
 70
     0
  3

 72
    65
 73
     0
 40
0.0
  0
LTYPE
  5
15
330
5
100
AcDbSymbolTableRecord
100
AcDbLinetypeTableRecord
  2
Continuous
 70
     0
  3
Solid line
 72
    65
 73
     0
 40
0.0
  0
LTYPE
  5
26
330
5
100
AcDbSymbolTableRecord
100
AcDbLinetypeTableRecord
  2
SOLID
 70
     0
  3
Solid
 72
    65
 73
     0
 40
0.0
  0
LTYPE
  5
27
330
5
100
AcDbSymbolTableRecord
100
AcDbLinetypeTableRecord
  2
CENTERLINE
 70
     0
  3
Centerline
 72
    65
 73
     4
 40
25.4
 49
19.05
 74
     0
 49
-1.587499999999999
 74
     0
 49
3.174999999999999
 74
     0
 49
-1.587499999999999
 74
     0
  0
ENDTAB
  0
TABLE
  2
LAYER
  5
2
330
0
100
AcDbSymbolTable
 70
     2
  0
LAYER
  5
10
330
2
100
AcDbSymbolTableRecord
100
AcDbLayerTableRecord
  2
0
 70
     0
 62
     7
  6
Continuous
370
    -3
390
F
  0
LAYER
  5
28
330
2
100
AcDbSymbolTableRecord
100
AcDbLayerTableRecord
  2
0$C$L0
 70
     0
 62
   192
  6
SOLID
370
    -3
390
F
  0
ENDTAB
  0
TABLE
  2
STYLE
  5
3
330
0
100
AcDbSymbolTable
 70
     1
  0
STYLE
  5
11
330
3
100
AcDbSymbolTableRecord
100
AcDbTextStyleTableRecord
  2
STANDARD
 70
     0
 40
0.0
 41
1.0
 50
0.0
 71
     0
 42
0.200000003
  3
txt
  4

  0
ENDTAB
  0
TABLE
  2
VIEW
  5
6
330
0
100
AcDbSymbolTable
 70
     0
  0
ENDTAB
  0
TABLE
  2
UCS
  5
7
330
0
100
AcDbSymbolTable
 70
     0
  0
ENDTAB
  0
TABLE
  2
APPID
  5
9
330
0
100
AcDbSymbolTable
 70
     1
  0
APPID
  5
12
330
9
100
AcDbSymbolTableRecord
100
AcDbRegAppTableRecord
  2
ACAD
 70
     0
  0
ENDTAB
  0
TABLE
  2
DIMSTYLE
  5
A
330
0
100
AcDbSymbolTable
 70
     1
100
AcDbDimStyleTable
 71
     0
  0
DIMSTYLE
105
16D
330
A
100
AcDbSymbolTableRecord
100
AcDbDimStyleTableRecord
  2
Standard
 70
     0
340
11
  0
ENDTAB
  0
TABLE
  2
BLOCK_RECORD
  5
1
330
0
100
AcDbSymbolTable
 70
     0
  0
BLOCK_RECORD
  5
22
330
1
100
AcDbSymbolTableRecord
100
AcDbBlockTableRecord
  2
*Model_Space
340
25
  0
BLOCK_RECORD
  5
1E
330
1
100
AcDbSymbolTableRecord
100
AcDbBlockTableRecord
  2
*Paper_Space
340
21
  0
ENDTAB
  0
ENDSEC
  0
SECTION
  2
BLOCKS
  0
BLOCK
  5
23
330
22
100
AcDbEntity
  8
0
100
AcDbBlockBegin
  2
*Model_Space
 70
     0
 10
0.0
 20
0.0
 30
0.0
  3
*Model_Space
  1

  0
ENDBLK
  5
24
330
22
100
AcDbEntity
  8
0
100
AcDbBlockEnd
  0
BLOCK
  5
1F
330
1E
100
AcDbEntity
 67
     1
  8
0
100
AcDbBlockBegin
  2
*Paper_Space
 70
     0
 10
0.0
 20
0.0
 30
0.0
  3
*Paper_Space
  1

  0
ENDBLK
  5
20
330
1E
100
AcDbEntity
 67
     1
  8
0
100
AcDbBlockEnd
  0
ENDSEC
  0
SECTION
  2
ENTITIES
  0
LINE
  5
2B
330
22
100
AcDbEntity
  8
0$C$L0
 62
     3
100
AcDbLine
 10
373.0833309716
 20
199.1202937568
 30
0.0
 11
373.0833309716
 21
123.1202937568
 31
0.0
  0
LINE
  5
2C
330
22
100
AcDbEntity
  8
0$C$L0
 62
     3
100
AcDbLine
 10
372.0833309716001
 20
200.1202937568
 30
0.0
 11
372.0833309716001
 21
122.1202937568
 31
0.0
  0
LINE
  5
2D
330
22
100
AcDbEntity
  8
0$C$L0
 62
     3
100
AcDbLine
 10
370.5833309716001
 20
211.1202937568
 30
0.0
 11
370.5833309716001
 21
111.1202937568
 31
0.0
  0
LINE
  5
2E
330
22
100
AcDbEntity
  8
0$C$L0
 62
     3
100
AcDbLine
 10
403.3333309716
 20
113.1659787568
 30
0.0
 11
403.3333309716
 21
209.0745177568
 31
0.0
  0
LINE
  5
2F
330
22
100
AcDbEntity
  8
0$C$L0
 62
     3
100
AcDbLine
 10
367.5833309716001
 20
111.6204917568
 30
0.0
 11
367.5833309716001
 21
210.6200497568
 31
0.0
  0
LINE
  5
30
330
22
100
AcDbEntity
  8
0$C$L0
 62
     3
100
AcDbLine
 10
363.0833309716
 20
207.4749077568
 30
0.0
 11
363.0833309716
 21
114.7656337568
 31
0.0
  0
LINE
  5
31
330
22
100
AcDbEntity
  8
0$C$L0
 62
     3
100
AcDbLine
 10
370.5833309716001
 20
111.1202937568
 30
0.0
 11
370.5833309716001
 21
211.1202937568
 31
0.0
  0
LINE
  5
32
330
22
100
AcDbEntity
  8
0$C$L0
  6
CENTERLINE
 62
     3
100
AcDbLine
 10
327.0425212482
 20
109.2930077568
 30
0.0
 11
327.0425212482
 21
213.2760557568
 31
0.0
  0
LINE
  5
33
330
22
100
AcDbEntity
  8
0$C$L0
 62
     3
100
AcDbLine
 10
308.2925052482
 20
119.7329337568
 30
0.0
 11
308.2925052482
 21
202.5077447568
 31
0.0
  0
LINE
  5
34
330
22
100
AcDbEntity
  8
0$C$L0
 62
     3
100
AcDbLine
 10
307.7925052482
 20
119.7329337568
 30
0.0
 11
307.7925052482
 21
202.5077447568
 31
0.0
  0
LINE
  5
35
330
22
100
AcDbEntity
  8
0$C$L0
 62
     3
100
AcDbLine
 10
305.5425212482
 20
114.1206297568
 30
0.0
 11
305.5425212482
 21
208.1200497568
 31
0.0
  0
LINE
  5
36
330
22
100
AcDbEntity
  8
0$C$L0
 62
     3
100
AcDbLine
 10
345.7925212482
 20
119.7329337568
 30
0.0
 11
345.7925212482
 21
202.5077447568
 31
0.0
  0
LINE
  5
37
330
22
100
AcDbEntity
  8
0$C$L0
 62
     3
100
AcDbLine
 10
346.2925212482
 20
119.7329337568
 30
0.0
 11
346.2925212482
 21
202.5077447568
 31
0.0
  0
LINE
  5
38
330
22
100
AcDbEntity
  8
0$C$L0
 62
     3
100
AcDbLine
 10
348.5425212482
 20
114.1206297568
 30
0.0
 11
348.5425212482
 21
208.1200497568
 31
0.0
  0
LINE
  5
39
330
22
100
AcDbEntity
  8
0$C$L0
  6
CENTERLINE
 62
     3
100
AcDbLine
 10
340.7424722482
 20
114.1202937568
 30
0.0
 11
350.3424472482
 21
114.1202937568
 31
0.0
  0
LINE
  5
3A
330
22
100
AcDbEntity
  8
0$C$L0
 62
     3
100
AcDbLine
 10
345.5425052482
 20
111.1203847568
 30
0.0
 11
308.5425362482
 21
111.1203847568
 31
0.0
  0
LINE
  5
3B
330
22
100
AcDbEntity
  8
0$C$L0
  6
CENTERLINE
 62
     3
100
AcDbLine
 10
338.0425052482
 20
120.1205377568
 30
0.0
 11
346.0425212482
 21
120.1202937568
 31
0.0
  0
ARC
  5
3C
330
22
100
AcDbEntity
  8
0$C$L0
 62
     3
100
AcDbCircle
 10
345.5425212482
 20
114.1203847568
 30
0.0
 40
4.25
100
AcDbArc
 50
102.555716
 51
167.443536
  0
ARC
  5
3D
330
22
100
AcDbEntity
  8
0$C$L0
 62
     3
100
AcDbCircle
 10
345.5425212482
 20
114.1203847568
 30
0.0
 40
3.75
100
AcDbArc
 50
102.555814
 51
167.442744
  0
LINE
  5
3E
330
22
100
AcDbEntity
  8
0$C$L0
 62
     3
100
AcDbLine
 10
337.0437412482
 20
101.1203777568
 30
0.0
 11
337.0417882482
 21
111.2949147568
 31
0.0
  0
LINE
  5
3F
330
22
100
AcDbEntity
  8
0$C$L0
 62
     3
100
AcDbLine
 10
317.0425212482
 20
110.9458327568
 30
0.0
 11
317.0425212482
 21
101.1203777568
 31
0.0
  0
LINE
  5
40
330
22
100
AcDbEntity
  8
0$C$L0
  6
CENTERLINE
 62
     3
100
AcDbLine
 10
327.0425212482
 20
113.2703557568
 30
0.0
 11
327.0425212482
 21
90.4342817568
 31
0.0
  0
LINE
  5
41
330
22
100
AcDbEntity
  8
0$C$L0
 62
     3
100
AcDbLine
 10
317.5425212482
 20
100.6203777568
 30
0.0
 11
336.5425212482
 21
100.6203777568
 31
0.0
  0
ARC
  5
42
330
22
100
AcDbEntity
  8
0$C$L0
 62
     3
100
AcDbCircle
 10
322.1672762482
 20
103.9328777568
 30
0.0
 40
3.3125
100
AcDbArc
 50
238.109131
 51
301.890771
  0
LINE
  5
43
330
22
100
AcDbEntity
  8
0$C$L0
 62
     3
100
AcDbLine
 10
317.5425212482
 20
94.12037775679999
 30
0.0
 11
336.5425212482
 21
94.12037775679999
 31
0.0
  0
LINE
  5
44
330
22
100
AcDbEntity
  8
0$C$L0
 62
     3
100
AcDbLine
 10
318.0425212482
 20
93.62037775679999
 30
0.0
 11
336.0425212482
 21
93.62037775679999
 31
0.0
  0
LINE
  5
45
330
22
100
AcDbEntity
  8
0$C$L0
 62
     3
100
AcDbLine
 10
317.5425212482
 20
100.6203777568
 30
0.0
 11
317.5425212482
 21
94.12037775679999
 31
0.0
  0
LINE
  5
46
330
22
100
AcDbEntity
  8
0$C$L0
 62
     3
100
AcDbLine
 10
317.5425212482
 20
94.12037775679999
 30
0.0
 11
318.0425212482
 21
93.62037775679999
 31
0.0
  0
LINE
  5
47
330
22
100
AcDbEntity
  8
0$C$L0
 62
     3
100
AcDbLine
 10
320.4172762482
 20
107.6203467568
 30
0.0
 11
320.4172762482
 21
101.1203777568
 31
0.0
  0
LINE
  5
48
330
22
100
AcDbEntity
  8
0$C$L0
 62
     3
100
AcDbLine
 10
317.0425212482
 20
101.1203777568
 30
0.0
 11
317.5425212482
 21
100.6203777568
 31
0.0
  0
LINE
  5
49
330
22
100
AcDbEntity
  8
0$C$L0
 62
     3
100
AcDbLine
 10
317.0425212482
 20
101.1203777568
 30
0.0
 11
320.4172762482
 21
101.1203777568
 31
0.0
  0
LINE
  5
4A
330
22
100
AcDbEntity
  8
0$C$L0
 62
     3
100
AcDbLine
 10
317.0425212482
 20
107.6203777568
 30
0.0
 11
317.2925212482
 21
107.6203777568
 31
0.0
  0
LINE
  5
4B
330
22
100
AcDbEntity
  8
0$C$L0
 62
     3
100
AcDbLine
 10
317.0423992482
 20
107.6203627568
 30
0.0
 11
320.4172762482
 21
107.6203627568
 31
0.0
  0
LINE
  5
4C
330
22
100
AcDbEntity
  8
0$C$L0
 62
     3
100
AcDbLine
 10
336.5425212482
 20
100.6203777568
 30
0.0
 11
336.5425212482
 21
94.12037775679999
 31
0.0
  0
LINE
  5
4D
330
22
100
AcDbEntity
  8
0$C$L0
 62
     3
100
AcDbLine
 10
336.0425212482
 20
93.62037775679999
 30
0.0
 11
336.5425212482
 21
94.12037775679999
 31
0.0
  0
ARC
  5
4E
330
22
100
AcDbEntity
  8
0$C$L0
 62
     3
100
AcDbCircle
 10
331.9175212482
 20
103.9328777568
 30
0.0
 40
3.3125
100
AcDbArc
 50
238.109124
 51
301.890764
  0
LINE
  5
4F
330
22
100
AcDbEntity
  8
0$C$L0
 62
     3
100
AcDbLine
 10
323.9172762482
 20
107.6203777568
 30
0.0
 11
323.9172762482
 21
101.1203777568
 31
0.0
  0
LINE
  5
50
330
22
100
AcDbEntity
  8
0$C$L0
 62
     3
100
AcDbLine
 10
330.1675212482
 20
107.6203777568
 30
0.0
 11
330.1675212482
 21
101.1203777568
 31
0.0
  0
LINE
  5
51
330
22
100
AcDbEntity
  8
0$C$L0
 62
     3
100
AcDbLine
 10
323.9172762482
 20
101.1203777568
 30
0.0
 11
330.1675212482
 21
101.1203777568
 31
0.0
  0
LINE
  5
52
330
22
100
AcDbEntity
  8
0$C$L0
 62
     3
100
AcDbLine
 10
323.9172762482
 20
107.6203777568
 30
0.0
 11
330.1675212482
 21
107.6203777568
 31
0.0
  0
LINE
  5
53
330
22
100
AcDbEntity
  8
0$C$L0
 62
     3
100
AcDbLine
 10
333.6675212482
 20
107.6203467568
 30
0.0
 11
333.6675212482
 21
101.1203777568
 31
0.0
  0
LINE
  5
54
330
22
100
AcDbEntity
  8
0$C$L0
 62
     3
100
AcDbLine
 10
333.6675212482
 20
101.1203777568
 30
0.0
 11
337.0436192482
 21
101.1203777568
 31
0.0
  0
LINE
  5
55
330
22
100
AcDbEntity
  8
0$C$L0
 62
     3
100
AcDbLine
 10
337.0437412482
 20
101.1203777568
 30
0.0
 11
336.5425212482
 21
100.6203777568
 31
0.0
  0
LINE
  5
56
330
22
100
AcDbEntity
  8
0$C$L0
 62
     3
100
AcDbLine
 10
337.0423992482
 20
107.6203627568
 30
0.0
 11
333.6675212482
 21
107.6203467568
 31
0.0
  0
LINE
  5
57
330
22
100
AcDbEntity
  8
0$C$L0
 62
     3
100
AcDbLine
 10
336.7925212482
 20
107.6203777568
 30
0.0
 11
337.0425212482
 21
107.6203777568
 31
0.0
  0
LINE
  5
58
330
22
100
AcDbEntity
  8
0$C$L0
 62
     3
100
AcDbLine
 10
333.4925202482
 20
134.9948057568
 30
0.0
 11
333.4925202482
 21
133.2448057568
 31
0.0
  0
ARC
  5
59
330
22
100
AcDbEntity
  8
0$C$L0
 62
     3
100
AcDbCircle
 10
327.0425212482
 20
134.1198057568
 30
0.0
 40
5.549998999999999
100
AcDbArc
 50
99.070961
 51
350.929004
  0
LINE
  5
5A
330
22
100
AcDbEntity
  8
0$C$L0
  6
CENTERLINE
 62
     3
100
AcDbLine
 10
318.9925022482
 20
134.1197827568
 30
0.0
 11
335.0925162482
 21
134.1198057568
 31
0.0
  0
LINE
  5
5B
330
22
100
AcDbEntity
  8
0$C$L0
 62
     3
100
AcDbLine
 10
336.0425212482
 20
125.6202937568
 30
0.0
 11
318.0425212482
 21
125.6202787568
 31
0.0
  0
LINE
  5
5C
330
22
100
AcDbEntity
  8
0$C$L0
 62
     3
100
AcDbLine
 10
318.0425212482
 20
119.6202937568
 30
0.0
 11
336.0425212482
 21
119.6202937568
 31
0.0
  0
LINE
  5
5D
330
22
100
AcDbEntity
  8
0$C$L0
 62
     3
100
AcDbLine
 10
317.0425212482
 20
109.6203777568
 30
0.0
 11
337.0423992482
 21
109.6203777568
 31
0.0
  0
LINE
  5
5E
330
22
100
AcDbEntity
  8
0$C$L0
 62
     3
100
AcDbLine
 10
339.9300332482
 20
113.8703847568
 30
0.0
 11
314.1550082482
 21
113.8703847568
 31
0.0
  0
LINE
  5
5F
330
22
100
AcDbEntity
  8
0$C$L0
 62
     3
100
AcDbLine
 10
339.9300332482
 20
113.3703847568
 30
0.0
 11
314.1550082482
 21
113.3703847568
 31
0.0
  0
LINE
  5
60
330
22
100
AcDbEntity
  8
0$C$L0
  6
CENTERLINE
 62
     3
100
AcDbLine
 10
312.0425052482
 20
124.1205227568
 30
0.0
 11
312.0425362482
 21
116.1202937568
 31
0.0
  0
LINE
  5
61
330
22
100
AcDbEntity
  8
0$C$L0
 62
     3
100
AcDbLine
 10
317.0425212482
 20
124.6202787568
 30
0.0
 11
317.0425212482
 21
120.6202937568
 31
0.0
  0
LINE
  5
62
330
22
100
AcDbEntity
  8
0$C$L0
  6
CENTERLINE
 62
     3
100
AcDbLine
 10
303.7424722482
 20
114.1202937568
 30
0.0
 11
313.3424472482
 21
114.1202937568
 31
0.0
  0
ARC
  5
63
330
22
100
AcDbEntity
  8
0$C$L0
 62
     3
100
AcDbCircle
 10
314.1550082482
 20
115.3703847568
 30
0.0
 40
2.0
100
AcDbArc
 50
192.5532259999999
 51
270.0
  0
LINE
  5
64
330
22
100
AcDbEntity
  8
0$C$L0
  6
CENTERLINE
 62
     3
100
AcDbLine
 10
316.0425212482
 20
120.1205377568
 30
0.0
 11
308.0425212482
 21
120.1202787568
 31
0.0
  0
ARC
  5
65
330
22
100
AcDbEntity
  8
0$C$L0
 62
     3
100
AcDbCircle
 10
308.5425212482
 20
114.1203847568
 30
0.0
 40
4.25
100
AcDbArc
 50
12.556363
 51
77.44416099999999
  0
ARC
  5
66
330
22
100
AcDbEntity
  8
0$C$L0
 62
     3
100
AcDbCircle
 10
308.5425212482
 20
114.1203847568
 30
0.0
 40
3.75
100
AcDbArc
 50
12.557256
 51
77.444299
  0
LINE
  5
67
330
22
100
AcDbEntity
  8
0$C$L0
 62
     3
100
AcDbLine
 10
307.5172062482
 20
114.7920317568
 30
0.0
 11
307.8707682482
 21
115.1455927568
 31
0.0
  0
LINE
  5
68
330
22
100
AcDbEntity
  8
0$C$L0
 62
     3
100
AcDbLine
 10
307.8707682482
 20
115.1455927568
 30
0.0
 11
308.1889592482
 21
114.8273857568
 31
0.0
  0
LINE
  5
69
330
22
100
AcDbEntity
  8
0$C$L0
 62
     3
100
AcDbLine
 10
308.8960672482
 20
114.8273247568
 30
0.0
 11
309.9467872482
 21
115.8782277568
 31
0.0
  0
LINE
  5
6A
330
22
100
AcDbEntity
  8
0$C$L0
 62
     3
100
AcDbLine
 10
309.2496132482
 20
114.4738087568
 30
0.0
 11
310.3005162482
 21
115.5244687568
 31
0.0
  0
CIRCLE
  5
6B
330
22
100
AcDbEntity
  8
0$C$L0
 62
     3
100
AcDbCircle
 10
308.5425212482
 20
114.1202937568
 30
0.0
 40
2.249998999999999
  0
LINE
  5
6C
330
22
100
AcDbEntity
  8
0$C$L0
  6
CENTERLINE
 62
     3
100
AcDbLine
 10
308.5425212482
 20
109.3202907568
 30
0.0
 11
308.5425212482
 21
118.9202817568
 31
0.0
  0
LINE
  5
6D
330
22
100
AcDbEntity
  8
0$C$L0
 62
     3
100
AcDbLine
 10
306.7846172482
 20
112.7158747568
 30
0.0
 11
307.8354132482
 21
113.7666557568
 31
0.0
  0
ARC
  5
6E
330
22
100
AcDbEntity
  8
0$C$L0
 62
     3
100
AcDbCircle
 10
308.5425212482
 20
114.1205067568
 30
0.0
 40
3.0
100
AcDbArc
 50
179.999854
 51
270.0
  0
LINE
  5
6F
330
22
100
AcDbEntity
  8
0$C$L0
 62
     3
100
AcDbLine
 10
309.2496132482
 20
113.7667317568
 30
0.0
 11
309.5678202482
 21
113.4485257568
 31
0.0
  0
LINE
  5
70
330
22
100
AcDbEntity
  8
0$C$L0
 62
     3
100
AcDbLine
 10
309.2142742482
 20
113.0949797568
 30
0.0
 11
309.5678202482
 21
113.4485257568
 31
0.0
  0
ARC
  5
71
330
22
100
AcDbEntity
  8
0$C$L0
 62
     3
100
AcDbCircle
 10
308.5425212482
 20
115.1809477568
 30
0.0
 40
0.5
100
AcDbArc
 50
225.0
 51
314.999382
  0
LINE
  5
72
330
22
100
AcDbEntity
  8
0$C$L0
 62
     3
100
AcDbLine
 10
307.5172062482
 20
114.7920317568
 30
0.0
 11
307.8354132482
 21
114.4738397568
 31
0.0
  0
ARC
  5
73
330
22
100
AcDbEntity
  8
0$C$L0
 62
     3
100
AcDbCircle
 10
308.5425052482
 20
113.0596247568
 30
0.0
 40
0.5
100
AcDbArc
 50
45.0
 51
134.998145
  0
LINE
  5
74
330
22
100
AcDbEntity
  8
0$C$L0
 62
     3
100
AcDbLine
 10
308.8960672482
 20
113.4131857568
 30
0.0
 11
309.2142742482
 21
113.0949797568
 31
0.0
  0
LINE
  5
75
330
22
100
AcDbEntity
  8
0$C$L0
 62
     3
100
AcDbLine
 10
307.1381472482
 20
112.3623587568
 30
0.0
 11
308.1889592482
 21
113.4131407568
 31
0.0
  0
ARC
  5
76
330
22
100
AcDbEntity
  8
0$C$L0
 62
     3
100
AcDbCircle
 10
309.6031742482
 20
114.1202787568
 30
0.0
 40
0.5
100
AcDbArc
 50
134.999382
 51
224.998764
  0
ARC
  5
77
330
22
100
AcDbEntity
  8
0$C$L0
 62
     3
100
AcDbCircle
 10
307.4818522482
 20
114.1202937568
 30
0.0
 40
0.5
100
AcDbArc
 50
315.000618
 51
44.99876399999997
  0
ARC
  5
78
330
22
100
AcDbEntity
  8
0$C$L0
 62
     3
100
AcDbCircle
 10
309.7925052482
 20
119.7329337568
 30
0.0
 40
2.0
100
AcDbArc
 50
179.999781
 51
257.444498
  0
ARC
  5
79
330
22
100
AcDbEntity
  8
0$C$L0
 62
     3
100
AcDbCircle
 10
309.7925052482
 20
119.7329337568
 30
0.0
 40
1.5
100
AcDbArc
 50
179.999709
 51
257.444957
  0
ARC
  5
7A
330
22
100
AcDbEntity
  8
0$C$L0
 62
     3
100
AcDbCircle
 10
314.1550082482
 20
115.3703847568
 30
0.0
 40
1.5
100
AcDbArc
 50
192.554411
 51
270.0
  0
ARC
  5
7B
330
22
100
AcDbEntity
  8
0$C$L0
 62
     3
100
AcDbCircle
 10
318.0425212482
 20
120.6202937568
 30
0.0
 40
1.0
100
AcDbArc
 50
179.999563
 51
270.0
  0
ARC
  5
7C
330
22
100
AcDbEntity
  8
0$C$L0
 62
     3
100
AcDbCircle
 10
318.0425212482
 20
124.6202787568
 30
0.0
 40
1.0
100
AcDbArc
 50
89.99956299999999
 51
179.999563
  0
LINE
  5
7D
330
22
100
AcDbEntity
  8
0$C$L0
 62
     3
100
AcDbLine
 10
337.0425212482
 20
120.6202787568
 30
0.0
 11
337.0425212482
 21
124.6202787568
 31
0.0
  0
LINE
  5
7E
330
22
100
AcDbEntity
  8
0$C$L0
  6
CENTERLINE
 62
     3
100
AcDbLine
 10
342.0425212482
 20
124.1205377568
 30
0.0
 11
342.0425052482
 21
116.1202937568
 31
0.0
  0
ARC
  5
7F
330
22
100
AcDbEntity
  8
0$C$L0
 62
     3
100
AcDbCircle
 10
339.9300332482
 20
115.3703847568
 30
0.0
 40
1.5
100
AcDbArc
 50
269.999709
 51
347.445589
  0
ARC
  5
80
330
22
100
AcDbEntity
  8
0$C$L0
 62
     3
100
AcDbCircle
 10
339.9300332482
 20
115.3703847568
 30
0.0
 40
2.0
100
AcDbArc
 50
269.999781
 51
347.446774
  0
ARC
  5
81
330
22
100
AcDbEntity
  8
0$C$L0
 62
     3
100
AcDbCircle
 10
336.0425212482
 20
120.6202937568
 30
0.0
 40
1.0
100
AcDbArc
 50
269.999563
 51
0.0
  0
LINE
  5
82
330
22
100
AcDbEntity
  8
0$C$L0
 62
     3
100
AcDbLine
 10
332.5231042482
 20
133.2448057568
 30
0.0
 11
333.4925182482
 21
133.2448057568
 31
0.0
  0
ARC
  5
83
330
22
100
AcDbEntity
  8
0$C$L0
 62
     3
100
AcDbCircle
 10
336.0425212482
 20
124.6202787568
 30
0.0
 40
1.0
100
AcDbArc
 50
0.0
 51
90.0
  0
LINE
  5
84
330
22
100
AcDbEntity
  8
0$C$L0
  6
CENTERLINE
 62
     3
100
AcDbLine
 10
318.9925022482
 20
152.1199047568
 30
0.0
 11
335.0925162482
 21
152.1199277568
 31
0.0
  0
ARC
  5
85
330
22
100
AcDbEntity
  8
0$C$L0
 62
     3
100
AcDbCircle
 10
327.0425212482
 20
152.1199277568
 30
0.0
 40
5.549998999999999
100
AcDbArc
 50
99.070961
 51
350.929004
  0
ARC
  5
86
330
22
100
AcDbEntity
  8
0$C$L0
 62
     3
100
AcDbCircle
 10
327.0425212482
 20
134.1198057568
 30
0.0
 40
5.549998999999999
100
AcDbArc
 50
9.070975999999999
 51
80.928999
  0
LINE
  5
87
330
22
100
AcDbEntity
  8
0$C$L0
 62
     3
100
AcDbLine
 10
332.5231042482
 20
134.9948057568
 30
0.0
 11
333.4925182482
 21
134.9948057568
 31
0.0
  0
LINE
  5
88
330
22
100
AcDbEntity
  8
0$C$L0
 62
     3
100
AcDbLine
 10
326.1675212482
 20
140.5698047568
 30
0.0
 11
327.9175212482
 21
140.5698047568
 31
0.0
  0
LINE
  5
89
330
22
100
AcDbEntity
  8
0$C$L0
 62
     3
100
AcDbLine
 10
326.1675212482
 20
140.5698027568
 30
0.0
 11
326.1675212482
 21
139.6003887568
 31
0.0
  0
LINE
  5
8A
330
22
100
AcDbEntity
  8
0$C$L0
 62
     3
100
AcDbLine
 10
327.9175212482
 20
140.5698027568
 30
0.0
 11
327.9175212482
 21
139.6003887568
 31
0.0
  0
LINE
  5
8B
330
22
100
AcDbEntity
  8
0$C$L0
 62
     3
100
AcDbLine
 10
332.5231042482
 20
151.2449277568
 30
0.0
 11
333.4925182482
 21
151.2449277568
 31
0.0
  0
LINE
  5
8C
330
22
100
AcDbEntity
  8
0$C$L0
 62
     3
100
AcDbLine
 10
332.5231042482
 20
152.9949277568
 30
0.0
 11
333.4925182482
 21
152.9949277568
 31
0.0
  0
ARC
  5
8D
330
22
100
AcDbEntity
  8
0$C$L0
 62
     3
100
AcDbCircle
 10
327.0425212482
 20
152.1199277568
 30
0.0
 40
5.549998999999999
100
AcDbArc
 50
9.070975999999999
 51
80.928999
  0
LINE
  5
8E
330
22
100
AcDbEntity
  8
0$C$L0
 62
     3
100
AcDbLine
 10
326.1675212482
 20
158.5699267568
 30
0.0
 11
327.9175212482
 21
158.5699267568
 31
0.0
  0
LINE
  5
8F
330
22
100
AcDbEntity
  8
0$C$L0
 62
     3
100
AcDbLine
 10
326.1675212482
 20
158.5699247568
 30
0.0
 11
326.1675212482
 21
157.6005107568
 31
0.0
  0
LINE
  5
90
330
22
100
AcDbEntity
  8
0$C$L0
 62
     3
100
AcDbLine
 10
327.9175212482
 20
158.5699247568
 30
0.0
 11
327.9175212482
 21
157.6005107568
 31
0.0
  0
LINE
  5
91
330
22
100
AcDbEntity
  8
0$C$L0
 62
     3
100
AcDbLine
 10
333.4925202482
 20
152.9949277568
 30
0.0
 11
333.4925202482
 21
151.2449277568
 31
0.0
  0
LINE
  5
92
330
22
100
AcDbEntity
  8
0$C$L0
 62
     3
100
AcDbLine
 10
398.8330869716
 20
107.9388357568
 30
0.0
 11
398.8324759716001
 21
111.6133737568
 31
0.0
  0
LINE
  5
93
330
22
100
AcDbEntity
  8
0$C$L0
 62
     3
100
AcDbLine
 10
378.8332089716
 20
111.2642907568
 30
0.0
 11
378.8332089716
 21
107.9388357568
 31
0.0
  0
LINE
  5
94
330
22
100
AcDbEntity
  8
0$C$L0
  6
CENTERLINE
 62
     3
100
AcDbLine
 10
388.8332089716
 20
114.0758827568
 30
0.0
 11
388.8332089716
 21
90.7527397568
 31
0.0
  0
LINE
  5
95
330
22
100
AcDbEntity
  8
0$C$L0
 62
     3
100
AcDbLine
 10
379.3332089716
 20
100.9388357568
 30
0.0
 11
398.3332089716
 21
100.9388357568
 31
0.0
  0
LINE
  5
96
330
22
100
AcDbEntity
  8
0$C$L0
 62
     3
100
AcDbLine
 10
384.0830869716
 20
101.4388357568
 30
0.0
 11
386.7880429716
 21
101.4388357568
 31
0.0
  0
LINE
  5
97
330
22
100
AcDbEntity
  8
0$C$L0
 62
     3
100
AcDbLine
 10
379.3332089716
 20
94.43883575680001
 30
0.0
 11
398.3332089716
 21
94.43883575680001
 31
0.0
  0
LINE
  5
98
330
22
100
AcDbEntity
  8
0$C$L0
 62
     3
100
AcDbLine
 10
379.8332089716
 20
93.9388357568
 30
0.0
 11
397.8332089716
 21
93.9388357568
 31
0.0
  0
LINE
  5
99
330
22
100
AcDbEntity
  8
0$C$L0
 62
     3
100
AcDbLine
 10
379.3332089716
 20
107.6888357568
 30
0.0
 11
379.3332089716
 21
94.43883575680001
 31
0.0
  0
LINE
  5
9A
330
22
100
AcDbEntity
  8
0$C$L0
 62
     3
100
AcDbLine
 10
379.3332089716
 20
94.43883575680001
 30
0.0
 11
379.8332089716
 21
93.9388357568
 31
0.0
  0
LINE
  5
9B
330
22
100
AcDbEntity
  8
0$C$L0
 62
     3
100
AcDbLine
 10
384.0830869716
 20
107.6888207568
 30
0.0
 11
384.0830869716
 21
101.4388357568
 31
0.0
  0
ARC
  5
9C
330
22
100
AcDbEntity
  8
0$C$L0
 62
     3
100
AcDbCircle
 10
381.7080869716
 20
106.7672207568
 30
0.0
 40
5.833745999999999
100
AcDbArc
 50
245.975002
 51
294.023659
  0
LINE
  5
9D
330
22
100
AcDbEntity
  8
0$C$L0
 62
     3
100
AcDbLine
 10
378.8330869716
 20
107.9388207568
 30
0.0
 11
383.8330869716001
 21
107.9388207568
 31
0.0
  0
ARC
  5
9E
330
22
100
AcDbEntity
  8
0$C$L0
 62
     3
100
AcDbCircle
 10
379.0832089716
 20
107.6888357568
 30
0.0
 40
0.25
100
AcDbArc
 50
0.0
 51
89.998251
  0
LINE
  5
9F
330
22
100
AcDbEntity
  8
0$C$L0
 62
     3
100
AcDbLine
 10
378.8332089716
 20
107.9388357568
 30
0.0
 11
379.0832089716
 21
107.9388357568
 31
0.0
  0
ARC
  5
A0
330
22
100
AcDbEntity
  8
0$C$L0
 62
     3
100
AcDbCircle
 10
383.8330869716001
 20
107.6888207568
 30
0.0
 40
0.25
100
AcDbArc
 50
0.0
 51
90.0
  0
LINE
  5
A1
330
22
100
AcDbEntity
  8
0$C$L0
 62
     3
100
AcDbLine
 10
398.3332089716
 20
107.6888357568
 30
0.0
 11
398.3332089716
 21
94.43883575680001
 31
0.0
  0
LINE
  5
A2
330
22
100
AcDbEntity
  8
0$C$L0
 62
     3
100
AcDbLine
 10
397.8332089716
 20
93.9388357568
 30
0.0
 11
398.3332089716
 21
94.43883575680001
 31
0.0
  0
LINE
  5
A3
330
22
100
AcDbEntity
  8
0$C$L0
 62
     3
100
AcDbLine
 10
398.8330869716
 20
107.9388207568
 30
0.0
 11
393.8330869716001
 21
107.9388057568
 31
0.0
  0
ARC
  5
A4
330
22
100
AcDbEntity
  8
0$C$L0
 62
     3
100
AcDbCircle
 10
395.9580869716
 20
106.7672207568
 30
0.0
 40
5.833745999999999
100
AcDbArc
 50
245.976298
 51
294.024929
  0
LINE
  5
A5
330
22
100
AcDbEntity
  8
0$C$L0
 62
     3
100
AcDbLine
 10
390.8781309716001
 20
107.6888357568
 30
0.0
 11
390.8781309716001
 21
101.4388357568
 31
0.0
  0
LINE
  5
A6
330
22
100
AcDbEntity
  8
0$C$L0
 62
     3
100
AcDbLine
 10
393.5830869716
 20
107.6888057568
 30
0.0
 11
393.5830869716
 21
101.4388357568
 31
0.0
  0
LINE
  5
A7
330
22
100
AcDbEntity
  8
0$C$L0
 62
     3
100
AcDbLine
 10
386.7880429716
 20
107.6888357568
 30
0.0
 11
386.7880429716
 21
101.4388357568
 31
0.0
  0
ARC
  5
A8
330
22
100
AcDbEntity
  8
0$C$L0
 62
     3
100
AcDbCircle
 10
388.8330869716
 20
105.3710417568
 30
0.0
 40
4.432203999999999
100
AcDbArc
 50
242.522114
 51
297.477797
  0
LINE
  5
A9
330
22
100
AcDbEntity
  8
0$C$L0
 62
     3
100
AcDbLine
 10
390.8781309716001
 20
101.4388357568
 30
0.0
 11
393.5830869716
 21
101.4388357568
 31
0.0
  0
LINE
  5
AA
330
22
100
AcDbEntity
  8
0$C$L0
 62
     3
100
AcDbLine
 10
387.0380429716
 20
107.9388357568
 30
0.0
 11
390.6281309716001
 21
107.9388357568
 31
0.0
  0
ARC
  5
AB
330
22
100
AcDbEntity
  8
0$C$L0
 62
     3
100
AcDbCircle
 10
387.0380429716
 20
107.6888357568
 30
0.0
 40
0.25
100
AcDbArc
 50
90.0
 51
179.999891
  0
ARC
  5
AC
330
22
100
AcDbEntity
  8
0$C$L0
 62
     3
100
AcDbCircle
 10
390.6281309716001
 20
107.6888357568
 30
0.0
 40
0.25
100
AcDbArc
 50
0.0
 51
90.0
  0
ARC
  5
AD
330
22
100
AcDbEntity
  8
0$C$L0
 62
     3
100
AcDbCircle
 10
393.8330869716001
 20
107.6888057568
 30
0.0
 40
0.25
100
AcDbArc
 50
90.0
 51
179.999891
  0
LINE
  5
AE
330
22
100
AcDbEntity
  8
0$C$L0
 62
     3
100
AcDbLine
 10
398.5832089716
 20
107.9388357568
 30
0.0
 11
398.8332089716
 21
107.9388357568
 31
0.0
  0
ARC
  5
AF
330
22
100
AcDbEntity
  8
0$C$L0
 62
     3
100
AcDbCircle
 10
398.5832089716
 20
107.6888357568
 30
0.0
 40
0.25
100
AcDbArc
 50
90.0
 51
179.999891
  0
LINE
  5
B0
330
22
100
AcDbEntity
  8
0$C$L0
 62
     3
100
AcDbLine
 10
378.8332089716
 20
109.9388357568
 30
0.0
 11
398.8330869716
 21
109.9388357568
 31
0.0
  0
LINE
  5
B1
330
22
100
AcDbEntity
  8
0$C$L0
 62
     3
100
AcDbLine
 10
370.5833309716001
 20
111.1202937568
 30
0.0
 11
401.8593319716
 21
111.6662077568
 31
0.0
  0
LINE
  5
B2
330
22
100
AcDbEntity
  8
0$C$L0
 62
     3
100
AcDbLine
 10
372.0833309716001
 20
122.1202937568
 30
0.0
 11
401.8854549716
 21
121.0795527568
 31
0.0
  0
LINE
  5
B3
330
22
100
AcDbEntity
  8
0$C$L0
 62
     3
100
AcDbLine
 10
373.0833309716
 20
123.1202937568
 30
0.0
 11
401.8854549716
 21
122.1144797568
 31
0.0
  0
ARC
  5
B4
330
22
100
AcDbEntity
  8
0$C$L0
 62
     3
100
AcDbCircle
 10
364.0833309716001
 20
114.7656337568
 30
0.0
 40
1.0
100
AcDbArc
 50
179.999563
 51
263.657455
  0
ARC
  5
B5
330
22
100
AcDbEntity
  8
0$C$L0
 62
     3
100
AcDbCircle
 10
364.0833309716001
 20
119.2446837568
 30
0.0
 40
1.0
100
AcDbArc
 50
179.999563
 51
262.798642
  0
LINE
  5
B6
330
22
100
AcDbEntity
  8
0$C$L0
 62
     3
100
AcDbLine
 10
346.2496132482
 20
114.4738087568
 30
0.0
 11
347.3005162482
 21
115.5244687568
 31
0.0
  0
LINE
  5
B7
330
22
100
AcDbEntity
  8
0$C$L0
 62
     3
100
AcDbLine
 10
345.8960672482
 20
114.8273247568
 30
0.0
 11
346.9467872482
 21
115.8782277568
 31
0.0
  0
LINE
  5
B8
330
22
100
AcDbEntity
  8
0$C$L0
 62
     3
100
AcDbLine
 10
344.5172062482
 20
114.7920317568
 30
0.0
 11
344.8707682482
 21
115.1455927568
 31
0.0
  0
LINE
  5
B9
330
22
100
AcDbEntity
  8
0$C$L0
 62
     3
100
AcDbLine
 10
344.8707682482
 20
115.1455927568
 30
0.0
 11
345.1889592482
 21
114.8273857568
 31
0.0
  0
CIRCLE
  5
BA
330
22
100
AcDbEntity
  8
0$C$L0
 62
     3
100
AcDbCircle
 10
345.5425212482
 20
114.1202937568
 30
0.0
 40
2.249998999999999
  0
LINE
  5
BB
330
22
100
AcDbEntity
  8
0$C$L0
  6
CENTERLINE
 62
     3
100
AcDbLine
 10
345.5425212482
 20
109.3202907568
 30
0.0
 11
345.5425212482
 21
118.9202817568
 31
0.0
  0
ARC
  5
BC
330
22
100
AcDbEntity
  8
0$C$L0
 62
     3
100
AcDbCircle
 10
345.5425212482
 20
114.1205067568
 30
0.0
 40
3.0
100
AcDbArc
 50
269.999854
 51
0.0
  0
ARC
  5
BD
330
22
100
AcDbEntity
  8
0$C$L0
 62
     3
100
AcDbCircle
 10
345.5425212482
 20
115.1809477568
 30
0.0
 40
0.5
100
AcDbArc
 50
224.999382
 51
314.998764
  0
ARC
  5
BE
330
22
100
AcDbEntity
  8
0$C$L0
 62
     3
100
AcDbCircle
 10
345.5425052482
 20
113.0596247568
 30
0.0
 40
0.5
100
AcDbArc
 50
45.000618
 51
134.998764
  0
LINE
  5
BF
330
22
100
AcDbEntity
  8
0$C$L0
 62
     3
100
AcDbLine
 10
344.5172062482
 20
114.7920317568
 30
0.0
 11
344.8354132482
 21
114.4738397568
 31
0.0
  0
LINE
  5
C0
330
22
100
AcDbEntity
  8
0$C$L0
 62
     3
100
AcDbLine
 10
344.1381472482
 20
112.3623587568
 30
0.0
 11
345.1889592482
 21
113.4131407568
 31
0.0
  0
LINE
  5
C1
330
22
100
AcDbEntity
  8
0$C$L0
 62
     3
100
AcDbLine
 10
343.7846172482
 20
112.7158747568
 30
0.0
 11
344.8354132482
 21
113.7666557568
 31
0.0
  0
ARC
  5
C2
330
22
100
AcDbEntity
  8
0$C$L0
 62
     3
100
AcDbCircle
 10
344.4818522482
 20
114.1202937568
 30
0.0
 40
0.5
100
AcDbArc
 50
315.0
 51
44.99938200000002
  0
LINE
  5
C3
330
22
100
AcDbEntity
  8
0$C$L0
 62
     3
100
AcDbLine
 10
346.2496132482
 20
113.7667317568
 30
0.0
 11
346.5678202482
 21
113.4485257568
 31
0.0
  0
LINE
  5
C4
330
22
100
AcDbEntity
  8
0$C$L0
 62
     3
100
AcDbLine
 10
346.2142742482
 20
113.0949797568
 30
0.0
 11
346.5678202482
 21
113.4485257568
 31
0.0
  0
LINE
  5
C5
330
22
100
AcDbEntity
  8
0$C$L0
 62
     3
100
AcDbLine
 10
345.8960672482
 20
113.4131857568
 30
0.0
 11
346.2142742482
 21
113.0949797568
 31
0.0
  0
ARC
  5
C6
330
22
100
AcDbEntity
  8
0$C$L0
 62
     3
100
AcDbCircle
 10
346.6031742482
 20
114.1202787568
 30
0.0
 40
0.5
100
AcDbArc
 50
135.0
 51
224.998145
  0
LINE
  5
C7
330
22
100
AcDbEntity
  8
0$C$L0
  6
CENTERLINE
 62
     3
100
AcDbLine
 10
347.0424882482
 20
117.1202947568
 30
0.0
 11
351.5425032482
 21
117.1202787568
 31
0.0
  0
ARC
  5
C8
330
22
100
AcDbEntity
  8
0$C$L0
 62
     3
100
AcDbCircle
 10
344.2925212482
 20
119.7329337568
 30
0.0
 40
1.5
100
AcDbArc
 50
282.555612
 51
0.0
  0
ARC
  5
C9
330
22
100
AcDbEntity
  8
0$C$L0
 62
     3
100
AcDbCircle
 10
344.2925212482
 20
119.7329337568
 30
0.0
 40
2.0
100
AcDbArc
 50
282.555502
 51
0.0
  0
LINE
  5
CA
330
22
100
AcDbEntity
  8
0$C$L0
 62
     3
100
AcDbLine
 10
349.0425042482
 20
119.0202877568
 30
0.0
 11
349.0425022482
 21
115.2202847568
 31
0.0
  0
LINE
  5
CB
330
22
100
AcDbEntity
  8
0$C$L0
 62
     3
100
AcDbLine
 10
348.5425022482
 20
115.2202857568
 30
0.0
 11
348.5425042482
 21
119.0202887568
 31
0.0
  0
ARC
  5
CC
330
22
100
AcDbEntity
  8
0$C$L0
 62
     3
100
AcDbCircle
 10
345.8424912482
 20
117.1202797568
 30
0.0
 40
4.5
100
AcDbArc
 50
343.398322
 51
16.60152099999998
  0
ARC
  5
CD
330
22
100
AcDbEntity
  8
0$C$L0
 62
     3
100
AcDbCircle
 10
349.5320052482
 20
116.0202727568
 30
0.0
 40
0.65
100
AcDbArc
 50
269.999309
 51
343.398327
  0
LINE
  5
CE
330
22
100
AcDbEntity
  8
0$C$L0
 62
     3
100
AcDbLine
 10
349.0425032482
 20
116.5163967568
 30
0.0
 11
348.5425032482
 21
117.0165647568
 31
0.0
  0
LINE
  5
CF
330
22
100
AcDbEntity
  8
0$C$L0
 62
     3
100
AcDbLine
 10
349.0425022482
 20
115.2202847568
 30
0.0
 11
348.5425022482
 21
115.2202857568
 31
0.0
  0
LINE
  5
D0
330
22
100
AcDbEntity
  8
0$C$L0
 62
     3
100
AcDbLine
 10
349.5320042482
 20
115.3702787568
 30
0.0
 11
349.0424872482
 21
115.3702787568
 31
0.0
  0
LINE
  5
D1
330
22
100
AcDbEntity
  8
0$C$L0
 62
     3
100
AcDbLine
 10
349.0425032482
 20
117.2236117568
 30
0.0
 11
348.5425032482
 21
117.7237797568
 31
0.0
  0
ARC
  5
D2
330
22
100
AcDbEntity
  8
0$C$L0
 62
     3
100
AcDbCircle
 10
349.5320052482
 20
118.2202847568
 30
0.0
 40
0.65
100
AcDbArc
 50
16.600993
 51
90.0
  0
LINE
  5
D3
330
22
100
AcDbEntity
  8
0$C$L0
 62
     3
100
AcDbLine
 10
348.5425042482
 20
119.0202887568
 30
0.0
 11
349.0425042482
 21
119.0202877568
 31
0.0
  0
LINE
  5
D4
330
22
100
AcDbEntity
  8
0$C$L0
 62
     3
100
AcDbLine
 10
349.5320062482
 20
118.8702787568
 30
0.0
 11
349.0424882482
 21
118.8702787568
 31
0.0
  0
LINE
  5
D5
330
22
100
AcDbEntity
  8
0$C$L0
 62
     3
100
AcDbLine
 10
367.3832579716
 20
111.8701717568
 30
0.0
 11
367.3832579716
 21
116.3701717568
 31
0.0
  0
ARC
  5
D6
330
22
100
AcDbEntity
  8
0$C$L0
 62
     3
100
AcDbCircle
 10
371.7329889716
 20
114.1201567568
 30
0.0
 40
6.0
100
AcDbArc
 50
163.808153
 51
196.191226
  0
LINE
  5
D7
330
22
100
AcDbEntity
  8
0$C$L0
 62
     3
100
AcDbLine
 10
367.3832579716
 20
116.1202937568
 30
0.0
 11
367.3832579716
 21
112.1202937568
 31
0.0
  0
LINE
  5
D8
330
22
100
AcDbEntity
  8
0$C$L0
  6
CENTERLINE
 62
     3
100
AcDbLine
 10
369.0330379716
 20
114.1201567568
 30
0.0
 11
364.8830129716
 21
114.1201717568
 31
0.0
  0
LINE
  5
D9
330
22
100
AcDbEntity
  8
0$C$L0
 62
     3
100
AcDbLine
 10
370.5833309716001
 20
111.1203697568
 30
0.0
 11
368.0833309716001
 21
111.1203697568
 31
0.0
  0
ARC
  5
DA
330
22
100
AcDbEntity
  8
0$C$L0
 62
     3
100
AcDbCircle
 10
366.7392149716001
 20
112.6701747568
 30
0.0
 40
0.8
100
AcDbArc
 50
196.192299
 51
270.0
  0
ARC
  5
DB
330
22
100
AcDbEntity
  8
0$C$L0
 62
     3
100
AcDbCircle
 10
368.0833309716001
 20
111.6204917568
 30
0.0
 40
0.5
100
AcDbArc
 50
179.999126
 51
270.0
  0
LINE
  5
DC
330
22
100
AcDbEntity
  8
0$C$L0
 62
     3
100
AcDbLine
 10
365.7580129716
 20
113.5734187568
 30
0.0
 11
363.9728569716
 21
113.7717827568
 31
0.0
  0
LINE
  5
DD
330
22
100
AcDbEntity
  8
0$C$L0
 62
     3
100
AcDbLine
 10
367.3832579716
 20
112.1202937568
 30
0.0
 11
367.5833309716001
 21
112.1202937568
 31
0.0
  0
LINE
  5
DE
330
22
100
AcDbEntity
  8
0$C$L0
 62
     3
100
AcDbLine
 10
366.7392149716001
 20
111.8701717568
 30
0.0
 11
367.3830129716
 21
111.8701717568
 31
0.0
  0
LINE
  5
DF
330
22
100
AcDbEntity
  8
0$C$L0
 62
     3
100
AcDbLine
 10
367.1459529716
 20
117.8499077568
 30
0.0
 11
363.9579649716001
 21
118.2524957568
 31
0.0
  0
ARC
  5
E0
330
22
100
AcDbEntity
  8
0$C$L0
 62
     3
100
AcDbCircle
 10
366.7392149716001
 20
115.5701837568
 30
0.0
 40
0.8
100
AcDbArc
 50
90.0
 51
163.806563
  0
LINE
  5
E1
330
22
100
AcDbEntity
  8
0$C$L0
 62
     3
100
AcDbLine
 10
367.3832579716
 20
116.1202937568
 30
0.0
 11
367.5833309716001
 21
116.1202937568
 31
0.0
  0
LINE
  5
E2
330
22
100
AcDbEntity
  8
0$C$L0
 62
     3
100
AcDbLine
 10
366.7392149716001
 20
116.3701717568
 30
0.0
 11
367.3830129716
 21
116.3701717568
 31
0.0
  0
ARC
  5
E3
330
22
100
AcDbEntity
  8
0$C$L0
 62
     3
100
AcDbCircle
 10
367.0833309716
 20
117.3539357568
 30
0.0
 40
0.5
100
AcDbArc
 50
0.0
 51
82.80383099999999
  0
LINE
  5
E4
330
22
100
AcDbEntity
  8
0$C$L0
 62
     3
100
AcDbLine
 10
373.0833309716
 20
123.1202937568
 30
0.0
 11
372.0833309716001
 21
122.1202937568
 31
0.0
  0
LINE
  5
E5
330
22
100
AcDbEntity
  8
0$C$L0
  6
CENTERLINE
 62
     3
100
AcDbLine
 10
401.5578179716
 20
120.1202937568
 30
0.0
 11
406.7106499716
 21
120.1202937568
 31
0.0
  0
LINE
  5
E6
330
22
100
AcDbEntity
  8
0$C$L0
 62
     3
100
AcDbLine
 10
403.8333309716
 20
117.6202937568
 30
0.0
 11
403.8333309716
 21
122.6202937568
 31
0.0
  0
ARC
  5
E7
330
22
100
AcDbEntity
  8
0$C$L0
 62
     3
100
AcDbCircle
 10
401.8333309716
 20
120.6153957568
 30
0.0
 40
1.5
100
AcDbArc
 50
0.0
 51
88.00394500000001
  0
LINE
  5
E8
330
22
100
AcDbEntity
  8
0$C$L0
  6
CENTERLINE
 62
     3
100
AcDbLine
 10
398.8332089716
 20
112.7141807568
 30
0.0
 11
398.8332089716
 21
121.5140927568
 31
0.0
  0
LINE
  5
E9
330
22
100
AcDbEntity
  8
0$C$L0
  6
CENTERLINE
 62
     3
100
AcDbLine
 10
394.4331839716
 20
117.1141897568
 30
0.0
 11
403.2331109715999
 21
117.1141897568
 31
0.0
  0
CIRCLE
  5
EA
330
22
100
AcDbEntity
  8
0$C$L0
 62
     3
100
AcDbCircle
 10
392.3919249716
 20
117.2399227568
 30
0.0
 40
2.25
  0
LINE
  5
EB
330
22
100
AcDbEntity
  8
0$C$L0
 62
     3
100
AcDbLine
 10
392.3919239716
 20
118.4899227568
 30
0.0
 11
392.3919249716
 21
117.2399227568
 31
0.0
  0
LINE
  5
EC
330
22
100
AcDbEntity
  8
0$C$L0
 62
     3
100
AcDbLine
 10
391.3919099716001
 20
116.4899217568
 30
0.0
 11
393.3919249716
 21
116.4900447568
 31
0.0
  0
LINE
  5
ED
330
22
100
AcDbEntity
  8
0$C$L0
 62
     3
100
AcDbLine
 10
390.8919249716
 20
117.2399217568
 30
0.0
 11
393.8919249716
 21
117.2399227568
 31
0.0
  0
LINE
  5
EE
330
22
100
AcDbEntity
  8
0$C$L0
 62
     3
100
AcDbLine
 10
391.8919099716001
 20
115.7400447568
 30
0.0
 11
392.8919249716
 21
115.7401667568
 31
0.0
  0
ARC
  5
EF
330
22
100
AcDbEntity
  8
0$C$L0
 62
     3
100
AcDbCircle
 10
401.8332089715999
 20
113.1659787568
 30
0.0
 40
1.5
100
AcDbArc
 50
270.997587
 51
0.0
  0
CIRCLE
  5
F0
330
22
100
AcDbEntity
  8
0$C$L0
 62
     3
100
AcDbCircle
 10
398.8332089716
 20
117.1141897568
 30
0.0
 40
1.749999
  0
CIRCLE
  5
F1
330
22
100
AcDbEntity
  8
0$C$L0
 62
     3
100
AcDbCircle
 10
398.8332089716
 20
117.1141897568
 30
0.0
 40
1.9
  0
LINE
  5
F2
330
22
100
AcDbEntity
  8
0$C$L0
 62
     3
100
AcDbLine
 10
399.3634819716
 20
117.2909627568
 30
0.0
 11
399.7346979716001
 21
117.6621787568
 31
0.0
  0
LINE
  5
F3
330
22
100
AcDbEntity
  8
0$C$L0
 62
     3
100
AcDbLine
 10
399.3634819716
 20
116.9374017568
 30
0.0
 11
399.7346979716001
 21
116.5661707568
 31
0.0
  0
LINE
  5
F4
330
22
100
AcDbEntity
  8
0$C$L0
 62
     3
100
AcDbLine
 10
399.3811819716
 20
116.2126247568
 30
0.0
 11
399.7346979716001
 21
116.5661707568
 31
0.0
  0
LINE
  5
F5
330
22
100
AcDbEntity
  8
0$C$L0
 62
     3
100
AcDbLine
 10
399.3811819716
 20
118.0157407568
 30
0.0
 11
399.7346979716001
 21
117.6621787568
 31
0.0
  0
LINE
  5
F6
330
22
100
AcDbEntity
  8
0$C$L0
 62
     3
100
AcDbLine
 10
398.2852349716001
 20
118.0156797568
 30
0.0
 11
398.6563289716
 21
117.6445097568
 31
0.0
  0
LINE
  5
F7
330
22
100
AcDbEntity
  8
0$C$L0
 62
     3
100
AcDbLine
 10
397.9315969716
 20
117.6621177568
 30
0.0
 11
398.2852349716001
 21
118.0156797568
 31
0.0
  0
LINE
  5
F8
330
22
100
AcDbEntity
  8
0$C$L0
 62
     3
100
AcDbLine
 10
399.0099669716
 20
117.6445097568
 30
0.0
 11
399.3811819716
 21
118.0157407568
 31
0.0
  0
ARC
  5
F9
330
22
100
AcDbEntity
  8
0$C$L0
 62
     3
100
AcDbCircle
 10
398.8332089716
 20
117.8212827568
 30
0.0
 40
0.25
100
AcDbArc
 50
224.98271
 51
314.997484
  0
LINE
  5
FA
330
22
100
AcDbEntity
  8
0$C$L0
 62
     3
100
AcDbLine
 10
398.2851129716
 20
116.2126247568
 30
0.0
 11
398.6563289716
 21
116.5838557568
 31
0.0
  0
ARC
  5
FB
330
22
100
AcDbEntity
  8
0$C$L0
 62
     3
100
AcDbCircle
 10
398.1260549716
 20
117.1141897568
 30
0.0
 40
0.25
100
AcDbArc
 50
314.995083
 51
45.00243899999996
  0
LINE
  5
FC
330
22
100
AcDbEntity
  8
0$C$L0
 62
     3
100
AcDbLine
 10
397.9315969716
 20
116.5661707568
 30
0.0
 11
398.3028129716
 21
116.9374017568
 31
0.0
  0
LINE
  5
FD
330
22
100
AcDbEntity
  8
0$C$L0
 62
     3
100
AcDbLine
 10
397.9315969716
 20
116.5661707568
 30
0.0
 11
398.2851129716
 21
116.2126247568
 31
0.0
  0
LINE
  5
FE
330
22
100
AcDbEntity
  8
0$C$L0
 62
     3
100
AcDbLine
 10
399.0099669716
 20
116.5838557568
 30
0.0
 11
399.3811819716
 21
116.2126247568
 31
0.0
  0
ARC
  5
FF
330
22
100
AcDbEntity
  8
0$C$L0
 62
     3
100
AcDbCircle
 10
398.8330869716
 20
116.4070827568
 30
0.0
 40
0.25
100
AcDbArc
 50
44.982724
 51
134.997474
  0
ARC
  5
100
330
22
100
AcDbEntity
  8
0$C$L0
 62
     3
100
AcDbCircle
 10
399.5402399716001
 20
117.1141747568
 30
0.0
 40
0.25
100
AcDbArc
 50
134.995074
 51
225.002424
  0
LINE
  5
101
330
22
100
AcDbEntity
  8
0$C$L0
 62
     3
100
AcDbLine
 10
397.9315969716
 20
117.6621177568
 30
0.0
 11
398.3028129716
 21
117.2909627568
 31
0.0
  0
LINE
  5
102
330
22
100
AcDbEntity
  8
0$C$L0
 62
     3
100
AcDbLine
 10
403.3333309716
 20
117.6202937568
 30
0.0
 11
403.8333309716
 21
117.6202937568
 31
0.0
  0
ARC
  5
103
330
22
100
AcDbEntity
  8
0$C$L0
 62
     3
100
AcDbCircle
 10
401.8333309716
 20
119.5804677568
 30
0.0
 40
1.5
100
AcDbArc
 50
0.0
 51
88.00394500000001
  0
LINE
  5
104
330
22
100
AcDbEntity
  8
0$C$L0
 62
     3
100
AcDbLine
 10
403.3333309716
 20
122.6202937568
 30
0.0
 11
403.8333309716
 21
122.6202937568
 31
0.0
  0
TEXT
  5
105
330
22
100
AcDbEntity
  8
0$C$L0
 62
     5
100
AcDbText
 10
355.0
 20
10.0
 30
0.0
 40
7.0
  1
Ｅ－３００４
 41
1.154591322661225
 72
     5
 11
392.7166498736
 21
10.0
 31
0.0
100
AcDbText
  0
LINE
  5
106
330
22
100
AcDbEntity
  8
0$C$L0
  6
CENTERLINE
 62
     3
100
AcDbLine
 10
340.7424722482
 20
208.1202937568
 30
0.0
 11
350.3424472482
 21
208.1202937568
 31
0.0
  0
LINE
  5
107
330
22
100
AcDbEntity
  8
0$C$L0
 62
     3
100
AcDbLine
 10
345.5425052482
 20
211.1202937568
 30
0.0
 11
308.5425362482
 21
211.1202937568
 31
0.0
  0
ARC
  5
108
330
22
100
AcDbEntity
  8
0$C$L0
 62
     3
100
AcDbCircle
 10
345.5425212482
 20
208.1202937568
 30
0.0
 40
4.25
100
AcDbArc
 50
192.556363
 51
257.444161
  0
ARC
  5
109
330
22
100
AcDbEntity
  8
0$C$L0
 62
     3
100
AcDbCircle
 10
345.5425212482
 20
208.1202937568
 30
0.0
 40
3.75
100
AcDbArc
 50
192.557142
 51
257.444186
  0
LINE
  5
10A
330
22
100
AcDbEntity
  8
0$C$L0
  6
CENTERLINE
 62
     3
100
AcDbLine
 10
338.0425052482
 20
202.1200497568
 30
0.0
 11
346.0425212482
 21
202.1202937568
 31
0.0
  0
ARC
  5
10B
330
22
100
AcDbEntity
  8
0$C$L0
 62
     3
100
AcDbCircle
 10
308.5425212482
 20
208.1201717568
 30
0.0
 40
3.0
100
AcDbArc
 50
89.99985399999999
 51
180.0
  0
LINE
  5
10C
330
22
100
AcDbEntity
  8
0$C$L0
  6
CENTERLINE
 62
     3
100
AcDbLine
 10
308.5425212482
 20
203.3201227568
 30
0.0
 11
308.5425212482
 21
212.9200987568
 31
0.0
  0
ARC
  5
10D
330
22
100
AcDbEntity
  8
0$C$L0
 62
     3
100
AcDbCircle
 10
327.0425212482
 20
188.1199277568
 30
0.0
 40
5.549998999999999
100
AcDbArc
 50
99.070961
 51
350.929004
  0
LINE
  5
10E
330
22
100
AcDbEntity
  8
0$C$L0
  6
CENTERLINE
 62
     3
100
AcDbLine
 10
318.9925022482
 20
170.1200267568
 30
0.0
 11
335.0925162482
 21
170.1200497568
 31
0.0
  0
ARC
  5
10F
330
22
100
AcDbEntity
  8
0$C$L0
 62
     3
100
AcDbCircle
 10
327.0425212482
 20
170.1200497568
 30
0.0
 40
5.549998999999999
100
AcDbArc
 50
99.070961
 51
350.929004
  0
ARC
  5
110
330
22
100
AcDbEntity
  8
0$C$L0
 62
     3
100
AcDbCircle
 10
327.0425212482
 20
170.1200497568
 30
0.0
 40
5.549998999999999
100
AcDbArc
 50
9.070975999999999
 51
80.928999
  0
LINE
  5
111
330
22
100
AcDbEntity
  8
0$C$L0
 62
     3
100
AcDbLine
 10
332.5231042482
 20
169.2450497568
 30
0.0
 11
333.4925182482
 21
169.2450497568
 31
0.0
  0
LINE
  5
112
330
22
100
AcDbEntity
  8
0$C$L0
 62
     3
100
AcDbLine
 10
332.5231042482
 20
170.9950497568
 30
0.0
 11
333.4925182482
 21
170.9950497568
 31
0.0
  0
LINE
  5
113
330
22
100
AcDbEntity
  8
0$C$L0
 62
     3
100
AcDbLine
 10
333.4925202482
 20
170.9950497568
 30
0.0
 11
333.4925202482
 21
169.2450497568
 31
0.0
  0
LINE
  5
114
330
22
100
AcDbEntity
  8
0$C$L0
 62
     3
100
AcDbLine
 10
326.1675212482
 20
176.5700497568
 30
0.0
 11
327.9175212482
 21
176.5700497568
 31
0.0
  0
LINE
  5
115
330
22
100
AcDbEntity
  8
0$C$L0
 62
     3
100
AcDbLine
 10
326.1675212482
 20
176.5700467568
 30
0.0
 11
326.1675212482
 21
175.6006327568
 31
0.0
  0
LINE
  5
116
330
22
100
AcDbEntity
  8
0$C$L0
 62
     3
100
AcDbLine
 10
327.9175212482
 20
176.5700467568
 30
0.0
 11
327.9175212482
 21
175.6006327568
 31
0.0
  0
LINE
  5
117
330
22
100
AcDbEntity
  8
0$C$L0
 62
     3
100
AcDbLine
 10
339.9300332482
 20
208.3702937568
 30
0.0
 11
314.1550082482
 21
208.3702937568
 31
0.0
  0
LINE
  5
118
330
22
100
AcDbEntity
  8
0$C$L0
 62
     3
100
AcDbLine
 10
339.9300332482
 20
208.8702937568
 30
0.0
 11
314.1550082482
 21
208.8702937568
 31
0.0
  0
LINE
  5
119
330
22
100
AcDbEntity
  8
0$C$L0
  6
CENTERLINE
 62
     3
100
AcDbLine
 10
318.9925022482
 20
188.1199047568
 30
0.0
 11
335.0925162482
 21
188.1199277568
 31
0.0
  0
LINE
  5
11A
330
22
100
AcDbEntity
  8
0$C$L0
  6
CENTERLINE
 62
     3
100
AcDbLine
 10
312.0425052482
 20
198.1200497568
 30
0.0
 11
312.0425362482
 21
206.1201717568
 31
0.0
  0
LINE
  5
11B
330
22
100
AcDbEntity
  8
0$C$L0
  6
CENTERLINE
 62
     3
100
AcDbLine
 10
303.7424722482
 20
208.1201717568
 30
0.0
 11
313.3424472482
 21
208.1201717568
 31
0.0
  0
ARC
  5
11C
330
22
100
AcDbEntity
  8
0$C$L0
 62
     3
100
AcDbCircle
 10
308.5425212482
 20
208.1202937568
 30
0.0
 40
4.25
100
AcDbArc
 50
282.555716
 51
347.443637
  0
ARC
  5
11D
330
22
100
AcDbEntity
  8
0$C$L0
 62
     3
100
AcDbCircle
 10
308.5425212482
 20
208.1202937568
 30
0.0
 40
3.75
100
AcDbArc
 50
282.555587
 51
347.442744
  0
LINE
  5
11E
330
22
100
AcDbEntity
  8
0$C$L0
  6
CENTERLINE
 62
     3
100
AcDbLine
 10
316.0425212482
 20
202.1200497568
 30
0.0
 11
308.0425212482
 21
202.1202937568
 31
0.0
  0
ARC
  5
11F
330
22
100
AcDbEntity
  8
0$C$L0
 62
     3
100
AcDbCircle
 10
314.1550082482
 20
206.8702937568
 30
0.0
 40
2.0
100
AcDbArc
 50
89.99978099999999
 51
167.446774
  0
ARC
  5
120
330
22
100
AcDbEntity
  8
0$C$L0
 62
     3
100
AcDbCircle
 10
309.7925052482
 20
202.5077447568
 30
0.0
 40
1.5
100
AcDbArc
 50
102.555043
 51
180.0
  0
ARC
  5
121
330
22
100
AcDbEntity
  8
0$C$L0
 62
     3
100
AcDbCircle
 10
309.7925052482
 20
202.5077447568
 30
0.0
 40
2.0
100
AcDbArc
 50
102.555502
 51
180.0
  0
LINE
  5
122
330
22
100
AcDbEntity
  8
0$C$L0
 62
     3
100
AcDbLine
 10
306.7846172482
 20
206.7157527568
 30
0.0
 11
307.8354132482
 21
207.7665337568
 31
0.0
  0
CIRCLE
  5
123
330
22
100
AcDbEntity
  8
0$C$L0
 62
     3
100
AcDbCircle
 10
308.5425212482
 20
208.1201717568
 30
0.0
 40
2.249998999999999
  0
LINE
  5
124
330
22
100
AcDbEntity
  8
0$C$L0
 62
     3
100
AcDbLine
 10
307.5172062482
 20
208.7918027568
 30
0.0
 11
307.8354132482
 21
208.4736867568
 31
0.0
  0
LINE
  5
125
330
22
100
AcDbEntity
  8
0$C$L0
 62
     3
100
AcDbLine
 10
309.2496132482
 20
208.4736867568
 30
0.0
 11
310.3005162482
 21
209.5243467568
 31
0.0
  0
LINE
  5
126
330
22
100
AcDbEntity
  8
0$C$L0
 62
     3
100
AcDbLine
 10
309.2142742482
 20
207.0947807568
 30
0.0
 11
309.5678202482
 21
207.4482967568
 31
0.0
  0
LINE
  5
127
330
22
100
AcDbEntity
  8
0$C$L0
 62
     3
100
AcDbLine
 10
309.2496132482
 20
207.7665337568
 30
0.0
 11
309.5678202482
 21
207.4482967568
 31
0.0
  0
ARC
  5
128
330
22
100
AcDbEntity
  8
0$C$L0
 62
     3
100
AcDbCircle
 10
309.6031742482
 20
208.1200497568
 30
0.0
 40
0.5
100
AcDbArc
 50
134.993818
 51
224.996909
  0
ARC
  5
129
330
22
100
AcDbEntity
  8
0$C$L0
 62
     3
100
AcDbCircle
 10
307.4818522482
 20
208.1201717568
 30
0.0
 40
0.5
100
AcDbArc
 50
314.993818
 51
44.99567300000001
  0
ARC
  5
12A
330
22
100
AcDbEntity
  8
0$C$L0
 62
     3
100
AcDbCircle
 10
308.5425052482
 20
207.0595027568
 30
0.0
 40
0.5
100
AcDbArc
 50
44.99567299999999
 51
135.002473
  0
LINE
  5
12B
330
22
100
AcDbEntity
  8
0$C$L0
 62
     3
100
AcDbLine
 10
308.8960672482
 20
207.4130177568
 30
0.0
 11
309.2142742482
 21
207.0947807568
 31
0.0
  0
LINE
  5
12C
330
22
100
AcDbEntity
  8
0$C$L0
 62
     3
100
AcDbLine
 10
307.1381472482
 20
206.3622367568
 30
0.0
 11
308.1889592482
 21
207.4130177568
 31
0.0
  0
LINE
  5
12D
330
22
100
AcDbEntity
  8
0$C$L0
 62
     3
100
AcDbLine
 10
308.8960672482
 20
208.8272027568
 30
0.0
 11
309.9467872482
 21
209.8781057568
 31
0.0
  0
ARC
  5
12E
330
22
100
AcDbEntity
  8
0$C$L0
 62
     3
100
AcDbCircle
 10
308.5425212482
 20
209.1807187568
 30
0.0
 40
0.5
100
AcDbArc
 50
224.996909
 51
315.002473
  0
LINE
  5
12F
330
22
100
AcDbEntity
  8
0$C$L0
 62
     3
100
AcDbLine
 10
307.5172062482
 20
208.7918027568
 30
0.0
 11
307.8707682482
 21
209.1454397568
 31
0.0
  0
LINE
  5
130
330
22
100
AcDbEntity
  8
0$C$L0
 62
     3
100
AcDbLine
 10
307.8707682482
 20
209.1454397568
 30
0.0
 11
308.1889592482
 21
208.8272027568
 31
0.0
  0
ARC
  5
131
330
22
100
AcDbEntity
  8
0$C$L0
 62
     3
100
AcDbCircle
 10
314.1550082482
 20
206.8702937568
 30
0.0
 40
1.5
100
AcDbArc
 50
89.99970899999999
 51
167.445589
  0
LINE
  5
132
330
22
100
AcDbEntity
  8
0$C$L0
  6
CENTERLINE
 62
     3
100
AcDbLine
 10
342.0425212482
 20
198.1200497568
 30
0.0
 11
342.0425052482
 21
206.1202937568
 31
0.0
  0
ARC
  5
133
330
22
100
AcDbEntity
  8
0$C$L0
 62
     3
100
AcDbCircle
 10
327.0425212482
 20
188.1199277568
 30
0.0
 40
5.549998999999999
100
AcDbArc
 50
9.070975999999999
 51
80.928999
  0
LINE
  5
134
330
22
100
AcDbEntity
  8
0$C$L0
 62
     3
100
AcDbLine
 10
332.5231042482
 20
188.9949277568
 30
0.0
 11
333.4925182482
 21
188.9949277568
 31
0.0
  0
LINE
  5
135
330
22
100
AcDbEntity
  8
0$C$L0
 62
     3
100
AcDbLine
 10
332.5231042482
 20
187.2449277568
 30
0.0
 11
333.4925182482
 21
187.2449277568
 31
0.0
  0
LINE
  5
136
330
22
100
AcDbEntity
  8
0$C$L0
 62
     3
100
AcDbLine
 10
326.1675212482
 20
194.5699267568
 30
0.0
 11
327.9175212482
 21
194.5699267568
 31
0.0
  0
LINE
  5
137
330
22
100
AcDbEntity
  8
0$C$L0
 62
     3
100
AcDbLine
 10
326.1675212482
 20
194.5699247568
 30
0.0
 11
326.1675212482
 21
193.6005107568
 31
0.0
  0
LINE
  5
138
330
22
100
AcDbEntity
  8
0$C$L0
 62
     3
100
AcDbLine
 10
327.9175212482
 20
194.5699247568
 30
0.0
 11
327.9175212482
 21
193.6005107568
 31
0.0
  0
LINE
  5
139
330
22
100
AcDbEntity
  8
0$C$L0
 62
     3
100
AcDbLine
 10
333.4925202482
 20
188.9949277568
 30
0.0
 11
333.4925202482
 21
187.2449277568
 31
0.0
  0
ARC
  5
13A
330
22
100
AcDbEntity
  8
0$C$L0
 62
     3
100
AcDbCircle
 10
339.9300332482
 20
206.8702937568
 30
0.0
 40
1.5
100
AcDbArc
 50
12.554411
 51
90.0
  0
ARC
  5
13B
330
22
100
AcDbEntity
  8
0$C$L0
 62
     3
100
AcDbCircle
 10
339.9300332482
 20
206.8702937568
 30
0.0
 40
2.0
100
AcDbArc
 50
12.553226
 51
90.0
  0
ARC
  5
13C
330
22
100
AcDbEntity
  8
0$C$L0
 62
     3
100
AcDbCircle
 10
345.5425212482
 20
208.1201717568
 30
0.0
 40
3.0
100
AcDbArc
 50
0.0
 51
90.0
  0
LINE
  5
13D
330
22
100
AcDbEntity
  8
0$C$L0
  6
CENTERLINE
 62
     3
100
AcDbLine
 10
345.5425212482
 20
203.3202447568
 30
0.0
 11
345.5425212482
 21
212.9202207568
 31
0.0
  0
LINE
  5
13E
330
22
100
AcDbEntity
  8
0$C$L0
 62
     3
100
AcDbLine
 10
370.5833309716001
 20
211.1202937568
 30
0.0
 11
401.8593319716
 21
210.5742727568
 31
0.0
  0
LINE
  5
13F
330
22
100
AcDbEntity
  8
0$C$L0
 62
     3
100
AcDbLine
 10
372.0833309716001
 20
200.1202937568
 30
0.0
 11
401.8854549716
 21
201.1609427568
 31
0.0
  0
LINE
  5
140
330
22
100
AcDbEntity
  8
0$C$L0
 62
     3
100
AcDbLine
 10
373.0833309716
 20
199.1202937568
 30
0.0
 11
401.8854549716
 21
200.1260307568
 31
0.0
  0
ARC
  5
141
330
22
100
AcDbEntity
  8
0$C$L0
 62
     3
100
AcDbCircle
 10
364.0833309716001
 20
202.9959037568
 30
0.0
 40
1.0
100
AcDbArc
 50
97.20133
 51
180.0
  0
ARC
  5
142
330
22
100
AcDbEntity
  8
0$C$L0
 62
     3
100
AcDbCircle
 10
364.0833309716001
 20
207.4749077568
 30
0.0
 40
1.0
100
AcDbArc
 50
96.34251800000001
 51
180.0
  0
ARC
  5
143
330
22
100
AcDbEntity
  8
0$C$L0
 62
     3
100
AcDbCircle
 10
344.2925212482
 20
202.5077447568
 30
0.0
 40
1.5
100
AcDbArc
 50
0.0
 51
77.44438800000001
  0
ARC
  5
144
330
22
100
AcDbEntity
  8
0$C$L0
 62
     3
100
AcDbCircle
 10
344.2925212482
 20
202.5077447568
 30
0.0
 40
2.0
100
AcDbArc
 50
0.0
 51
77.44449799999999
  0
LINE
  5
145
330
22
100
AcDbEntity
  8
0$C$L0
 62
     3
100
AcDbLine
 10
346.2496132482
 20
208.4738087568
 30
0.0
 11
347.3005162482
 21
209.5244687568
 31
0.0
  0
LINE
  5
146
330
22
100
AcDbEntity
  8
0$C$L0
 62
     3
100
AcDbLine
 10
344.5172062482
 20
208.7919247568
 30
0.0
 11
344.8354132482
 21
208.4738087568
 31
0.0
  0
CIRCLE
  5
147
330
22
100
AcDbEntity
  8
0$C$L0
 62
     3
100
AcDbCircle
 10
345.5425212482
 20
208.1202937568
 30
0.0
 40
2.249998999999999
  0
ARC
  5
148
330
22
100
AcDbEntity
  8
0$C$L0
 62
     3
100
AcDbCircle
 10
345.5425052482
 20
207.0596247568
 30
0.0
 40
0.5
100
AcDbArc
 50
44.996291
 51
135.003091
  0
ARC
  5
149
330
22
100
AcDbEntity
  8
0$C$L0
 62
     3
100
AcDbCircle
 10
344.4818522482
 20
208.1202937568
 30
0.0
 40
0.5
100
AcDbArc
 50
314.9932000000001
 51
44.99629099999999
  0
LINE
  5
14A
330
22
100
AcDbEntity
  8
0$C$L0
 62
     3
100
AcDbLine
 10
344.1381472482
 20
206.3623587568
 30
0.0
 11
345.1889592482
 21
207.4131407568
 31
0.0
  0
LINE
  5
14B
330
22
100
AcDbEntity
  8
0$C$L0
 62
     3
100
AcDbLine
 10
343.7846172482
 20
206.7158747568
 30
0.0
 11
344.8354132482
 21
207.7666557568
 31
0.0
  0
ARC
  5
14C
330
22
100
AcDbEntity
  8
0$C$L0
 62
     3
100
AcDbCircle
 10
346.6031742482
 20
208.1201717568
 30
0.0
 40
0.5
100
AcDbArc
 50
134.994436
 51
224.996291
  0
LINE
  5
14D
330
22
100
AcDbEntity
  8
0$C$L0
 62
     3
100
AcDbLine
 10
346.2142742482
 20
207.0949027568
 30
0.0
 11
346.5678202482
 21
207.4484187568
 31
0.0
  0
LINE
  5
14E
330
22
100
AcDbEntity
  8
0$C$L0
 62
     3
100
AcDbLine
 10
345.8960672482
 20
207.4131407568
 30
0.0
 11
346.2142742482
 21
207.0949027568
 31
0.0
  0
LINE
  5
14F
330
22
100
AcDbEntity
  8
0$C$L0
 62
     3
100
AcDbLine
 10
346.2496132482
 20
207.7666557568
 30
0.0
 11
346.5678202482
 21
207.4484187568
 31
0.0
  0
ARC
  5
150
330
22
100
AcDbEntity
  8
0$C$L0
 62
     3
100
AcDbCircle
 10
345.5425212482
 20
209.1808407568
 30
0.0
 40
0.5
100
AcDbArc
 50
224.996291
 51
315.001855
  0
LINE
  5
151
330
22
100
AcDbEntity
  8
0$C$L0
 62
     3
100
AcDbLine
 10
344.5172062482
 20
208.7919247568
 30
0.0
 11
344.8707682482
 21
209.1455617568
 31
0.0
  0
LINE
  5
152
330
22
100
AcDbEntity
  8
0$C$L0
 62
     3
100
AcDbLine
 10
344.8707682482
 20
209.1455617568
 30
0.0
 11
345.1889592482
 21
208.8273247568
 31
0.0
  0
LINE
  5
153
330
22
100
AcDbEntity
  8
0$C$L0
 62
     3
100
AcDbLine
 10
345.8960672482
 20
208.8273247568
 30
0.0
 11
346.9467872482
 21
209.8782277568
 31
0.0
  0
LINE
  5
154
330
22
100
AcDbEntity
  8
0$C$L0
 62
     3
100
AcDbLine
 10
367.1459529716
 20
204.3906797568
 30
0.0
 11
363.9579649716001
 21
203.9880917568
 31
0.0
  0
ARC
  5
155
330
22
100
AcDbEntity
  8
0$C$L0
 62
     3
100
AcDbCircle
 10
367.0833309716
 20
204.8866507568
 30
0.0
 40
0.5
100
AcDbArc
 50
277.196098
 51
0.0
  0
LINE
  5
156
330
22
100
AcDbEntity
  8
0$C$L0
 62
     3
100
AcDbLine
 10
373.0833309716
 20
199.1202937568
 30
0.0
 11
372.0833309716001
 21
200.1202937568
 31
0.0
  0
LINE
  5
157
330
22
100
AcDbEntity
  8
0$C$L0
 62
     3
100
AcDbLine
 10
370.5833309716001
 20
211.1201717568
 30
0.0
 11
368.0833309716001
 21
211.1201717568
 31
0.0
  0
LINE
  5
158
330
22
100
AcDbEntity
  8
0$C$L0
  6
CENTERLINE
 62
     3
100
AcDbLine
 10
369.0330379716
 20
208.1202937568
 30
0.0
 11
364.8830129716
 21
208.1204157568
 31
0.0
  0
LINE
  5
159
330
22
100
AcDbEntity
  8
0$C$L0
 62
     3
100
AcDbLine
 10
365.7580129716
 20
208.6671687568
 30
0.0
 11
363.9728569716
 21
208.4688047568
 31
0.0
  0
LINE
  5
15A
330
22
100
AcDbEntity
  8
0$C$L0
 62
     3
100
AcDbLine
 10
367.3832579716
 20
210.3702937568
 30
0.0
 11
367.3832579716
 21
205.8702937568
 31
0.0
  0
ARC
  5
15B
330
22
100
AcDbEntity
  8
0$C$L0
 62
     3
100
AcDbCircle
 10
371.7329889716
 20
208.1202937568
 30
0.0
 40
6.0
100
AcDbArc
 50
163.808319
 51
196.190516
  0
LINE
  5
15C
330
22
100
AcDbEntity
  8
0$C$L0
 62
     3
100
AcDbLine
 10
367.3832579716
 20
206.1202937568
 30
0.0
 11
367.3832579716
 21
210.1202937568
 31
0.0
  0
ARC
  5
15D
330
22
100
AcDbEntity
  8
0$C$L0
 62
     3
100
AcDbCircle
 10
366.7392149716001
 20
206.6703427568
 30
0.0
 40
0.8
100
AcDbArc
 50
196.189132
 51
270.0
  0
LINE
  5
15E
330
22
100
AcDbEntity
  8
0$C$L0
 62
     3
100
AcDbLine
 10
367.3832579716
 20
206.1202937568
 30
0.0
 11
367.5833309716001
 21
206.1202937568
 31
0.0
  0
LINE
  5
15F
330
22
100
AcDbEntity
  8
0$C$L0
 62
     3
100
AcDbLine
 10
366.7392149716001
 20
205.8704157568
 30
0.0
 11
367.3830129716
 21
205.8702937568
 31
0.0
  0
ARC
  5
160
330
22
100
AcDbEntity
  8
0$C$L0
 62
     3
100
AcDbCircle
 10
366.7392149716001
 20
209.5703667568
 30
0.0
 40
0.8
100
AcDbArc
 50
90.0
 51
163.810799
  0
LINE
  5
161
330
22
100
AcDbEntity
  8
0$C$L0
 62
     3
100
AcDbLine
 10
367.3832579716
 20
210.1202937568
 30
0.0
 11
367.5833309716001
 21
210.1202937568
 31
0.0
  0
LINE
  5
162
330
22
100
AcDbEntity
  8
0$C$L0
 62
     3
100
AcDbLine
 10
366.7392149716001
 20
210.3702937568
 30
0.0
 11
367.3830129716
 21
210.3702937568
 31
0.0
  0
ARC
  5
163
330
22
100
AcDbEntity
  8
0$C$L0
 62
     3
100
AcDbCircle
 10
368.0833309716001
 20
210.6200497568
 30
0.0
 40
0.5
100
AcDbArc
 50
90.0
 51
180.0
  0
LINE
  5
164
330
22
100
AcDbEntity
  8
0$C$L0
  6
CENTERLINE
 62
     3
100
AcDbLine
 10
401.5578179716
 20
202.1202937568
 30
0.0
 11
406.7106499716
 21
202.1202937568
 31
0.0
  0
ARC
  5
165
330
22
100
AcDbEntity
  8
0$C$L0
 62
     3
100
AcDbCircle
 10
401.8333309716
 20
202.6600887568
 30
0.0
 40
1.5
100
AcDbArc
 50
271.995763
 51
0.0
  0
LINE
  5
166
330
22
100
AcDbEntity
  8
0$C$L0
 62
     3
100
AcDbLine
 10
403.8333309716
 20
204.6202937568
 30
0.0
 11
403.8333309716
 21
199.6202937568
 31
0.0
  0
ARC
  5
167
330
22
100
AcDbEntity
  8
0$C$L0
 62
     3
100
AcDbCircle
 10
401.8333309716
 20
201.6251767568
 30
0.0
 40
1.5
100
AcDbArc
 50
271.995763
 51
0.0
  0
LINE
  5
168
330
22
100
AcDbEntity
  8
0$C$L0
 62
     3
100
AcDbLine
 10
403.3333309716
 20
199.6202937568
 30
0.0
 11
403.8333309716
 21
199.6202937568
 31
0.0
  0
LINE
  5
169
330
22
100
AcDbEntity
  8
0$C$L0
 62
     3
100
AcDbLine
 10
403.3333309716
 20
204.6202937568
 30
0.0
 11
403.8333309716
 21
204.6202937568
 31
0.0
  0
ARC
  5
16A
330
22
100
AcDbEntity
  8
0$C$L0
 62
     3
100
AcDbCircle
 10
401.8332089715999
 20
209.0745177568
 30
0.0
 40
1.5
100
AcDbArc
 50
0.0
 51
89.002122
  0
TEXT
  5
16B
330
22
100
AcDbEntity
  8
0$C$L0
 62
     7
100
AcDbText
 10
356.0
 20
65.00000295529999
 30
0.0
 40
2.999994089499999
  1
AGAW314Y
 41
1.008600312006367
 72
     5
 11
379.1977614726
 21
65.00000295529999
 31
0.0
100
AcDbText
  0
TEXT
  5
16C
330
22
100
AcDbEntity
  8
0$C$L0
 62
     7
100
AcDbText
 10
393.6407831752
 20
27.8147690042
 30
0.0
 40
2.9999941014
  1
S=1/2
 41
1.092139027832988
 72
     5
 11
407.8385626212999
 21
27.8147690042
 31
0.0
100
AcDbText
  0
ENDSEC
  0
SECTION
  2
OBJECTS
  0
DICTIONARY
  5
C
330
0
100
AcDbDictionary
281
     1
  3
ACAD_COLOR
350
1B
  3
ACAD_GROUP
350
D
  3
ACAD_LAYOUT
350
19
  3
ACAD_MATERIAL
350
1A
  3
ACAD_MLINESTYLE
350
16
  3
ACAD_PLOTSETTINGS
350
18
  3
ACAD_PLOTSTYLENAME
350
E
  3
ACAD_TABLESTYLE
350
1C
  3
ACDBHEADERROUNDTRIPXREC
350
174
  3
AcDbVariableDictionary
350
16F
  0
DICTIONARY
  5
1B
102
{ACAD_REACTORS
330
C
102
}
330
C
100
AcDbDictionary
281
     1
  0
DICTIONARY
  5
D
102
{ACAD_REACTORS
330
C
102
}
330
C
100
AcDbDictionary
281
     1
  0
DICTIONARY
  5
19
102
{ACAD_REACTORS
330
C
102
}
330
C
100
AcDbDictionary
281
     1
  3
Model
350
25
  3
レイアウト1
350
21
  0
DICTIONARY
  5
1A
102
{ACAD_REACTORS
330
C
102
}
330
C
100
AcDbDictionary
281
     1
  0
DICTIONARY
  5
16
102
{ACAD_REACTORS
330
C
102
}
330
C
100
AcDbDictionary
281
     1
  3
Standard
350
17
  0
DICTIONARY
  5
18
102
{ACAD_REACTORS
330
C
102
}
330
C
100
AcDbDictionary
281
     1
  0
ACDBDICTIONARYWDFLT
  5
E
102
{ACAD_REACTORS
330
C
102
}
330
C
100
AcDbDictionary
281
     1
  3
Normal
350
F
100
AcDbDictionaryWithDefault
340
F
  0
DICTIONARY
  5
1C
102
{ACAD_REACTORS
330
C
102
}
330
C
100
AcDbDictionary
281
     1
  3
Standard
350
1D
  0
DICTIONARY
  5
174
102
{ACAD_REACTORS
330
C
102
}
330
C
100
AcDbDictionary
281
     1
  0
DICTIONARY
  5
16F
102
{ACAD_REACTORS
330
C
102
}
330
C
100
AcDbDictionary
281
     1
  3
CTABLESTYLE
350
170
  3
DIMASSOC
350
171
  3
PROJECTNAME
350
172
  0
LAYOUT
  5
25
102
{ACAD_XDICTIONARY
360
177
102
}
102
{ACAD_REACTORS
330
19
102
}
330
19
100
AcDbPlotSettings
  1

  2
Fuji Xerox 4150 ART4
  4

  6

 40
0.0
 41
0.0
 42
0.0
 43
0.0
 44
0.0
 45
0.0
 46
0.0
 47
0.0
 48
0.0
 49
0.0
140
0.0
141
0.0
142
1.0
143
1.0
 70
  1712
 72
     0
 73
     0
 74
     0
  7

 75
     0
147
1.0
148
0.0
149
0.0
100
AcDbLayout
  1
Model
 70
     1
 71
     0
 10
0.0
 20
0.0
 11
12.0
 21
9.0
 12
0.0
 22
0.0
 32
0.0
 14
0.0
 24
0.0
 34
0.0
 15
0.0
 25
0.0
 35
0.0
146
0.0
 13
0.0
 23
0.0
 33
0.0
 16
1.0
 26
0.0
 36
0.0
 17
0.0
 27
1.0
 37
0.0
 76
     0
330
22
  0
LAYOUT
  5
21
102
{ACAD_XDICTIONARY
360
175
102
}
102
{ACAD_REACTORS
330
19
102
}
330
19
100
AcDbPlotSettings
  1

  2
Fuji Xerox 4150 ART4
  4

  6

 40
0.0
 41
0.0
 42
0.0
 43
0.0
 44
0.0
 45
0.0
 46
0.0
 47
0.0
 48
0.0
 49
0.0
140
0.0
141
0.0
142
1.0
143
1.0
 70
   688
 72
     0
 73
     0
 74
     5
  7

 75
    16
147
1.0
148
0.0
149
0.0
100
AcDbLayout
  1
レイアウト1
 70
     1
 71
     1
 10
0.0
 20
0.0
 11
12.0
 21
9.0
 12
0.0
 22
0.0
 32
0.0
 14
1.000000000000000E+20
 24
1.000000000000000E+20
 34
1.000000000000000E+20
 15
-1.000000000000000E+20
 25
-1.000000000000000E+20
 35
-1.000000000000000E+20
146
0.0
 13
0.0
 23
0.0
 33
0.0
 16
1.0
 26
0.0
 36
0.0
 17
0.0
 27
1.0
 37
0.0
 76
     0
330
1E
  0
MLINESTYLE
  5
17
102
{ACAD_REACTORS
330
16
102
}
330
16
100
AcDbMlineStyle
  2
STANDARD
 70
     0
  3

 62
   256
 51
90.0
 52
90.0
 71
     2
 49
0.5
 62
   256
  6
BYLAYER
 49
-0.5
 62
   256
  6
BYLAYER
  0
ACDBPLACEHOLDER
  5
F
102
{ACAD_REACTORS
330
E
102
}
330
E
  0
TABLESTYLE
  5
1D
102
{ACAD_REACTORS
330
1C
102
}
330
1C
100
AcDbTableStyle
  3
Standard
 70
     0
 71
     0
 40
0.06
 41
0.06
280
     0
281
     0
  7
STANDARD
140
0.18
170
     2
 62
     0
 63
     7
283
     0
274
    -2
284
     1
 64
     0
275
    -2
285
     1
 65
     0
276
    -2
286
     1
 66
     0
277
    -2
287
     1
 67
     0
278
    -2
288
     1
 68
     0
279
    -2
289
     1
 69
     0
  7
STANDARD
140
0.25
170
     5
 62
     0
 63
     7
283
     0
274
    -2
284
     1
 64
     0
275
    -2
285
     1
 65
     0
276
    -2
286
     1
 66
     0
277
    -2
287
     1
 67
     0
278
    -2
288
     1
 68
     0
279
    -2
289
     1
 69
     0
  7
STANDARD
140
0.18
170
     5
 62
     0
 63
     7
283
     0
274
    -2
284
     1
 64
     0
275
    -2
285
     1
 65
     0
276
    -2
286
     1
 66
     0
277
    -2
287
     1
 67
     0
278
    -2
288
     1
 68
     0
279
    -2
289
     1
 69
     0
  0
DICTIONARYVAR
  5
170
102
{ACAD_REACTORS
330
16F
102
}
330
16F
100
DictionaryVariables
280
     0
  1
STANDARD
  0
DICTIONARYVAR
  5
171
102
{ACAD_REACTORS
330
16F
102
}
330
16F
100
DictionaryVariables
280
     0
  1
1
  0
DICTIONARYVAR
  5
172
102
{ACAD_REACTORS
330
16F
102
}
330
16F
100
DictionaryVariables
280
     0
  1

  0
DICTIONARY
  5
177
330
25
100
AcDbDictionary
280
     1
281
     1
  3
ACAD_XREC_ROUNDTRIP
360
178
  0
DICTIONARY
  5
175
330
21
100
AcDbDictionary
280
     1
281
     1
  3
ACAD_XREC_ROUNDTRIP
360
176
  0
XRECORD
  5
178
102
{ACAD_REACTORS
330
177
102
}
330
177
100
AcDbXrecord
280
     1
102
SHADEPLOT
 70
     0
102
SHADEPLOTRESLEVEL
 70
     2
102
SHADEPLOTCUSTOMDPI
 70
   300
  0
XRECORD
  5
176
102
{ACAD_REACTORS
330
175
102
}
330
175
100
AcDbXrecord
280
     1
102
SHADEPLOT
 70
     0
102
SHADEPLOTRESLEVEL
 70
     2
102
SHADEPLOTCUSTOMDPI
 70
   300
  0
ENDSEC
  0
EOF
