  0
SECTION
  2
HEADER
  9
$ACADVER
  1
AC1014
  9
$ACADMAINTVER
 70
     9
  9
$DWGCODEPAGE
  3
ANSI_932
  9
$INSBASE
 10
0.0
 20
0.0
 30
0.0
  9
$EXTMIN
 10
-291.864754966263
 20
14.894597355682
 30
0.0
  9
$EXTMAX
 10
-24.008296518586
 20
340.452385419071
 30
0.0
  9
$LIMMIN
 10
0.0
 20
0.0
  9
$LIMMAX
 10
-210.0
 20
297.0
  9
$ORTHOMODE
 70
     1
  9
$REGENMODE
 70
     1
  9
$FILLMODE
 70
     1
  9
$QTEXTMODE
 70
     0
  9
$MIRRTEXT
 70
     1
  9
$DRAGMODE
 70
     2
  9
$LTSCALE
 40
1.0
  9
$OSMODE
 70
    37
  9
$ATTMODE
 70
     1
  9
$TEXTSIZE
 40
3.0
  9
$TRACEWID
 40
1.0
  9
$TEXTSTYLE
  7
IDEC_TEXT
  9
$CLAYER
  8
IDEC_DIM
  9
$CELTYPE
  6
BYLAYER
  9
$CECOLOR
 62
   256
  9
$CELTSCALE
 40
1.0
  9
$DELOBJ
 70
     1
  9
$DISPSILH
 70
     0
  9
$DIMSCALE
 40
1.0
  9
$DIMASZ
 40
2.0
  9
$DIMEXO
 40
0.625
  9
$DIMDLI
 40
5.0
  9
$DIMRND
 40
0.0
  9
$DIMDLE
 40
0.0
  9
$DIMEXE
 40
1.25
  9
$DIMTP
 40
0.0
  9
$DIMTM
 40
0.0
  9
$DIMTXT
 40
2.5
  9
$DIMCEN
 40
2.5
  9
$DIMTSZ
 40
0.0
  9
$DIMTOL
 70
     0
  9
$DIMLIM
 70
     0
  9
$DIMTIH
 70
     0
  9
$DIMTOH
 70
     0
  9
$DIMSE1
 70
     0
  9
$DIMSE2
 70
     0
  9
$DIMTAD
 70
     1
  9
$DIMZIN
 70
     0
  9
$DIMBLK
  1
OPEN30
  9
$DIMASO
 70
     1
  9
$DIMSHO
 70
     1
  9
$DIMPOST
  1

  9
$DIMAPOST
  1

  9
$DIMALT
 70
     0
  9
$DIMALTD
 70
     1
  9
$DIMALTF
 40
0.03937007874
  9
$DIMLFAC
 40
1.0
  9
$DIMTOFL
 70
     1
  9
$DIMTVP
 40
0.0
  9
$DIMTIX
 70
     0
  9
$DIMSOXD
 70
     0
  9
$DIMSAH
 70
     0
  9
$DIMBLK1
  1

  9
$DIMBLK2
  1

  9
$DIMSTYLE
  2
IDEC_DIM
  9
$DIMCLRD
 70
   256
  9
$DIMCLRE
 70
   256
  9
$DIMCLRT
 70
   256
  9
$DIMTFAC
 40
0.5
  9
$DIMGAP
 40
0.5
  9
$DIMJUST
 70
     0
  9
$DIMSD1
 70
     0
  9
$DIMSD2
 70
     0
  9
$DIMTOLJ
 70
     2
  9
$DIMTZIN
 70
     8
  9
$DIMALTZ
 70
     0
  9
$DIMALTTZ
 70
     0
  9
$DIMFIT
 70
     5
  9
$DIMUPT
 70
     0
  9
$DIMUNIT
 70
     2
  9
$DIMDEC
 70
     1
  9
$DIMTDEC
 70
     1
  9
$DIMALTU
 70
     2
  9
$DIMALTTD
 70
     3
  9
$DIMTXSTY
  7
IDEC_TEXT
  9
$DIMAUNIT
 70
     1
  9
$LUNITS
 70
     2
  9
$LUPREC
 70
     4
  9
$SKETCHINC
 40
1.0
  9
$FILLETRAD
 40
10.0
  9
$AUNITS
 70
     1
  9
$AUPREC
 70
     0
  9
$MENU
  1
.
  9
$ELEVATION
 40
0.0
  9
$PELEVATION
 40
0.0
  9
$THICKNESS
 40
0.0
  9
$LIMCHECK
 70
     0
  9
$CHAMFERA
 40
5.0
  9
$CHAMFERB
 40
5.0
  9
$CHAMFERC
 40
20.0
  9
$CHAMFERD
 40
0.0
  9
$SKPOLY
 70
     0
  9
$TDCREATE
 40
2455692.565455463
  9
$TDUPDATE
 40
2457322.461398958
  9
$TDINDWG
 40
2.4425399769
  9
$TDUSRTIMER
 40
2.4425399769
  9
$USRTIMER
 70
     1
  9
$ANGBASE
 50
0.0
  9
$ANGDIR
 70
     0
  9
$PDMODE
 70
     0
  9
$PDSIZE
 40
0.0
  9
$PLINEWID
 40
0.0
  9
$COORDS
 70
     1
  9
$SPLFRAME
 70
     0
  9
$SPLINETYPE
 70
     6
  9
$SPLINESEGS
 70
     8
  9
$ATTDIA
 70
     0
  9
$ATTREQ
 70
     1
  9
$HANDLING
 70
     1
  9
$HANDSEED
  5
1A44
  9
$SURFTAB1
 70
     6
  9
$SURFTAB2
 70
     6
  9
$SURFTYPE
 70
     6
  9
$SURFU
 70
     6
  9
$SURFV
 70
     6
  9
$UCSNAME
  2

  9
$UCSORG
 10
0.0
 20
0.0
 30
0.0
  9
$UCSXDIR
 10
1.0
 20
0.0
 30
0.0
  9
$UCSYDIR
 10
0.0
 20
1.0
 30
0.0
  9
$PUCSNAME
  2

  9
$PUCSORG
 10
0.0
 20
0.0
 30
0.0
  9
$PUCSXDIR
 10
1.0
 20
0.0
 30
0.0
  9
$PUCSYDIR
 10
0.0
 20
1.0
 30
0.0
  9
$USERI1
 70
     0
  9
$USERI2
 70
     0
  9
$USERI3
 70
     0
  9
$USERI4
 70
     0
  9
$USERI5
 70
     0
  9
$USERR1
 40
0.0
  9
$USERR2
 40
0.0
  9
$USERR3
 40
0.0
  9
$USERR4
 40
0.0
  9
$USERR5
 40
0.0
  9
$WORLDVIEW
 70
     1
  9
$SHADEDGE
 70
     3
  9
$SHADEDIF
 70
    70
  9
$TILEMODE
 70
     1
  9
$MAXACTVP
 70
    64
  9
$PINSBASE
 10
0.0
 20
0.0
 30
0.0
  9
$PLIMCHECK
 70
     0
  9
$PEXTMIN
 10
1.000000000000E+20
 20
1.000000000000E+20
 30
1.000000000000E+20
  9
$PEXTMAX
 10
-1.000000000000E+20
 20
-1.000000000000E+20
 30
-1.000000000000E+20
  9
$PLIMMIN
 10
0.0
 20
0.0
  9
$PLIMMAX
 10
420.0
 20
297.0
  9
$UNITMODE
 70
     0
  9
$VISRETAIN
 70
     1
  9
$PLINEGEN
 70
     0
  9
$PSLTSCALE
 70
     1
  9
$TREEDEPTH
 70
  3020
  9
$PICKSTYLE
 70
     1
  9
$CMLSTYLE
  2
STANDARD
  9
$CMLJUST
 70
     0
  9
$CMLSCALE
 40
20.0
  9
$PROXYGRAPHICS
 70
     1
  9
$MEASUREMENT
 70
     1
  0
ENDSEC
  0
SECTION
  2
CLASSES
  0
CLASS
  1
ACDBDICTIONARYWDFLT
  2
AcDbDictionaryWithDefault
  3
ObjectDBX Classes
 90
        0
280
     0
281
     0
  0
CLASS
  1
VISUALSTYLE
  2
AcDbVisualStyle
  3
ObjectDBX Classes
 90
     4095
280
     0
281
     0
  0
CLASS
  1
MATERIAL
  2
AcDbMaterial
  3
ObjectDBX Classes
 90
     1153
280
     0
281
     0
  0
CLASS
  1
SCALE
  2
AcDbScale
  3
ObjectDBX Classes
 90
     1153
280
     0
281
     0
  0
CLASS
  1
DICTIONARYVAR
  2
AcDbDictionaryVar
  3
ObjectDBX Classes
 90
        0
280
     0
281
     0
  0
CLASS
  1
DIMASSOC
  2
AcDbDimAssoc
  3
"AcDbDimAssoc|Product Desc:     AcDim ARX App For Dimension|Company:          Autodesk, Inc.|WEB Address:      www.autodesk.com"
 90
        0
280
     0
281
     0
  0
CLASS
  1
TABLESTYLE
  2
AcDbTableStyle
  3
ObjectDBX Classes
 90
     4095
280
     0
281
     0
  0
CLASS
  1
SORTENTSTABLE
  2
AcDbSortentsTable
  3
ObjectDBX Classes
 90
        0
280
     0
281
     0
  0
CLASS
  1
SUN
  2
AcDbSun
  3
SCENEOE
 90
     1153
280
     0
281
     0
  0
CLASS
  1
PLOTSETTINGS
  2
AcDbPlotSettings
  3
ObjectDBX Classes
 90
        0
280
     0
281
     0
  0
CLASS
  1
CELLSTYLEMAP
  2
AcDbCellStyleMap
  3
ObjectDBX Classes
 90
     1152
280
     0
281
     0
  0
CLASS
  1
XRECORD
  2
AcDbXrecord
  3
ObjectDBX Classes
 90
        0
280
     0
281
     0
  0
CLASS
  1
LWPOLYLINE
  2
AcDbPolyline
  3
ObjectDBX Classes
 90
        0
280
     0
281
     1
  0
CLASS
  1
HATCH
  2
AcDbHatch
  3
ObjectDBX Classes
 90
        0
280
     0
281
     1
  0
CLASS
  1
ACDBPLACEHOLDER
  2
AcDbPlaceHolder
  3
ObjectDBX Classes
 90
        0
280
     0
281
     0
  0
CLASS
  1
LAYOUT
  2
AcDbLayout
  3
ObjectDBX Classes
 90
        0
280
     0
281
     0
  0
ENDSEC
  0
SECTION
  2
TABLES
  0
TABLE
  2
VPORT
  5
8
330
0
100
AcDbSymbolTable
 70
     1
  0
VPORT
  5
29
330
8
100
AcDbSymbolTableRecord
100
AcDbViewportTableRecord
  2
*ACTIVE
 70
     0
 10
0.0
 20
0.0
 11
1.0
 21
1.0
 12
-90.019303499998
 22
258.077741267479
 13
0.0
 23
0.0
 14
5.0
 24
5.0
 15
5.0
 25
5.0
 16
0.0
 26
0.0
 36
1.0
 17
0.0
 27
0.0
 37
-0.244761739392
 40
451.578034452192
 41
1.494565217391
 42
50.0
 43
0.0
 44
0.0
 50
0.0
 51
0.0
 71
    16
 72
   100
 73
     1
 74
     3
 75
     0
 76
     0
 77
     0
 78
     0
  0
ENDTAB
  0
TABLE
  2
LTYPE
  5
5
330
0
100
AcDbSymbolTable
 70
     5
  0
LTYPE
  5
14
330
5
100
AcDbSymbolTableRecord
100
AcDbLinetypeTableRecord
  2
BYBLOCK
 70
     0
  3

 72
    65
 73
     0
 40
0.0
  0
LTYPE
  5
15
330
5
100
AcDbSymbolTableRecord
100
AcDbLinetypeTableRecord
  2
BYLAYER
 70
     0
  3

 72
    65
 73
     0
 40
0.0
  0
LTYPE
  5
16
330
5
100
AcDbSymbolTableRecord
100
AcDbLinetypeTableRecord
  2
CONTINUOUS
 70
     0
  3
Solid line
 72
    65
 73
     0
 40
0.0
  0
LTYPE
  5
70
330
5
100
AcDbSymbolTableRecord
100
AcDbLinetypeTableRecord
  2
CENTERX2
 70
     0
  3
________  __  ________  __  ________  __  ______
 72
    65
 73
     4
 40
4.0
 49
2.5
 74
     0
 49
-0.5
 74
     0
 49
0.5
 74
     0
 49
-0.5
 74
     0
  0
LTYPE
  5
75
330
5
100
AcDbSymbolTableRecord
100
AcDbLinetypeTableRecord
  2
PHANTOMX2
 70
     0
  3
____________    ____    ____    ____________    
 72
    65
 73
     6
 40
5.0
 49
2.5
 74
     0
 49
-0.5
 74
     0
 49
0.5
 74
     0
 49
-0.5
 74
     0
 49
0.5
 74
     0
 49
-0.5
 74
     0
  0
LTYPE
  5
78
330
5
100
AcDbSymbolTableRecord
100
AcDbLinetypeTableRecord
  2
DASHEDX2
 70
     0
  3
____  ____  ____  ____  ____  ____  ____  ____  
 72
    65
 73
     2
 40
1.5
 49
1.0
 74
     0
 49
-0.5
 74
     0
  0
LTYPE
  5
17EE
330
5
100
AcDbSymbolTableRecord
100
AcDbLinetypeTableRecord
  2
DYN_DIM
 70
     0
  3
Dashed dynamic dimension line
 72
    65
 73
     2
 40
0.849358289165
 49
0.242673796904
 74
     0
 49
-0.606684492261
 74
     0
  0
ENDTAB
  0
TABLE
  2
LAYER
  5
2
330
0
100
AcDbSymbolTable
 70
    15
  0
LAYER
  5
10
330
2
100
AcDbSymbolTableRecord
100
AcDbLayerTableRecord
  2
0
 70
     0
 62
     7
  6
CONTINUOUS
  0
LAYER
  5
6D
330
2
100
AcDbSymbolTableRecord
100
AcDbLayerTableRecord
  2
DEFPOINTS
 70
     0
 62
   250
  6
CONTINUOUS
  0
LAYER
  5
6E
330
2
100
AcDbSymbolTableRecord
100
AcDbLayerTableRecord
  2
CENTER
 70
     0
 62
     7
  6
CENTERX2
  0
LAYER
  5
73
330
2
100
AcDbSymbolTableRecord
100
AcDbLayerTableRecord
  2
PHANTOM
 70
     0
 62
     4
  6
PHANTOMX2
  0
LAYER
  5
79
330
2
100
AcDbSymbolTableRecord
100
AcDbLayerTableRecord
  2
太線
 70
     0
 62
     5
  6
CONTINUOUS
  0
LAYER
  5
7B
330
2
100
AcDbSymbolTableRecord
100
AcDbLayerTableRecord
  2
細線
 70
     0
 62
     7
  6
CONTINUOUS
  0
LAYER
  5
7D
330
2
100
AcDbSymbolTableRecord
100
AcDbLayerTableRecord
  2
中線
 70
     0
 62
     3
  6
CONTINUOUS
  0
LAYER
  5
7F
330
2
100
AcDbSymbolTableRecord
100
AcDbLayerTableRecord
  2
IDEC_DIM
 70
     0
 62
     2
  6
CONTINUOUS
  0
LAYER
  5
81
330
2
100
AcDbSymbolTableRecord
100
AcDbLayerTableRecord
  2
HIDDEN
 70
     0
 62
     6
  6
DASHEDX2
  0
LAYER
  5
AD
330
2
100
AcDbSymbolTableRecord
100
AcDbLayerTableRecord
  2
CMNT
 70
     0
 62
     7
  6
CONTINUOUS
  0
LAYER
  5
337
330
2
100
AcDbSymbolTableRecord
100
AcDbLayerTableRecord
  2
IDEC_DRAWINGFRAME
 70
     0
 62
     3
  6
CONTINUOUS
  0
LAYER
  5
7FA
330
2
100
AcDbSymbolTableRecord
100
AcDbLayerTableRecord
  2
DIF_SCALE_AREA
 70
     0
 62
   250
  6
CONTINUOUS
  0
LAYER
  5
7FC
330
2
100
AcDbSymbolTableRecord
100
AcDbLayerTableRecord
  2
DIF_SCALE_TEXT
 70
     0
 62
   250
  6
CONTINUOUS
  0
LAYER
  5
868
330
2
100
AcDbSymbolTableRecord
100
AcDbLayerTableRecord
  2
TITLE
 70
     0
 62
     7
  6
CONTINUOUS
  0
LAYER
  5
86A
330
2
100
AcDbSymbolTableRecord
100
AcDbLayerTableRecord
  2
PINOFF
 70
     1
 62
     7
  6
CONTINUOUS
  0
ENDTAB
  0
TABLE
  2
STYLE
  5
3
330
0
100
AcDbSymbolTable
 70
     3
  0
STYLE
  5
11
330
3
100
AcDbSymbolTableRecord
100
AcDbTextStyleTableRecord
  2
STANDARD
 70
     0
 40
0.0
 41
1.0
 50
0.0
 71
     0
 42
2.5
  3
simplex.shx
  4
extfont2.shx
  0
STYLE
  5
124
330
3
100
AcDbSymbolTableRecord
100
AcDbTextStyleTableRecord
  2
IDEC_TEXT
 70
     0
 40
0.0
 41
1.0
 50
0.0
 71
     0
 42
3.0
  3
simplex.shx
  4
extfont2.shx
  0
STYLE
  5
17ED
330
3
100
AcDbSymbolTableRecord
100
AcDbTextStyleTableRecord
  2
DYN_DIM
 70
     0
 40
0.0
 41
1.0
 50
0.0
 71
     0
 42
3.0
  3
simplex.shx
  4
extfont2.shx
  0
ENDTAB
  0
TABLE
  2
VIEW
  5
6
330
0
100
AcDbSymbolTable
 70
     0
  0
ENDTAB
  0
TABLE
  2
UCS
  5
7
330
0
100
AcDbSymbolTable
 70
     0
  0
ENDTAB
  0
TABLE
  2
APPID
  5
9
330
0
100
AcDbSymbolTable
 70
     6
  0
APPID
  5
12
330
9
100
AcDbSymbolTableRecord
100
AcDbRegAppTableRecord
  2
ACAD
 70
     0
  0
APPID
  5
C3
330
9
100
AcDbSymbolTableRecord
100
AcDbRegAppTableRecord
  2
BJM_BLN_TBL
 70
     0
  0
APPID
  5
873
330
9
100
AcDbSymbolTableRecord
100
AcDbRegAppTableRecord
  2
ACAD_DSTYLE_DIMTEXT_FILL
 70
     0
  0
APPID
  5
B17
330
9
100
AcDbSymbolTableRecord
100
AcDbRegAppTableRecord
  2
DENKISCL
 70
     0
  0
APPID
  5
B18
330
9
100
AcDbSymbolTableRecord
100
AcDbRegAppTableRecord
  2
DENKISCLORG
 70
     0
  0
APPID
  5
1811
330
9
100
AcDbSymbolTableRecord
100
AcDbRegAppTableRecord
  2
ACAD_DSTYLE_DIMRADIAL_EXTE
 70
     0
  0
ENDTAB
  0
TABLE
  2
DIMSTYLE
  5
A
330
0
100
AcDbSymbolTable
 70
     1
  0
DIMSTYLE
105
61
330
A
100
AcDbSymbolTableRecord
100
AcDbDimStyleTableRecord
  2
IDEC_DIM
 70
     0
  3

  4

  5
OPEN30
  6

  7

 40
1.0
 41
2.0
 42
0.625
 43
5.0
 44
1.25
 45
0.0
 46
0.0
 47
0.0
 48
0.0
140
2.5
141
2.5
142
0.0
143
0.03937007874
144
1.0
145
0.0
146
0.5
147
0.5
 71
     0
 72
     0
 73
     0
 74
     0
 75
     0
 76
     0
 77
     1
 78
     0
170
     0
171
     1
172
     1
173
     0
174
     0
175
     0
176
   256
177
   256
178
   256
179
     1
270
     2
271
     1
272
     1
273
     2
274
     3
340
124
275
     1
280
     0
281
     0
282
     0
283
     2
284
     8
285
     0
286
     0
287
     3
288
     0
  0
ENDTAB
  0
TABLE
  2
BLOCK_RECORD
  5
1
330
0
100
AcDbSymbolTable
 70
    19
  0
BLOCK_RECORD
  5
1F
102
{ACAD_XDICTIONARY
360
56C
102
}
330
1
100
AcDbSymbolTableRecord
100
AcDbBlockTableRecord
  2
*MODEL_SPACE
  0
BLOCK_RECORD
  5
1B
330
1
100
AcDbSymbolTableRecord
100
AcDbBlockTableRecord
  2
*PAPER_SPACE
  0
BLOCK_RECORD
  5
63
330
1
100
AcDbSymbolTableRecord
100
AcDbBlockTableRecord
  2
_OPEN30
  0
BLOCK_RECORD
  5
85E
102
{ACAD_XDICTIONARY
360
85F
102
}
330
1
100
AcDbSymbolTableRecord
100
AcDbBlockTableRecord
  2
_IDEC_OPEN30
1001
ACAD
1000
DesignCenter Data
1002
{
1070
     1
1070
     4
1002
}
  0
BLOCK_RECORD
  5
88B
102
{ACAD_XDICTIONARY
360
88C
102
}
330
1
100
AcDbSymbolTableRecord
100
AcDbBlockTableRecord
  2
TITLE
1001
ACAD
1000
DesignCenter Data
1002
{
1070
     1
1070
     4
1002
}
  0
BLOCK_RECORD
  5
B77
102
{ACAD_XDICTIONARY
360
B78
102
}
330
1
100
AcDbSymbolTableRecord
100
AcDbBlockTableRecord
  2
_IDEC_OPEN30R
1001
ACAD
1000
DesignCenter Data
1002
{
1070
     1
1070
     4
1002
}
  0
BLOCK_RECORD
  5
175D
330
1
100
AcDbSymbolTableRecord
100
AcDbBlockTableRecord
  2
*D4
  0
BLOCK_RECORD
  5
1769
330
1
100
AcDbSymbolTableRecord
100
AcDbBlockTableRecord
  2
*D5
  0
BLOCK_RECORD
  5
1775
330
1
100
AcDbSymbolTableRecord
100
AcDbBlockTableRecord
  2
*D6
  0
BLOCK_RECORD
  5
1781
330
1
100
AcDbSymbolTableRecord
100
AcDbBlockTableRecord
  2
*D7
  0
BLOCK_RECORD
  5
178D
330
1
100
AcDbSymbolTableRecord
100
AcDbBlockTableRecord
  2
*D8
  0
BLOCK_RECORD
  5
1799
330
1
100
AcDbSymbolTableRecord
100
AcDbBlockTableRecord
  2
*D9
  0
BLOCK_RECORD
  5
17A5
330
1
100
AcDbSymbolTableRecord
100
AcDbBlockTableRecord
  2
*D10
  0
BLOCK_RECORD
  5
17B1
330
1
100
AcDbSymbolTableRecord
100
AcDbBlockTableRecord
  2
*D11
  0
BLOCK_RECORD
  5
17D8
330
1
100
AcDbSymbolTableRecord
100
AcDbBlockTableRecord
  2
*D12
  0
BLOCK_RECORD
  5
17F4
330
1
100
AcDbSymbolTableRecord
100
AcDbBlockTableRecord
  2
*D13
  0
BLOCK_RECORD
  5
1805
330
1
100
AcDbSymbolTableRecord
100
AcDbBlockTableRecord
  2
*D14
  0
BLOCK_RECORD
  5
1815
330
1
100
AcDbSymbolTableRecord
100
AcDbBlockTableRecord
  2
*D15
  0
BLOCK_RECORD
  5
184E
330
1
100
AcDbSymbolTableRecord
100
AcDbBlockTableRecord
  2
_OPEN
  0
BLOCK_RECORD
  5
19C3
330
1
100
AcDbSymbolTableRecord
100
AcDbBlockTableRecord
  2
*D17
  0
BLOCK_RECORD
  5
19D3
330
1
100
AcDbSymbolTableRecord
100
AcDbBlockTableRecord
  2
*D18
  0
ENDTAB
  0
ENDSEC
  0
SECTION
  2
BLOCKS
  0
BLOCK
  5
20
330
1F
100
AcDbEntity
  8
0
100
AcDbBlockBegin
  2
*MODEL_SPACE
 70
     0
 10
0.0
 20
0.0
 30
0.0
  3
*MODEL_SPACE
  1

  0
ENDBLK
  5
21
330
1F
100
AcDbEntity
  8
0
100
AcDbBlockEnd
  0
BLOCK
  5
1C
330
1B
100
AcDbEntity
 67
     1
  8
0
100
AcDbBlockBegin
  2
*PAPER_SPACE
 70
     0
 10
0.0
 20
0.0
 30
0.0
  3
*PAPER_SPACE
  1

  0
ENDBLK
  5
1D
330
1B
100
AcDbEntity
 67
     1
  8
0
100
AcDbBlockEnd
  0
BLOCK
  5
64
330
63
100
AcDbEntity
  8
0
100
AcDbBlockBegin
  2
_OPEN30
 70
     0
 10
0.0
 20
0.0
 30
0.0
  3
_OPEN30
  1
_OPEN30
  0
LINE
  5
66
330
63
100
AcDbEntity
  8
0
  6
BYBLOCK
 62
     0
100
AcDbLine
 10
-1.0
 20
0.267949
 30
0.0
 11
0.0
 21
0.0
 31
0.0
  0
LINE
  5
67
330
63
100
AcDbEntity
  8
0
  6
BYBLOCK
 62
     0
100
AcDbLine
 10
0.0
 20
0.0
 30
0.0
 11
-1.0
 21
-0.267949
 31
0.0
  0
LINE
  5
68
330
63
100
AcDbEntity
  8
0
  6
BYBLOCK
 62
     0
100
AcDbLine
 10
0.0
 20
0.0
 30
0.0
 11
-1.0
 21
0.0
 31
0.0
  0
ENDBLK
  5
65
330
63
100
AcDbEntity
  8
0
100
AcDbBlockEnd
  0
BLOCK
  5
861
330
85E
100
AcDbEntity
  8
0
100
AcDbBlockBegin
  2
_IDEC_OPEN30
 70
     0
 10
0.0
 20
0.0
 30
0.0
  3
_IDEC_OPEN30
  1
_IDEC_OPEN30
  0
LINE
  5
862
330
85E
100
AcDbEntity
  8
0
  6
BYBLOCK
 62
     0
100
AcDbLine
 10
-1.0
 20
0.267949
 30
0.0
 11
0.0
 21
0.0
 31
0.0
  0
LINE
  5
863
330
85E
100
AcDbEntity
  8
0
  6
BYBLOCK
 62
     0
100
AcDbLine
 10
0.0
 20
0.0
 30
0.0
 11
-1.0
 21
-0.267949
 31
0.0
  0
LINE
  5
864
330
85E
100
AcDbEntity
  8
0
  6
BYBLOCK
 62
     0
100
AcDbLine
 10
0.0
 20
0.0
 30
0.0
 11
-2.0
 21
0.0
 31
0.0
  0
ENDBLK
  5
865
330
85E
100
AcDbEntity
  8
0
100
AcDbBlockEnd
  0
BLOCK
  5
A1D
330
88B
100
AcDbEntity
  8
0
100
AcDbBlockBegin
  2
TITLE
 70
     2
 10
0.0
 20
0.0
 30
0.0
  3
TITLE
  1
TITLE
  0
ATTDEF
  5
A0C
330
88B
100
AcDbEntity
  8
TITLE
100
AcDbText
 10
-103.0
 20
283.9
 30
0.0
 40
4.2
  1
*
  7
IDEC_TEXT
 11
-103.0
 21
286.0
 31
0.0
100
AcDbAttributeDefinition
  3
製品名(Product Name)
  2
BITEM1
 70
     0
 74
     2
  0
ATTDEF
  5
A0D
330
88B
100
AcDbEntity
  8
TITLE
100
AcDbText
 10
-99.0
 20
275.9
 30
0.0
 40
4.2
  1
*
  7
IDEC_TEXT
 11
-99.0
 21
278.0
 31
0.0
100
AcDbAttributeDefinition
  3
形番(Type No.)
  2
BITEM2
 70
     0
 74
     2
  0
ATTDEF
  5
A0E
330
88B
100
AcDbEntity
  8
TITLE
100
AcDbText
 10
-66.5
 20
16.0
 30
0.0
 40
5.0
  1
*
  7
IDEC_TEXT
 11
-66.5
 21
18.5
 31
0.0
100
AcDbAttributeDefinition
  3
図番(Drawing No.)
  2
BITEM4
 70
     0
 74
     2
  0
ATTDEF
  5
A0F
330
88B
100
AcDbEntity
  8
TITLE
100
AcDbText
 10
-66.848761370682
 20
5.384752852192
 30
0.0
 40
4.16
  1
*
 41
0.75
  7
IDEC_TEXT
 11
-66.848761370682
 21
3.998086185525
 31
0.0
100
AcDbAttributeDefinition
  3
旧図番
  2
BITEM5
 70
     0
 74
     1
  0
ATTDEF
  5
A10
330
88B
100
AcDbEntity
  8
TITLE
100
AcDbText
 10
-113.036422030581
 20
21.3499938965
 30
0.0
 40
2.5
  1
*
  7
IDEC_TEXT
 72
     1
 11
-112.441183935343
 21
22.5999938965
 31
0.0
100
AcDbAttributeDefinition
  3
承認者所属部署
  2
BITEM8
 70
     0
 74
     2
  0
ATTDEF
  5
A11
330
88B
100
AcDbEntity
  8
TITLE
100
AcDbText
 10
-113.036422030581
 20
13.0499908447
 30
0.0
 40
2.5
  1
*
  7
IDEC_TEXT
 72
     1
 11
-112.441183935343
 21
14.2999908447
 31
0.0
100
AcDbAttributeDefinition
  3
承認者(Approved by)
  2
BITEM9
 70
     0
 74
     2
  0
ATTDEF
  5
A12
330
88B
100
AcDbEntity
  8
TITLE
100
AcDbText
 10
-117.297611418219
 20
17.3999938965
 30
0.0
 40
2.0
  1
'12.1.01
  7
IDEC_TEXT
 72
     1
 11
-112.2499923706
 21
18.3999938965
 31
0.0
100
AcDbAttributeDefinition
  3
承認年月日(Approved date)
  2
BDATE1
 70
     0
 74
     2
  0
ATTDEF
  5
A13
330
88B
100
AcDbEntity
  8
TITLE
100
AcDbText
 10
-95.536422030581
 20
21.3499938965
 30
0.0
 40
2.5
  1
*
  7
IDEC_TEXT
 72
     1
 11
-94.941183935343
 21
22.5999938965
 31
0.0
100
AcDbAttributeDefinition
  3
検図者所属部署
  2
BITEM10
 70
     0
 74
     2
  0
ATTDEF
  5
A14
330
88B
100
AcDbEntity
  8
TITLE
100
AcDbText
 10
-95.536422030581
 20
13.0499908447
 30
0.0
 40
2.5
  1
*
  7
IDEC_TEXT
 72
     1
 11
-94.941183935343
 21
14.2999908447
 31
0.0
100
AcDbAttributeDefinition
  3
検図者(Checked by)
  2
BITEM11
 70
     0
 74
     2
  0
ATTDEF
  5
A15
330
88B
100
AcDbEntity
  8
TITLE
100
AcDbText
 10
-99.797611418219
 20
17.3999938965
 30
0.0
 40
2.0
  1
'12.1.01
  7
IDEC_TEXT
 72
     1
 11
-94.7499923706
 21
18.3999938965
 31
0.0
100
AcDbAttributeDefinition
  3
検図年月日(Checked date)
  2
BDATE2
 70
     0
 74
     2
  0
ATTDEF
  5
A16
330
88B
100
AcDbEntity
  8
TITLE
100
AcDbText
 10
-78.036422030581
 20
21.3499938965
 30
0.0
 40
2.5
  1
*
  7
IDEC_TEXT
 72
     1
 11
-77.441183935343
 21
22.5999938965
 31
0.0
100
AcDbAttributeDefinition
  3
製図者所属部署
  2
BITEM14
 70
     0
 74
     2
  0
ATTDEF
  5
A17
330
88B
100
AcDbEntity
  8
TITLE
100
AcDbText
 10
-78.036422030581
 20
13.0499908447
 30
0.0
 40
2.5
  1
*
  7
IDEC_TEXT
 72
     1
 11
-77.441183935343
 21
14.2999908447
 31
0.0
100
AcDbAttributeDefinition
  3
製図者(Drawing by)
  2
BITEM15
 70
     0
 74
     2
  0
ATTDEF
  5
A18
330
88B
100
AcDbEntity
  8
TITLE
100
AcDbText
 10
-82.297611418219
 20
17.3999938965
 30
0.0
 40
2.0
  1
'12.1.01
  7
IDEC_TEXT
 72
     1
 11
-77.2499923706
 21
18.3999938965
 31
0.0
100
AcDbAttributeDefinition
  3
製図年月日(Drawing date)
  2
BDATE4
 70
     0
 74
     2
  0
ATTDEF
  5
A19
330
88B
100
AcDbEntity
  8
TITLE
100
AcDbText
 10
-177.897860817105
 20
6.358639154393
 30
0.0
 40
2.0
  1
*
  7
IDEC_TEXT
 11
-177.897860817105
 21
7.358639154393
 31
0.0
100
AcDbAttributeDefinition
  3
GROUP(SEG2)
  2
BITEM20
 70
     0
 74
     2
  0
ATTDEF
  5
A1A
330
88B
100
AcDbEntity
  8
TITLE
100
AcDbText
 10
-168.080347208506
 20
6.355110458172
 30
0.0
 40
2.0
  1
*
  7
IDEC_TEXT
 11
-168.080347208506
 21
7.355110458172
 31
0.0
100
AcDbAttributeDefinition
  3
USER(SEG3)
  2
BITEM21
 70
     0
 74
     2
  0
ATTDEF
  5
A1B
330
88B
100
AcDbEntity
  8
PINOFF
100
AcDbText
 10
0.0
 20
0.0
 30
0.0
 40
1.0
  1
TI
  7
IDEC_TEXT
100
AcDbAttributeDefinition
  3
IDENT
  2
IDENT
 70
     2
  0
ATTDEF
  5
A1C
330
88B
100
AcDbEntity
  8
PINOFF
100
AcDbText
 10
0.0
 20
0.0
 30
0.0
 40
1.0
  1
_標準品用_外形図枠_和文_A4_属性付
  7
IDEC_TEXT
100
AcDbAttributeDefinition
  3
図面枠名
  2
FRAME
 70
     2
  0
ENDBLK
  5
A1E
330
88B
100
AcDbEntity
  8
0
100
AcDbBlockEnd
  0
BLOCK
  5
B8B
330
B77
100
AcDbEntity
  8
0
100
AcDbBlockBegin
  2
_IDEC_OPEN30R
 70
     0
 10
0.0
 20
0.0
 30
0.0
  3
_IDEC_OPEN30R
  1
_IDEC_OPEN30R
  0
LINE
  5
B7B
330
B77
100
AcDbEntity
  8
0
  6
BYBLOCK
 62
     0
100
AcDbLine
 10
1.0
 20
0.267949
 30
0.0
 11
0.0
 21
0.0
 31
0.0
  0
LINE
  5
B7C
330
B77
100
AcDbEntity
  8
0
  6
BYBLOCK
 62
     0
100
AcDbLine
 10
0.0
 20
0.0
 30
0.0
 11
1.0
 21
-0.267949
 31
0.0
  0
LINE
  5
B7D
330
B77
100
AcDbEntity
  8
0
  6
BYBLOCK
 62
     0
100
AcDbLine
 10
-1.0
 20
0.0
 30
0.0
 11
2.0
 21
0.0
 31
0.0
  0
ENDBLK
  5
B8C
330
B77
100
AcDbEntity
  8
0
100
AcDbBlockEnd
  0
BLOCK
  5
175E
330
175D
100
AcDbEntity
  8
0
100
AcDbBlockBegin
  2
*D4
 70
     1
 10
0.0
 20
0.0
 30
0.0
  3
*D4
  1
*D111
  0
LINE
  5
1760
330
175D
100
AcDbEntity
  8
中線
100
AcDbLine
 10
-149.280654375716
 20
182.718648648649
 30
0.0
 11
-149.280654375716
 21
194.8435347818
 31
0.0
  0
LINE
  5
1761
330
175D
100
AcDbEntity
  8
中線
100
AcDbLine
 10
-119.280685375592
 20
182.718708646757
 30
0.0
 11
-119.280685375592
 21
194.8435347818
 31
0.0
  0
LINE
  5
1762
330
175D
100
AcDbEntity
  8
中線
100
AcDbLine
 10
-147.280654375716
 20
193.5935347818
 30
0.0
 11
-121.280685375592
 21
193.5935347818
 31
0.0
  0
INSERT
  5
1763
330
175D
100
AcDbEntity
  8
中線
100
AcDbBlockReference
  2
_OPEN30
 10
-149.280654375716
 20
193.5935347818
 30
0.0
 41
2.0
 42
2.0
 43
2.0
 50
180.0
  0
INSERT
  5
1764
330
175D
100
AcDbEntity
  8
中線
100
AcDbBlockReference
  2
_OPEN30
 10
-119.280685375592
 20
193.5935347818
 30
0.0
 41
2.0
 42
2.0
 43
2.0
  0
MTEXT
  5
1765
330
175D
100
AcDbEntity
  8
中線
100
AcDbMText
 10
-134.280669875654
 20
195.3435347818
 30
0.0
 40
2.5
 41
0.0
 71
     5
 72
     1
  1
\A2;60（取付穴ピッチ）
  7
IDEC_TEXT
  0
POINT
  5
1766
330
175D
100
AcDbEntity
  8
DEFPOINTS
 62
     0
100
AcDbPoint
 10
-149.280654375716
 20
182.093648648649
 30
0.0
  0
POINT
  5
1767
330
175D
100
AcDbEntity
  8
DEFPOINTS
 62
     0
100
AcDbPoint
 10
-119.280685375592
 20
182.093708646757
 30
0.0
  0
POINT
  5
1768
330
175D
100
AcDbEntity
  8
DEFPOINTS
 62
     0
100
AcDbPoint
 10
-119.280685375592
 20
193.5935347818
 30
0.0
  0
ENDBLK
  5
175F
330
175D
100
AcDbEntity
  8
0
100
AcDbBlockEnd
  0
BLOCK
  5
176A
330
1769
100
AcDbEntity
  8
0
100
AcDbBlockBegin
  2
*D5
 70
     1
 10
0.0
 20
0.0
 30
0.0
  3
*D5
  1
*D112
  0
LINE
  5
176C
330
1769
100
AcDbEntity
  8
中線
100
AcDbLine
 10
-155.780669375716
 20
184.718526648649
 30
0.0
 11
-155.780669375716
 21
199.843648648649
 31
0.0
  0
LINE
  5
176D
330
1769
100
AcDbEntity
  8
中線
100
AcDbLine
 10
-112.780669375716
 20
184.718526648649
 30
0.0
 11
-112.780669375716
 21
199.843648648649
 31
0.0
  0
LINE
  5
176E
330
1769
100
AcDbEntity
  8
中線
100
AcDbLine
 10
-153.780669375716
 20
198.593648648649
 30
0.0
 11
-114.780669375716
 21
198.593648648649
 31
0.0
  0
INSERT
  5
176F
330
1769
100
AcDbEntity
  8
中線
100
AcDbBlockReference
  2
_OPEN30
 10
-155.780669375716
 20
198.593648648649
 30
0.0
 41
2.0
 42
2.0
 43
2.0
 50
180.0
  0
INSERT
  5
1770
330
1769
100
AcDbEntity
  8
中線
100
AcDbBlockReference
  2
_OPEN30
 10
-112.780669375716
 20
198.593648648649
 30
0.0
 41
2.0
 42
2.0
 43
2.0
  0
MTEXT
  5
1771
330
1769
100
AcDbEntity
  8
中線
100
AcDbMText
 10
-134.280669375716
 20
200.343648648649
 30
0.0
 40
2.5
 41
0.0
 71
     5
 72
     1
  1
\A2;86
  7
IDEC_TEXT
  0
POINT
  5
1772
330
1769
100
AcDbEntity
  8
DEFPOINTS
 62
     0
100
AcDbPoint
 10
-155.780669375716
 20
184.093526648649
 30
0.0
  0
POINT
  5
1773
330
1769
100
AcDbEntity
  8
DEFPOINTS
 62
     0
100
AcDbPoint
 10
-112.780669375716
 20
184.093526648649
 30
0.0
  0
POINT
  5
1774
330
1769
100
AcDbEntity
  8
DEFPOINTS
 62
     0
100
AcDbPoint
 10
-112.780669375716
 20
198.593648648649
 30
0.0
  0
ENDBLK
  5
176B
330
1769
100
AcDbEntity
  8
0
100
AcDbBlockEnd
  0
BLOCK
  5
1776
330
1775
100
AcDbEntity
  8
0
100
AcDbBlockBegin
  2
*D6
 70
     1
 10
0.0
 20
0.0
 30
0.0
  3
*D6
  1
*D113
  0
LINE
  5
1778
330
1775
100
AcDbEntity
  8
中線
100
AcDbLine
 10
-125.605697375716
 20
138.093648648649
 30
0.0
 11
-105.530637947316
 21
138.093648648649
 31
0.0
  0
LINE
  5
1779
330
1775
100
AcDbEntity
  8
中線
100
AcDbLine
 10
-109.655669375716
 20
149.593816648649
 30
0.0
 11
-105.530637947316
 21
149.593816648649
 31
0.0
  0
LINE
  5
177A
330
1775
100
AcDbEntity
  8
中線
100
AcDbLine
 10
-106.780637947316
 20
140.093648648649
 30
0.0
 11
-106.780637947316
 21
147.593816648649
 31
0.0
  0
INSERT
  5
177B
330
1775
100
AcDbEntity
  8
中線
100
AcDbBlockReference
  2
_OPEN30
 10
-106.780637947316
 20
138.093648648649
 30
0.0
 41
2.0
 42
2.0
 43
2.0
 50
270.0
  0
INSERT
  5
177C
330
1775
100
AcDbEntity
  8
中線
100
AcDbBlockReference
  2
_OPEN30
 10
-106.780637947316
 20
149.593816648649
 30
0.0
 41
2.0
 42
2.0
 43
2.0
 50
90.0
  0
MTEXT
  5
177D
330
1775
100
AcDbEntity
  8
中線
100
AcDbMText
 10
-108.530637947316
 20
143.843732648649
 30
0.0
 40
2.5
 41
0.0
 71
     5
 72
     1
  1
\A2;23
  7
IDEC_TEXT
 11
0.0
 21
1.0
 31
0.0
  0
POINT
  5
177E
330
1775
100
AcDbEntity
  8
DEFPOINTS
 62
     0
100
AcDbPoint
 10
-126.230697375716
 20
138.093648648649
 30
0.0
  0
POINT
  5
177F
330
1775
100
AcDbEntity
  8
DEFPOINTS
 62
     0
100
AcDbPoint
 10
-110.280669375716
 20
149.593816648649
 30
0.0
  0
POINT
  5
1780
330
1775
100
AcDbEntity
  8
DEFPOINTS
 62
     0
100
AcDbPoint
 10
-106.780637947316
 20
149.593816648649
 30
0.0
  0
ENDBLK
  5
1777
330
1775
100
AcDbEntity
  8
0
100
AcDbBlockEnd
  0
BLOCK
  5
1782
330
1781
100
AcDbEntity
  8
0
100
AcDbBlockBegin
  2
*D7
 70
     1
 10
0.0
 20
0.0
 30
0.0
  3
*D7
  1
*D114
  0
LINE
  5
1784
330
1781
100
AcDbEntity
  8
中線
100
AcDbLine
 10
-125.605697375716
 20
163.093648648649
 30
0.0
 11
-105.530637947316
 21
163.093648648649
 31
0.0
  0
LINE
  5
1785
330
1781
100
AcDbEntity
  8
中線
100
AcDbLine
 10
-109.655669375716
 20
149.593816648649
 30
0.0
 11
-105.530637947316
 21
149.593816648649
 31
0.0
  0
LINE
  5
1786
330
1781
100
AcDbEntity
  8
中線
100
AcDbLine
 10
-106.780637947316
 20
161.093648648649
 30
0.0
 11
-106.780637947316
 21
151.593816648649
 31
0.0
  0
INSERT
  5
1787
330
1781
100
AcDbEntity
  8
中線
100
AcDbBlockReference
  2
_OPEN30
 10
-106.780637947316
 20
163.093648648649
 30
0.0
 41
2.0
 42
2.0
 43
2.0
 50
90.0
  0
INSERT
  5
1788
330
1781
100
AcDbEntity
  8
中線
100
AcDbBlockReference
  2
_OPEN30
 10
-106.780637947316
 20
149.593816648649
 30
0.0
 41
2.0
 42
2.0
 43
2.0
 50
270.0
  0
MTEXT
  5
1789
330
1781
100
AcDbEntity
  8
中線
100
AcDbMText
 10
-108.530637947316
 20
156.343732648649
 30
0.0
 40
2.5
 41
0.0
 71
     5
 72
     1
  1
\A2;27
  7
IDEC_TEXT
 11
0.0
 21
1.0
 31
0.0
  0
POINT
  5
178A
330
1781
100
AcDbEntity
  8
DEFPOINTS
 62
     0
100
AcDbPoint
 10
-126.230697375716
 20
163.093648648649
 30
0.0
  0
POINT
  5
178B
330
1781
100
AcDbEntity
  8
DEFPOINTS
 62
     0
100
AcDbPoint
 10
-110.280669375716
 20
149.593816648649
 30
0.0
  0
POINT
  5
178C
330
1781
100
AcDbEntity
  8
DEFPOINTS
 62
     0
100
AcDbPoint
 10
-106.780637947316
 20
149.593816648649
 30
0.0
  0
ENDBLK
  5
1783
330
1781
100
AcDbEntity
  8
0
100
AcDbBlockEnd
  0
BLOCK
  5
178E
330
178D
100
AcDbEntity
  8
0
100
AcDbBlockBegin
  2
*D8
 70
     1
 10
0.0
 20
0.0
 30
0.0
  3
*D8
  1
*D115
  0
LINE
  5
1790
330
178D
100
AcDbEntity
  8
中線
100
AcDbLine
 10
-115.155669375716
 20
187.093770648649
 30
0.0
 11
-100.530669375716
 21
187.093770648649
 31
0.0
  0
LINE
  5
1791
330
178D
100
AcDbEntity
  8
中線
100
AcDbLine
 10
-115.155669375716
 20
112.093861648649
 30
0.0
 11
-100.530669375716
 21
112.093861648649
 31
0.0
  0
LINE
  5
1792
330
178D
100
AcDbEntity
  8
中線
100
AcDbLine
 10
-101.780669375716
 20
185.093770648649
 30
0.0
 11
-101.780669375716
 21
114.093861648649
 31
0.0
  0
INSERT
  5
1793
330
178D
100
AcDbEntity
  8
中線
100
AcDbBlockReference
  2
_OPEN30
 10
-101.780669375716
 20
187.093770648649
 30
0.0
 41
2.0
 42
2.0
 43
2.0
 50
90.0
  0
INSERT
  5
1794
330
178D
100
AcDbEntity
  8
中線
100
AcDbBlockReference
  2
_OPEN30
 10
-101.780669375716
 20
112.093861648649
 30
0.0
 41
2.0
 42
2.0
 43
2.0
 50
270.0
  0
MTEXT
  5
1795
330
178D
100
AcDbEntity
  8
中線
100
AcDbMText
 10
-103.530669375716
 20
149.593816148649
 30
0.0
 40
2.5
 41
0.0
 71
     5
 72
     1
  1
\A2;150
  7
IDEC_TEXT
 11
0.0
 21
1.0
 31
0.0
  0
POINT
  5
1796
330
178D
100
AcDbEntity
  8
DEFPOINTS
 62
     0
100
AcDbPoint
 10
-115.780669375716
 20
187.093770648649
 30
0.0
  0
POINT
  5
1797
330
178D
100
AcDbEntity
  8
DEFPOINTS
 62
     0
100
AcDbPoint
 10
-115.780669375716
 20
112.093861648649
 30
0.0
  0
POINT
  5
1798
330
178D
100
AcDbEntity
  8
DEFPOINTS
 62
     0
100
AcDbPoint
 10
-101.780669375716
 20
112.093861648649
 30
0.0
  0
ENDBLK
  5
178F
330
178D
100
AcDbEntity
  8
0
100
AcDbBlockEnd
  0
BLOCK
  5
179A
330
1799
100
AcDbEntity
  8
0
100
AcDbBlockBegin
  2
*D9
 70
     1
 10
0.0
 20
0.0
 30
0.0
  3
*D9
  1
*D116
  0
LINE
  5
179C
330
1799
100
AcDbEntity
  8
中線
100
AcDbLine
 10
-125.405669375716
 20
96.843770648649
 30
0.0
 11
-100.530669375716
 21
96.843770648649
 31
0.0
  0
LINE
  5
179D
330
1799
100
AcDbEntity
  8
中線
100
AcDbLine
 10
-115.155685375716
 20
112.093861648649
 30
0.0
 11
-100.530669375716
 21
112.093861648649
 31
0.0
  0
LINE
  5
179E
330
1799
100
AcDbEntity
  8
中線
100
AcDbLine
 10
-101.780669375716
 20
98.843770648649
 30
0.0
 11
-101.780669375716
 21
110.093861648649
 31
0.0
  0
INSERT
  5
179F
330
1799
100
AcDbEntity
  8
中線
100
AcDbBlockReference
  2
_OPEN30
 10
-101.780669375716
 20
96.843770648649
 30
0.0
 41
2.0
 42
2.0
 43
2.0
 50
270.0
  0
INSERT
  5
17A0
330
1799
100
AcDbEntity
  8
中線
100
AcDbBlockReference
  2
_OPEN30
 10
-101.780669375716
 20
112.093861648649
 30
0.0
 41
2.0
 42
2.0
 43
2.0
 50
90.0
  0
MTEXT
  5
17A1
330
1799
100
AcDbEntity
  8
中線
100
AcDbMText
 10
-103.530669375716
 20
104.468816148649
 30
0.0
 40
2.5
 41
0.0
 71
     5
 72
     1
  1
\A2;30
  7
IDEC_TEXT
 11
0.0
 21
1.0
 31
0.0
  0
POINT
  5
17A2
330
1799
100
AcDbEntity
  8
DEFPOINTS
 62
     0
100
AcDbPoint
 10
-126.030669375716
 20
96.843770648649
 30
0.0
  0
POINT
  5
17A3
330
1799
100
AcDbEntity
  8
DEFPOINTS
 62
     0
100
AcDbPoint
 10
-115.780685375716
 20
112.093861648649
 30
0.0
  0
POINT
  5
17A4
330
1799
100
AcDbEntity
  8
DEFPOINTS
 62
     0
100
AcDbPoint
 10
-101.780669375716
 20
112.093861648649
 30
0.0
  0
ENDBLK
  5
179B
330
1799
100
AcDbEntity
  8
0
100
AcDbBlockEnd
  0
BLOCK
  5
17A6
330
17A5
100
AcDbEntity
  8
0
100
AcDbBlockBegin
  2
*D10
 70
     1
 10
0.0
 20
0.0
 30
0.0
  3
*D10
  1
*D117
  0
LINE
  5
17A8
330
17A5
100
AcDbEntity
  8
中線
100
AcDbLine
 10
-39.927657077957
 20
117.968770648649
 30
0.0
 11
-39.927657077957
 21
89.593770648649
 31
0.0
  0
LINE
  5
17A9
330
17A5
100
AcDbEntity
  8
中線
100
AcDbLine
 10
-54.927779077957
 20
93.501415835449
 30
0.0
 11
-54.927779077957
 21
89.593770648649
 31
0.0
  0
LINE
  5
17AA
330
17A5
100
AcDbEntity
  8
中線
100
AcDbLine
 10
-41.927657077957
 20
90.843770648649
 30
0.0
 11
-52.927779077957
 21
90.843770648649
 31
0.0
  0
INSERT
  5
17AB
330
17A5
100
AcDbEntity
  8
中線
100
AcDbBlockReference
  2
_OPEN30
 10
-39.927657077957
 20
90.843770648649
 30
0.0
 41
2.0
 42
2.0
 43
2.0
  0
INSERT
  5
17AC
330
17A5
100
AcDbEntity
  8
中線
100
AcDbBlockReference
  2
_OPEN30
 10
-54.927779077957
 20
90.843770648649
 30
0.0
 41
2.0
 42
2.0
 43
2.0
 50
180.0
  0
MTEXT
  5
17AD
330
17A5
100
AcDbEntity
  8
中線
100
AcDbMText
 10
-47.427718077957
 20
92.593770648649
 30
0.0
 40
2.5
 41
0.0
 71
     5
 72
     1
  1
\A2;30
  7
IDEC_TEXT
  0
POINT
  5
17AE
330
17A5
100
AcDbEntity
  8
DEFPOINTS
 62
     0
100
AcDbPoint
 10
-39.927657077957
 20
118.593770648649
 30
0.0
  0
POINT
  5
17AF
330
17A5
100
AcDbEntity
  8
DEFPOINTS
 62
     0
100
AcDbPoint
 10
-54.927779077957
 20
94.126415835449
 30
0.0
  0
POINT
  5
17B0
330
17A5
100
AcDbEntity
  8
DEFPOINTS
 62
     0
100
AcDbPoint
 10
-54.927779077957
 20
90.843770648649
 30
0.0
  0
ENDBLK
  5
17A7
330
17A5
100
AcDbEntity
  8
0
100
AcDbBlockEnd
  0
BLOCK
  5
17B2
330
17B1
100
AcDbEntity
  8
0
100
AcDbBlockBegin
  2
*D11
 70
     1
 10
0.0
 20
0.0
 30
0.0
  3
*D11
  1
*D118
  0
LINE
  5
17B4
330
17B1
100
AcDbEntity
  8
中線
100
AcDbLine
 10
-36.425338077957
 20
178.093770648649
 30
0.0
 11
-30.197229146505
 21
178.093770648649
 31
0.0
  0
LINE
  5
17B5
330
17B1
100
AcDbEntity
  8
中線
100
AcDbLine
 10
-36.425338077957
 20
121.093862148649
 30
0.0
 11
-30.197229146505
 21
121.093862148649
 31
0.0
  0
LINE
  5
17B6
330
17B1
100
AcDbEntity
  8
中線
100
AcDbLine
 10
-31.447229146505
 20
176.093770648649
 30
0.0
 11
-31.447229146505
 21
123.093862148649
 31
0.0
  0
INSERT
  5
17B7
330
17B1
100
AcDbEntity
  8
中線
100
AcDbBlockReference
  2
_OPEN30
 10
-31.447229146505
 20
178.093770648649
 30
0.0
 41
2.0
 42
2.0
 43
2.0
 50
90.0
  0
INSERT
  5
17B8
330
17B1
100
AcDbEntity
  8
中線
100
AcDbBlockReference
  2
_OPEN30
 10
-31.447229146505
 20
121.093862148649
 30
0.0
 41
2.0
 42
2.0
 43
2.0
 50
270.0
  0
MTEXT
  5
17B9
330
17B1
100
AcDbEntity
  8
中線
100
AcDbMText
 10
-33.197229146505
 20
148.377888922545
 30
0.0
 40
2.5
 41
0.0
 71
     5
 72
     1
  1
\A2;114（取付穴ピッチ）
  7
IDEC_TEXT
 11
6.232841020789538E-17
 21
1.0
 31
0.0
  0
POINT
  5
17BA
330
17B1
100
AcDbEntity
  8
DEFPOINTS
 62
     0
100
AcDbPoint
 10
-37.050338077957
 20
178.093770648649
 30
0.0
  0
POINT
  5
17BB
330
17B1
100
AcDbEntity
  8
DEFPOINTS
 62
     0
100
AcDbPoint
 10
-37.050338077957
 20
121.093862148649
 30
0.0
  0
POINT
  5
17BC
330
17B1
100
AcDbEntity
  8
DEFPOINTS
 62
     0
100
AcDbPoint
 10
-31.447229146505
 20
121.093862148649
 30
0.0
  0
ENDBLK
  5
17B3
330
17B1
100
AcDbEntity
  8
0
100
AcDbBlockEnd
  0
BLOCK
  5
17D9
330
17D8
100
AcDbEntity
  8
0
100
AcDbBlockBegin
  2
*D12
 70
     1
 10
0.0
 20
0.0
 30
0.0
  3
*D12
  1
*D121
  0
LINE
  5
17DB
330
17D8
100
AcDbEntity
  8
中線
100
AcDbLine
 10
-80.677657077957
 20
184.073384648649
 30
0.0
 11
-80.677657077957
 21
195.210644742923
 31
0.0
  0
LINE
  5
17DC
330
17D8
100
AcDbEntity
  8
中線
100
AcDbLine
 10
-39.927657077957
 20
181.218770648649
 30
0.0
 11
-39.927657077957
 21
195.210644742923
 31
0.0
  0
LINE
  5
17DD
330
17D8
100
AcDbEntity
  8
中線
100
AcDbLine
 10
-78.677657077957
 20
193.960644742923
 30
0.0
 11
-41.927657077957
 21
193.960644742923
 31
0.0
  0
INSERT
  5
17DE
330
17D8
100
AcDbEntity
  8
中線
100
AcDbBlockReference
  2
_OPEN30
 10
-80.677657077957
 20
193.960644742923
 30
0.0
 41
2.0
 42
2.0
 43
2.0
 50
180.0
  0
INSERT
  5
17DF
330
17D8
100
AcDbEntity
  8
中線
100
AcDbBlockReference
  2
_OPEN30
 10
-39.927657077957
 20
193.960644742923
 30
0.0
 41
2.0
 42
2.0
 43
2.0
  0
MTEXT
  5
17E0
330
17D8
100
AcDbEntity
  8
中線
100
AcDbMText
 10
-62.894767668938
 20
195.710644742923
 30
0.0
 40
2.5
 41
0.0
 71
     5
 72
     1
  1
\A2;82
  7
IDEC_TEXT
  0
POINT
  5
17E1
330
17D8
100
AcDbEntity
  8
DEFPOINTS
 62
     0
100
AcDbPoint
 10
-80.677657077957
 20
183.448384648649
 30
0.0
  0
POINT
  5
17E2
330
17D8
100
AcDbEntity
  8
DEFPOINTS
 62
     0
100
AcDbPoint
 10
-39.927657077957
 20
180.593770648649
 30
0.0
  0
POINT
  5
17E3
330
17D8
100
AcDbEntity
  8
DEFPOINTS
 62
     0
100
AcDbPoint
 10
-39.927657077957
 20
193.960644742923
 30
0.0
  0
ENDBLK
  5
17DA
330
17D8
100
AcDbEntity
  8
0
100
AcDbBlockEnd
  0
BLOCK
  5
17F5
330
17F4
100
AcDbEntity
  8
0
100
AcDbBlockBegin
  2
*D13
 70
     1
 10
0.0
 20
0.0
 30
0.0
  3
*D13
  1
*D122
  0
LINE
  5
17F7
330
17F4
100
AcDbEntity
  8
IDEC_DIM
100
AcDbLine
 10
-217.439766966263
 20
98.278908172957
 30
0.0
 11
-199.938679821935
 21
98.278908172957
 31
0.0
  0
LINE
  5
17F8
330
17F4
100
AcDbEntity
  8
IDEC_DIM
100
AcDbLine
 10
-217.439754966263
 20
91.278908172957
 30
0.0
 11
-199.938679821935
 21
91.278908172957
 31
0.0
  0
LINE
  5
17F9
330
17F4
100
AcDbEntity
  8
IDEC_DIM
100
AcDbLine
 10
-201.188679821935
 20
91.278908172957
 30
0.0
 11
-201.188679821935
 21
73.921765315814
 31
0.0
  0
LINE
  5
17FA
330
17F4
100
AcDbEntity
  8
IDEC_DIM
100
AcDbLine
 10
-201.188679821935
 20
96.278908172957
 30
0.0
 11
-201.188679821935
 21
93.278908172957
 31
0.0
  0
INSERT
  5
17FB
330
17F4
100
AcDbEntity
  8
IDEC_DIM
100
AcDbBlockReference
  2
_OPEN30
 10
-201.188679821935
 20
98.278908172957
 30
0.0
 41
2.0
 42
2.0
 43
2.0
 50
90.0
  0
INSERT
  5
17FC
330
17F4
100
AcDbEntity
  8
IDEC_DIM
100
AcDbBlockReference
  2
_OPEN30
 10
-201.188679821935
 20
91.278908172957
 30
0.0
 41
2.0
 42
2.0
 43
2.0
 50
270.0
  0
MTEXT
  5
17FD
330
17F4
100
AcDbEntity
  8
IDEC_DIM
100
AcDbMText
 10
-202.938679821935
 20
77.040812934862
 30
0.0
 40
2.5
 41
0.0
 71
     5
 72
     1
  1
\A2;7.0
  7
IDEC_TEXT
 11
0.0
 21
1.0
 31
0.0
  0
POINT
  5
17FE
330
17F4
100
AcDbEntity
  8
DEFPOINTS
 62
     0
100
AcDbPoint
 10
-218.064766966263
 20
98.278908172957
 30
0.0
  0
POINT
  5
17FF
330
17F4
100
AcDbEntity
  8
DEFPOINTS
 62
     0
100
AcDbPoint
 10
-218.064754966263
 20
91.278908172957
 30
0.0
  0
POINT
  5
1800
330
17F4
100
AcDbEntity
  8
DEFPOINTS
 62
     0
100
AcDbPoint
 10
-201.188679821935
 20
91.278908172957
 30
0.0
  0
ENDBLK
  5
17F6
330
17F4
100
AcDbEntity
  8
0
100
AcDbBlockEnd
  0
BLOCK
  5
1806
330
1805
100
AcDbEntity
  8
0
100
AcDbBlockBegin
  2
*D14
 70
     1
 10
0.0
 20
0.0
 30
0.0
  3
*D14
  1
*D123
  0
LINE
  5
1808
330
1805
100
AcDbEntity
  8
IDEC_DIM
100
AcDbLine
 10
-266.064750966127
 20
94.153830458773
 30
0.0
 11
-266.064750966127
 21
57.949625074721
 31
0.0
  0
LINE
  5
1809
330
1805
100
AcDbEntity
  8
IDEC_DIM
100
AcDbLine
 10
-218.064754966263
 20
90.653908172957
 30
0.0
 11
-218.064754966263
 21
57.949625074721
 31
0.0
  0
LINE
  5
180A
330
1805
100
AcDbEntity
  8
IDEC_DIM
100
AcDbLine
 10
-264.064750966127
 20
59.199625074721
 30
0.0
 11
-220.064754966263
 21
59.199625074721
 31
0.0
  0
INSERT
  5
180B
330
1805
100
AcDbEntity
  8
IDEC_DIM
100
AcDbBlockReference
  2
_OPEN30
 10
-266.064750966127
 20
59.199625074721
 30
0.0
 41
2.0
 42
2.0
 43
2.0
 50
180.0
  0
INSERT
  5
180C
330
1805
100
AcDbEntity
  8
IDEC_DIM
100
AcDbBlockReference
  2
_OPEN30
 10
-218.064754966263
 20
59.199625074721
 30
0.0
 41
2.0
 42
2.0
 43
2.0
  0
MTEXT
  5
180D
330
1805
100
AcDbEntity
  8
IDEC_DIM
100
AcDbMText
 10
-244.355932546253
 20
60.949625074721
 30
0.0
 40
2.5
 41
0.0
 71
     5
 72
     1
  1
\A2;48
  7
IDEC_TEXT
  0
POINT
  5
180E
330
1805
100
AcDbEntity
  8
DEFPOINTS
 62
     0
100
AcDbPoint
 10
-266.064750966127
 20
94.778830458773
 30
0.0
  0
POINT
  5
180F
330
1805
100
AcDbEntity
  8
DEFPOINTS
 62
     0
100
AcDbPoint
 10
-218.064754966263
 20
91.278908172957
 30
0.0
  0
POINT
  5
1810
330
1805
100
AcDbEntity
  8
DEFPOINTS
 62
     0
100
AcDbPoint
 10
-218.064754966263
 20
59.199625074721
 30
0.0
  0
ENDBLK
  5
1807
330
1805
100
AcDbEntity
  8
0
100
AcDbBlockEnd
  0
BLOCK
  5
1816
330
1815
100
AcDbEntity
  8
0
100
AcDbBlockBegin
  2
*D15
 70
     1
 10
0.0
 20
0.0
 30
0.0
  3
*D15
  1
*D124
  0
LINE
  5
1818
330
1815
100
AcDbEntity
  8
中線
100
AcDbLine
 10
-224.88631639653
 20
109.794189584069
 30
0.0
 11
-207.334432094813
 21
123.680815773955
 31
0.0
  0
LINE
  5
1819
330
1815
100
AcDbEntity
  8
中線
100
AcDbLine
 10
-262.843193535995
 20
79.763626761844
 30
0.0
 11
-264.411659792744
 21
78.522694208705
 31
0.0
  0
MTEXT
  5
181A
330
1815
100
AcDbEntity
  8
中線
100
AcDbMText
 10
-212.73353028487
 20
121.640659227479
 30
0.0
 40
2.5
 41
0.0
 71
     5
 72
     1
  1
\A2;%%c44.4
  7
IDEC_TEXT
 11
0.7842331283745823
 21
0.6204662765693362
 31
0.0
  0
LINE
  5
181B
330
1815
100
AcDbEntity
  8
中線
100
AcDbLine
 10
-261.274727279246
 20
81.004559314982
 30
0.0
 11
-226.454782653279
 21
108.553257030931
 31
0.0
  0
INSERT
  5
181C
330
1815
100
AcDbEntity
  8
中線
100
AcDbBlockReference
  2
_OPEN30
 10
-261.274727279246
 20
81.004559314982
 30
0.0
 41
2.0
 42
2.0
 43
2.0
 50
38.350192459081
  0
INSERT
  5
181D
330
1815
100
AcDbEntity
  8
中線
100
AcDbBlockReference
  2
_OPEN30
 10
-226.454782653279
 20
108.553257030931
 30
0.0
 41
2.0
 42
2.0
 43
2.0
 50
218.350192459081
  0
POINT
  5
181E
330
1815
100
AcDbEntity
  8
DEFPOINTS
 62
     0
100
AcDbPoint
 10
-226.454782653279
 20
108.553257030931
 30
0.0
  0
POINT
  5
181F
330
1815
100
AcDbEntity
  8
DEFPOINTS
 62
     0
100
AcDbPoint
 10
-261.274727279246
 20
81.004559314982
 30
0.0
  0
ENDBLK
  5
1817
330
1815
100
AcDbEntity
  8
0
100
AcDbBlockEnd
  0
BLOCK
  5
185E
330
184E
100
AcDbEntity
  8
0
100
AcDbBlockBegin
  2
_OPEN
 70
     0
 10
0.0
 20
0.0
 30
0.0
  3
_OPEN
  1
_OPEN
  0
LINE
  5
1850
330
184E
100
AcDbEntity
  8
0
  6
BYBLOCK
 62
     0
100
AcDbLine
 10
0.0
 20
0.0
 30
0.0
 11
-1.0
 21
-0.166666666667
 31
0.0
  0
LINE
  5
1851
330
184E
100
AcDbEntity
  8
0
  6
BYBLOCK
 62
     0
100
AcDbLine
 10
-1.0
 20
0.166666666667
 30
0.0
 11
0.0
 21
0.0
 31
0.0
  0
LINE
  5
1852
330
184E
100
AcDbEntity
  8
0
  6
BYBLOCK
 62
     0
100
AcDbLine
 10
0.0
 20
0.0
 30
0.0
 11
-1.0
 21
0.0
 31
0.0
  0
ENDBLK
  5
185F
330
184E
100
AcDbEntity
  8
0
100
AcDbBlockEnd
  0
BLOCK
  5
19C4
330
19C3
100
AcDbEntity
  8
0
100
AcDbBlockBegin
  2
*D17
 70
     1
 10
0.0
 20
0.0
 30
0.0
  3
*D17
  1
*D127
  0
LINE
  5
19C6
330
19C3
100
AcDbEntity
  8
IDEC_DIM
100
AcDbLine
 10
-134.905669375716
 20
163.093637148699
 30
0.0
 11
-181.742032874827
 21
163.093637148699
 31
0.0
  0
LINE
  5
19C7
330
19C3
100
AcDbEntity
  8
IDEC_DIM
100
AcDbLine
 10
-134.905669375716
 20
138.093637148699
 30
0.0
 11
-181.742032874827
 21
138.093637148699
 31
0.0
  0
LINE
  5
19C8
330
19C3
100
AcDbEntity
  8
IDEC_DIM
100
AcDbLine
 10
-180.492032874827
 20
161.093637148699
 30
0.0
 11
-180.492032874827
 21
140.093637148699
 31
0.0
  0
INSERT
  5
19C9
330
19C3
100
AcDbEntity
  8
IDEC_DIM
100
AcDbBlockReference
  2
_OPEN30
 10
-180.492032874827
 20
163.093637148699
 30
0.0
 41
2.0
 42
2.0
 43
2.0
 50
90.0
  0
INSERT
  5
19CA
330
19C3
100
AcDbEntity
  8
IDEC_DIM
100
AcDbBlockReference
  2
_OPEN30
 10
-180.492032874827
 20
138.093637148699
 30
0.0
 41
2.0
 42
2.0
 43
2.0
 50
270.0
  0
MTEXT
  5
19CB
330
19C3
100
AcDbEntity
  8
IDEC_DIM
100
AcDbMText
 10
-182.242032874827
 20
150.593637148699
 30
0.0
 40
2.5
 41
0.0
 71
     5
 72
     1
  1
\A2;25.0
  7
IDEC_TEXT
 11
0.0
 21
1.0
 31
0.0
  0
POINT
  5
19CC
330
19C3
100
AcDbEntity
  8
DEFPOINTS
 62
     0
100
AcDbPoint
 10
-134.280669375716
 20
163.093637148699
 30
0.0
  0
POINT
  5
19CD
330
19C3
100
AcDbEntity
  8
DEFPOINTS
 62
     0
100
AcDbPoint
 10
-134.280669375716
 20
138.093637148699
 30
0.0
  0
POINT
  5
19CE
330
19C3
100
AcDbEntity
  8
DEFPOINTS
 62
     0
100
AcDbPoint
 10
-180.492032874827
 20
138.093637148699
 30
0.0
  0
ENDBLK
  5
19C5
330
19C3
100
AcDbEntity
  8
0
100
AcDbBlockEnd
  0
BLOCK
  5
19D4
330
19D3
100
AcDbEntity
  8
0
100
AcDbBlockBegin
  2
*D18
 70
     1
 10
0.0
 20
0.0
 30
0.0
  3
*D18
  1
*D128
  0
LINE
  5
19D6
330
19D3
100
AcDbEntity
  8
IDEC_DIM
100
AcDbLine
 10
-133.655669375716
 20
163.093637148699
 30
0.0
 11
-90.625527802912
 21
163.093637148699
 31
0.0
  0
LINE
  5
19D7
330
19D3
100
AcDbEntity
  8
IDEC_DIM
100
AcDbLine
 10
-133.655669375716
 20
138.093637148699
 30
0.0
 11
-90.625527802912
 21
138.093637148699
 31
0.0
  0
LINE
  5
19D8
330
19D3
100
AcDbEntity
  8
IDEC_DIM
100
AcDbLine
 10
-91.875527802912
 20
161.093637148699
 30
0.0
 11
-91.875527802912
 21
140.093637148699
 31
0.0
  0
INSERT
  5
19D9
330
19D3
100
AcDbEntity
  8
IDEC_DIM
100
AcDbBlockReference
  2
_OPEN30
 10
-91.875527802912
 20
163.093637148699
 30
0.0
 41
2.0
 42
2.0
 43
2.0
 50
90.0
  0
INSERT
  5
19DA
330
19D3
100
AcDbEntity
  8
IDEC_DIM
100
AcDbBlockReference
  2
_OPEN30
 10
-91.875527802912
 20
138.093637148699
 30
0.0
 41
2.0
 42
2.0
 43
2.0
 50
270.0
  0
MTEXT
  5
19DB
330
19D3
100
AcDbEntity
  8
IDEC_DIM
100
AcDbMText
 10
-93.625527802912
 20
150.593637148699
 30
0.0
 40
2.5
 41
0.0
 71
     5
 72
     1
  1
\A2;25.0
  7
IDEC_TEXT
 11
0.0
 21
1.0
 31
0.0
  0
POINT
  5
19DC
330
19D3
100
AcDbEntity
  8
DEFPOINTS
 62
     0
100
AcDbPoint
 10
-134.280669375716
 20
163.093637148699
 30
0.0
  0
POINT
  5
19DD
330
19D3
100
AcDbEntity
  8
DEFPOINTS
 62
     0
100
AcDbPoint
 10
-134.280669375716
 20
138.093637148699
 30
0.0
  0
POINT
  5
19DE
330
19D3
100
AcDbEntity
  8
DEFPOINTS
 62
     0
100
AcDbPoint
 10
-91.875527802912
 20
138.093637148699
 30
0.0
  0
ENDBLK
  5
19D5
330
19D3
100
AcDbEntity
  8
0
100
AcDbBlockEnd
  0
ENDSEC
  0
SECTION
  2
ENTITIES
  0
LINE
  5
DE2
330
1F
100
AcDbEntity
  8
中線
 62
     3
100
AcDbLine
 10
-116.658730370745
 20
312.14086141907
 30
0.0
 11
-116.658730370745
 21
210.140861419071
 31
0.0
1001
DENKISCLORG
1040
0.0
  0
LINE
  5
DE3
330
1F
100
AcDbEntity
  8
中線
 62
     3
100
AcDbLine
 10
-118.658730370745
 20
314.140861419071
 30
0.0
 11
-118.658730370745
 21
208.140861419071
 31
0.0
1001
DENKISCLORG
1040
0.0
  0
LINE
  5
DE4
330
1F
100
AcDbEntity
  8
中線
 62
     3
100
AcDbLine
 10
-121.658730370745
 20
336.140861419071
 30
0.0
 11
-121.658730370745
 21
186.140861419071
 31
0.0
1001
DENKISCLORG
1040
0.0
  0
LINE
  5
DE5
330
1F
100
AcDbEntity
  8
中線
 62
     3
100
AcDbLine
 10
-127.658730370745
 20
187.141257419071
 30
0.0
 11
-127.658730370745
 21
335.140373419071
 31
0.0
1001
DENKISCLORG
1040
0.0
  0
LINE
  5
DE6
330
1F
100
AcDbEntity
  8
中線
 62
     3
100
AcDbLine
 10
-136.658730370745
 20
328.850089419071
 30
0.0
 11
-136.658730370745
 21
193.431541419071
 31
0.0
1001
DENKISCLORG
1040
0.0
  0
LINE
  5
DE7
330
1F
100
AcDbEntity
  8
中線
 62
     3
100
AcDbLine
 10
-121.658730370745
 20
186.140861419071
 30
0.0
 11
-121.658730370745
 21
336.140861419071
 31
0.0
1001
DENKISCLORG
1040
0.0
  0
LINE
  5
DE8
330
1F
100
AcDbEntity
  8
中線
 62
     3
100
AcDbLine
 10
-56.158730370745
 20
190.232231419071
 30
0.0
 11
-56.158730370745
 21
332.049309419071
 31
0.0
1001
DENKISCLORG
1040
0.0
  0
LINE
  5
DE9
330
1F
100
AcDbEntity
  8
CENTER
100
AcDbLine
 10
-243.864754966263
 20
144.008200051302
 30
0.0
 11
-243.864754966263
 21
340.452385419071
 31
0.0
1001
DENKISCLORG
1040
0.0
  0
LINE
  5
DEA
330
1F
100
AcDbEntity
  8
中線
 62
     3
100
AcDbLine
 10
-281.364786966263
 20
203.366141419071
 30
0.0
 11
-281.364786966263
 21
318.91576341907
 31
0.0
1001
DENKISCLORG
1040
0.0
  0
LINE
  5
DEB
330
1F
100
AcDbEntity
  8
中線
 62
     3
100
AcDbLine
 10
-282.364786966263
 20
203.366141419071
 30
0.0
 11
-282.364786966263
 21
318.91576341907
 31
0.0
1001
DENKISCLORG
1040
0.0
  0
LINE
  5
DEC
330
1F
100
AcDbEntity
  8
中線
 62
     3
100
AcDbLine
 10
-286.864754966263
 20
192.141533419071
 30
0.0
 11
-286.864754966263
 21
330.140373419071
 31
0.0
1001
DENKISCLORG
1040
0.0
  0
LINE
  5
DED
330
1F
100
AcDbEntity
  8
中線
 62
     3
100
AcDbLine
 10
-206.364754966263
 20
203.366141419071
 30
0.0
 11
-206.364754966263
 21
318.91576341907
 31
0.0
1001
DENKISCLORG
1040
0.0
  0
LINE
  5
DEE
330
1F
100
AcDbEntity
  8
中線
 62
     3
100
AcDbLine
 10
-205.364754966263
 20
203.366141419071
 30
0.0
 11
-205.364754966263
 21
318.91576341907
 31
0.0
1001
DENKISCLORG
1040
0.0
  0
LINE
  5
DEF
330
1F
100
AcDbEntity
  8
中線
 62
     3
100
AcDbLine
 10
-200.864754966263
 20
192.141533419071
 30
0.0
 11
-200.864754966263
 21
330.140373419071
 31
0.0
1001
DENKISCLORG
1040
0.0
  0
LINE
  5
DF0
330
1F
100
AcDbEntity
  8
中線
100
AcDbLine
 10
-203.864820966263
 20
198.140863419071
 30
0.0
 11
-194.864790966263
 21
198.140831419071
 31
0.0
1001
DENKISCLORG
1040
0.0
  0
LINE
  5
DF2
330
1F
100
AcDbEntity
  8
中線
 62
     3
100
AcDbLine
 10
-233.364754966263
 20
166.640861419071
 30
0.0
 11
-233.364754966263
 21
179.640831419071
 31
0.0
1001
DENKISCLORG
1040
0.0
  0
LINE
  5
DF3
330
1F
100
AcDbEntity
  8
中線
 62
     3
100
AcDbLine
 10
-237.364754966263
 20
166.640861419071
 30
0.0
 11
-237.364754966263
 21
179.640831419071
 31
0.0
1001
DENKISCLORG
1040
0.0
  0
LINE
  5
DF4
330
1F
100
AcDbEntity
  8
中線
 62
     3
100
AcDbLine
 10
-226.364754966263
 20
156.640861419071
 30
0.0
 11
-226.364754966263
 21
186.140861419071
 31
0.0
1001
DENKISCLORG
1040
0.0
  0
LINE
  5
DF5
330
1F
100
AcDbEntity
  8
中線
 62
     3
100
AcDbLine
 10
-254.364754966263
 20
166.640861419071
 30
0.0
 11
-254.364754966263
 21
179.640831419071
 31
0.0
1001
DENKISCLORG
1040
0.0
  0
LINE
  5
DF6
330
1F
100
AcDbEntity
  8
中線
 62
     3
100
AcDbLine
 10
-250.364754966263
 20
166.640861419071
 30
0.0
 11
-250.364754966263
 21
179.640861419071
 31
0.0
1001
DENKISCLORG
1040
0.0
  0
LINE
  5
DF7
330
1F
100
AcDbEntity
  8
中線
 62
     3
100
AcDbLine
 10
-261.364754966263
 20
186.140861419071
 30
0.0
 11
-261.364754966263
 21
156.640861419071
 31
0.0
1001
DENKISCLORG
1040
0.0
  0
LINE
  5
DF8
330
1F
100
AcDbEntity
  8
中線
 62
     3
100
AcDbLine
 10
-233.364754966263
 20
166.640861419071
 30
0.0
 11
-237.364754966263
 21
166.640861419071
 31
0.0
1001
DENKISCLORG
1040
0.0
  0
LINE
  5
DF9
330
1F
100
AcDbEntity
  8
中線
 62
     3
100
AcDbLine
 10
-226.364754966263
 20
165.640861419071
 30
0.0
 11
-241.864786966263
 21
165.640831419071
 31
0.0
1001
DENKISCLORG
1040
0.0
  0
LINE
  5
DFA
330
1F
100
AcDbEntity
  8
中線
 62
     3
100
AcDbLine
 10
-261.364754966263
 20
156.640861419071
 30
0.0
 11
-226.364754966263
 21
156.640861419071
 31
0.0
1001
DENKISCLORG
1040
0.0
  0
LINE
  5
DFB
330
1F
100
AcDbEntity
  8
中線
 62
     3
100
AcDbLine
 10
-260.364754966263
 20
155.640861419071
 30
0.0
 11
-227.364754966263
 21
155.640861419071
 31
0.0
1001
DENKISCLORG
1040
0.0
  0
LINE
  5
DFC
330
1F
100
AcDbEntity
  8
中線
 62
     3
100
AcDbLine
 10
-254.364754966263
 20
166.640861419071
 30
0.0
 11
-250.364754966263
 21
166.640861419071
 31
0.0
1001
DENKISCLORG
1040
0.0
  0
LINE
  5
DFD
330
1F
100
AcDbEntity
  8
中線
 62
     3
100
AcDbLine
 10
-261.364754966263
 20
165.640861419071
 30
0.0
 11
-245.864754966263
 21
165.640861419071
 31
0.0
1001
DENKISCLORG
1040
0.0
  0
LINE
  5
DFE
330
1F
100
AcDbEntity
  8
中線
 62
     3
100
AcDbLine
 10
-261.364754966263
 20
156.640861419071
 30
0.0
 11
-260.364754966263
 21
155.640861419071
 31
0.0
1001
DENKISCLORG
1040
0.0
  0
ARC
  5
DFF
330
1F
100
AcDbEntity
  8
中線
 62
     3
100
AcDbCircle
 10
-257.364754966263
 20
170.640861419071
 30
0.0
 40
5.0
100
AcDbArc
 50
270.0
 51
306.869871
1001
DENKISCLORG
1040
0.0
  0
ARC
  5
E00
330
1F
100
AcDbEntity
  8
中線
 62
     3
100
AcDbCircle
 10
-247.364754966263
 20
170.640861419071
 30
0.0
 40
5.0
100
AcDbArc
 50
233.129997
 51
270.0
1001
DENKISCLORG
1040
0.0
  0
ARC
  5
E01
330
1F
100
AcDbEntity
  8
中線
 62
     3
100
AcDbCircle
 10
-240.364754966263
 20
170.640861419071
 30
0.0
 40
5.0
100
AcDbArc
 50
270.0
 51
306.869723
1001
DENKISCLORG
1040
0.0
  0
LINE
  5
E02
330
1F
100
AcDbEntity
  8
中線
 62
     3
100
AcDbLine
 10
-227.364754966263
 20
155.640861419071
 30
0.0
 11
-226.364754966263
 21
156.640861419071
 31
0.0
1001
DENKISCLORG
1040
0.0
  0
ARC
  5
E03
330
1F
100
AcDbEntity
  8
中線
 62
     3
100
AcDbCircle
 10
-230.364754966263
 20
170.640861419071
 30
0.0
 40
5.0
100
AcDbArc
 50
233.129989
 51
270.0
1001
DENKISCLORG
1040
0.0
  0
ARC
  5
E04
330
1F
100
AcDbEntity
  8
中線
 62
     3
100
AcDbCircle
 10
-280.864754966263
 20
192.141043419071
 30
0.0
 40
8.5
100
AcDbArc
 50
12.556363
 51
77.444161
1001
DENKISCLORG
1040
0.0
  0
ARC
  5
E05
330
1F
100
AcDbEntity
  8
中線
 62
     3
100
AcDbCircle
 10
-269.639780966263
 20
194.641043419071
 30
0.0
 40
4.0
100
AcDbArc
 50
192.553226
 51
270.0
1001
DENKISCLORG
1040
0.0
  0
ARC
  5
E06
330
1F
100
AcDbEntity
  8
中線
 62
     3
100
AcDbCircle
 10
-269.639780966263
 20
194.641043419071
 30
0.0
 40
3.0
100
AcDbArc
 50
192.554411
 51
270.0
1001
DENKISCLORG
1040
0.0
  0
LINE
  5
E07
330
1F
100
AcDbEntity
  8
CENTER
100
AcDbLine
 10
-265.864754966263
 20
204.141349419071
 30
0.0
 11
-281.864754966263
 21
204.140831419071
 31
0.0
1001
DENKISCLORG
1040
0.0
  0
LINE
  5
E08
330
1F
100
AcDbEntity
  8
中線
 62
     3
100
AcDbLine
 10
-206.864786966263
 20
186.141043419071
 30
0.0
 11
-280.864724966263
 21
186.141043419071
 31
0.0
1001
DENKISCLORG
1040
0.0
  0
LINE
  5
E09
330
1F
100
AcDbEntity
  8
中線
100
AcDbLine
 10
-290.464852966263
 20
192.140861419071
 30
0.0
 11
-271.264902966263
 21
192.140861419071
 31
0.0
1001
DENKISCLORG
1040
0.0
  0
ARC
  5
E0A
330
1F
100
AcDbEntity
  8
中線
 62
     3
100
AcDbCircle
 10
-280.864754966263
 20
192.141043419071
 30
0.0
 40
7.5
100
AcDbArc
 50
12.557256
 51
77.444299
1001
DENKISCLORG
1040
0.0
  0
LINE
  5
E0B
330
1F
100
AcDbEntity
  8
CENTER
100
AcDbLine
 10
-273.864786966263
 20
212.141319419071
 30
0.0
 11
-273.864724966263
 21
196.140861419071
 31
0.0
1001
DENKISCLORG
1040
0.0
  0
LINE
  5
E0C
330
1F
100
AcDbEntity
  8
中線
100
AcDbLine
 10
-280.864754966263
 20
182.540855419071
 30
0.0
 11
-280.864754966263
 21
201.740837419071
 31
0.0
1001
DENKISCLORG
1040
0.0
  0
ARC
  5
E0D
330
1F
100
AcDbEntity
  8
中線
 62
     3
100
AcDbCircle
 10
-280.864754966263
 20
192.141287419071
 30
0.0
 40
6.0
100
AcDbArc
 50
179.999854
 51
270.0
1001
DENKISCLORG
1040
0.0
  0
LINE
  5
E0E
330
1F
100
AcDbEntity
  8
中線
 62
     3
100
AcDbLine
 10
-282.208260966263
 20
194.191459419071
 30
0.0
 11
-281.571878966263
 21
193.555045419071
 31
0.0
1001
DENKISCLORG
1040
0.0
  0
LINE
  5
E0F
330
1F
100
AcDbEntity
  8
中線
 62
     3
100
AcDbLine
 10
-283.673502966263
 20
188.624991419071
 30
0.0
 11
-281.571878966263
 21
190.726555419071
 31
0.0
1001
DENKISCLORG
1040
0.0
  0
CIRCLE
  5
E10
330
1F
100
AcDbEntity
  8
中線
 62
     3
100
AcDbCircle
 10
-280.864754966263
 20
192.140861419071
 30
0.0
 40
4.499997999999997
1001
DENKISCLORG
1040
0.0
  0
ARC
  5
E11
330
1F
100
AcDbEntity
  8
中線
 62
     3
100
AcDbCircle
 10
-282.986092966263
 20
192.140861419071
 30
0.0
 40
1.0
100
AcDbArc
 50
315.000618
 51
44.998763999998
1001
DENKISCLORG
1040
0.0
  0
LINE
  5
E12
330
1F
100
AcDbEntity
  8
中線
 62
     3
100
AcDbLine
 10
-284.380562966263
 20
189.332023419071
 30
0.0
 11
-282.278970966263
 21
191.433585419071
 31
0.0
1001
DENKISCLORG
1040
0.0
  0
LINE
  5
E13
330
1F
100
AcDbEntity
  8
中線
 62
     3
100
AcDbLine
 10
-282.915384966263
 20
193.484337419071
 30
0.0
 11
-282.278970966263
 21
192.847953419071
 31
0.0
1001
DENKISCLORG
1040
0.0
  0
LINE
  5
E14
330
1F
100
AcDbEntity
  8
中線
 62
     3
100
AcDbLine
 10
-282.915384966263
 20
193.484337419071
 30
0.0
 11
-282.208260966263
 21
194.191459419071
 31
0.0
1001
DENKISCLORG
1040
0.0
  0
ARC
  5
E15
330
1F
100
AcDbEntity
  8
中線
 62
     3
100
AcDbCircle
 10
-278.743448966263
 20
192.140831419071
 30
0.0
 40
1.0
100
AcDbArc
 50
134.999382000005
 51
224.998764000002
1001
DENKISCLORG
1040
0.0
  0
LINE
  5
E16
330
1F
100
AcDbEntity
  8
中線
 62
     3
100
AcDbLine
 10
-279.521248966263
 20
190.090233419071
 30
0.0
 11
-278.814156966263
 21
190.797325419071
 31
0.0
1001
DENKISCLORG
1040
0.0
  0
LINE
  5
E17
330
1F
100
AcDbEntity
  8
中線
 62
     3
100
AcDbLine
 10
-279.450570966263
 20
191.433737419071
 30
0.0
 11
-278.814156966263
 21
190.797325419071
 31
0.0
1001
DENKISCLORG
1040
0.0
  0
ARC
  5
E18
330
1F
100
AcDbEntity
  8
中線
 62
     3
100
AcDbCircle
 10
-280.864786966263
 20
190.019523419071
 30
0.0
 40
1.0
100
AcDbArc
 50
45.0
 51
134.998145000006
1001
DENKISCLORG
1040
0.0
  0
LINE
  5
E19
330
1F
100
AcDbEntity
  8
中線
 62
     3
100
AcDbLine
 10
-280.157662966263
 20
190.726645419071
 30
0.0
 11
-279.521248966263
 21
190.090233419071
 31
0.0
1001
DENKISCLORG
1040
0.0
  0
LINE
  5
E1A
330
1F
100
AcDbEntity
  8
中線
 62
     3
100
AcDbLine
 10
-279.450570966263
 20
192.847891419071
 30
0.0
 11
-277.348764966263
 21
194.949211419071
 31
0.0
1001
DENKISCLORG
1040
0.0
  0
ARC
  5
E1B
330
1F
100
AcDbEntity
  8
中線
 62
     3
100
AcDbCircle
 10
-280.864754966263
 20
194.262169419071
 30
0.0
 40
1.0
100
AcDbArc
 50
225.0
 51
314.999382
1001
DENKISCLORG
1040
0.0
  0
LINE
  5
E1C
330
1F
100
AcDbEntity
  8
中線
 62
     3
100
AcDbLine
 10
-280.157662966263
 20
193.554923419071
 30
0.0
 11
-278.056222966263
 21
195.656729419071
 31
0.0
1001
DENKISCLORG
1040
0.0
  0
ARC
  5
E1D
330
1F
100
AcDbEntity
  8
中線
 62
     3
100
AcDbCircle
 10
-278.364786966263
 20
203.366141419071
 30
0.0
 40
3.0
100
AcDbArc
 50
179.999709
 51
257.444956999999
1001
DENKISCLORG
1040
0.0
  0
ARC
  5
E1E
330
1F
100
AcDbEntity
  8
中線
 62
     3
100
AcDbCircle
 10
-278.364786966263
 20
203.366141419071
 30
0.0
 40
4.0
100
AcDbArc
 50
179.999781
 51
257.444498
1001
DENKISCLORG
1040
0.0
  0
LINE
  5
E1F
330
1F
100
AcDbEntity
  8
中線
 62
     3
100
AcDbLine
 10
-225.864754966263
 20
215.140861419071
 30
0.0
 11
-261.864754966263
 21
215.140831419071
 31
0.0
1001
DENKISCLORG
1040
0.0
  0
LINE
  5
E20
330
1F
100
AcDbEntity
  8
中線
 62
     3
100
AcDbLine
 10
-218.089730966263
 20
191.641043419071
 30
0.0
 11
-269.639780966263
 21
191.641043419071
 31
0.0
1001
DENKISCLORG
1040
0.0
  0
LINE
  5
E21
330
1F
100
AcDbEntity
  8
中線
 62
     3
100
AcDbLine
 10
-218.089730966263
 20
190.641043419071
 30
0.0
 11
-269.639780966263
 21
190.641043419071
 31
0.0
1001
DENKISCLORG
1040
0.0
  0
LINE
  5
E22
330
1F
100
AcDbEntity
  8
中線
 62
     3
100
AcDbLine
 10
-261.864754966263
 20
203.140861419071
 30
0.0
 11
-225.864754966263
 21
203.140861419071
 31
0.0
1001
DENKISCLORG
1040
0.0
  0
LINE
  5
E23
330
1F
100
AcDbEntity
  8
中線
 62
     3
100
AcDbLine
 10
-226.364786966263
 20
186.140861419071
 30
0.0
 11
-261.364786966263
 21
186.140861419071
 31
0.0
1001
DENKISCLORG
1040
0.0
  0
LINE
  5
E24
330
1F
100
AcDbEntity
  8
中線
 62
     3
100
AcDbLine
 10
-226.364754966263
 20
183.640861419071
 30
0.0
 11
-261.364754966263
 21
183.640861419071
 31
0.0
1001
DENKISCLORG
1040
0.0
  0
LINE
  5
E25
330
1F
100
AcDbEntity
  8
中線
 62
     3
100
AcDbLine
 10
-254.364754966263
 20
179.640861419071
 30
0.0
 11
-261.364754966263
 21
179.640861419071
 31
0.0
1001
DENKISCLORG
1040
0.0
  0
LINE
  5
E26
330
1F
100
AcDbEntity
  8
中線
 62
     3
100
AcDbLine
 10
-237.364754966263
 20
179.640861419071
 30
0.0
 11
-250.364754966263
 21
179.640861419071
 31
0.0
1001
DENKISCLORG
1040
0.0
  0
LINE
  5
E27
330
1F
100
AcDbEntity
  8
中線
 62
     3
100
AcDbLine
 10
-263.864754966263
 20
213.140831419071
 30
0.0
 11
-263.864754966263
 21
205.140861419071
 31
0.0
1001
DENKISCLORG
1040
0.0
  0
ARC
  5
E28
330
1F
100
AcDbEntity
  8
中線
 62
     3
100
AcDbCircle
 10
-261.864754966263
 20
205.140861419071
 30
0.0
 40
2.0
100
AcDbArc
 50
179.999563000001
 51
270.0
1001
DENKISCLORG
1040
0.0
  0
ARC
  5
E29
330
1F
100
AcDbEntity
  8
中線
 62
     3
100
AcDbCircle
 10
-261.864754966263
 20
213.140831419071
 30
0.0
 40
2.0
100
AcDbArc
 50
89.999563000001
 51
179.999563000001
1001
DENKISCLORG
1040
0.0
  0
LINE
  5
E2A
330
1F
100
AcDbEntity
  8
中線
 62
     3
100
AcDbLine
 10
-199.864790966263
 20
196.933067419071
 30
0.0
 11
-200.864790966263
 21
197.933403419071
 31
0.0
1001
DENKISCLORG
1040
0.0
  0
LINE
  5
E2B
330
1F
100
AcDbEntity
  8
中線
 62
     3
100
AcDbLine
 10
-199.864788966263
 20
201.940849419071
 30
0.0
 11
-199.864792966263
 21
194.340843419071
 31
0.0
1001
DENKISCLORG
1040
0.0
  0
LINE
  5
E2C
330
1F
100
AcDbEntity
  8
中線
 62
     3
100
AcDbLine
 10
-200.864792966263
 20
194.340845419071
 30
0.0
 11
-200.864788966263
 21
201.940851419071
 31
0.0
1001
DENKISCLORG
1040
0.0
  0
ARC
  5
E2D
330
1F
100
AcDbEntity
  8
中線
 62
     3
100
AcDbCircle
 10
-206.264814966263
 20
198.140833419071
 30
0.0
 40
9.0
100
AcDbArc
 50
343.398322
 51
16.601521
1001
DENKISCLORG
1040
0.0
  0
ARC
  5
E2E
330
1F
100
AcDbEntity
  8
中線
 62
     3
100
AcDbCircle
 10
-206.864754966263
 20
192.141043419071
 30
0.0
 40
7.5
100
AcDbArc
 50
102.555814
 51
167.442744
1001
DENKISCLORG
1040
0.0
  0
ARC
  5
E2F
330
1F
100
AcDbEntity
  8
中線
 62
     3
100
AcDbCircle
 10
-206.864754966263
 20
192.141043419071
 30
0.0
 40
8.5
100
AcDbArc
 50
102.555716
 51
167.443536
1001
DENKISCLORG
1040
0.0
  0
LINE
  5
E30
330
1F
100
AcDbEntity
  8
CENTER
100
AcDbLine
 10
-213.864754966263
 20
212.141349419071
 30
0.0
 11
-213.864786966263
 21
196.140861419071
 31
0.0
1001
DENKISCLORG
1040
0.0
  0
LINE
  5
E31
330
1F
100
AcDbEntity
  8
中線
100
AcDbLine
 10
-206.864754966263
 20
182.540855419071
 30
0.0
 11
-206.864754966263
 21
201.740837419071
 31
0.0
1001
DENKISCLORG
1040
0.0
  0
ARC
  5
E32
330
1F
100
AcDbEntity
  8
中線
 62
     3
100
AcDbCircle
 10
-218.089730966263
 20
194.641043419071
 30
0.0
 40
4.0
100
AcDbArc
 50
269.999781
 51
347.446774
1001
DENKISCLORG
1040
0.0
  0
LINE
  5
E33
330
1F
100
AcDbEntity
  8
中線
100
AcDbLine
 10
-216.464852966263
 20
192.140861419071
 30
0.0
 11
-197.264902966263
 21
192.140861419071
 31
0.0
1001
DENKISCLORG
1040
0.0
  0
LINE
  5
E34
330
1F
100
AcDbEntity
  8
中線
 62
     3
100
AcDbLine
 10
-226.364754966263
 20
179.640861419071
 30
0.0
 11
-233.364754966263
 21
179.640861419071
 31
0.0
1001
DENKISCLORG
1040
0.0
  0
ARC
  5
E35
330
1F
100
AcDbEntity
  8
中線
 62
     3
100
AcDbCircle
 10
-218.089730966263
 20
194.641043419071
 30
0.0
 40
3.0
100
AcDbArc
 50
269.999709
 51
347.445589
1001
DENKISCLORG
1040
0.0
  0
ARC
  5
E36
330
1F
100
AcDbEntity
  8
中線
 62
     3
100
AcDbCircle
 10
-206.864754966263
 20
192.141287419071
 30
0.0
 40
6.0
100
AcDbArc
 50
269.999854
 51
0.0
1001
DENKISCLORG
1040
0.0
  0
LINE
  5
E37
330
1F
100
AcDbEntity
  8
中線
 62
     3
100
AcDbLine
 10
-205.450570966263
 20
192.847891419071
 30
0.0
 11
-203.348764966263
 21
194.949211419071
 31
0.0
1001
DENKISCLORG
1040
0.0
  0
LINE
  5
E38
330
1F
100
AcDbEntity
  8
中線
 62
     3
100
AcDbLine
 10
-206.157662966263
 20
193.554923419071
 30
0.0
 11
-204.056222966263
 21
195.656729419071
 31
0.0
1001
DENKISCLORG
1040
0.0
  0
LINE
  5
E39
330
1F
100
AcDbEntity
  8
中線
 62
     3
100
AcDbLine
 10
-205.521248966263
 20
190.090233419071
 30
0.0
 11
-204.814156966263
 21
190.797325419071
 31
0.0
1001
DENKISCLORG
1040
0.0
  0
LINE
  5
E3A
330
1F
100
AcDbEntity
  8
中線
 62
     3
100
AcDbLine
 10
-205.450570966263
 20
191.433737419071
 30
0.0
 11
-204.814156966263
 21
190.797325419071
 31
0.0
1001
DENKISCLORG
1040
0.0
  0
CIRCLE
  5
E3B
330
1F
100
AcDbEntity
  8
中線
 62
     3
100
AcDbCircle
 10
-206.864754966263
 20
192.140861419071
 30
0.0
 40
4.499997999999997
1001
DENKISCLORG
1040
0.0
  0
ARC
  5
E3C
330
1F
100
AcDbEntity
  8
中線
 62
     3
100
AcDbCircle
 10
-204.743448966263
 20
192.140831419071
 30
0.0
 40
1.0
100
AcDbArc
 50
135.0
 51
224.998145000001
1001
DENKISCLORG
1040
0.0
  0
ARC
  5
E3D
330
1F
100
AcDbEntity
  8
中線
 62
     3
100
AcDbCircle
 10
-208.986092966263
 20
192.140861419071
 30
0.0
 40
1.0
100
AcDbArc
 50
315.0
 51
44.999381999999
1001
DENKISCLORG
1040
0.0
  0
LINE
  5
E3E
330
1F
100
AcDbEntity
  8
中線
 62
     3
100
AcDbLine
 10
-210.380562966263
 20
189.332023419071
 30
0.0
 11
-208.278970966263
 21
191.433585419071
 31
0.0
1001
DENKISCLORG
1040
0.0
  0
ARC
  5
E3F
330
1F
100
AcDbEntity
  8
中線
 62
     3
100
AcDbCircle
 10
-206.864786966263
 20
190.019523419071
 30
0.0
 40
1.0
100
AcDbArc
 50
45.000617999999
 51
134.998764000001
1001
DENKISCLORG
1040
0.0
  0
LINE
  5
E40
330
1F
100
AcDbEntity
  8
中線
 62
     3
100
AcDbLine
 10
-206.157662966263
 20
190.726645419071
 30
0.0
 11
-205.521248966263
 21
190.090233419071
 31
0.0
1001
DENKISCLORG
1040
0.0
  0
LINE
  5
E41
330
1F
100
AcDbEntity
  8
中線
 62
     3
100
AcDbLine
 10
-209.673502966263
 20
188.624991419071
 30
0.0
 11
-207.571878966263
 21
190.726555419071
 31
0.0
1001
DENKISCLORG
1040
0.0
  0
ARC
  5
E42
330
1F
100
AcDbEntity
  8
中線
 62
     3
100
AcDbCircle
 10
-206.864754966263
 20
194.262169419071
 30
0.0
 40
1.0
100
AcDbArc
 50
224.999382
 51
314.998763999999
1001
DENKISCLORG
1040
0.0
  0
LINE
  5
E43
330
1F
100
AcDbEntity
  8
中線
 62
     3
100
AcDbLine
 10
-208.915384966263
 20
193.484337419071
 30
0.0
 11
-208.278970966263
 21
192.847953419071
 31
0.0
1001
DENKISCLORG
1040
0.0
  0
LINE
  5
E44
330
1F
100
AcDbEntity
  8
中線
 62
     3
100
AcDbLine
 10
-208.915384966263
 20
193.484337419071
 30
0.0
 11
-208.208260966263
 21
194.191459419071
 31
0.0
1001
DENKISCLORG
1040
0.0
  0
LINE
  5
E45
330
1F
100
AcDbEntity
  8
中線
 62
     3
100
AcDbLine
 10
-208.208260966263
 20
194.191459419071
 30
0.0
 11
-207.571878966263
 21
193.555045419071
 31
0.0
1001
DENKISCLORG
1040
0.0
  0
LINE
  5
E46
330
1F
100
AcDbEntity
  8
中線
 62
     3
100
AcDbLine
 10
-199.864792966263
 20
194.340843419071
 30
0.0
 11
-200.864792966263
 21
194.340845419071
 31
0.0
1001
DENKISCLORG
1040
0.0
  0
LINE
  5
E47
330
1F
100
AcDbEntity
  8
中線
 62
     3
100
AcDbLine
 10
-198.885788966263
 20
194.640831419071
 30
0.0
 11
-199.864822966263
 21
194.640831419071
 31
0.0
1001
DENKISCLORG
1040
0.0
  0
ARC
  5
E48
330
1F
100
AcDbEntity
  8
中線
 62
     3
100
AcDbCircle
 10
-198.885786966263
 20
195.940819419071
 30
0.0
 40
1.3
100
AcDbArc
 50
269.999309000001
 51
343.398326999999
1001
DENKISCLORG
1040
0.0
  0
LINE
  5
E49
330
1F
100
AcDbEntity
  8
CENTER
100
AcDbLine
 10
-221.864786966263
 20
204.141349419071
 30
0.0
 11
-205.864754966263
 21
204.140861419071
 31
0.0
1001
DENKISCLORG
1040
0.0
  0
LINE
  5
E4A
330
1F
100
AcDbEntity
  8
中線
 62
     3
100
AcDbLine
 10
-223.864754966263
 20
205.140831419071
 30
0.0
 11
-223.864754966263
 21
213.140831419071
 31
0.0
1001
DENKISCLORG
1040
0.0
  0
ARC
  5
E4B
330
1F
100
AcDbEntity
  8
中線
 62
     3
100
AcDbCircle
 10
-225.864754966263
 20
205.140861419071
 30
0.0
 40
2.0
100
AcDbArc
 50
269.999562999999
 51
0.0
1001
DENKISCLORG
1040
0.0
  0
ARC
  5
E4C
330
1F
100
AcDbEntity
  8
中線
 62
     3
100
AcDbCircle
 10
-225.864754966263
 20
213.140831419071
 30
0.0
 40
2.0
100
AcDbArc
 50
0.0
 51
90.0
1001
DENKISCLORG
1040
0.0
  0
ARC
  5
E4D
330
1F
100
AcDbEntity
  8
中線
 62
     3
100
AcDbCircle
 10
-209.364754966263
 20
203.366141419071
 30
0.0
 40
4.0
100
AcDbArc
 50
282.555502
 51
0.0
1001
DENKISCLORG
1040
0.0
  0
ARC
  5
E4E
330
1F
100
AcDbEntity
  8
中線
 62
     3
100
AcDbCircle
 10
-209.364754966263
 20
203.366141419071
 30
0.0
 40
3.0
100
AcDbArc
 50
282.555612
 51
0.0
1001
DENKISCLORG
1040
0.0
  0
LINE
  5
E4F
330
1F
100
AcDbEntity
  8
中線
 62
     3
100
AcDbLine
 10
-199.864790966263
 20
198.347497419071
 30
0.0
 11
-200.864790966263
 21
199.347833419071
 31
0.0
1001
DENKISCLORG
1040
0.0
  0
LINE
  5
E50
330
1F
100
AcDbEntity
  8
中線
 62
     3
100
AcDbLine
 10
-200.864788966263
 20
201.940851419071
 30
0.0
 11
-199.864788966263
 21
201.940849419071
 31
0.0
1001
DENKISCLORG
1040
0.0
  0
LINE
  5
E51
330
1F
100
AcDbEntity
  8
中線
 62
     3
100
AcDbLine
 10
-198.885784966263
 20
201.640831419071
 30
0.0
 11
-199.864820966263
 21
201.640831419071
 31
0.0
1001
DENKISCLORG
1040
0.0
  0
ARC
  5
E52
330
1F
100
AcDbEntity
  8
中線
 62
     3
100
AcDbCircle
 10
-198.885786966263
 20
200.340843419071
 30
0.0
 40
1.3
100
AcDbArc
 50
16.600993000002
 51
90.0
1001
DENKISCLORG
1040
0.0
  0
LINE
  5
E53
330
1F
100
AcDbEntity
  8
CENTER
100
AcDbLine
 10
-259.964838966263
 20
238.140571419071
 30
0.0
 11
-227.764810966263
 21
238.140617419071
 31
0.0
1001
DENKISCLORG
1040
0.0
  0
ARC
  5
E54
330
1F
100
AcDbEntity
  8
中線
 62
     3
100
AcDbCircle
 10
-243.864800966263
 20
238.140617419071
 30
0.0
 40
11.09999799999999
100
AcDbArc
 50
99.070961
 51
350.929004
1001
DENKISCLORG
1040
0.0
  0
ARC
  5
E55
330
1F
100
AcDbEntity
  8
中線
 62
     3
100
AcDbCircle
 10
-243.864800966263
 20
238.140617419071
 30
0.0
 40
11.09999799999999
100
AcDbArc
 50
9.070976
 51
80.928999
1001
DENKISCLORG
1040
0.0
  0
LINE
  5
E56
330
1F
100
AcDbEntity
  8
中線
 62
     3
100
AcDbLine
 10
-245.614800966263
 20
251.04061741907
 30
0.0
 11
-242.114800966263
 21
251.04061741907
 31
0.0
1001
DENKISCLORG
1040
0.0
  0
LINE
  5
E57
330
1F
100
AcDbEntity
  8
中線
 62
     3
100
AcDbLine
 10
-245.614800966263
 20
251.040611419071
 30
0.0
 11
-245.614800966263
 21
249.101783419071
 31
0.0
1001
DENKISCLORG
1040
0.0
  0
LINE
  5
E58
330
1F
100
AcDbEntity
  8
中線
 62
     3
100
AcDbLine
 10
-242.114800966263
 20
251.040611419071
 30
0.0
 11
-242.114800966263
 21
249.101783419071
 31
0.0
1001
DENKISCLORG
1040
0.0
  0
LINE
  5
E59
330
1F
100
AcDbEntity
  8
中線
 62
     3
100
AcDbLine
 10
-230.964800966263
 20
239.890617419071
 30
0.0
 11
-230.964800966263
 21
236.390617419071
 31
0.0
1001
DENKISCLORG
1040
0.0
  0
LINE
  5
E5A
330
1F
100
AcDbEntity
  8
中線
 62
     3
100
AcDbLine
 10
-232.903634966263
 20
236.390617419071
 30
0.0
 11
-230.964806966263
 21
236.390617419071
 31
0.0
1001
DENKISCLORG
1040
0.0
  0
LINE
  5
E5B
330
1F
100
AcDbEntity
  8
中線
 62
     3
100
AcDbLine
 10
-232.903634966263
 20
239.890617419071
 30
0.0
 11
-230.964806966263
 21
239.890617419071
 31
0.0
1001
DENKISCLORG
1040
0.0
  0
LINE
  5
E5C
330
1F
100
AcDbEntity
  8
中線
 62
     3
100
AcDbLine
 10
-71.959024370745
 20
179.640831419071
 30
0.0
 11
-71.959024370745
 21
166.640861419071
 31
0.0
1001
DENKISCLORG
1040
0.0
  0
LINE
  5
E5D
330
1F
100
AcDbEntity
  8
中線
 62
     3
100
AcDbLine
 10
-98.359170370745
 20
179.640861419071
 30
0.0
 11
-98.359170370745
 21
166.640861419071
 31
0.0
1001
DENKISCLORG
1040
0.0
  0
LINE
  5
E5E
330
1F
100
AcDbEntity
  8
中線
 62
     3
100
AcDbLine
 10
-82.359170370745
 20
179.640861419071
 30
0.0
 11
-82.359170370745
 21
166.640861419071
 31
0.0
1001
DENKISCLORG
1040
0.0
  0
LINE
  5
E5F
330
1F
100
AcDbEntity
  8
中線
 62
     3
100
AcDbLine
 10
-87.959024370745
 20
179.640861419071
 30
0.0
 11
-87.959024370745
 21
166.640861419071
 31
0.0
1001
DENKISCLORG
1040
0.0
  0
LINE
  5
E60
330
1F
100
AcDbEntity
  8
中線
 62
     3
100
AcDbLine
 10
-101.158974370745
 20
179.640861419071
 30
0.0
 11
-101.158974370745
 21
156.640861419071
 31
0.0
1001
DENKISCLORG
1040
0.0
  0
LINE
  5
E61
330
1F
100
AcDbEntity
  8
CENTER
100
AcDbLine
 10
-85.158974370745
 20
145.640861419071
 30
0.0
 11
-85.158974370745
 21
193.640861419071
 31
0.0
1001
DENKISCLORG
1040
0.0
  0
LINE
  5
E62
330
1F
100
AcDbEntity
  8
中線
 62
     3
100
AcDbLine
 10
-69.158974370745
 20
179.640861419071
 30
0.0
 11
-69.158974370745
 21
156.640861419071
 31
0.0
1001
DENKISCLORG
1040
0.0
  0
LINE
  5
E63
330
1F
100
AcDbEntity
  8
中線
 62
     3
100
AcDbLine
 10
-69.158974370745
 20
166.640861419071
 30
0.0
 11
-71.959024370745
 21
166.640861419071
 31
0.0
1001
DENKISCLORG
1040
0.0
  0
LINE
  5
E64
330
1F
100
AcDbEntity
  8
中線
 62
     3
100
AcDbLine
 10
-69.158974370745
 20
165.640861419071
 30
0.0
 11
-74.597206370745
 21
165.640861419071
 31
0.0
1001
DENKISCLORG
1040
0.0
  0
LINE
  5
E65
330
1F
100
AcDbEntity
  8
中線
 62
     3
100
AcDbLine
 10
-70.158974370745
 20
155.640861419071
 30
0.0
 11
-69.158974370745
 21
156.640861419071
 31
0.0
1001
DENKISCLORG
1040
0.0
  0
LINE
  5
E66
330
1F
100
AcDbEntity
  8
中線
 62
     3
100
AcDbLine
 10
-101.158974370745
 20
156.640861419071
 30
0.0
 11
-69.158974370745
 21
156.640861419071
 31
0.0
1001
DENKISCLORG
1040
0.0
  0
ARC
  5
E67
330
1F
100
AcDbEntity
  8
中線
 62
     3
100
AcDbCircle
 10
-90.959024370745
 20
170.640861419071
 30
0.0
 40
5.0
100
AcDbArc
 50
270.0
 51
306.869871
1001
DENKISCLORG
1040
0.0
  0
LINE
  5
E68
330
1F
100
AcDbEntity
  8
中線
 62
     3
100
AcDbLine
 10
-90.959024370745
 20
165.640861419071
 30
0.0
 11
-79.359170370745
 21
165.640861419071
 31
0.0
1001
DENKISCLORG
1040
0.0
  0
LINE
  5
E69
330
1F
100
AcDbEntity
  8
中線
 62
     3
100
AcDbLine
 10
-100.158974370745
 20
155.640861419071
 30
0.0
 11
-70.158974370745
 21
155.640861419071
 31
0.0
1001
DENKISCLORG
1040
0.0
  0
LINE
  5
E6A
330
1F
100
AcDbEntity
  8
中線
 62
     3
100
AcDbLine
 10
-101.158974370745
 20
156.640861419071
 30
0.0
 11
-100.158974370745
 21
155.640861419071
 31
0.0
1001
DENKISCLORG
1040
0.0
  0
LINE
  5
E6B
330
1F
100
AcDbEntity
  8
中線
 62
     3
100
AcDbLine
 10
-101.158974370745
 20
165.640861419071
 30
0.0
 11
-95.720986370745
 21
165.640861419071
 31
0.0
1001
DENKISCLORG
1040
0.0
  0
ARC
  5
E6C
330
1F
100
AcDbEntity
  8
中線
 62
     3
100
AcDbCircle
 10
-95.359170370745
 20
170.640861419071
 30
0.0
 40
5.0
100
AcDbArc
 50
233.129996999999
 51
270.0
1001
DENKISCLORG
1040
0.0
  0
LINE
  5
E6D
330
1F
100
AcDbEntity
  8
中線
 62
     3
100
AcDbLine
 10
-101.158974370745
 20
166.640861419071
 30
0.0
 11
-98.359170370745
 21
166.640861419071
 31
0.0
1001
DENKISCLORG
1040
0.0
  0
LINE
  5
E6E
330
1F
100
AcDbEntity
  8
中線
 62
     3
100
AcDbLine
 10
-87.959024370745
 20
166.640861419071
 30
0.0
 11
-82.359170370745
 21
166.640861419071
 31
0.0
1001
DENKISCLORG
1040
0.0
  0
ARC
  5
E6F
330
1F
100
AcDbEntity
  8
中線
 62
     3
100
AcDbCircle
 10
-79.359170370745
 20
170.640861419071
 30
0.0
 40
5.0
100
AcDbArc
 50
233.129988999999
 51
270.0
1001
DENKISCLORG
1040
0.0
  0
ARC
  5
E70
330
1F
100
AcDbEntity
  8
中線
 62
     3
100
AcDbCircle
 10
-74.959024370745
 20
170.640861419071
 30
0.0
 40
5.0
100
AcDbArc
 50
270.0
 51
306.869863000001
1001
DENKISCLORG
1040
0.0
  0
LINE
  5
E71
330
1F
100
AcDbEntity
  8
CENTER
100
AcDbLine
 10
-73.959024370745
 20
198.128653419071
 30
0.0
 11
-56.359170370745
 21
198.128653419071
 31
0.0
1001
DENKISCLORG
1040
0.0
  0
LINE
  5
E72
330
1F
100
AcDbEntity
  8
中線
 62
     3
100
AcDbLine
 10
-67.658974370745
 20
183.640861419071
 30
0.0
 11
-102.658974370745
 21
183.640861419071
 31
0.0
1001
DENKISCLORG
1040
0.0
  0
LINE
  5
E73
330
1F
100
AcDbEntity
  8
中線
 62
     3
100
AcDbLine
 10
-121.658730370745
 20
186.140861419071
 30
0.0
 11
-59.106728370745
 21
187.232689419071
 31
0.0
1001
DENKISCLORG
1040
0.0
  0
LINE
  5
E74
330
1F
100
AcDbEntity
  8
中線
 62
     3
100
AcDbLine
 10
-118.658730370745
 20
208.140861419071
 30
0.0
 11
-59.054482370745
 21
206.059379419071
 31
0.0
1001
DENKISCLORG
1040
0.0
  0
LINE
  5
E75
330
1F
100
AcDbEntity
  8
中線
 62
     3
100
AcDbLine
 10
-116.658730370745
 20
210.140861419071
 30
0.0
 11
-59.054482370745
 21
208.129233419071
 31
0.0
1001
DENKISCLORG
1040
0.0
  0
LINE
  5
E76
330
1F
100
AcDbEntity
  8
CENTER
100
AcDbLine
 10
-124.759316370745
 20
192.140587419071
 30
0.0
 11
-133.059366370745
 21
192.140617419071
 31
0.0
1001
DENKISCLORG
1040
0.0
  0
ARC
  5
E77
330
1F
100
AcDbEntity
  8
中線
 62
     3
100
AcDbCircle
 10
-126.658730370745
 20
187.141257419071
 30
0.0
 40
1.0
100
AcDbArc
 50
179.999125999998
 51
270.0
1001
DENKISCLORG
1040
0.0
  0
ARC
  5
E78
330
1F
100
AcDbEntity
  8
中線
 62
     3
100
AcDbCircle
 10
-134.658730370745
 20
193.431541419071
 30
0.0
 40
2.0
100
AcDbArc
 50
179.999563000001
 51
263.657455
1001
DENKISCLORG
1040
0.0
  0
LINE
  5
E79
330
1F
100
AcDbEntity
  8
中線
 62
     3
100
AcDbLine
 10
-128.058876370745
 20
187.640617419071
 30
0.0
 11
-128.058876370745
 21
196.640617419071
 31
0.0
1001
DENKISCLORG
1040
0.0
  0
ARC
  5
E7A
330
1F
100
AcDbEntity
  8
中線
 62
     3
100
AcDbCircle
 10
-119.359414370745
 20
192.140587419071
 30
0.0
 40
12.0
100
AcDbArc
 50
163.808153
 51
196.191226
1001
DENKISCLORG
1040
0.0
  0
LINE
  5
E7B
330
1F
100
AcDbEntity
  8
中線
 62
     3
100
AcDbLine
 10
-128.058876370745
 20
196.140861419071
 30
0.0
 11
-128.058876370745
 21
188.140861419071
 31
0.0
1001
DENKISCLORG
1040
0.0
  0
LINE
  5
E7C
330
1F
100
AcDbEntity
  8
中線
 62
     3
100
AcDbLine
 10
-131.309366370745
 20
191.047111419071
 30
0.0
 11
-134.879678370745
 21
191.443839419071
 31
0.0
1001
DENKISCLORG
1040
0.0
  0
LINE
  5
E7D
330
1F
100
AcDbEntity
  8
中線
 62
     3
100
AcDbLine
 10
-129.346962370745
 20
187.640617419071
 30
0.0
 11
-128.059366370745
 21
187.640617419071
 31
0.0
1001
DENKISCLORG
1040
0.0
  0
LINE
  5
E7E
330
1F
100
AcDbEntity
  8
中線
 62
     3
100
AcDbLine
 10
-128.058876370745
 20
188.140861419071
 30
0.0
 11
-127.658730370745
 21
188.140861419071
 31
0.0
1001
DENKISCLORG
1040
0.0
  0
ARC
  5
E7F
330
1F
100
AcDbEntity
  8
中線
 62
     3
100
AcDbCircle
 10
-129.346962370745
 20
189.240623419071
 30
0.0
 40
1.6
100
AcDbArc
 50
196.192299000001
 51
270.0
1001
DENKISCLORG
1040
0.0
  0
LINE
  5
E80
330
1F
100
AcDbEntity
  8
中線
 62
     3
100
AcDbLine
 10
-129.346962370745
 20
196.640617419071
 30
0.0
 11
-128.059366370745
 21
196.640617419071
 31
0.0
1001
DENKISCLORG
1040
0.0
  0
LINE
  5
E81
330
1F
100
AcDbEntity
  8
中線
 62
     3
100
AcDbLine
 10
-128.058876370745
 20
196.140861419071
 30
0.0
 11
-127.658730370745
 21
196.140861419071
 31
0.0
1001
DENKISCLORG
1040
0.0
  0
ARC
  5
E82
330
1F
100
AcDbEntity
  8
中線
 62
     3
100
AcDbCircle
 10
-129.346962370745
 20
195.040641419071
 30
0.0
 40
1.6
100
AcDbArc
 50
90.0
 51
163.806563000001
1001
DENKISCLORG
1040
0.0
  0
LINE
  5
E83
330
1F
100
AcDbEntity
  8
中線
 62
     3
100
AcDbLine
 10
-121.658730370745
 20
186.141013419071
 30
0.0
 11
-126.658730370745
 21
186.141013419071
 31
0.0
1001
DENKISCLORG
1040
0.0
  0
ARC
  5
E84
330
1F
100
AcDbEntity
  8
中線
 62
     3
100
AcDbCircle
 10
-134.658730370745
 20
202.389641419071
 30
0.0
 40
2.0
100
AcDbArc
 50
179.999563000001
 51
262.798642
1001
DENKISCLORG
1040
0.0
  0
LINE
  5
E85
330
1F
100
AcDbEntity
  8
中線
 62
     3
100
AcDbLine
 10
-128.533486370745
 20
199.600089419071
 30
0.0
 11
-134.909462370745
 21
200.405265419071
 31
0.0
1001
DENKISCLORG
1040
0.0
  0
ARC
  5
E86
330
1F
100
AcDbEntity
  8
中線
 62
     3
100
AcDbCircle
 10
-128.658730370745
 20
198.608145419071
 30
0.0
 40
1.0
100
AcDbArc
 50
0.0
 51
82.803831
1001
DENKISCLORG
1040
0.0
  0
LINE
  5
E87
330
1F
100
AcDbEntity
  8
中線
 62
     3
100
AcDbLine
 10
-116.658730370745
 20
210.140861419071
 30
0.0
 11
-118.658730370745
 21
208.140861419071
 31
0.0
1001
DENKISCLORG
1040
0.0
  0
CIRCLE
  5
E88
330
1F
100
AcDbEntity
  8
中線
 62
     3
100
AcDbCircle
 10
-78.041542370745
 20
198.380119419071
 30
0.0
 40
4.5
1001
DENKISCLORG
1040
0.0
  0
LINE
  5
E89
330
1F
100
AcDbEntity
  8
中線
 62
     3
100
AcDbLine
 10
-87.959024370745
 20
179.640861419071
 30
0.0
 11
-98.359170370745
 21
179.640831419071
 31
0.0
1001
DENKISCLORG
1040
0.0
  0
LINE
  5
E8A
330
1F
100
AcDbEntity
  8
中線
 62
     3
100
AcDbLine
 10
-102.658974370745
 20
186.472403419071
 30
0.0
 11
-102.658974370745
 21
179.640617419071
 31
0.0
1001
DENKISCLORG
1040
0.0
  0
LINE
  5
E8B
330
1F
100
AcDbEntity
  8
中線
 62
     3
100
AcDbLine
 10
-101.158974370745
 20
179.640831419071
 30
0.0
 11
-102.658974370745
 21
179.640861419071
 31
0.0
1001
DENKISCLORG
1040
0.0
  0
LINE
  5
E8C
330
1F
100
AcDbEntity
  8
中線
 62
     3
100
AcDbLine
 10
-71.959024370745
 20
179.640861419071
 30
0.0
 11
-82.359170370745
 21
179.640861419071
 31
0.0
1001
DENKISCLORG
1040
0.0
  0
LINE
  5
E8D
330
1F
100
AcDbEntity
  8
中線
 62
     3
100
AcDbLine
 10
-79.041572370745
 20
195.380363419071
 30
0.0
 11
-77.041542370745
 21
195.380607419071
 31
0.0
1001
DENKISCLORG
1040
0.0
  0
LINE
  5
E8E
330
1F
100
AcDbEntity
  8
中線
 62
     3
100
AcDbLine
 10
-80.041572370745
 20
196.880117419071
 30
0.0
 11
-76.041542370745
 21
196.880363419071
 31
0.0
1001
DENKISCLORG
1040
0.0
  0
LINE
  5
E8F
330
1F
100
AcDbEntity
  8
中線
 62
     3
100
AcDbLine
 10
-81.041542370745
 20
198.380117419071
 30
0.0
 11
-75.041542370745
 21
198.380119419071
 31
0.0
1001
DENKISCLORG
1040
0.0
  0
LINE
  5
E90
330
1F
100
AcDbEntity
  8
中線
 62
     3
100
AcDbLine
 10
-78.041544370745
 20
200.880119419071
 30
0.0
 11
-78.041542370745
 21
198.380119419071
 31
0.0
1001
DENKISCLORG
1040
0.0
  0
LINE
  5
E91
330
1F
100
AcDbEntity
  8
中線
 62
     3
100
AcDbLine
 10
-66.962198370745
 20
197.032615419071
 30
0.0
 11
-66.219766370745
 21
197.775077419071
 31
0.0
1001
DENKISCLORG
1040
0.0
  0
LINE
  5
E92
330
1F
100
AcDbEntity
  8
中線
 62
     3
100
AcDbLine
 10
-64.098428370745
 20
197.775077419071
 30
0.0
 11
-63.355996370745
 21
197.032615419071
 31
0.0
1001
DENKISCLORG
1040
0.0
  0
CIRCLE
  5
E93
330
1F
100
AcDbEntity
  8
中線
 62
     3
100
AcDbCircle
 10
-65.158974370745
 20
198.128653419071
 30
0.0
 40
3.499998
1001
DENKISCLORG
1040
0.0
  0
CIRCLE
  5
E94
330
1F
100
AcDbEntity
  8
中線
 62
     3
100
AcDbCircle
 10
-65.158974370745
 20
198.128653419071
 30
0.0
 40
3.799999999999998
1001
DENKISCLORG
1040
0.0
  0
LINE
  5
E95
330
1F
100
AcDbEntity
  8
CENTER
100
AcDbLine
 10
-65.158974370745
 20
189.328635419071
 30
0.0
 11
-65.158974370745
 21
206.928459419071
 31
0.0
1001
DENKISCLORG
1040
0.0
  0
LINE
  5
E96
330
1F
100
AcDbEntity
  8
中線
 62
     3
100
AcDbLine
 10
-67.658974370745
 20
179.640861419071
 30
0.0
 11
-67.658974370745
 21
187.083243419071
 31
0.0
1001
DENKISCLORG
1040
0.0
  0
LINE
  5
E97
330
1F
100
AcDbEntity
  8
中線
 62
     3
100
AcDbLine
 10
-67.658974370745
 20
179.640861419071
 30
0.0
 11
-69.158974370745
 21
179.640861419071
 31
0.0
1001
DENKISCLORG
1040
0.0
  0
LINE
  5
E98
330
1F
100
AcDbEntity
  8
中線
 62
     3
100
AcDbLine
 10
-64.805458370745
 20
197.067985419071
 30
0.0
 11
-64.063028370745
 21
196.325523419071
 31
0.0
1001
DENKISCLORG
1040
0.0
  0
ARC
  5
E99
330
1F
100
AcDbEntity
  8
中線
 62
     3
100
AcDbCircle
 10
-65.159218370745
 20
196.714439419071
 30
0.0
 40
0.5
100
AcDbArc
 50
44.982723999997
 51
134.997473999996
1001
DENKISCLORG
1040
0.0
  0
LINE
  5
E9A
330
1F
100
AcDbEntity
  8
中線
 62
     3
100
AcDbLine
 10
-66.255166370745
 20
196.325523419071
 30
0.0
 11
-65.512734370745
 21
197.067985419071
 31
0.0
1001
DENKISCLORG
1040
0.0
  0
LINE
  5
E9B
330
1F
100
AcDbEntity
  8
中線
 62
     3
100
AcDbLine
 10
-66.962198370745
 20
197.032615419071
 30
0.0
 11
-66.255166370745
 21
196.325523419071
 31
0.0
1001
DENKISCLORG
1040
0.0
  0
LINE
  5
E9C
330
1F
100
AcDbEntity
  8
中線
 62
     3
100
AcDbLine
 10
-64.063028370745
 20
196.325523419071
 30
0.0
 11
-63.355996370745
 21
197.032615419071
 31
0.0
1001
DENKISCLORG
1040
0.0
  0
ARC
  5
E9D
330
1F
100
AcDbEntity
  8
中線
 62
     3
100
AcDbCircle
 10
-59.158974370745
 20
190.232231419071
 30
0.0
 40
3.0
100
AcDbArc
 50
270.997586999999
 51
0.0
1001
DENKISCLORG
1040
0.0
  0
LINE
  5
E9E
330
1F
100
AcDbEntity
  8
CENTER
100
AcDbLine
 10
-59.709756370745
 20
204.140861419071
 30
0.0
 11
-49.404092370745
 21
204.140861419071
 31
0.0
1001
DENKISCLORG
1040
0.0
  0
LINE
  5
E9F
330
1F
100
AcDbEntity
  8
中線
 62
     3
100
AcDbLine
 10
-55.158730370745
 20
199.140861419071
 30
0.0
 11
-55.158730370745
 21
209.140861419071
 31
0.0
1001
DENKISCLORG
1040
0.0
  0
LINE
  5
EA0
330
1F
100
AcDbEntity
  8
中線
 62
     3
100
AcDbLine
 10
-64.805458370745
 20
199.189293419071
 30
0.0
 11
-64.063028370745
 21
199.931755419071
 31
0.0
1001
DENKISCLORG
1040
0.0
  0
LINE
  5
EA1
330
1F
100
AcDbEntity
  8
中線
 62
     3
100
AcDbLine
 10
-66.962198370745
 20
199.224509419071
 30
0.0
 11
-66.219766370745
 21
198.482199419071
 31
0.0
1001
DENKISCLORG
1040
0.0
  0
LINE
  5
EA2
330
1F
100
AcDbEntity
  8
中線
 62
     3
100
AcDbLine
 10
-66.962198370745
 20
199.224509419071
 30
0.0
 11
-66.254922370745
 21
199.931633419071
 31
0.0
1001
DENKISCLORG
1040
0.0
  0
ARC
  5
EA3
330
1F
100
AcDbEntity
  8
中線
 62
     3
100
AcDbCircle
 10
-65.158974370745
 20
199.542839419071
 30
0.0
 40
0.5
100
AcDbArc
 50
224.982710000003
 51
314.997484
1001
DENKISCLORG
1040
0.0
  0
ARC
  5
EA4
330
1F
100
AcDbEntity
  8
中線
 62
     3
100
AcDbCircle
 10
-66.573282370745
 20
198.128653419071
 30
0.0
 40
0.5
100
AcDbArc
 50
314.995082999996
 51
45.002439000008
1001
DENKISCLORG
1040
0.0
  0
LINE
  5
EA5
330
1F
100
AcDbEntity
  8
中線
 62
     3
100
AcDbLine
 10
-66.254922370745
 20
199.931633419071
 30
0.0
 11
-65.512734370745
 21
199.189293419071
 31
0.0
1001
DENKISCLORG
1040
0.0
  0
LINE
  5
EA6
330
1F
100
AcDbEntity
  8
中線
 62
     3
100
AcDbLine
 10
-64.098428370745
 20
198.482199419071
 30
0.0
 11
-63.355996370745
 21
199.224631419071
 31
0.0
1001
DENKISCLORG
1040
0.0
  0
ARC
  5
EA7
330
1F
100
AcDbEntity
  8
中線
 62
     3
100
AcDbCircle
 10
-63.744912370745
 20
198.128623419071
 30
0.0
 40
0.5
100
AcDbArc
 50
134.995073999995
 51
225.002423999996
1001
DENKISCLORG
1040
0.0
  0
LINE
  5
EA8
330
1F
100
AcDbEntity
  8
中線
 62
     3
100
AcDbLine
 10
-64.063028370745
 20
199.931755419071
 30
0.0
 11
-63.355996370745
 21
199.224631419071
 31
0.0
1001
DENKISCLORG
1040
0.0
  0
ARC
  5
EA9
330
1F
100
AcDbEntity
  8
中線
 62
     3
100
AcDbCircle
 10
-59.158730370745
 20
203.061209419071
 30
0.0
 40
3.0
100
AcDbArc
 50
0.0
 51
88.003945000001
1001
DENKISCLORG
1040
0.0
  0
LINE
  5
EAA
330
1F
100
AcDbEntity
  8
中線
 62
     3
100
AcDbLine
 10
-56.158730370745
 20
199.140861419071
 30
0.0
 11
-55.158730370745
 21
199.140861419071
 31
0.0
1001
DENKISCLORG
1040
0.0
  0
ARC
  5
EAB
330
1F
100
AcDbEntity
  8
中線
 62
     3
100
AcDbCircle
 10
-59.158730370745
 20
205.131065419071
 30
0.0
 40
3.0
100
AcDbArc
 50
0.0
 51
88.003945000001
1001
DENKISCLORG
1040
0.0
  0
LINE
  5
EAC
330
1F
100
AcDbEntity
  8
中線
 62
     3
100
AcDbLine
 10
-56.158730370745
 20
209.140861419071
 30
0.0
 11
-55.158730370745
 21
209.140861419071
 31
0.0
1001
DENKISCLORG
1040
0.0
  0
ARC
  5
EAD
330
1F
100
AcDbEntity
  8
中線
 62
     3
100
AcDbCircle
 10
-280.864754966263
 20
330.140861419071
 30
0.0
 40
8.5
100
AcDbArc
 50
282.555716
 51
347.443637
1001
DENKISCLORG
1040
0.0
  0
ARC
  5
EAE
330
1F
100
AcDbEntity
  8
中線
 62
     3
100
AcDbCircle
 10
-269.639780966263
 20
327.640861419071
 30
0.0
 40
4.0
100
AcDbArc
 50
89.999781
 51
167.446773999999
1001
DENKISCLORG
1040
0.0
  0
ARC
  5
EAF
330
1F
100
AcDbEntity
  8
中線
 62
     3
100
AcDbCircle
 10
-269.639780966263
 20
327.640861419071
 30
0.0
 40
3.0
100
AcDbArc
 50
89.999709
 51
167.445588999999
1001
DENKISCLORG
1040
0.0
  0
LINE
  5
EB0
330
1F
100
AcDbEntity
  8
CENTER
100
AcDbLine
 10
-265.864754966263
 20
318.140373419071
 30
0.0
 11
-281.864754966263
 21
318.140861419071
 31
0.0
1001
DENKISCLORG
1040
0.0
  0
LINE
  5
EB1
330
1F
100
AcDbEntity
  8
中線
 62
     3
100
AcDbLine
 10
-206.864786966263
 20
336.140861419071
 30
0.0
 11
-280.864724966263
 21
336.140861419071
 31
0.0
1001
DENKISCLORG
1040
0.0
  0
LINE
  5
EB2
330
1F
100
AcDbEntity
  8
中線
100
AcDbLine
 10
-290.464852966263
 20
330.140617419071
 30
0.0
 11
-271.264902966263
 21
330.140617419071
 31
0.0
1001
DENKISCLORG
1040
0.0
  0
LINE
  5
EB3
330
1F
100
AcDbEntity
  8
CENTER
100
AcDbLine
 10
-273.864786966263
 20
310.140373419071
 30
0.0
 11
-273.864724966263
 21
326.140617419071
 31
0.0
1001
DENKISCLORG
1040
0.0
  0
ARC
  5
EB4
330
1F
100
AcDbEntity
  8
中線
 62
     3
100
AcDbCircle
 10
-280.864754966263
 20
330.140617419071
 30
0.0
 40
6.0
100
AcDbArc
 50
89.999854
 51
180.0
1001
DENKISCLORG
1040
0.0
  0
LINE
  5
EB5
330
1F
100
AcDbEntity
  8
中線
100
AcDbLine
 10
-280.864754966263
 20
320.540519419071
 30
0.0
 11
-280.864754966263
 21
339.740471419071
 31
0.0
1001
DENKISCLORG
1040
0.0
  0
ARC
  5
EB6
330
1F
100
AcDbEntity
  8
中線
 62
     3
100
AcDbCircle
 10
-280.864754966263
 20
330.140861419071
 30
0.0
 40
7.5
100
AcDbArc
 50
282.555587
 51
347.442743999999
1001
DENKISCLORG
1040
0.0
  0
ARC
  5
EB7
330
1F
100
AcDbEntity
  8
中線
 62
     3
100
AcDbCircle
 10
-278.364786966263
 20
318.91576341907
 30
0.0
 40
4.0
100
AcDbArc
 50
102.555502
 51
180.0
1001
DENKISCLORG
1040
0.0
  0
ARC
  5
EB8
330
1F
100
AcDbEntity
  8
中線
 62
     3
100
AcDbCircle
 10
-278.364786966263
 20
318.91576341907
 30
0.0
 40
3.0
100
AcDbArc
 50
102.555043000001
 51
180.0
1001
DENKISCLORG
1040
0.0
  0
LINE
  5
EB9
330
1F
100
AcDbEntity
  8
中線
 62
     3
100
AcDbLine
 10
-282.208260966263
 20
332.191153419071
 30
0.0
 11
-281.571878966263
 21
331.554679419071
 31
0.0
1001
DENKISCLORG
1040
0.0
  0
LINE
  5
EBA
330
1F
100
AcDbEntity
  8
中線
 62
     3
100
AcDbLine
 10
-283.673502966263
 20
326.624747419071
 30
0.0
 11
-281.571878966263
 21
328.726309419071
 31
0.0
1001
DENKISCLORG
1040
0.0
  0
CIRCLE
  5
EBB
330
1F
100
AcDbEntity
  8
中線
 62
     3
100
AcDbCircle
 10
-280.864754966263
 20
330.140617419071
 30
0.0
 40
4.499997999999997
1001
DENKISCLORG
1040
0.0
  0
ARC
  5
EBC
330
1F
100
AcDbEntity
  8
中線
 62
     3
100
AcDbCircle
 10
-282.986092966263
 20
330.140617419071
 30
0.0
 40
1.0
100
AcDbArc
 50
314.993818000003
 51
44.995672999998
1001
DENKISCLORG
1040
0.0
  0
LINE
  5
EBD
330
1F
100
AcDbEntity
  8
中線
 62
     3
100
AcDbLine
 10
-284.380562966263
 20
327.331779419071
 30
0.0
 11
-282.278970966263
 21
329.433341419071
 31
0.0
1001
DENKISCLORG
1040
0.0
  0
LINE
  5
EBE
330
1F
100
AcDbEntity
  8
中線
 62
     3
100
AcDbLine
 10
-282.915384966263
 20
331.48387941907
 30
0.0
 11
-282.278970966263
 21
330.84764741907
 31
0.0
1001
DENKISCLORG
1040
0.0
  0
LINE
  5
EBF
330
1F
100
AcDbEntity
  8
中線
 62
     3
100
AcDbLine
 10
-282.915384966263
 20
331.48387941907
 30
0.0
 11
-282.208260966263
 21
332.191153419071
 31
0.0
1001
DENKISCLORG
1040
0.0
  0
ARC
  5
EC0
330
1F
100
AcDbEntity
  8
中線
 62
     3
100
AcDbCircle
 10
-278.743448966263
 20
330.140373419071
 30
0.0
 40
1.0
100
AcDbArc
 50
134.993818000003
 51
224.996909
1001
DENKISCLORG
1040
0.0
  0
LINE
  5
EC1
330
1F
100
AcDbEntity
  8
中線
 62
     3
100
AcDbLine
 10
-279.521248966263
 20
328.08983541907
 30
0.0
 11
-278.814156966263
 21
328.79686741907
 31
0.0
1001
DENKISCLORG
1040
0.0
  0
LINE
  5
EC2
330
1F
100
AcDbEntity
  8
中線
 62
     3
100
AcDbLine
 10
-279.450570966263
 20
329.433341419071
 30
0.0
 11
-278.814156966263
 21
328.79686741907
 31
0.0
1001
DENKISCLORG
1040
0.0
  0
ARC
  5
EC3
330
1F
100
AcDbEntity
  8
中線
 62
     3
100
AcDbCircle
 10
-280.864786966263
 20
328.019279419071
 30
0.0
 40
1.0
100
AcDbArc
 50
44.995673000002
 51
135.002472999997
1001
DENKISCLORG
1040
0.0
  0
LINE
  5
EC4
330
1F
100
AcDbEntity
  8
中線
 62
     3
100
AcDbLine
 10
-280.157662966263
 20
328.726309419071
 30
0.0
 11
-279.521248966263
 21
328.08983541907
 31
0.0
1001
DENKISCLORG
1040
0.0
  0
LINE
  5
EC5
330
1F
100
AcDbEntity
  8
中線
 62
     3
100
AcDbLine
 10
-279.450570966263
 20
330.84764741907
 30
0.0
 11
-277.348764966263
 21
332.948967419071
 31
0.0
1001
DENKISCLORG
1040
0.0
  0
ARC
  5
EC6
330
1F
100
AcDbEntity
  8
中線
 62
     3
100
AcDbCircle
 10
-280.864754966263
 20
332.261711419071
 30
0.0
 40
1.0
100
AcDbArc
 50
224.996908999998
 51
315.002472999997
1001
DENKISCLORG
1040
0.0
  0
LINE
  5
EC7
330
1F
100
AcDbEntity
  8
中線
 62
     3
100
AcDbLine
 10
-280.157662966263
 20
331.554679419071
 30
0.0
 11
-278.056222966263
 21
333.656485419071
 31
0.0
1001
DENKISCLORG
1040
0.0
  0
LINE
  5
EC8
330
1F
100
AcDbEntity
  8
CENTER
100
AcDbLine
 10
-213.864754966263
 20
310.140373419071
 30
0.0
 11
-213.864786966263
 21
326.140861419071
 31
0.0
1001
DENKISCLORG
1040
0.0
  0
LINE
  5
EC9
330
1F
100
AcDbEntity
  8
CENTER
100
AcDbLine
 10
-259.964838966263
 20
288.14057141907
 30
0.0
 11
-227.764810966263
 21
288.140617419071
 31
0.0
1001
DENKISCLORG
1040
0.0
  0
ARC
  5
ECA
330
1F
100
AcDbEntity
  8
中線
 62
     3
100
AcDbCircle
 10
-243.864800966263
 20
288.140617419071
 30
0.0
 40
11.09999799999999
100
AcDbArc
 50
99.070961
 51
350.929004
1001
DENKISCLORG
1040
0.0
  0
ARC
  5
ECB
330
1F
100
AcDbEntity
  8
中線
 62
     3
100
AcDbCircle
 10
-243.864800966263
 20
288.140617419071
 30
0.0
 40
11.09999799999999
100
AcDbArc
 50
9.070976
 51
80.928999
1001
DENKISCLORG
1040
0.0
  0
LINE
  5
ECC
330
1F
100
AcDbEntity
  8
中線
 62
     3
100
AcDbLine
 10
-245.614800966263
 20
301.04061741907
 30
0.0
 11
-242.114800966263
 21
301.04061741907
 31
0.0
1001
DENKISCLORG
1040
0.0
  0
LINE
  5
ECD
330
1F
100
AcDbEntity
  8
中線
 62
     3
100
AcDbLine
 10
-245.614800966263
 20
301.040611419071
 30
0.0
 11
-245.614800966263
 21
299.101783419071
 31
0.0
1001
DENKISCLORG
1040
0.0
  0
LINE
  5
ECE
330
1F
100
AcDbEntity
  8
中線
 62
     3
100
AcDbLine
 10
-242.114800966263
 20
301.040611419071
 30
0.0
 11
-242.114800966263
 21
299.101783419071
 31
0.0
1001
DENKISCLORG
1040
0.0
  0
LINE
  5
ECF
330
1F
100
AcDbEntity
  8
中線
 62
     3
100
AcDbLine
 10
-230.964800966263
 20
289.89061741907
 30
0.0
 11
-230.964800966263
 21
286.390617419071
 31
0.0
1001
DENKISCLORG
1040
0.0
  0
LINE
  5
ED0
330
1F
100
AcDbEntity
  8
中線
 62
     3
100
AcDbLine
 10
-232.903634966263
 20
286.390617419071
 30
0.0
 11
-230.964806966263
 21
286.390617419071
 31
0.0
1001
DENKISCLORG
1040
0.0
  0
LINE
  5
ED1
330
1F
100
AcDbEntity
  8
中線
 62
     3
100
AcDbLine
 10
-232.903634966263
 20
289.89061741907
 30
0.0
 11
-230.964806966263
 21
289.89061741907
 31
0.0
1001
DENKISCLORG
1040
0.0
  0
LINE
  5
ED2
330
1F
100
AcDbEntity
  8
中線
 62
     3
100
AcDbLine
 10
-218.089730966263
 20
330.64086141907
 30
0.0
 11
-269.639780966263
 21
330.64086141907
 31
0.0
1001
DENKISCLORG
1040
0.0
  0
LINE
  5
ED3
330
1F
100
AcDbEntity
  8
中線
 62
     3
100
AcDbLine
 10
-218.089730966263
 20
331.640861419071
 30
0.0
 11
-269.639780966263
 21
331.640861419071
 31
0.0
1001
DENKISCLORG
1040
0.0
  0
LINE
  5
ED4
330
1F
100
AcDbEntity
  8
中線
100
AcDbLine
 10
-206.864754966263
 20
320.540763419071
 30
0.0
 11
-206.864754966263
 21
339.740715419071
 31
0.0
1001
DENKISCLORG
1040
0.0
  0
ARC
  5
ED5
330
1F
100
AcDbEntity
  8
中線
 62
     3
100
AcDbCircle
 10
-206.864754966263
 20
330.140617419071
 30
0.0
 40
6.0
100
AcDbArc
 50
0.0
 51
90.0
1001
DENKISCLORG
1040
0.0
  0
ARC
  5
ED6
330
1F
100
AcDbEntity
  8
中線
 62
     3
100
AcDbCircle
 10
-206.864754966263
 20
330.140861419071
 30
0.0
 40
7.5
100
AcDbArc
 50
192.557142
 51
257.444186
1001
DENKISCLORG
1040
0.0
  0
ARC
  5
ED7
330
1F
100
AcDbEntity
  8
中線
 62
     3
100
AcDbCircle
 10
-206.864754966263
 20
330.140861419071
 30
0.0
 40
8.5
100
AcDbArc
 50
192.556363
 51
257.444161
1001
DENKISCLORG
1040
0.0
  0
LINE
  5
ED8
330
1F
100
AcDbEntity
  8
CENTER
100
AcDbLine
 10
-221.864786966263
 20
318.140373419071
 30
0.0
 11
-205.864754966263
 21
318.140861419071
 31
0.0
1001
DENKISCLORG
1040
0.0
  0
ARC
  5
ED9
330
1F
100
AcDbEntity
  8
中線
 62
     3
100
AcDbCircle
 10
-218.089730966263
 20
327.640861419071
 30
0.0
 40
4.0
100
AcDbArc
 50
12.553226000001
 51
90.0
1001
DENKISCLORG
1040
0.0
  0
LINE
  5
EDA
330
1F
100
AcDbEntity
  8
中線
100
AcDbLine
 10
-216.464852966263
 20
330.140861419071
 30
0.0
 11
-197.264902966263
 21
330.140861419071
 31
0.0
1001
DENKISCLORG
1040
0.0
  0
ARC
  5
EDB
330
1F
100
AcDbEntity
  8
中線
 62
     3
100
AcDbCircle
 10
-218.089730966263
 20
327.640861419071
 30
0.0
 40
3.0
100
AcDbArc
 50
12.554411000001
 51
90.0
1001
DENKISCLORG
1040
0.0
  0
ARC
  5
EDC
330
1F
100
AcDbEntity
  8
中線
 62
     3
100
AcDbCircle
 10
-209.364754966263
 20
318.91576341907
 30
0.0
 40
4.0
100
AcDbArc
 50
0.0
 51
77.444498
1001
DENKISCLORG
1040
0.0
  0
ARC
  5
EDD
330
1F
100
AcDbEntity
  8
中線
 62
     3
100
AcDbCircle
 10
-209.364754966263
 20
318.91576341907
 30
0.0
 40
3.0
100
AcDbArc
 50
0.0
 51
77.444388
1001
DENKISCLORG
1040
0.0
  0
LINE
  5
EDE
330
1F
100
AcDbEntity
  8
中線
 62
     3
100
AcDbLine
 10
-205.450570966263
 20
330.847891419071
 30
0.0
 11
-203.348764966263
 21
332.949211419071
 31
0.0
1001
DENKISCLORG
1040
0.0
  0
LINE
  5
EDF
330
1F
100
AcDbEntity
  8
中線
 62
     3
100
AcDbLine
 10
-206.157662966263
 20
331.55492341907
 30
0.0
 11
-204.056222966263
 21
333.656729419071
 31
0.0
1001
DENKISCLORG
1040
0.0
  0
LINE
  5
EE0
330
1F
100
AcDbEntity
  8
中線
 62
     3
100
AcDbLine
 10
-205.521248966263
 20
328.090079419071
 30
0.0
 11
-204.814156966263
 21
328.797111419071
 31
0.0
1001
DENKISCLORG
1040
0.0
  0
LINE
  5
EE1
330
1F
100
AcDbEntity
  8
中線
 62
     3
100
AcDbLine
 10
-205.450570966263
 20
329.43358541907
 30
0.0
 11
-204.814156966263
 21
328.797111419071
 31
0.0
1001
DENKISCLORG
1040
0.0
  0
CIRCLE
  5
EE2
330
1F
100
AcDbEntity
  8
中線
 62
     3
100
AcDbCircle
 10
-206.864754966263
 20
330.140861419071
 30
0.0
 40
4.499997999999997
1001
DENKISCLORG
1040
0.0
  0
ARC
  5
EE3
330
1F
100
AcDbEntity
  8
中線
 62
     3
100
AcDbCircle
 10
-204.743448966263
 20
330.140617419071
 30
0.0
 40
1.0
100
AcDbArc
 50
134.994436000001
 51
224.996290999999
1001
DENKISCLORG
1040
0.0
  0
ARC
  5
EE4
330
1F
100
AcDbEntity
  8
中線
 62
     3
100
AcDbCircle
 10
-208.986092966263
 20
330.140861419071
 30
0.0
 40
1.0
100
AcDbArc
 50
314.993199999999
 51
44.996291000001
1001
DENKISCLORG
1040
0.0
  0
LINE
  5
EE5
330
1F
100
AcDbEntity
  8
中線
 62
     3
100
AcDbLine
 10
-210.380562966263
 20
327.33202341907
 30
0.0
 11
-208.278970966263
 21
329.43358541907
 31
0.0
1001
DENKISCLORG
1040
0.0
  0
LINE
  5
EE6
330
1F
100
AcDbEntity
  8
中線
 62
     3
100
AcDbLine
 10
-206.157662966263
 20
328.726555419071
 30
0.0
 11
-205.521248966263
 21
328.090079419071
 31
0.0
1001
DENKISCLORG
1040
0.0
  0
LINE
  5
EE7
330
1F
100
AcDbEntity
  8
中線
 62
     3
100
AcDbLine
 10
-209.673502966263
 20
326.62499141907
 30
0.0
 11
-207.571878966263
 21
328.726555419071
 31
0.0
1001
DENKISCLORG
1040
0.0
  0
ARC
  5
EE8
330
1F
100
AcDbEntity
  8
中線
 62
     3
100
AcDbCircle
 10
-206.864786966263
 20
328.019523419071
 30
0.0
 40
1.0
100
AcDbArc
 50
44.996290999999
 51
135.003091000002
1001
DENKISCLORG
1040
0.0
  0
ARC
  5
EE9
330
1F
100
AcDbEntity
  8
中線
 62
     3
100
AcDbCircle
 10
-206.864754966263
 20
332.261955419071
 30
0.0
 40
1.0
100
AcDbArc
 50
224.996290999999
 51
315.001854999999
1001
DENKISCLORG
1040
0.0
  0
LINE
  5
EEA
330
1F
100
AcDbEntity
  8
中線
 62
     3
100
AcDbLine
 10
-208.915384966263
 20
331.484123419071
 30
0.0
 11
-208.278970966263
 21
330.847891419071
 31
0.0
1001
DENKISCLORG
1040
0.0
  0
LINE
  5
EEB
330
1F
100
AcDbEntity
  8
中線
 62
     3
100
AcDbLine
 10
-208.915384966263
 20
331.484123419071
 30
0.0
 11
-208.208260966263
 21
332.19139741907
 31
0.0
1001
DENKISCLORG
1040
0.0
  0
LINE
  5
EEC
330
1F
100
AcDbEntity
  8
中線
 62
     3
100
AcDbLine
 10
-208.208260966263
 20
332.19139741907
 30
0.0
 11
-207.571878966263
 21
331.55492341907
 31
0.0
1001
DENKISCLORG
1040
0.0
  0
LINE
  5
EED
330
1F
100
AcDbEntity
  8
中線
 62
     3
100
AcDbLine
 10
-121.658730370745
 20
336.140861419071
 30
0.0
 11
-59.106728370745
 21
335.048819419071
 31
0.0
1001
DENKISCLORG
1040
0.0
  0
LINE
  5
EEE
330
1F
100
AcDbEntity
  8
中線
 62
     3
100
AcDbLine
 10
-118.658730370745
 20
314.140861419071
 30
0.0
 11
-59.054482370745
 21
316.222159419071
 31
0.0
1001
DENKISCLORG
1040
0.0
  0
LINE
  5
EEF
330
1F
100
AcDbEntity
  8
中線
 62
     3
100
AcDbLine
 10
-116.658730370745
 20
312.14086141907
 30
0.0
 11
-59.054482370745
 21
314.15233541907
 31
0.0
1001
DENKISCLORG
1040
0.0
  0
LINE
  5
EF0
330
1F
100
AcDbEntity
  8
中線
 62
     3
100
AcDbLine
 10
-116.658730370745
 20
312.14086141907
 30
0.0
 11
-118.658730370745
 21
314.140861419071
 31
0.0
1001
DENKISCLORG
1040
0.0
  0
ARC
  5
EF1
330
1F
100
AcDbEntity
  8
中線
 62
     3
100
AcDbCircle
 10
-126.658730370745
 20
335.140373419071
 30
0.0
 40
1.0
100
AcDbArc
 50
90.0
 51
180.0
1001
DENKISCLORG
1040
0.0
  0
LINE
  5
EF2
330
1F
100
AcDbEntity
  8
CENTER
100
AcDbLine
 10
-124.759316370745
 20
330.140861419071
 30
0.0
 11
-133.059366370745
 21
330.141105419071
 31
0.0
1001
DENKISCLORG
1040
0.0
  0
ARC
  5
EF3
330
1F
100
AcDbEntity
  8
中線
 62
     3
100
AcDbCircle
 10
-134.658730370745
 20
319.892081419071
 30
0.0
 40
2.0
100
AcDbArc
 50
97.20133
 51
180.0
1001
DENKISCLORG
1040
0.0
  0
LINE
  5
EF4
330
1F
100
AcDbEntity
  8
中線
 62
     3
100
AcDbLine
 10
-128.533486370745
 20
322.68163341907
 30
0.0
 11
-134.909462370745
 21
321.876457419071
 31
0.0
1001
DENKISCLORG
1040
0.0
  0
ARC
  5
EF5
330
1F
100
AcDbEntity
  8
中線
 62
     3
100
AcDbCircle
 10
-128.658730370745
 20
323.67357541907
 30
0.0
 40
1.0
100
AcDbArc
 50
277.196097999999
 51
0.0
1001
DENKISCLORG
1040
0.0
  0
ARC
  5
EF6
330
1F
100
AcDbEntity
  8
中線
 62
     3
100
AcDbCircle
 10
-134.658730370745
 20
328.850089419071
 30
0.0
 40
2.0
100
AcDbArc
 50
96.342518
 51
180.0
1001
DENKISCLORG
1040
0.0
  0
LINE
  5
EF7
330
1F
100
AcDbEntity
  8
中線
 62
     3
100
AcDbLine
 10
-128.058876370745
 20
334.64086141907
 30
0.0
 11
-128.058876370745
 21
325.640861419071
 31
0.0
1001
DENKISCLORG
1040
0.0
  0
ARC
  5
EF8
330
1F
100
AcDbEntity
  8
中線
 62
     3
100
AcDbCircle
 10
-119.359414370745
 20
330.140861419071
 30
0.0
 40
12.0
100
AcDbArc
 50
163.808319
 51
196.190516
1001
DENKISCLORG
1040
0.0
  0
LINE
  5
EF9
330
1F
100
AcDbEntity
  8
中線
 62
     3
100
AcDbLine
 10
-128.058876370745
 20
326.140861419071
 30
0.0
 11
-128.058876370745
 21
334.140861419071
 31
0.0
1001
DENKISCLORG
1040
0.0
  0
LINE
  5
EFA
330
1F
100
AcDbEntity
  8
中線
 62
     3
100
AcDbLine
 10
-129.346962370745
 20
325.641105419071
 30
0.0
 11
-128.059366370745
 21
325.640861419071
 31
0.0
1001
DENKISCLORG
1040
0.0
  0
LINE
  5
EFB
330
1F
100
AcDbEntity
  8
中線
 62
     3
100
AcDbLine
 10
-128.058876370745
 20
326.140861419071
 30
0.0
 11
-127.658730370745
 21
326.140861419071
 31
0.0
1001
DENKISCLORG
1040
0.0
  0
ARC
  5
EFC
330
1F
100
AcDbEntity
  8
中線
 62
     3
100
AcDbCircle
 10
-129.346962370745
 20
327.24095941907
 30
0.0
 40
1.6
100
AcDbArc
 50
196.189132000002
 51
270.0
1001
DENKISCLORG
1040
0.0
  0
LINE
  5
EFD
330
1F
100
AcDbEntity
  8
中線
 62
     3
100
AcDbLine
 10
-131.309366370745
 20
331.234611419071
 30
0.0
 11
-134.879678370745
 21
330.83788341907
 31
0.0
1001
DENKISCLORG
1040
0.0
  0
LINE
  5
EFE
330
1F
100
AcDbEntity
  8
中線
 62
     3
100
AcDbLine
 10
-129.346962370745
 20
334.64086141907
 30
0.0
 11
-128.059366370745
 21
334.64086141907
 31
0.0
1001
DENKISCLORG
1040
0.0
  0
LINE
  5
EFF
330
1F
100
AcDbEntity
  8
中線
 62
     3
100
AcDbLine
 10
-128.058876370745
 20
334.140861419071
 30
0.0
 11
-127.658730370745
 21
334.140861419071
 31
0.0
1001
DENKISCLORG
1040
0.0
  0
ARC
  5
F00
330
1F
100
AcDbEntity
  8
中線
 62
     3
100
AcDbCircle
 10
-129.346962370745
 20
333.04100741907
 30
0.0
 40
1.6
100
AcDbArc
 50
90.0
 51
163.810798999998
1001
DENKISCLORG
1040
0.0
  0
LINE
  5
F01
330
1F
100
AcDbEntity
  8
中線
 62
     3
100
AcDbLine
 10
-121.658730370745
 20
336.14061741907
 30
0.0
 11
-126.658730370745
 21
336.14061741907
 31
0.0
1001
DENKISCLORG
1040
0.0
  0
ARC
  5
F02
330
1F
100
AcDbEntity
  8
中線
 62
     3
100
AcDbCircle
 10
-59.158974370745
 20
332.049309419071
 30
0.0
 40
3.0
100
AcDbArc
 50
0.0
 51
89.002122
1001
DENKISCLORG
1040
0.0
  0
LINE
  5
F03
330
1F
100
AcDbEntity
  8
CENTER
100
AcDbLine
 10
-59.709756370745
 20
318.140861419071
 30
0.0
 11
-49.404092370745
 21
318.140861419071
 31
0.0
1001
DENKISCLORG
1040
0.0
  0
LINE
  5
F04
330
1F
100
AcDbEntity
  8
中線
 62
     3
100
AcDbLine
 10
-55.158730370745
 20
323.140861419071
 30
0.0
 11
-55.158730370745
 21
313.140861419071
 31
0.0
1001
DENKISCLORG
1040
0.0
  0
ARC
  5
F05
330
1F
100
AcDbEntity
  8
中線
 62
     3
100
AcDbCircle
 10
-59.158730370745
 20
319.220451419071
 30
0.0
 40
3.0
100
AcDbArc
 50
271.995763
 51
0.0
1001
DENKISCLORG
1040
0.0
  0
LINE
  5
F06
330
1F
100
AcDbEntity
  8
中線
 62
     3
100
AcDbLine
 10
-56.158730370745
 20
313.140861419071
 30
0.0
 11
-55.158730370745
 21
313.140861419071
 31
0.0
1001
DENKISCLORG
1040
0.0
  0
ARC
  5
F07
330
1F
100
AcDbEntity
  8
中線
 62
     3
100
AcDbCircle
 10
-59.158730370745
 20
317.150627419071
 30
0.0
 40
3.0
100
AcDbArc
 50
271.995763
 51
0.0
1001
DENKISCLORG
1040
0.0
  0
LINE
  5
F08
330
1F
100
AcDbEntity
  8
中線
 62
     3
100
AcDbLine
 10
-56.158730370745
 20
323.140861419071
 30
0.0
 11
-55.158730370745
 21
323.140861419071
 31
0.0
1001
DENKISCLORG
1040
0.0
  0
LINE
  5
15C3
330
1F
100
AcDbEntity
  8
CENTER
100
AcDbLine
 10
-291.864754966263
 20
261.140953419071
 30
0.0
 11
-195.864754966263
 21
261.140953419071
 31
0.0
1001
DENKISCLORG
1040
0.0
  0
TEXT
  5
19BD
330
1F
100
AcDbEntity
  8
CMNT
 62
     5
100
AcDbText
 10
-43.865439375729
 20
14.894597355682
 30
0.0
 40
3.0
  1
E-3002B
100
AcDbText
  0
TEXT
  5
19BE
330
1F
100
AcDbEntity
  8
CMNT
100
AcDbText
 10
-67.691670625814
 20
32.353016447471
 30
0.0
 40
2.5
  1
AGAW-212Y
100
AcDbText
  0
ENDSEC
  0
SECTION
  2
OBJECTS
  0
DICTIONARY
  5
C
330
0
100
AcDbDictionary
  3
ACAD_COLOR
350
FE6
  3
ACAD_GROUP
350
D
  3
ACAD_IMAGE_DICT
350
84
  3
ACAD_LAYOUT
350
1A
  3
ACAD_MATERIAL
350
3B
  3
ACAD_MLEADERSTYLE
350
6C
  3
ACAD_MLINESTYLE
350
17
  3
ACAD_PLOTSETTINGS
350
19
  3
ACAD_SCALELIST
350
3F
  3
ACAD_VISUALSTYLE
350
2A
  3
ACDBHEADERROUNDTRIPXREC
350
1A14
  3
ACDBVARIABLEDICTIONARY
350
69
  3
DWGPROPS
350
1A3B
  0
DICTIONARY
  5
56C
330
1F
100
AcDbDictionary
280
     1
  3
ACAD_SORTENTS
360
56D
  0
DICTIONARY
  5
85F
330
85E
100
AcDbDictionary
280
     1
  3
ACAD_SORTENTS
360
860
  0
DICTIONARY
  5
88C
330
88B
100
AcDbDictionary
280
     1
  3
ACAD_SORTENTS
360
88D
  3
ACDBBLOCKTABLERECORDDATA
360
1A06
  0
DICTIONARY
  5
B78
330
B77
100
AcDbDictionary
280
     1
  3
ACAD_SORTENTS
360
B79
  0
DICTIONARY
  5
FE6
102
{ACAD_REACTORS
330
C
102
}
330
C
100
AcDbDictionary
  0
DICTIONARY
  5
D
102
{ACAD_REACTORS
330
C
102
}
330
C
100
AcDbDictionary
  0
DICTIONARY
  5
84
102
{ACAD_REACTORS
330
C
102
}
330
C
100
AcDbDictionary
  0
DICTIONARY
  5
1A
102
{ACAD_REACTORS
330
C
102
}
330
C
100
AcDbDictionary
  0
DICTIONARY
  5
3B
102
{ACAD_REACTORS
330
C
102
}
330
C
100
AcDbDictionary
  3
BYBLOCK
350
3D
  3
BYLAYER
350
3C
  3
GLOBAL
350
3E
  0
DICTIONARY
  5
6C
102
{ACAD_REACTORS
330
C
102
}
330
C
100
AcDbDictionary
  0
DICTIONARY
  5
17
102
{ACAD_REACTORS
330
C
102
}
330
C
100
AcDbDictionary
  3
STANDARD
350
18
  0
DICTIONARY
  5
19
102
{ACAD_REACTORS
330
C
102
}
330
C
100
AcDbDictionary
  3
6F
350
A60
  3
7F
350
A95
  0
DICTIONARY
  5
3F
102
{ACAD_REACTORS
330
C
102
}
330
C
100
AcDbDictionary
  3
A0
350
40
  3
A1
350
41
  3
A2
350
42
  3
A3
350
43
  3
A4
350
44
  3
A5
350
45
  3
A6
350
46
  3
A7
350
47
  3
A8
350
48
  3
A9
350
49
  3
B0
350
4A
  3
B1
350
4B
  3
B2
350
4C
  3
B3
350
4D
  3
B4
350
4E
  3
B5
350
4F
  3
B6
350
50
  3
B7
350
51
  3
B8
350
52
  3
B9
350
53
  3
C0
350
54
  3
C1
350
55
  3
C2
350
56
  3
C3
350
57
  3
C4
350
58
  3
C5
350
59
  3
C6
350
5A
  3
C7
350
5B
  3
C8
350
5C
  3
C9
350
5D
  3
D0
350
5E
  3
D1
350
5F
  3
D2
350
60
  0
DICTIONARY
  5
2A
102
{ACAD_REACTORS
330
C
102
}
330
C
100
AcDbDictionary
  3
2DWIREFRAME
350
2F
  3
3D_HIDDEN
350
31
  3
3DWIREFRAME
350
30
  3
BASIC
350
32
  3
BRIGHTEN
350
36
  3
COLORCHANGE
350
3A
  3
CONCEPTUAL
350
34
  3
DIM
350
35
  3
EDGECOLOROFF
350
A23
  3
FACEPATTERN
350
39
  3
FLAT
350
2B
  3
FLATWITHEDGES
350
2C
  3
GOURAUD
350
2D
  3
GOURAUDWITHEDGES
350
2E
  3
HIDDEN
350
A20
  3
JITTEROFF
350
A21
  3
LINEPATTERN
350
38
  3
OVERHANGOFF
350
A22
  3
REALISTIC
350
33
  3
SHADED
350
A28
  3
Shaded with edges
350
1A12
  3
SHADED_WITH_EDGE0
350
A27
  3
Shades of Gray
350
1A11
  3
SHADES_OF_GRA0
350
A24
  3
SKETCHY
350
A25
  3
THICKEN
350
37
  3
WIREFRAME
350
A1F
  3
X-RAY
350
A26
  0
DICTIONARY
  5
1A14
102
{ACAD_REACTORS
330
C
102
}
330
C
100
AcDbDictionary
  3
CEPSNTYPE
350
1A1D
  3
COLORDICT
350
1A39
  3
DIMSTYLEDATA
350
1A33
  3
FINGERPRINTGUID
350
1A1E
  3
HYPERLINKBASE
350
1A17
  3
INSUNITS
350
1A1C
  3
LAYOUTDICT
350
1A19
  3
LWETCUNION
350
1A1B
  3
MATERIALDICT
350
1A3A
  3
PLOTSETDICT
350
1A1A
  3
PSVPSCALE
350
1A20
  3
PUCSBASE
350
1A23
  3
PUCSORGBACK
350
1A29
  3
PUCSORGBOTTOM
350
1A25
  3
PUCSORGFRONT
350
1A28
  3
PUCSORGLEFT
350
1A26
  3
PUCSORGRIGHT
350
1A27
  3
PUCSORGTOP
350
1A24
  3
PUCSORTHOREF
350
1A21
  3
PUCSORTHOVIEW
350
1A22
  3
STYLESHEET
350
1A18
  3
TSTACKALIGN
350
1A15
  3
TSTACKSIZE
350
1A16
  3
UCSBASE
350
1A2C
  3
UCSORGBACK
350
1A32
  3
UCSORGBOTTOM
350
1A2E
  3
UCSORGFRONT
350
1A31
  3
UCSORGLEFT
350
1A2F
  3
UCSORGRIGHT
350
1A30
  3
UCSORGTOP
350
1A2D
  3
UCSORTHOREF
350
1A2A
  3
UCSORTHOVIEW
350
1A2B
  3
VERSIONGUID
350
1A1F
  0
DICTIONARY
  5
69
102
{ACAD_REACTORS
330
C
102
}
330
C
100
AcDbDictionary
  3
CANNOSCALE
350
1A3D
  3
DIMASSOC
350
1A01
  3
HIDETEXT
350
1A02
  3
MSLTSCALE
350
1A08
  3
PSOLHEIGHT
350
1A36
  3
PSOLWIDTH
350
1A35
  3
XCLIPFRAME
350
866
  0
XRECORD
  5
1A3B
102
{ACAD_REACTORS
330
C
102
}
330
C
100
AcDbXrecord
  1
DWGPROPS COOKIE
  2

  3

  4

  6

  7

  8
1002606
  9

300
製品名=*
301
名称=
302
図番=*
303
開発番号=
304
=
305
=
306
=
307
=
308
=
309
=
 40
0.0
 41
2455692.190455463
 42
2457322.086398958
  1

 90
        4
  0
SORTENTSTABLE
  5
56D
102
{ACAD_REACTORS
330
56C
102
}
330
56C
100
AcDbSortentsTable
330
1F
331
0
  5
5EB
  0
SORTENTSTABLE
  5
860
102
{ACAD_REACTORS
330
85F
330
85F
102
}
330
85F
100
AcDbSortentsTable
330
85E
  0
SORTENTSTABLE
  5
88D
102
{ACAD_REACTORS
330
88C
102
}
330
88C
100
AcDbSortentsTable
330
88B
  0
DICTIONARY
  5
1A06
102
{ACAD_REACTORS
330
88C
102
}
330
88C
100
AcDbDictionary
  3
Edit
350
1A3C
  0
SORTENTSTABLE
  5
B79
102
{ACAD_REACTORS
330
B78
330
B78
102
}
330
B78
100
AcDbSortentsTable
330
B77
  0
MATERIAL
  5
3D
102
{ACAD_REACTORS
330
3B
102
}
102
{ACAD_XDICTIONARY
360
1A3E
102
}
330
3B
100
AcDbMaterial
  1
BYBLOCK
  0
MATERIAL
  5
3C
102
{ACAD_REACTORS
330
3B
102
}
102
{ACAD_XDICTIONARY
360
1A40
102
}
330
3B
100
AcDbMaterial
  1
BYLAYER
  0
MATERIAL
  5
3E
102
{ACAD_REACTORS
330
3B
102
}
102
{ACAD_XDICTIONARY
360
1A42
102
}
330
3B
100
AcDbMaterial
  1
GLOBAL
  0
MLINESTYLE
  5
18
102
{ACAD_REACTORS
330
17
102
}
330
17
100
AcDbMlineStyle
  2
Standard
 70
     0
  3

 62
   256
 51
90.0
 52
90.0
 71
     2
 49
0.5
 62
   256
  6
BYLAYER
 49
-0.5
 62
   256
  6
BYLAYER
  0
PLOTSETTINGS
  5
A60
102
{ACAD_REACTORS
330
19
330
19
330
19
102
}
330
19
100
AcDbPlotSettings
  1
6F
  2
\\S-w03-ad001\FX DocuWide 2055
  4
A4
  6

 40
0.0
 41
0.0
 42
0.0
 43
0.0
 44
210.0
 45
297.0
 46
0.0
 47
0.0
 48
-210.0
 49
0.0
140
0.0
141
297.0
142
1.0
143
1.0
 70
  1200
 72
     1
 73
     0
 74
     4
  7
monochrome.ctb
 75
    16
147
1.0
148
264.5
149
-148.5
  0
PLOTSETTINGS
  5
A95
102
{ACAD_REACTORS
330
19
330
19
330
19
102
}
330
19
100
AcDbPlotSettings
  1
7F
  2
\\s-w03-ad002\SII LP1030 (本社7F)
  4
A4
  6

 40
0.0
 41
0.0
 42
0.0
 43
0.0
 44
210.0
 45
297.0
 46
0.0
 47
0.0
 48
-210.0
 49
0.0
140
0.0
141
297.0
142
1.0
143
1.0
 70
  1200
 72
     1
 73
     0
 74
     4
  7
monochrome.ctb
 75
    16
147
1.0
148
264.5
149
-148.5
  0
ACAD_PROXY_OBJECT
  5
40
102
{ACAD_REACTORS
330
3F
102
}
330
3F
100
AcDbProxyObject
 90
      499
 91
      503
 93
       41
310
903313A31580
  0
ACAD_PROXY_OBJECT
  5
41
102
{ACAD_REACTORS
330
3F
102
}
330
3F
100
AcDbProxyObject
 90
      499
 91
      503
 93
      105
310
903313A324000000000000004000
  0
ACAD_PROXY_OBJECT
  5
42
102
{ACAD_REACTORS
330
3F
102
}
330
3F
100
AcDbProxyObject
 90
      499
 91
      503
 93
      105
310
903313A344000000000000104000
  0
ACAD_PROXY_OBJECT
  5
43
102
{ACAD_REACTORS
330
3F
102
}
330
3F
100
AcDbProxyObject
 90
      499
 91
      503
 93
      105
310
903313A354000000000000144000
  0
ACAD_PROXY_OBJECT
  5
44
102
{ACAD_REACTORS
330
3F
102
}
330
3F
100
AcDbProxyObject
 90
      499
 91
      503
 93
      105
310
903313A384000000000000204000
  0
ACAD_PROXY_OBJECT
  5
45
102
{ACAD_REACTORS
330
3F
102
}
330
3F
100
AcDbProxyObject
 90
      499
 91
      503
 93
      113
310
904313A31304000000000000244000
  0
ACAD_PROXY_OBJECT
  5
46
102
{ACAD_REACTORS
330
3F
102
}
330
3F
100
AcDbProxyObject
 90
      499
 91
      503
 93
      113
310
904313A31364000000000000304000
  0
ACAD_PROXY_OBJECT
  5
47
102
{ACAD_REACTORS
330
3F
102
}
330
3F
100
AcDbProxyObject
 90
      499
 91
      503
 93
      113
310
904313A32304000000000000344000
  0
ACAD_PROXY_OBJECT
  5
48
102
{ACAD_REACTORS
330
3F
102
}
330
3F
100
AcDbProxyObject
 90
      499
 91
      503
 93
      113
310
904313A333040000000000003E4000
  0
ACAD_PROXY_OBJECT
  5
49
102
{ACAD_REACTORS
330
3F
102
}
330
3F
100
AcDbProxyObject
 90
      499
 91
      503
 93
      113
310
904313A34304000000000000444000
  0
ACAD_PROXY_OBJECT
  5
4A
102
{ACAD_REACTORS
330
3F
102
}
330
3F
100
AcDbProxyObject
 90
      499
 91
      503
 93
      113
310
904313A35304000000000000494000
  0
ACAD_PROXY_OBJECT
  5
4B
102
{ACAD_REACTORS
330
3F
102
}
330
3F
100
AcDbProxyObject
 90
      499
 91
      503
 93
      121
310
905313A3130304000000000000594000
  0
ACAD_PROXY_OBJECT
  5
4C
102
{ACAD_REACTORS
330
3F
102
}
330
3F
100
AcDbProxyObject
 90
      499
 91
      503
 93
      105
310
903323A310000000000000010100
  0
ACAD_PROXY_OBJECT
  5
4D
102
{ACAD_REACTORS
330
3F
102
}
330
3F
100
AcDbProxyObject
 90
      499
 91
      503
 93
      105
310
903343A310000000000000410100
  0
ACAD_PROXY_OBJECT
  5
4E
102
{ACAD_REACTORS
330
3F
102
}
330
3F
100
AcDbProxyObject
 90
      499
 91
      503
 93
      105
310
903383A310000000000000810100
  0
ACAD_PROXY_OBJECT
  5
4F
102
{ACAD_REACTORS
330
3F
102
}
330
3F
100
AcDbProxyObject
 90
      499
 91
      503
 93
      113
310
90431303A310000000000000910100
  0
ACAD_PROXY_OBJECT
  5
50
102
{ACAD_REACTORS
330
3F
102
}
330
3F
100
AcDbProxyObject
 90
      499
 91
      503
 93
      121
310
9053130303A310000000000001650100
  0
ACAD_PROXY_OBJECT
  5
51
102
{ACAD_REACTORS
330
3F
102
}
330
3F
100
AcDbProxyObject
 90
      499
 91
      503
 93
      257
310
90E312F31323822203D2031272D3022000000000000200FC000000000000284000
  0
ACAD_PROXY_OBJECT
  5
52
102
{ACAD_REACTORS
330
3F
102
}
330
3F
100
AcDbProxyObject
 90
      499
 91
      503
 93
      249
310
90D312F363422203D2031272D3022000000000000240FC000000000000284000
  0
ACAD_PROXY_OBJECT
  5
53
102
{ACAD_REACTORS
330
3F
102
}
330
3F
100
AcDbProxyObject
 90
      499
 91
      503
 93
      249
310
90D312F333222203D2031272D3022000000000000280FC000000000000284000
  0
ACAD_PROXY_OBJECT
  5
54
102
{ACAD_REACTORS
330
3F
102
}
330
3F
100
AcDbProxyObject
 90
      499
 91
      503
 93
      249
310
90D312F313622203D2031272D30220000000000002C0FC000000000000284000
  0
ACAD_PROXY_OBJECT
  5
55
102
{ACAD_REACTORS
330
3F
102
}
330
3F
100
AcDbProxyObject
 90
      499
 91
      503
 93
      249
310
90D332F333222203D2031272D30220000000000002E0FC000000000000284000
  0
ACAD_PROXY_OBJECT
  5
56
102
{ACAD_REACTORS
330
3F
102
}
330
3F
100
AcDbProxyObject
 90
      499
 91
      503
 93
      241
310
90C312F3822203D2031272D3022000000000000300FC000000000000284000
  0
ACAD_PROXY_OBJECT
  5
57
102
{ACAD_REACTORS
330
3F
102
}
330
3F
100
AcDbProxyObject
 90
      499
 91
      503
 93
      249
310
90D332F313622203D2031272D3022000000000000320FC000000000000284000
  0
ACAD_PROXY_OBJECT
  5
58
102
{ACAD_REACTORS
330
3F
102
}
330
3F
100
AcDbProxyObject
 90
      499
 91
      503
 93
      241
310
90C312F3422203D2031272D3022000000000000340FC000000000000284000
  0
ACAD_PROXY_OBJECT
  5
59
102
{ACAD_REACTORS
330
3F
102
}
330
3F
100
AcDbProxyObject
 90
      499
 91
      503
 93
      241
310
90C332F3822203D2031272D3022000000000000360FC000000000000284000
  0
ACAD_PROXY_OBJECT
  5
5A
102
{ACAD_REACTORS
330
3F
102
}
330
3F
100
AcDbProxyObject
 90
      499
 91
      503
 93
      241
310
90C312F3222203D2031272D3022000000000000380FC000000000000284000
  0
ACAD_PROXY_OBJECT
  5
5B
102
{ACAD_REACTORS
330
3F
102
}
330
3F
100
AcDbProxyObject
 90
      499
 91
      503
 93
      241
310
90C332F3422203D2031272D30220000000000003A0FC000000000000284000
  0
ACAD_PROXY_OBJECT
  5
5C
102
{ACAD_REACTORS
330
3F
102
}
330
3F
100
AcDbProxyObject
 90
      499
 91
      503
 93
      161
310
90A3122203D2031272D30224000000000000284000
  0
ACAD_PROXY_OBJECT
  5
5D
102
{ACAD_REACTORS
330
3F
102
}
330
3F
100
AcDbProxyObject
 90
      499
 91
      503
 93
      257
310
90E312D312F3222203D2031272D30220000000000003E0FC000000000000284000
  0
ACAD_PROXY_OBJECT
  5
5E
102
{ACAD_REACTORS
330
3F
102
}
330
3F
100
AcDbProxyObject
 90
      499
 91
      503
 93
      225
310
90A3322203D2031272D302200000000000002100000000000000284000
  0
ACAD_PROXY_OBJECT
  5
5F
102
{ACAD_REACTORS
330
3F
102
}
330
3F
100
AcDbProxyObject
 90
      499
 91
      503
 93
      225
310
90A3622203D2031272D302200000000000006100000000000000284000
  0
ACAD_PROXY_OBJECT
  5
60
102
{ACAD_REACTORS
330
3F
102
}
330
3F
100
AcDbProxyObject
 90
      499
 91
      503
 93
      249
310
90D31272D3022203D2031272D30220000000000000A100000000000000284000
  0
ACAD_PROXY_OBJECT
  5
2F
102
{ACAD_REACTORS
330
2A
102
}
330
2A
100
AcDbProxyObject
 90
      499
 91
      501
 93
      436
310
42CC9915DA5C99599C985B595049028333333333333E3BF0000000000000FB0107901411070040501600405405064090741402480A0340
1001
ACAD
1000
AcDbSavedByObjectVersion
1070
     0
  0
ACAD_PROXY_OBJECT
  5
31
102
{ACAD_REACTORS
330
2A
102
}
330
2A
100
AcDbProxyObject
 90
      499
 91
      501
 93
      500
310
424CD108121A5919195B90640502408333333333333E3BF0000000000000FB01079024090700405020000000000001110200405405064090740C02480A0340
1001
ACAD
1000
AcDbSavedByObjectVersion
1070
     0
  0
ACAD_PROXY_OBJECT
  5
30
102
{ACAD_REACTORS
330
2A
102
}
330
2A
100
AcDbProxyObject
 90
      499
 91
      501
 93
      436
310
42CCD915DA5C99599C985B595059028333333333333E3BF0000000000000FB0107901411070040501600405405064090741402480A0340
1001
ACAD
1000
AcDbSavedByObjectVersion
1070
     0
  0
ACAD_PROXY_OBJECT
  5
32
102
{ACAD_REACTORS
330
2A
102
}
330
2A
100
AcDbProxyObject
 90
      499
 91
      501
 93
      388
310
4150985CDA58D07406404333333333333E3BF0000000000000FB0107A41107004050150841D405064090741402480A0350
1001
ACAD
1000
AcDbSavedByObjectVersion
1070
     0
  0
ACAD_PROXY_OBJECT
  5
36
102
{ACAD_REACTORS
330
2A
102
}
330
2A
100
AcDbProxyObject
 90
      499
 91
      501
 93
      428
310
42109C9A59DA1D195B90C409028333333333333E3BF0000000000000FB010790141107004050150841D405064090741402480A029950
1001
ACAD
1000
AcDbSavedByObjectVersion
1070
     0
  0
ACAD_PROXY_OBJECT
  5
3A
102
{ACAD_REACTORS
330
2A
102
}
330
2A
100
AcDbProxyObject
 90
      499
 91
      501
 93
      452
310
42D0DBDB1BDC90DA185B99D95104090240C333333333333E3BF0000000000000FB0108901411070040501508421405064090741402480A0350
1001
ACAD
1000
AcDbSavedByObjectVersion
1070
     0
  0
ACAD_PROXY_OBJECT
  5
34
102
{ACAD_REACTORS
330
2A
102
}
330
2A
100
AcDbProxyObject
 90
      499
 91
      501
 93
      500
310
4290DBDB98D95C1D1D585B10940D028333333333333E3BF0000000000000FB0107902409070040501000000000000111010841D405064090740C02480A0340
1001
ACAD
1000
AcDbSavedByObjectVersion
1070
     0
  0
ACAD_PROXY_OBJECT
  5
35
102
{ACAD_REACTORS
330
2A
102
}
330
2A
100
AcDbProxyObject
 90
      499
 91
      501
 93
      412
310
40D11A5B50B409028333333333333E3BF0000000000000FB010790141107004050150841D405064090741402480A02677FFFFFD0
1001
ACAD
1000
AcDbSavedByObjectVersion
1070
     0
  0
ACAD_PROXY_OBJECT
  5
A23
102
{ACAD_REACTORS
330
2A
102
}
330
2A
100
AcDbProxyObject
 90
      499
 91
      501
 93
      452
310
43115919D950DBDB1BDC93D999916409028333333333333E33F0000000000000F9010790141107004050150841D405064090741402480A0350
1001
ACAD
1000
AcDbSavedByObjectVersion
1070
     0
  0
ACAD_PROXY_OBJECT
  5
39
102
{ACAD_REACTORS
330
2A
102
}
330
2A
100
AcDbProxyObject
 90
      499
 91
      501
 93
      444
310
42D19858D95C185D1D195C9B90F409028333333333333E3BF0000000000000FB010790141107004050150841D405064090741402480A0350
1001
ACAD
1000
AcDbSavedByObjectVersion
1070
     0
  0
ACAD_PROXY_OBJECT
  5
2B
102
{ACAD_REACTORS
330
2A
102
}
330
2A
100
AcDbProxyObject
 90
      499
 91
      501
 93
      388
310
41119B185D240901404333333333333E3BF0000000000000F9010740A41107004050150841D405064090741402480A1B50
1001
ACAD
1000
AcDbSavedByObjectVersion
1070
     0
  0
ACAD_PROXY_OBJECT
  5
2C
102
{ACAD_REACTORS
330
2A
102
}
330
2A
100
AcDbProxyObject
 90
      499
 91
      501
 93
      476
310
43519B185D15DA5D1A115919D95CD0140901404333333333333E3BF0000000000000F9010740901411070040501600405405064090741402480A1B50
1001
ACAD
1000
AcDbSavedByObjectVersion
1070
     0
  0
ACAD_PROXY_OBJECT
  5
2D
102
{ACAD_REACTORS
330
2A
102
}
330
2A
100
AcDbProxyObject
 90
      499
 91
      501
 93
      412
310
41D1DBDD5C985D5910240902404333333333333E3BF0000000000000F9010740A411070040501641D405064090741402480A1B50
1001
ACAD
1000
AcDbSavedByObjectVersion
1070
     0
  0
ACAD_PROXY_OBJECT
  5
2E
102
{ACAD_REACTORS
330
2A
102
}
330
2A
100
AcDbProxyObject
 90
      499
 91
      501
 93
      500
310
4411DBDD5C985D5915DA5D1A115919D95CD0340902404333333333333E3BF0000000000000F9010740901411070040501600405405064090741402480A1B50
1001
ACAD
1000
AcDbSavedByObjectVersion
1070
     0
  0
ACAD_PROXY_OBJECT
  5
A20
102
{ACAD_REACTORS
330
2A
102
}
330
2A
100
AcDbProxyObject
 90
      499
 91
      501
 93
      476
310
41921A5919195B90640502408333333333333E33F0000000000000F901079024090700405020000000000001110200405405064090740C02480A0340
1001
ACAD
1000
AcDbSavedByObjectVersion
1070
     0
  0
ACAD_PROXY_OBJECT
  5
A21
102
{ACAD_REACTORS
330
2A
102
}
330
2A
100
AcDbProxyObject
 90
      499
 91
      501
 93
      428
310
42529A5D1D195C93D999914409028333333333333E33F0000000000000F9010790141107004050150A41D405064090741402480A0350
1001
ACAD
1000
AcDbSavedByObjectVersion
1070
     0
  0
ACAD_PROXY_OBJECT
  5
38
102
{ACAD_REACTORS
330
2A
102
}
330
2A
100
AcDbProxyObject
 90
      499
 91
      501
 93
      444
310
42D31A5B995C185D1D195C9B90E409028333333333333E3BF0000000000000FB010790141107004050750841D405064090741402483A0350
1001
ACAD
1000
AcDbSavedByObjectVersion
1070
     0
  0
ACAD_PROXY_OBJECT
  5
A22
102
{ACAD_REACTORS
330
2A
102
}
330
2A
100
AcDbProxyObject
 90
      499
 91
      501
 93
      444
310
42D3DD995C9A185B99D3D999915409028333333333333E33F0000000000000F9010790141107004050150941D405064090741402480A0350
1001
ACAD
1000
AcDbSavedByObjectVersion
1070
     0
  0
ACAD_PROXY_OBJECT
  5
33
102
{ACAD_REACTORS
330
2A
102
}
330
2A
100
AcDbProxyObject
 90
      499
 91
      501
 93
      420
310
425499585B1A5CDD1A58D08409028333333333333E3BF0000000000000FB01079019070040501508421405064090741402480A1B40
1001
ACAD
1000
AcDbSavedByObjectVersion
1070
     0
  0
ACAD_PROXY_OBJECT
  5
A28
102
{ACAD_REACTORS
330
2A
102
}
330
2A
100
AcDbProxyObject
 90
      499
 91
      501
 93
      420
310
4194DA1859195911B40902404333333333333E33F0000000000000F9010740A41107004050150800405405064090840C02480A0B40
1001
ACAD
1000
AcDbSavedByObjectVersion
1070
     0
  0
ACAD_PROXY_OBJECT
  5
1A12
102
{ACAD_REACTORS
330
2A
102
}
330
2A
100
AcDbProxyObject
 90
      499
 91
      501
 93
      516
310
4454DA18591959081DDA5D1A08195919D95CD1A40902404333333333333E33F0000000000000F901074090142907004050250800405405064090740C02480A0B40
1001
ACAD
1000
AcDbSavedByObjectVersion
1070
     0
  0
ACAD_PROXY_OBJECT
  5
A27
102
{ACAD_REACTORS
330
2A
102
}
330
2A
100
AcDbProxyObject
 90
      499
 91
      501
 93
      516
310
4454DA18591959081DDA5D1A08195919D95CD1A40902404333333333333E33F0000000000000F901074090142907004050250800405405064090740C02480A0B40
1001
ACAD
1000
AcDbSavedByObjectVersion
1070
     0
  0
ACAD_PROXY_OBJECT
  5
1A11
102
{ACAD_REACTORS
330
2A
102
}
330
2A
100
AcDbProxyObject
 90
      499
 91
      501
 93
      532
310
4394DA1859195CC81BD98811DC985E5174090240C333333333333E33F0000000000000F901079024090741D01000000000000111010841D405064090740C02480A0340
1001
ACAD
1000
AcDbSavedByObjectVersion
1070
     0
  0
ACAD_PROXY_OBJECT
  5
A24
102
{ACAD_REACTORS
330
2A
102
}
330
2A
100
AcDbProxyObject
 90
      499
 91
      501
 93
      532
310
4394DA1859195CC81BD98811DC985E5174090240C333333333333E33F0000000000000F901079024090741D01000000000000111010841D405064090740C02480A0340
1001
ACAD
1000
AcDbSavedByObjectVersion
1070
     0
  0
ACAD_PROXY_OBJECT
  5
A25
102
{ACAD_REACTORS
330
2A
102
}
330
2A
100
AcDbProxyObject
 90
      499
 91
      501
 93
      476
310
41D4DAD95D18DA1E51840502408333333333333E33F0000000000000F901079024090741D01000000000000111010B41D405064090741802480A0340
1001
ACAD
1000
AcDbSavedByObjectVersion
1070
     0
  0
ACAD_PROXY_OBJECT
  5
37
102
{ACAD_REACTORS
330
2A
102
}
330
2A
100
AcDbProxyObject
 90
      499
 91
      501
 93
      412
310
41D51A1A58DAD95B90D409028333333333333E3BF0000000000000FB010790141107004050150C41D405064090741402480A0350
1001
ACAD
1000
AcDbSavedByObjectVersion
1070
     0
  0
ACAD_PROXY_OBJECT
  5
A1F
102
{ACAD_REACTORS
330
2A
102
}
330
2A
100
AcDbProxyObject
 90
      499
 91
      501
 93
      420
310
4255DA5C99599C985B595059028333333333333E33F0000000000000F90107901411070040501600405405064090740C02480A0340
1001
ACAD
1000
AcDbSavedByObjectVersion
1070
     0
  0
ACAD_PROXY_OBJECT
  5
A26
102
{ACAD_REACTORS
330
2A
102
}
330
2A
100
AcDbProxyObject
 90
      499
 91
      501
 93
      404
310
41560B54985E51940902404000000000000E03F0000000000000F9010740501907004050150841D405064090740C02480A1B40
1001
ACAD
1000
AcDbSavedByObjectVersion
1070
     0
  0
XRECORD
  5
1A1D
102
{ACAD_REACTORS
330
1A14
102
}
330
1A14
100
AcDbXrecord
 90
        0
  0
XRECORD
  5
1A39
102
{ACAD_REACTORS
330
1A14
102
}
330
1A14
100
AcDbXrecord
340
FE6
  0
XRECORD
  5
1A33
102
{ACAD_REACTORS
330
1A14
102
}
330
1A14
100
AcDbXrecord
1000
DSTYLE
1002
{
1070
   179
 70
     1
1070
   171
 70
     1
1070
   143
 40
0.03937007874
1070
    41
 40
2.0
1070
   275
 70
     1
1070
    79
 70
     2
1070
   342
340
63
1070
   176
 70
   256
1070
   177
 70
   256
1070
   178
 70
   256
1070
   271
 70
     1
1070
    43
 40
5.0
1070
   278
 70
    46
1070
   147
 40
0.5
1070
   341
340
63
1070
   371
 70
    13
1070
   372
 70
    13
1070
   272
 70
     1
1070
   146
 40
0.5
1070
   279
 70
     2
1070
   283
 70
     2
1070
   340
340
124
1070
    78
 70
     0
1070
    70
 70
   256
1002
}
  0
XRECORD
  5
1A1E
102
{ACAD_REACTORS
330
1A14
102
}
330
1A14
100
AcDbXrecord
  1
{C2BA42B3-0400-405A-BB68-4DC0BEC5C1B9}
  0
XRECORD
  5
1A17
102
{ACAD_REACTORS
330
1A14
102
}
330
1A14
100
AcDbXrecord
  1

  0
XRECORD
  5
1A1C
102
{ACAD_REACTORS
330
1A14
102
}
330
1A14
100
AcDbXrecord
 90
        4
  0
XRECORD
  5
1A19
102
{ACAD_REACTORS
330
1A14
102
}
330
1A14
100
AcDbXrecord
340
1A
  0
XRECORD
  5
1A1B
102
{ACAD_REACTORS
330
1A14
102
}
330
1A14
100
AcDbXrecord
 90
    10781
  0
XRECORD
  5
1A3A
102
{ACAD_REACTORS
330
1A14
102
}
330
1A14
100
AcDbXrecord
340
3B
  0
XRECORD
  5
1A1A
102
{ACAD_REACTORS
330
1A14
102
}
330
1A14
100
AcDbXrecord
340
19
  0
XRECORD
  5
1A20
102
{ACAD_REACTORS
330
1A14
102
}
330
1A14
100
AcDbXrecord
 40
0.0
  0
XRECORD
  5
1A23
102
{ACAD_REACTORS
330
1A14
102
}
330
1A14
100
AcDbXrecord
340
0
  0
XRECORD
  5
1A29
102
{ACAD_REACTORS
330
1A14
102
}
330
1A14
100
AcDbXrecord
 10
0.0
 20
0.0
 30
0.0
  0
XRECORD
  5
1A25
102
{ACAD_REACTORS
330
1A14
102
}
330
1A14
100
AcDbXrecord
 10
0.0
 20
0.0
 30
0.0
  0
XRECORD
  5
1A28
102
{ACAD_REACTORS
330
1A14
102
}
330
1A14
100
AcDbXrecord
 10
0.0
 20
0.0
 30
0.0
  0
XRECORD
  5
1A26
102
{ACAD_REACTORS
330
1A14
102
}
330
1A14
100
AcDbXrecord
 10
0.0
 20
0.0
 30
0.0
  0
XRECORD
  5
1A27
102
{ACAD_REACTORS
330
1A14
102
}
330
1A14
100
AcDbXrecord
 10
0.0
 20
0.0
 30
0.0
  0
XRECORD
  5
1A24
102
{ACAD_REACTORS
330
1A14
102
}
330
1A14
100
AcDbXrecord
 10
0.0
 20
0.0
 30
0.0
  0
XRECORD
  5
1A21
102
{ACAD_REACTORS
330
1A14
102
}
330
1A14
100
AcDbXrecord
340
0
  0
XRECORD
  5
1A22
102
{ACAD_REACTORS
330
1A14
102
}
330
1A14
100
AcDbXrecord
 70
     0
  0
XRECORD
  5
1A18
102
{ACAD_REACTORS
330
1A14
102
}
330
1A14
100
AcDbXrecord
  1

  0
XRECORD
  5
1A15
102
{ACAD_REACTORS
330
1A14
102
}
330
1A14
100
AcDbXrecord
 90
        1
  0
XRECORD
  5
1A16
102
{ACAD_REACTORS
330
1A14
102
}
330
1A14
100
AcDbXrecord
 90
       70
  0
XRECORD
  5
1A2C
102
{ACAD_REACTORS
330
1A14
102
}
330
1A14
100
AcDbXrecord
340
0
  0
XRECORD
  5
1A32
102
{ACAD_REACTORS
330
1A14
102
}
330
1A14
100
AcDbXrecord
 10
0.0
 20
0.0
 30
0.0
  0
XRECORD
  5
1A2E
102
{ACAD_REACTORS
330
1A14
102
}
330
1A14
100
AcDbXrecord
 10
0.0
 20
0.0
 30
0.0
  0
XRECORD
  5
1A31
102
{ACAD_REACTORS
330
1A14
102
}
330
1A14
100
AcDbXrecord
 10
0.0
 20
0.0
 30
0.0
  0
XRECORD
  5
1A2F
102
{ACAD_REACTORS
330
1A14
102
}
330
1A14
100
AcDbXrecord
 10
0.0
 20
0.0
 30
0.0
  0
XRECORD
  5
1A30
102
{ACAD_REACTORS
330
1A14
102
}
330
1A14
100
AcDbXrecord
 10
0.0
 20
0.0
 30
0.0
  0
XRECORD
  5
1A2D
102
{ACAD_REACTORS
330
1A14
102
}
330
1A14
100
AcDbXrecord
 10
0.0
 20
0.0
 30
0.0
  0
XRECORD
  5
1A2A
102
{ACAD_REACTORS
330
1A14
102
}
330
1A14
100
AcDbXrecord
340
0
  0
XRECORD
  5
1A2B
102
{ACAD_REACTORS
330
1A14
102
}
330
1A14
100
AcDbXrecord
 70
     0
  0
XRECORD
  5
1A1F
102
{ACAD_REACTORS
330
1A14
102
}
330
1A14
100
AcDbXrecord
  1
{FAEB1C32-E019-11D5-929B-00C0DF256EC4}
  0
DICTIONARYVAR
  5
1A3D
102
{ACAD_REACTORS
330
69
102
}
330
69
100
DictionaryVariables
280
     0
  1
1:1
  0
DICTIONARYVAR
  5
1A01
102
{ACAD_REACTORS
330
69
102
}
330
69
100
DictionaryVariables
280
     0
  1
2
  0
DICTIONARYVAR
  5
1A02
102
{ACAD_REACTORS
330
69
102
}
330
69
100
DictionaryVariables
280
     0
  1
1
  0
DICTIONARYVAR
  5
1A08
102
{ACAD_REACTORS
330
69
102
}
330
69
100
DictionaryVariables
280
     0
  1
1
  0
DICTIONARYVAR
  5
1A36
102
{ACAD_REACTORS
330
69
102
}
330
69
100
DictionaryVariables
280
     0
  1
80.000000
  0
DICTIONARYVAR
  5
1A35
102
{ACAD_REACTORS
330
69
102
}
330
69
100
DictionaryVariables
280
     0
  1
5.000000
  0
DICTIONARYVAR
  5
866
102
{ACAD_REACTORS
330
69
102
}
330
69
100
DictionaryVariables
280
     0
  1
0
  0
XRECORD
  5
1A3C
102
{ACAD_REACTORS
330
1A06
102
}
330
1A06
100
AcDbXrecord
1070
     0
1070
     0
1070
     0
  0
DICTIONARY
  5
1A3E
330
3D
100
AcDbDictionary
280
     1
  3
ACAD_XREC_ROUNDTRIP
360
1A3F
  0
DICTIONARY
  5
1A40
330
3C
100
AcDbDictionary
280
     1
  3
ACAD_XREC_ROUNDTRIP
360
1A41
  0
DICTIONARY
  5
1A42
330
3E
100
AcDbDictionary
280
     1
  3
ACAD_XREC_ROUNDTRIP
360
1A43
  0
XRECORD
  5
1A3F
102
{ACAD_REACTORS
330
1A3E
102
}
330
1A3E
100
AcDbXrecord
102
MATERIAL
148
0.0
149
0.0
149
0.0
 93
        0
 94
       63
282
     0
 72
     1
 77
     1
171
     1
175
     1
179
     1
273
     0
  0
XRECORD
  5
1A41
102
{ACAD_REACTORS
330
1A40
102
}
330
1A40
100
AcDbXrecord
102
MATERIAL
148
0.0
149
0.0
149
0.0
 93
        0
 94
       63
282
     0
 72
     1
 77
     1
171
     1
175
     1
179
     1
273
     0
  0
XRECORD
  5
1A43
102
{ACAD_REACTORS
330
1A42
102
}
330
1A42
100
AcDbXrecord
102
MATERIAL
148
0.0
149
0.0
149
0.0
 93
        0
 94
       63
282
     0
 72
     1
 77
     1
171
     1
175
     1
179
     1
273
     0
  0
ENDSEC
  0
EOF
